  0
SECTION
  2
HEADER
  9
$ACADVER
  1
AC1009
  9
$DWGCODEPAGE
  3
ansi_1250
  9
$INSBASE
 10
0.0
 20
0.0
 30
0.0
  9
$EXTMIN
 10
-2.381979
 20
-1.391777
 30
0.0
  9
$EXTMAX
 10
0.43911
 20
1.391777
 30
0.0
  9
$LIMMIN
 10
0.0
 20
0.0
  9
$LIMMAX
 10
0.0
 20
0.0
  9
$ORTHOMODE
 70
     0
  9
$REGENMODE
 70
     1
  9
$FILLMODE
 70
     1
  9
$QTEXTMODE
 70
     0
  9
$MIRRTEXT
 70
     1
  9
$DRAGMODE
 70
     2
  9
$LTSCALE
 40
1.0
  9
$OSMODE
 70
     0
  9
$ATTMODE
 70
     1
  9
$TEXTSIZE
 40
0.2
  9
$TRACEWID
 40
0.05
  9
$TEXTSTYLE
  7
STANDARD
  9
$CLAYER
  8
0
  9
$CELTYPE
  6
CONTINUOUS
  9
$CECOLOR
 62
   256
  9
$DIMSCALE
 40
1.0
  9
$DIMASZ
 40
0.18
  9
$DIMEXO
 40
0.0625
  9
$DIMDLI
 40
0.38
  9
$DIMRND
 40
0.0
  9
$DIMDLE
 40
0.0
  9
$DIMEXE
 40
0.18
  9
$DIMTP
 40
0.0
  9
$DIMTM
 40
0.0
  9
$DIMTXT
 40
0.18
  9
$DIMCEN
 40
0.09
  9
$DIMTSZ
 40
0.0
  9
$DIMTOL
 70
     0
  9
$DIMLIM
 70
     0
  9
$DIMTIH
 70
     1
  9
$DIMTOH
 70
     1
  9
$DIMSE1
 70
     0
  9
$DIMSE2
 70
     0
  9
$DIMTAD
 70
     0
  9
$DIMZIN
 70
     0
  9
$DIMBLK
  1

  9
$DIMASO
 70
     1
  9
$DIMSHO
 70
     1
  9
$DIMPOST
  1

  9
$DIMAPOST
  1

  9
$DIMALT
 70
     0
  9
$DIMALTD
 70
     2
  9
$DIMALTF
 40
25.4
  9
$DIMLFAC
 40
1.0
  9
$DIMTOFL
 70
     0
  9
$DIMTVP
 40
0.0
  9
$DIMTIX
 70
     0
  9
$DIMSOXD
 70
     0
  9
$DIMSAH
 70
     0
  9
$DIMBLK1
  1

  9
$DIMBLK2
  1

  9
$DIMSTYLE
  2
STANDARD
  9
$DIMCLRD
 70
     0
  9
$DIMCLRE
 70
     0
  9
$DIMCLRT
 70
     0
  9
$DIMTFAC
 40
1.0
  9
$DIMGAP
 40
0.09
  9
$LUNITS
 70
     2
  9
$LUPREC
 70
     4
  9
$AXISMODE
 70
     0
  9
$AXISUNIT
 10
0.0
 20
0.0
  9
$SKETCHINC
 40
0.1
  9
$FILLETRAD
 40
0.0
  9
$AUNITS
 70
     0
  9
$AUPREC
 70
     0
  9
$MENU
  1
acad
  9
$ELEVATION
 40
0.0
  9
$PELEVATION
 40
0.0
  9
$THICKNESS
 40
0.0
  9
$LIMCHECK
 70
     0
  9
$BLIPMODE
 70
     1
  9
$CHAMFERA
 40
0.0
  9
$CHAMFERB
 40
0.0
  9
$SKPOLY
 70
     0
  9
$TDCREATE
 40
0.000000000
  9
$TDUPDATE
 40
0.000000000
  9
$TDINDWG
 40
0.0000000000
  9
$TDUSRTIMER
 40
0.0000000000
  9
$USRTIMER
 70
     1
  9
$ANGBASE
 50
0.0
  9
$ANGDIR
 70
     0
  9
$PDMODE
 70
     0
  9
$PDSIZE
 40
0.0
  9
$PLINEWID
 40
0.0
  9
$COORDS
 70
     0
  9
$SPLFRAME
 70
     0
  9
$SPLINETYPE
 70
     6
  9
$SPLINESEGS
 70
     8
  9
$ATTDIA
 70
     0
  9
$ATTREQ
 70
     1
  9
$HANDLING
 70
     1
  9
$HANDSEED
  5
7FC
  9
$SURFTAB1
 70
     6
  9
$SURFTAB2
 70
     6
  9
$SURFTYPE
 70
     6
  9
$SURFU
 70
     6
  9
$SURFV
 70
     6
  9
$UCSNAME
  2

  9
$UCSORG
 10
0.0
 20
0.0
 30
0.0
  9
$UCSXDIR
 10
1.0
 20
0.0
 30
0.0
  9
$UCSYDIR
 10
0.0
 20
1.0
 30
0.0
  9
$PUCSNAME
  2

  9
$PUCSORG
 10
0.0
 20
0.0
 30
0.0
  9
$PUCSXDIR
 10
1.0
 20
0.0
 30
0.0
  9
$PUCSYDIR
 10
0.0
 20
1.0
 30
0.0
  9
$USERI1
 70
     0
  9
$USERI2
 70
     0
  9
$USERI3
 70
     0
  9
$USERI4
 70
     0
  9
$USERI5
 70
     0
  9
$USERR1
 40
0.0
  9
$USERR2
 40
0.0
  9
$USERR3
 40
0.0
  9
$USERR4
 40
0.0
  9
$USERR5
 40
0.0
  9
$WORLDVIEW
 70
     1
  9
$SHADEDGE
 70
     3
  9
$SHADEDIF
 70
    70
  9
$TILEMODE
 70
     1
  9
$MAXACTVP
 70
    16
  9
$PINSBASE
 10
0.0
 20
0.0
 30
0.0
  9
$PLIMCHECK
 70
     0
  9
$PEXTMIN
 10
1.000000E+20
 20
1.000000E+20
 30
1.000000E+20
  9
$PEXTMAX
 10
-1.000000E+20
 20
-1.000000E+20
 30
-1.000000E+20
  9
$PLIMMIN
 10
0.0
 20
0.0
  9
$PLIMMAX
 10
12.0
 20
9.0
  9
$UNITMODE
 70
     0
  9
$VISRETAIN
 70
     0
  9
$PLINEGEN
 70
     1
  9
$PSLTSCALE
 70
     0
  9
$TREEDEPTH
 70
  3020
  0
ENDSEC
  0
SECTION
  2
TABLES
  0
TABLE
  2
VPORT
 70
     1
  0
VPORT
  2
*ACTIVE
 70
     0
 10
0.0
 20
0.0
 11
1.0
 21
1.0
 12
6.591288
 22
4.579184
 13
0.0
 23
0.0
 14
1.0
 24
1.0
 15
0.0
 25
0.0
 16
0.0
 26
0.0
 36
1.0
 17
0.0
 27
0.0
 37
0.0
 40
9.158369
 41
0.688564
 42
50.0
 43
0.0
 44
0.0
 50
0.0
 51
0.0
 71
     0
 72
   100
 73
     1
 74
     1
 75
     0
 76
     0
 77
     0
 78
     0
  0
ENDTAB
  0
TABLE
  2
LTYPE
 70
     5
  0
LTYPE
  2
CONTINUOUS
 70
    64
  3
Solid line
 72
    65
 73
     0
 40
0.0
  0
LTYPE
  2
CENTER
 70
    64
  3
Center ____ _ ____ _ ____ _ ____ _ ____ _ ____
 72
    65
 73
     4
 40
50.8
 49
31.75
 49
-6.35
 49
6.35
 49
-6.35
  0
LTYPE
  2
HIDDEN
 70
    64
  3
Hidden __ __ __ __ __ __ __ __ __ __ __ __ __ __
 72
    65
 73
     2
 40
9.525
 49
6.35
 49
-3.175
  0
LTYPE
  2
CENTER2
 70
    64
  3
Center (.5x) ___ _ ___ _ ___ _ ___ _ ___ _ ___
 72
    65
 73
     4
 40
28.575
 49
19.05
 49
-3.175
 49
3.175
 49
-3.175
  0
LTYPE
  2
HIDDEN2
 70
    64
  3
Hidden (.5x) _ _ _ _ _ _ _ _ _ _ _ _ _ _ _ _ _
 72
    65
 73
     2
 40
4.7625
 49
3.175
 49
-1.5875
  0
ENDTAB
  0
TABLE
  2
LAYER
 70
     1
  0
LAYER
  2
0
 70
     0
 62
     7
  6
CONTINUOUS
  0
ENDTAB
  0
TABLE
  2
STYLE
 70
     1
  0
STYLE
  2
STANDARD
 70
     0
 40
0.0
 41
1.0
 50
0.0
 71
     0
 42
0.0
  3
txt
  4

  0
ENDTAB
  0
TABLE
  2
VIEW
 70
     0
  0
ENDTAB
  0
TABLE
  2
UCS
 70
     0
  0
ENDTAB
  0
TABLE
  2
APPID
 70
     1
  0
APPID
  2
ACAD
 70
     0
  0
ENDTAB
  0
TABLE
  2
DIMSTYLE
 70
     1
  0
DIMSTYLE
  2
STANDARD
 70
     0
  3

  4

  5

  6

  7

 40
1.0
 41
0.18
 42
0.0625
 43
0.38
 44
0.18
 45
0.0
 46
0.0
 47
0.0
 48
0.0
 71
     0
 72
     0
 73
     1
 74
     1
 75
     0
 76
     0
 77
     0
 78
     0
140
0.18
141
0.09
142
0.0
143
25.4
144
1.0
145
0.0
146
1.0
147
0.09
170
     0
171
     2
172
     0
173
     0
174
     0
175
     0
176
     0
177
     0
178
     0
  0
ENDTAB
  0
ENDSEC
  0
SECTION
  2
BLOCKS
  0
ENDSEC
  0
SECTION
  2
ENTITIES
  0
LINE
  8
0
  6
CONTINUOUS
 62
     7
  5
43E
 10
0.0
 20
-0.34252
 30
0.0
 11
0.0
 21
0.34252
 31
0.0
  0
LINE
  8
0
  6
CONTINUOUS
 62
     7
  5
43F
 10
0.110236
 20
-0.344488
 30
0.0
 11
0.110236
 21
0.344488
 31
0.0
  0
LINE
  8
0
  6
CONTINUOUS
 62
     7
  5
440
 10
0.110236
 20
0.344488
 30
0.0
 11
0.358268
 21
0.344488
 31
0.0
  0
ARC
  8
0
  6
CONTINUOUS
 62
     7
  5
441
 10
-0.990202
 20
0.0
 30
0.0
 40
1.391777
 50
345.669383
 51
14.330617
  0
LINE
  8
0
  6
CONTINUOUS
 62
     7
  5
442
 10
0.358268
 20
-0.344488
 30
0.0
 11
0.110236
 21
-0.344488
 31
0.0
  0
LINE
  8
0
  6
CONTINUOUS
 62
     7
  5
443
 10
0.102362
 20
0.352362
 30
0.0
 11
0.102362
 21
-0.352362
 31
0.0
  0
LINE
  8
0
  6
CONTINUOUS
 62
     7
  5
444
 10
0.023622
 20
0.352362
 30
0.0
 11
0.023622
 21
-0.352362
 31
0.0
  0
LINE
  8
0
  6
CONTINUOUS
 62
     7
  5
445
 10
0.102362
 20
-0.352362
 30
0.0
 11
0.023622
 21
-0.352362
 31
0.0
  0
LINE
  8
0
  6
CONTINUOUS
 62
     7
  5
446
 10
0.023622
 20
0.352362
 30
0.0
 11
0.102362
 21
0.352362
 31
0.0
  0
LINE
  8
0
  6
CONTINUOUS
 62
     7
  5
447
 10
0.0
 20
0.31249
 30
0.0
 11
-0.109331
 21
0.31249
 31
0.0
  0
LINE
  8
0
  6
CONTINUOUS
 62
     7
  5
448
 10
-0.437008
 20
0.31249
 30
0.0
 11
-0.437297
 21
0.311985
 31
0.0
  0
LINE
  8
0
  6
CONTINUOUS
 62
     7
  5
449
 10
-0.437297
 20
0.311985
 30
0.0
 11
-0.437586
 21
0.31148
 31
0.0
  0
LINE
  8
0
  6
CONTINUOUS
 62
     7
  5
44A
 10
-0.437586
 20
0.31148
 30
0.0
 11
-0.437875
 21
0.310977
 31
0.0
  0
LINE
  8
0
  6
CONTINUOUS
 62
     7
  5
44B
 10
-0.437875
 20
0.310977
 30
0.0
 11
-0.438163
 21
0.310474
 31
0.0
  0
LINE
  8
0
  6
CONTINUOUS
 62
     7
  5
44C
 10
-0.438163
 20
0.310474
 30
0.0
 11
-0.438451
 21
0.309972
 31
0.0
  0
LINE
  8
0
  6
CONTINUOUS
 62
     7
  5
44D
 10
-0.438451
 20
0.309972
 30
0.0
 11
-0.438738
 21
0.30947
 31
0.0
  0
LINE
  8
0
  6
CONTINUOUS
 62
     7
  5
44E
 10
-0.438738
 20
0.30947
 30
0.0
 11
-0.439024
 21
0.30897
 31
0.0
  0
LINE
  8
0
  6
CONTINUOUS
 62
     7
  5
44F
 10
-0.439024
 20
0.30897
 30
0.0
 11
-0.439311
 21
0.30847
 31
0.0
  0
LINE
  8
0
  6
CONTINUOUS
 62
     7
  5
450
 10
-0.439311
 20
0.30847
 30
0.0
 11
-0.439596
 21
0.307971
 31
0.0
  0
LINE
  8
0
  6
CONTINUOUS
 62
     7
  5
451
 10
-0.439596
 20
0.307971
 30
0.0
 11
-0.439882
 21
0.307473
 31
0.0
  0
LINE
  8
0
  6
CONTINUOUS
 62
     7
  5
452
 10
-0.439882
 20
0.307473
 30
0.0
 11
-0.440166
 21
0.306976
 31
0.0
  0
LINE
  8
0
  6
CONTINUOUS
 62
     7
  5
453
 10
-0.440166
 20
0.306976
 30
0.0
 11
-0.440451
 21
0.306479
 31
0.0
  0
LINE
  8
0
  6
CONTINUOUS
 62
     7
  5
454
 10
-0.440451
 20
0.306479
 30
0.0
 11
-0.440734
 21
0.305984
 31
0.0
  0
LINE
  8
0
  6
CONTINUOUS
 62
     7
  5
455
 10
-0.440734
 20
0.305984
 30
0.0
 11
-0.441018
 21
0.305489
 31
0.0
  0
LINE
  8
0
  6
CONTINUOUS
 62
     7
  5
456
 10
-0.441018
 20
0.305489
 30
0.0
 11
-0.441301
 21
0.304995
 31
0.0
  0
LINE
  8
0
  6
CONTINUOUS
 62
     7
  5
457
 10
-0.441301
 20
0.304995
 30
0.0
 11
-0.441583
 21
0.304501
 31
0.0
  0
LINE
  8
0
  6
CONTINUOUS
 62
     7
  5
458
 10
-0.441583
 20
0.304501
 30
0.0
 11
-0.441865
 21
0.304009
 31
0.0
  0
LINE
  8
0
  6
CONTINUOUS
 62
     7
  5
459
 10
-0.441865
 20
0.304009
 30
0.0
 11
-0.442147
 21
0.303517
 31
0.0
  0
LINE
  8
0
  6
CONTINUOUS
 62
     7
  5
45A
 10
-0.442147
 20
0.303517
 30
0.0
 11
-0.442428
 21
0.303026
 31
0.0
  0
LINE
  8
0
  6
CONTINUOUS
 62
     7
  5
45B
 10
-0.442428
 20
0.303026
 30
0.0
 11
-0.442709
 21
0.302536
 31
0.0
  0
LINE
  8
0
  6
CONTINUOUS
 62
     7
  5
45C
 10
-0.442709
 20
0.302536
 30
0.0
 11
-0.442989
 21
0.302046
 31
0.0
  0
LINE
  8
0
  6
CONTINUOUS
 62
     7
  5
45D
 10
-0.442989
 20
0.302046
 30
0.0
 11
-0.443269
 21
0.301558
 31
0.0
  0
LINE
  8
0
  6
CONTINUOUS
 62
     7
  5
45E
 10
-0.443269
 20
0.301558
 30
0.0
 11
-0.443548
 21
0.30107
 31
0.0
  0
LINE
  8
0
  6
CONTINUOUS
 62
     7
  5
45F
 10
-0.443548
 20
0.30107
 30
0.0
 11
-0.443827
 21
0.300583
 31
0.0
  0
LINE
  8
0
  6
CONTINUOUS
 62
     7
  5
460
 10
-0.443827
 20
0.300583
 30
0.0
 11
-0.444105
 21
0.300097
 31
0.0
  0
LINE
  8
0
  6
CONTINUOUS
 62
     7
  5
461
 10
-0.444105
 20
0.300097
 30
0.0
 11
-0.444383
 21
0.299611
 31
0.0
  0
LINE
  8
0
  6
CONTINUOUS
 62
     7
  5
462
 10
-0.444383
 20
0.299611
 30
0.0
 11
-0.44466
 21
0.299126
 31
0.0
  0
LINE
  8
0
  6
CONTINUOUS
 62
     7
  5
463
 10
-0.44466
 20
0.299126
 30
0.0
 11
-0.444937
 21
0.298642
 31
0.0
  0
LINE
  8
0
  6
CONTINUOUS
 62
     7
  5
464
 10
-0.444937
 20
0.298642
 30
0.0
 11
-0.445214
 21
0.298159
 31
0.0
  0
LINE
  8
0
  6
CONTINUOUS
 62
     7
  5
465
 10
-0.445214
 20
0.298159
 30
0.0
 11
-0.44549
 21
0.297677
 31
0.0
  0
LINE
  8
0
  6
CONTINUOUS
 62
     7
  5
466
 10
-0.44549
 20
0.297677
 30
0.0
 11
-0.445766
 21
0.297195
 31
0.0
  0
LINE
  8
0
  6
CONTINUOUS
 62
     7
  5
467
 10
-0.445766
 20
0.297195
 30
0.0
 11
-0.446041
 21
0.296714
 31
0.0
  0
LINE
  8
0
  6
CONTINUOUS
 62
     7
  5
468
 10
-0.446041
 20
0.296714
 30
0.0
 11
-0.446316
 21
0.296234
 31
0.0
  0
LINE
  8
0
  6
CONTINUOUS
 62
     7
  5
469
 10
-0.446316
 20
0.296234
 30
0.0
 11
-0.44659
 21
0.295754
 31
0.0
  0
LINE
  8
0
  6
CONTINUOUS
 62
     7
  5
46A
 10
-0.44659
 20
0.295754
 30
0.0
 11
-0.446864
 21
0.295276
 31
0.0
  0
LINE
  8
0
  6
CONTINUOUS
 62
     7
  5
46B
 10
-0.322835
 20
0.31249
 30
0.0
 11
-0.437008
 21
0.31249
 31
0.0
  0
LINE
  8
0
  6
CONTINUOUS
 62
     7
  5
46C
 10
-0.125984
 20
0.119675
 30
0.0
 11
0.0
 21
0.119675
 31
0.0
  0
LINE
  8
0
  6
CONTINUOUS
 62
     7
  5
46D
 10
-0.437008
 20
-0.31249
 30
0.0
 11
-0.322835
 21
-0.31249
 31
0.0
  0
LINE
  8
0
  6
CONTINUOUS
 62
     7
  5
46E
 10
-0.446864
 20
-0.295276
 30
0.0
 11
-0.44659
 21
-0.295754
 31
0.0
  0
LINE
  8
0
  6
CONTINUOUS
 62
     7
  5
46F
 10
-0.44659
 20
-0.295754
 30
0.0
 11
-0.446316
 21
-0.296234
 31
0.0
  0
LINE
  8
0
  6
CONTINUOUS
 62
     7
  5
470
 10
-0.446316
 20
-0.296234
 30
0.0
 11
-0.446041
 21
-0.296714
 31
0.0
  0
LINE
  8
0
  6
CONTINUOUS
 62
     7
  5
471
 10
-0.446041
 20
-0.296714
 30
0.0
 11
-0.445766
 21
-0.297195
 31
0.0
  0
LINE
  8
0
  6
CONTINUOUS
 62
     7
  5
472
 10
-0.445766
 20
-0.297195
 30
0.0
 11
-0.44549
 21
-0.297677
 31
0.0
  0
LINE
  8
0
  6
CONTINUOUS
 62
     7
  5
473
 10
-0.44549
 20
-0.297677
 30
0.0
 11
-0.445214
 21
-0.298159
 31
0.0
  0
LINE
  8
0
  6
CONTINUOUS
 62
     7
  5
474
 10
-0.445214
 20
-0.298159
 30
0.0
 11
-0.444937
 21
-0.298642
 31
0.0
  0
LINE
  8
0
  6
CONTINUOUS
 62
     7
  5
475
 10
-0.444937
 20
-0.298642
 30
0.0
 11
-0.44466
 21
-0.299126
 31
0.0
  0
LINE
  8
0
  6
CONTINUOUS
 62
     7
  5
476
 10
-0.44466
 20
-0.299126
 30
0.0
 11
-0.444383
 21
-0.299611
 31
0.0
  0
LINE
  8
0
  6
CONTINUOUS
 62
     7
  5
477
 10
-0.444383
 20
-0.299611
 30
0.0
 11
-0.444105
 21
-0.300097
 31
0.0
  0
LINE
  8
0
  6
CONTINUOUS
 62
     7
  5
478
 10
-0.444105
 20
-0.300097
 30
0.0
 11
-0.443827
 21
-0.300583
 31
0.0
  0
LINE
  8
0
  6
CONTINUOUS
 62
     7
  5
479
 10
-0.443827
 20
-0.300583
 30
0.0
 11
-0.443548
 21
-0.30107
 31
0.0
  0
LINE
  8
0
  6
CONTINUOUS
 62
     7
  5
47A
 10
-0.443548
 20
-0.30107
 30
0.0
 11
-0.443269
 21
-0.301558
 31
0.0
  0
LINE
  8
0
  6
CONTINUOUS
 62
     7
  5
47B
 10
-0.443269
 20
-0.301558
 30
0.0
 11
-0.442989
 21
-0.302046
 31
0.0
  0
LINE
  8
0
  6
CONTINUOUS
 62
     7
  5
47C
 10
-0.442989
 20
-0.302046
 30
0.0
 11
-0.442709
 21
-0.302536
 31
0.0
  0
LINE
  8
0
  6
CONTINUOUS
 62
     7
  5
47D
 10
-0.442709
 20
-0.302536
 30
0.0
 11
-0.442428
 21
-0.303026
 31
0.0
  0
LINE
  8
0
  6
CONTINUOUS
 62
     7
  5
47E
 10
-0.442428
 20
-0.303026
 30
0.0
 11
-0.442147
 21
-0.303517
 31
0.0
  0
LINE
  8
0
  6
CONTINUOUS
 62
     7
  5
47F
 10
-0.442147
 20
-0.303517
 30
0.0
 11
-0.441865
 21
-0.304009
 31
0.0
  0
LINE
  8
0
  6
CONTINUOUS
 62
     7
  5
480
 10
-0.441865
 20
-0.304009
 30
0.0
 11
-0.441583
 21
-0.304501
 31
0.0
  0
LINE
  8
0
  6
CONTINUOUS
 62
     7
  5
481
 10
-0.441583
 20
-0.304501
 30
0.0
 11
-0.441301
 21
-0.304995
 31
0.0
  0
LINE
  8
0
  6
CONTINUOUS
 62
     7
  5
482
 10
-0.441301
 20
-0.304995
 30
0.0
 11
-0.441018
 21
-0.305489
 31
0.0
  0
LINE
  8
0
  6
CONTINUOUS
 62
     7
  5
483
 10
-0.441018
 20
-0.305489
 30
0.0
 11
-0.440734
 21
-0.305984
 31
0.0
  0
LINE
  8
0
  6
CONTINUOUS
 62
     7
  5
484
 10
-0.440734
 20
-0.305984
 30
0.0
 11
-0.440451
 21
-0.306479
 31
0.0
  0
LINE
  8
0
  6
CONTINUOUS
 62
     7
  5
485
 10
-0.440451
 20
-0.306479
 30
0.0
 11
-0.440166
 21
-0.306976
 31
0.0
  0
LINE
  8
0
  6
CONTINUOUS
 62
     7
  5
486
 10
-0.440166
 20
-0.306976
 30
0.0
 11
-0.439882
 21
-0.307473
 31
0.0
  0
LINE
  8
0
  6
CONTINUOUS
 62
     7
  5
487
 10
-0.439882
 20
-0.307473
 30
0.0
 11
-0.439596
 21
-0.307971
 31
0.0
  0
LINE
  8
0
  6
CONTINUOUS
 62
     7
  5
488
 10
-0.439596
 20
-0.307971
 30
0.0
 11
-0.439311
 21
-0.30847
 31
0.0
  0
LINE
  8
0
  6
CONTINUOUS
 62
     7
  5
489
 10
-0.439311
 20
-0.30847
 30
0.0
 11
-0.439024
 21
-0.30897
 31
0.0
  0
LINE
  8
0
  6
CONTINUOUS
 62
     7
  5
48A
 10
-0.439024
 20
-0.30897
 30
0.0
 11
-0.438738
 21
-0.30947
 31
0.0
  0
LINE
  8
0
  6
CONTINUOUS
 62
     7
  5
48B
 10
-0.438738
 20
-0.30947
 30
0.0
 11
-0.438451
 21
-0.309972
 31
0.0
  0
LINE
  8
0
  6
CONTINUOUS
 62
     7
  5
48C
 10
-0.438451
 20
-0.309972
 30
0.0
 11
-0.438163
 21
-0.310474
 31
0.0
  0
LINE
  8
0
  6
CONTINUOUS
 62
     7
  5
48D
 10
-0.438163
 20
-0.310474
 30
0.0
 11
-0.437875
 21
-0.310977
 31
0.0
  0
LINE
  8
0
  6
CONTINUOUS
 62
     7
  5
48E
 10
-0.437875
 20
-0.310977
 30
0.0
 11
-0.437586
 21
-0.31148
 31
0.0
  0
LINE
  8
0
  6
CONTINUOUS
 62
     7
  5
48F
 10
-0.437586
 20
-0.31148
 30
0.0
 11
-0.437297
 21
-0.311985
 31
0.0
  0
LINE
  8
0
  6
CONTINUOUS
 62
     7
  5
490
 10
-0.437297
 20
-0.311985
 30
0.0
 11
-0.437008
 21
-0.31249
 31
0.0
  0
LINE
  8
0
  6
CONTINUOUS
 62
     7
  5
491
 10
-0.109331
 20
-0.31249
 30
0.0
 11
0.0
 21
-0.31249
 31
0.0
  0
LINE
  8
0
  6
CONTINUOUS
 62
     7
  5
492
 10
0.0
 20
-0.119675
 30
0.0
 11
-0.125984
 21
-0.119675
 31
0.0
  0
LINE
  8
0
  6
CONTINUOUS
 62
     7
  5
493
 10
-0.322835
 20
-0.119675
 30
0.0
 11
-0.437008
 21
-0.119675
 31
0.0
  0
LINE
  8
0
  6
CONTINUOUS
 62
     7
  5
494
 10
-0.437008
 20
-0.119675
 30
0.0
 11
-0.437008
 21
-0.31249
 31
0.0
  0
LINE
  8
0
  6
CONTINUOUS
 62
     7
  5
495
 10
-0.446864
 20
0.295276
 30
0.0
 11
-0.44659
 21
0.295754
 31
0.0
  0
LINE
  8
0
  6
CONTINUOUS
 62
     7
  5
496
 10
-0.44659
 20
0.295754
 30
0.0
 11
-0.446316
 21
0.296234
 31
0.0
  0
LINE
  8
0
  6
CONTINUOUS
 62
     7
  5
497
 10
-0.446316
 20
0.296234
 30
0.0
 11
-0.446041
 21
0.296714
 31
0.0
  0
LINE
  8
0
  6
CONTINUOUS
 62
     7
  5
498
 10
-0.446041
 20
0.296714
 30
0.0
 11
-0.445766
 21
0.297195
 31
0.0
  0
LINE
  8
0
  6
CONTINUOUS
 62
     7
  5
499
 10
-0.445766
 20
0.297195
 30
0.0
 11
-0.44549
 21
0.297677
 31
0.0
  0
LINE
  8
0
  6
CONTINUOUS
 62
     7
  5
49A
 10
-0.44549
 20
0.297677
 30
0.0
 11
-0.445214
 21
0.298159
 31
0.0
  0
LINE
  8
0
  6
CONTINUOUS
 62
     7
  5
49B
 10
-0.445214
 20
0.298159
 30
0.0
 11
-0.444937
 21
0.298642
 31
0.0
  0
LINE
  8
0
  6
CONTINUOUS
 62
     7
  5
49C
 10
-0.444937
 20
0.298642
 30
0.0
 11
-0.44466
 21
0.299126
 31
0.0
  0
LINE
  8
0
  6
CONTINUOUS
 62
     7
  5
49D
 10
-0.44466
 20
0.299126
 30
0.0
 11
-0.444383
 21
0.299611
 31
0.0
  0
LINE
  8
0
  6
CONTINUOUS
 62
     7
  5
49E
 10
-0.444383
 20
0.299611
 30
0.0
 11
-0.444105
 21
0.300097
 31
0.0
  0
LINE
  8
0
  6
CONTINUOUS
 62
     7
  5
49F
 10
-0.444105
 20
0.300097
 30
0.0
 11
-0.443827
 21
0.300583
 31
0.0
  0
LINE
  8
0
  6
CONTINUOUS
 62
     7
  5
4A0
 10
-0.443827
 20
0.300583
 30
0.0
 11
-0.443548
 21
0.30107
 31
0.0
  0
LINE
  8
0
  6
CONTINUOUS
 62
     7
  5
4A1
 10
-0.443548
 20
0.30107
 30
0.0
 11
-0.443269
 21
0.301558
 31
0.0
  0
LINE
  8
0
  6
CONTINUOUS
 62
     7
  5
4A2
 10
-0.443269
 20
0.301558
 30
0.0
 11
-0.442989
 21
0.302046
 31
0.0
  0
LINE
  8
0
  6
CONTINUOUS
 62
     7
  5
4A3
 10
-0.442989
 20
0.302046
 30
0.0
 11
-0.442709
 21
0.302536
 31
0.0
  0
LINE
  8
0
  6
CONTINUOUS
 62
     7
  5
4A4
 10
-0.442709
 20
0.302536
 30
0.0
 11
-0.442428
 21
0.303026
 31
0.0
  0
LINE
  8
0
  6
CONTINUOUS
 62
     7
  5
4A5
 10
-0.442428
 20
0.303026
 30
0.0
 11
-0.442147
 21
0.303517
 31
0.0
  0
LINE
  8
0
  6
CONTINUOUS
 62
     7
  5
4A6
 10
-0.442147
 20
0.303517
 30
0.0
 11
-0.441865
 21
0.304009
 31
0.0
  0
LINE
  8
0
  6
CONTINUOUS
 62
     7
  5
4A7
 10
-0.441865
 20
0.304009
 30
0.0
 11
-0.441583
 21
0.304501
 31
0.0
  0
LINE
  8
0
  6
CONTINUOUS
 62
     7
  5
4A8
 10
-0.441583
 20
0.304501
 30
0.0
 11
-0.441301
 21
0.304995
 31
0.0
  0
LINE
  8
0
  6
CONTINUOUS
 62
     7
  5
4A9
 10
-0.441301
 20
0.304995
 30
0.0
 11
-0.441018
 21
0.305489
 31
0.0
  0
LINE
  8
0
  6
CONTINUOUS
 62
     7
  5
4AA
 10
-0.441018
 20
0.305489
 30
0.0
 11
-0.440734
 21
0.305984
 31
0.0
  0
LINE
  8
0
  6
CONTINUOUS
 62
     7
  5
4AB
 10
-0.440734
 20
0.305984
 30
0.0
 11
-0.440451
 21
0.306479
 31
0.0
  0
LINE
  8
0
  6
CONTINUOUS
 62
     7
  5
4AC
 10
-0.440451
 20
0.306479
 30
0.0
 11
-0.440166
 21
0.306976
 31
0.0
  0
LINE
  8
0
  6
CONTINUOUS
 62
     7
  5
4AD
 10
-0.440166
 20
0.306976
 30
0.0
 11
-0.439882
 21
0.307473
 31
0.0
  0
LINE
  8
0
  6
CONTINUOUS
 62
     7
  5
4AE
 10
-0.439882
 20
0.307473
 30
0.0
 11
-0.439596
 21
0.307971
 31
0.0
  0
LINE
  8
0
  6
CONTINUOUS
 62
     7
  5
4AF
 10
-0.439596
 20
0.307971
 30
0.0
 11
-0.439311
 21
0.30847
 31
0.0
  0
LINE
  8
0
  6
CONTINUOUS
 62
     7
  5
4B0
 10
-0.439311
 20
0.30847
 30
0.0
 11
-0.439024
 21
0.30897
 31
0.0
  0
LINE
  8
0
  6
CONTINUOUS
 62
     7
  5
4B1
 10
-0.439024
 20
0.30897
 30
0.0
 11
-0.438738
 21
0.30947
 31
0.0
  0
LINE
  8
0
  6
CONTINUOUS
 62
     7
  5
4B2
 10
-0.438738
 20
0.30947
 30
0.0
 11
-0.438451
 21
0.309972
 31
0.0
  0
LINE
  8
0
  6
CONTINUOUS
 62
     7
  5
4B3
 10
-0.438451
 20
0.309972
 30
0.0
 11
-0.438163
 21
0.310474
 31
0.0
  0
LINE
  8
0
  6
CONTINUOUS
 62
     7
  5
4B4
 10
-0.438163
 20
0.310474
 30
0.0
 11
-0.437875
 21
0.310977
 31
0.0
  0
LINE
  8
0
  6
CONTINUOUS
 62
     7
  5
4B5
 10
-0.437875
 20
0.310977
 30
0.0
 11
-0.437586
 21
0.31148
 31
0.0
  0
LINE
  8
0
  6
CONTINUOUS
 62
     7
  5
4B6
 10
-0.437586
 20
0.31148
 30
0.0
 11
-0.437297
 21
0.311985
 31
0.0
  0
LINE
  8
0
  6
CONTINUOUS
 62
     7
  5
4B7
 10
-0.437297
 20
0.311985
 30
0.0
 11
-0.437008
 21
0.31249
 31
0.0
  0
LINE
  8
0
  6
CONTINUOUS
 62
     7
  5
4B8
 10
-0.448819
 20
0.0
 30
0.0
 11
-0.448819
 21
0.043059
 31
0.0
  0
LINE
  8
0
  6
CONTINUOUS
 62
     7
  5
4B9
 10
-0.448819
 20
0.294503
 30
0.0
 11
-0.448819
 21
0.043059
 31
0.0
  0
LINE
  8
0
  6
CONTINUOUS
 62
     7
  5
4BA
 10
-0.448819
 20
-0.043059
 30
0.0
 11
-0.448819
 21
-0.294503
 31
0.0
  0
LINE
  8
0
  6
CONTINUOUS
 62
     7
  5
4BB
 10
-0.448819
 20
-0.043059
 30
0.0
 11
-0.448819
 21
0.0
 31
0.0
  0
LINE
  8
0
  6
CONTINUOUS
 62
     7
  5
4BC
 10
-0.448373
 20
-0.295276
 30
0.0
 11
-0.446864
 21
-0.295276
 31
0.0
  0
LINE
  8
0
  6
CONTINUOUS
 62
     7
  5
4BD
 10
-0.446864
 20
0.295276
 30
0.0
 11
-0.448373
 21
0.295276
 31
0.0
  0
LINE
  8
0
  6
CONTINUOUS
 62
     7
  5
4BE
 10
-0.437008
 20
0.31249
 30
0.0
 11
-0.437008
 21
0.119675
 31
0.0
  0
LINE
  8
0
  6
CONTINUOUS
 62
     7
  5
4BF
 10
-0.437008
 20
0.119675
 30
0.0
 11
-0.322835
 21
0.119675
 31
0.0
  0
LINE
  8
0
  6
CONTINUOUS
 62
     7
  5
4C0
 10
-0.448819
 20
0.043059
 30
0.0
 11
-0.448634
 21
0.045192
 31
0.0
  0
LINE
  8
0
  6
CONTINUOUS
 62
     7
  5
4C1
 10
-0.448634
 20
0.045192
 30
0.0
 11
-0.448441
 21
0.047326
 31
0.0
  0
LINE
  8
0
  6
CONTINUOUS
 62
     7
  5
4C2
 10
-0.448441
 20
0.047326
 30
0.0
 11
-0.448239
 21
0.049463
 31
0.0
  0
LINE
  8
0
  6
CONTINUOUS
 62
     7
  5
4C3
 10
-0.448239
 20
0.049463
 30
0.0
 11
-0.448028
 21
0.051601
 31
0.0
  0
LINE
  8
0
  6
CONTINUOUS
 62
     7
  5
4C4
 10
-0.448028
 20
0.051601
 30
0.0
 11
-0.447808
 21
0.05374
 31
0.0
  0
LINE
  8
0
  6
CONTINUOUS
 62
     7
  5
4C5
 10
-0.447808
 20
0.05374
 30
0.0
 11
-0.44758
 21
0.055882
 31
0.0
  0
LINE
  8
0
  6
CONTINUOUS
 62
     7
  5
4C6
 10
-0.44758
 20
0.055882
 30
0.0
 11
-0.447342
 21
0.058027
 31
0.0
  0
LINE
  8
0
  6
CONTINUOUS
 62
     7
  5
4C7
 10
-0.447342
 20
0.058027
 30
0.0
 11
-0.447096
 21
0.060174
 31
0.0
  0
LINE
  8
0
  6
CONTINUOUS
 62
     7
  5
4C8
 10
-0.447096
 20
0.060174
 30
0.0
 11
-0.44684
 21
0.062323
 31
0.0
  0
LINE
  8
0
  6
CONTINUOUS
 62
     7
  5
4C9
 10
-0.44684
 20
0.062323
 30
0.0
 11
-0.446576
 21
0.064475
 31
0.0
  0
LINE
  8
0
  6
CONTINUOUS
 62
     7
  5
4CA
 10
-0.446576
 20
0.064475
 30
0.0
 11
-0.446303
 21
0.06663
 31
0.0
  0
LINE
  8
0
  6
CONTINUOUS
 62
     7
  5
4CB
 10
-0.446303
 20
0.06663
 30
0.0
 11
-0.446021
 21
0.068788
 31
0.0
  0
LINE
  8
0
  6
CONTINUOUS
 62
     7
  5
4CC
 10
-0.446021
 20
0.068788
 30
0.0
 11
-0.44573
 21
0.07095
 31
0.0
  0
LINE
  8
0
  6
CONTINUOUS
 62
     7
  5
4CD
 10
-0.44573
 20
0.07095
 30
0.0
 11
-0.44543
 21
0.073115
 31
0.0
  0
LINE
  8
0
  6
CONTINUOUS
 62
     7
  5
4CE
 10
-0.44543
 20
0.073115
 30
0.0
 11
-0.445121
 21
0.075283
 31
0.0
  0
LINE
  8
0
  6
CONTINUOUS
 62
     7
  5
4CF
 10
-0.445121
 20
0.075283
 30
0.0
 11
-0.444803
 21
0.077455
 31
0.0
  0
LINE
  8
0
  6
CONTINUOUS
 62
     7
  5
4D0
 10
-0.444803
 20
0.077455
 30
0.0
 11
-0.444476
 21
0.079632
 31
0.0
  0
LINE
  8
0
  6
CONTINUOUS
 62
     7
  5
4D1
 10
-0.444476
 20
0.079632
 30
0.0
 11
-0.44414
 21
0.081812
 31
0.0
  0
LINE
  8
0
  6
CONTINUOUS
 62
     7
  5
4D2
 10
-0.44414
 20
0.081812
 30
0.0
 11
-0.443795
 21
0.083996
 31
0.0
  0
LINE
  8
0
  6
CONTINUOUS
 62
     7
  5
4D3
 10
-0.443795
 20
0.083996
 30
0.0
 11
-0.44344
 21
0.086186
 31
0.0
  0
LINE
  8
0
  6
CONTINUOUS
 62
     7
  5
4D4
 10
-0.44344
 20
0.086186
 30
0.0
 11
-0.443077
 21
0.088379
 31
0.0
  0
LINE
  8
0
  6
CONTINUOUS
 62
     7
  5
4D5
 10
-0.443077
 20
0.088379
 30
0.0
 11
-0.442704
 21
0.090578
 31
0.0
  0
LINE
  8
0
  6
CONTINUOUS
 62
     7
  5
4D6
 10
-0.442704
 20
0.090578
 30
0.0
 11
-0.442322
 21
0.092781
 31
0.0
  0
LINE
  8
0
  6
CONTINUOUS
 62
     7
  5
4D7
 10
-0.442322
 20
0.092781
 30
0.0
 11
-0.441931
 21
0.09499
 31
0.0
  0
LINE
  8
0
  6
CONTINUOUS
 62
     7
  5
4D8
 10
-0.441931
 20
0.09499
 30
0.0
 11
-0.441531
 21
0.097204
 31
0.0
  0
LINE
  8
0
  6
CONTINUOUS
 62
     7
  5
4D9
 10
-0.441531
 20
0.097204
 30
0.0
 11
-0.441121
 21
0.099423
 31
0.0
  0
LINE
  8
0
  6
CONTINUOUS
 62
     7
  5
4DA
 10
-0.441121
 20
0.099423
 30
0.0
 11
-0.440702
 21
0.101648
 31
0.0
  0
LINE
  8
0
  6
CONTINUOUS
 62
     7
  5
4DB
 10
-0.440702
 20
0.101648
 30
0.0
 11
-0.440274
 21
0.103879
 31
0.0
  0
LINE
  8
0
  6
CONTINUOUS
 62
     7
  5
4DC
 10
-0.440274
 20
0.103879
 30
0.0
 11
-0.439836
 21
0.106116
 31
0.0
  0
LINE
  8
0
  6
CONTINUOUS
 62
     7
  5
4DD
 10
-0.439836
 20
0.106116
 30
0.0
 11
-0.439388
 21
0.108359
 31
0.0
  0
LINE
  8
0
  6
CONTINUOUS
 62
     7
  5
4DE
 10
-0.439388
 20
0.108359
 30
0.0
 11
-0.438932
 21
0.110609
 31
0.0
  0
LINE
  8
0
  6
CONTINUOUS
 62
     7
  5
4DF
 10
-0.438932
 20
0.110609
 30
0.0
 11
-0.438465
 21
0.112865
 31
0.0
  0
LINE
  8
0
  6
CONTINUOUS
 62
     7
  5
4E0
 10
-0.438465
 20
0.112865
 30
0.0
 11
-0.437989
 21
0.115128
 31
0.0
  0
LINE
  8
0
  6
CONTINUOUS
 62
     7
  5
4E1
 10
-0.437989
 20
0.115128
 30
0.0
 11
-0.437503
 21
0.117398
 31
0.0
  0
LINE
  8
0
  6
CONTINUOUS
 62
     7
  5
4E2
 10
-0.437503
 20
0.117398
 30
0.0
 11
-0.437008
 21
0.119675
 31
0.0
  0
LINE
  8
0
  6
CONTINUOUS
 62
     7
  5
4E3
 10
-0.437008
 20
-0.119675
 30
0.0
 11
-0.437503
 21
-0.117398
 31
0.0
  0
LINE
  8
0
  6
CONTINUOUS
 62
     7
  5
4E4
 10
-0.437503
 20
-0.117398
 30
0.0
 11
-0.437989
 21
-0.115128
 31
0.0
  0
LINE
  8
0
  6
CONTINUOUS
 62
     7
  5
4E5
 10
-0.437989
 20
-0.115128
 30
0.0
 11
-0.438465
 21
-0.112865
 31
0.0
  0
LINE
  8
0
  6
CONTINUOUS
 62
     7
  5
4E6
 10
-0.438465
 20
-0.112865
 30
0.0
 11
-0.438932
 21
-0.110609
 31
0.0
  0
LINE
  8
0
  6
CONTINUOUS
 62
     7
  5
4E7
 10
-0.438932
 20
-0.110609
 30
0.0
 11
-0.439388
 21
-0.108359
 31
0.0
  0
LINE
  8
0
  6
CONTINUOUS
 62
     7
  5
4E8
 10
-0.439388
 20
-0.108359
 30
0.0
 11
-0.439836
 21
-0.106116
 31
0.0
  0
LINE
  8
0
  6
CONTINUOUS
 62
     7
  5
4E9
 10
-0.439836
 20
-0.106116
 30
0.0
 11
-0.440274
 21
-0.103879
 31
0.0
  0
LINE
  8
0
  6
CONTINUOUS
 62
     7
  5
4EA
 10
-0.440274
 20
-0.103879
 30
0.0
 11
-0.440702
 21
-0.101648
 31
0.0
  0
LINE
  8
0
  6
CONTINUOUS
 62
     7
  5
4EB
 10
-0.440702
 20
-0.101648
 30
0.0
 11
-0.441121
 21
-0.099423
 31
0.0
  0
LINE
  8
0
  6
CONTINUOUS
 62
     7
  5
4EC
 10
-0.441121
 20
-0.099423
 30
0.0
 11
-0.441531
 21
-0.097204
 31
0.0
  0
LINE
  8
0
  6
CONTINUOUS
 62
     7
  5
4ED
 10
-0.441531
 20
-0.097204
 30
0.0
 11
-0.441931
 21
-0.09499
 31
0.0
  0
LINE
  8
0
  6
CONTINUOUS
 62
     7
  5
4EE
 10
-0.441931
 20
-0.09499
 30
0.0
 11
-0.442322
 21
-0.092781
 31
0.0
  0
LINE
  8
0
  6
CONTINUOUS
 62
     7
  5
4EF
 10
-0.442322
 20
-0.092781
 30
0.0
 11
-0.442704
 21
-0.090578
 31
0.0
  0
LINE
  8
0
  6
CONTINUOUS
 62
     7
  5
4F0
 10
-0.442704
 20
-0.090578
 30
0.0
 11
-0.443077
 21
-0.088379
 31
0.0
  0
LINE
  8
0
  6
CONTINUOUS
 62
     7
  5
4F1
 10
-0.443077
 20
-0.088379
 30
0.0
 11
-0.44344
 21
-0.086186
 31
0.0
  0
LINE
  8
0
  6
CONTINUOUS
 62
     7
  5
4F2
 10
-0.44344
 20
-0.086186
 30
0.0
 11
-0.443795
 21
-0.083996
 31
0.0
  0
LINE
  8
0
  6
CONTINUOUS
 62
     7
  5
4F3
 10
-0.443795
 20
-0.083996
 30
0.0
 11
-0.44414
 21
-0.081812
 31
0.0
  0
LINE
  8
0
  6
CONTINUOUS
 62
     7
  5
4F4
 10
-0.44414
 20
-0.081812
 30
0.0
 11
-0.444476
 21
-0.079632
 31
0.0
  0
LINE
  8
0
  6
CONTINUOUS
 62
     7
  5
4F5
 10
-0.444476
 20
-0.079632
 30
0.0
 11
-0.444803
 21
-0.077455
 31
0.0
  0
LINE
  8
0
  6
CONTINUOUS
 62
     7
  5
4F6
 10
-0.444803
 20
-0.077455
 30
0.0
 11
-0.445121
 21
-0.075283
 31
0.0
  0
LINE
  8
0
  6
CONTINUOUS
 62
     7
  5
4F7
 10
-0.445121
 20
-0.075283
 30
0.0
 11
-0.44543
 21
-0.073115
 31
0.0
  0
LINE
  8
0
  6
CONTINUOUS
 62
     7
  5
4F8
 10
-0.44543
 20
-0.073115
 30
0.0
 11
-0.44573
 21
-0.07095
 31
0.0
  0
LINE
  8
0
  6
CONTINUOUS
 62
     7
  5
4F9
 10
-0.44573
 20
-0.07095
 30
0.0
 11
-0.446021
 21
-0.068788
 31
0.0
  0
LINE
  8
0
  6
CONTINUOUS
 62
     7
  5
4FA
 10
-0.446021
 20
-0.068788
 30
0.0
 11
-0.446303
 21
-0.06663
 31
0.0
  0
LINE
  8
0
  6
CONTINUOUS
 62
     7
  5
4FB
 10
-0.446303
 20
-0.06663
 30
0.0
 11
-0.446576
 21
-0.064475
 31
0.0
  0
LINE
  8
0
  6
CONTINUOUS
 62
     7
  5
4FC
 10
-0.446576
 20
-0.064475
 30
0.0
 11
-0.44684
 21
-0.062323
 31
0.0
  0
LINE
  8
0
  6
CONTINUOUS
 62
     7
  5
4FD
 10
-0.44684
 20
-0.062323
 30
0.0
 11
-0.447096
 21
-0.060174
 31
0.0
  0
LINE
  8
0
  6
CONTINUOUS
 62
     7
  5
4FE
 10
-0.447096
 20
-0.060174
 30
0.0
 11
-0.447342
 21
-0.058027
 31
0.0
  0
LINE
  8
0
  6
CONTINUOUS
 62
     7
  5
4FF
 10
-0.447342
 20
-0.058027
 30
0.0
 11
-0.44758
 21
-0.055882
 31
0.0
  0
LINE
  8
0
  6
CONTINUOUS
 62
     7
  5
500
 10
-0.44758
 20
-0.055882
 30
0.0
 11
-0.447808
 21
-0.05374
 31
0.0
  0
LINE
  8
0
  6
CONTINUOUS
 62
     7
  5
501
 10
-0.447808
 20
-0.05374
 30
0.0
 11
-0.448028
 21
-0.051601
 31
0.0
  0
LINE
  8
0
  6
CONTINUOUS
 62
     7
  5
502
 10
-0.448028
 20
-0.051601
 30
0.0
 11
-0.448239
 21
-0.049463
 31
0.0
  0
LINE
  8
0
  6
CONTINUOUS
 62
     7
  5
503
 10
-0.448239
 20
-0.049463
 30
0.0
 11
-0.448441
 21
-0.047326
 31
0.0
  0
LINE
  8
0
  6
CONTINUOUS
 62
     7
  5
504
 10
-0.448441
 20
-0.047326
 30
0.0
 11
-0.448634
 21
-0.045192
 31
0.0
  0
LINE
  8
0
  6
CONTINUOUS
 62
     7
  5
505
 10
-0.448634
 20
-0.045192
 30
0.0
 11
-0.448819
 21
-0.043059
 31
0.0
  0
LINE
  8
0
  6
CONTINUOUS
 62
     7
  5
506
 10
-0.275591
 20
0.331978
 30
0.0
 11
-0.322835
 21
0.331978
 31
0.0
  0
LINE
  8
0
  6
CONTINUOUS
 62
     7
  5
507
 10
-0.322835
 20
0.11811
 30
0.0
 11
-0.275591
 21
0.11811
 31
0.0
  0
LINE
  8
0
  6
CONTINUOUS
 62
     7
  5
508
 10
-0.275591
 20
0.11811
 30
0.0
 11
-0.275591
 21
-0.11811
 31
0.0
  0
LINE
  8
0
  6
CONTINUOUS
 62
     7
  5
509
 10
-0.275591
 20
0.352362
 30
0.0
 11
-0.275591
 21
0.331978
 31
0.0
  0
LINE
  8
0
  6
CONTINUOUS
 62
     7
  5
50A
 10
-0.275591
 20
-0.331978
 30
0.0
 11
-0.275591
 21
-0.352362
 31
0.0
  0
LINE
  8
0
  6
CONTINUOUS
 62
     7
  5
50B
 10
-0.244094
 20
-0.343563
 30
0.0
 11
-0.165354
 21
-0.343563
 31
0.0
  0
LINE
  8
0
  6
CONTINUOUS
 62
     7
  5
50C
 10
-0.165354
 20
-0.350929
 30
0.0
 11
-0.244094
 21
-0.350929
 31
0.0
  0
LINE
  8
0
  6
CONTINUOUS
 62
     7
  5
50D
 10
-0.244094
 20
-0.302567
 30
0.0
 11
-0.165354
 21
-0.302567
 31
0.0
  0
LINE
  8
0
  6
CONTINUOUS
 62
     7
  5
50E
 10
-0.165354
 20
-0.323944
 30
0.0
 11
-0.244094
 21
-0.323944
 31
0.0
  0
LINE
  8
0
  6
CONTINUOUS
 62
     7
  5
50F
 10
-0.244094
 20
-0.231953
 30
0.0
 11
-0.165354
 21
-0.231953
 31
0.0
  0
LINE
  8
0
  6
CONTINUOUS
 62
     7
  5
510
 10
-0.165354
 20
-0.265248
 30
0.0
 11
-0.244094
 21
-0.265248
 31
0.0
  0
LINE
  8
0
  6
CONTINUOUS
 62
     7
  5
511
 10
-0.244094
 20
-0.138634
 30
0.0
 11
-0.165354
 21
-0.138634
 31
0.0
  0
LINE
  8
0
  6
CONTINUOUS
 62
     7
  5
512
 10
-0.165354
 20
-0.180589
 30
0.0
 11
-0.244094
 21
-0.180589
 31
0.0
  0
LINE
  8
0
  6
CONTINUOUS
 62
     7
  5
513
 10
-0.244094
 20
-0.031745
 30
0.0
 11
-0.165354
 21
-0.031745
 31
0.0
  0
LINE
  8
0
  6
CONTINUOUS
 62
     7
  5
514
 10
-0.165354
 20
-0.078252
 30
0.0
 11
-0.244094
 21
-0.078252
 31
0.0
  0
LINE
  8
0
  6
CONTINUOUS
 62
     7
  5
515
 10
-0.322835
 20
-0.331978
 30
0.0
 11
-0.275591
 21
-0.331978
 31
0.0
  0
LINE
  8
0
  6
CONTINUOUS
 62
     7
  5
516
 10
-0.322835
 20
0.11811
 30
0.0
 11
-0.322835
 21
0.331978
 31
0.0
  0
LINE
  8
0
  6
CONTINUOUS
 62
     7
  5
517
 10
-0.322835
 20
-0.331978
 30
0.0
 11
-0.322835
 21
-0.11811
 31
0.0
  0
LINE
  8
0
  6
CONTINUOUS
 62
     7
  5
518
 10
-0.275591
 20
-0.11811
 30
0.0
 11
-0.322835
 21
-0.11811
 31
0.0
  0
LINE
  8
0
  6
CONTINUOUS
 62
     7
  5
519
 10
-0.244094
 20
-0.350929
 30
0.0
 11
-0.244094
 21
-0.343563
 31
0.0
  0
LINE
  8
0
  6
CONTINUOUS
 62
     7
  5
51A
 10
-0.244094
 20
-0.323944
 30
0.0
 11
-0.244094
 21
-0.302567
 31
0.0
  0
LINE
  8
0
  6
CONTINUOUS
 62
     7
  5
51B
 10
-0.244094
 20
-0.265248
 30
0.0
 11
-0.244094
 21
-0.231953
 31
0.0
  0
LINE
  8
0
  6
CONTINUOUS
 62
     7
  5
51C
 10
-0.244094
 20
-0.180589
 30
0.0
 11
-0.244094
 21
-0.138634
 31
0.0
  0
LINE
  8
0
  6
CONTINUOUS
 62
     7
  5
51D
 10
-0.244094
 20
-0.078252
 30
0.0
 11
-0.244094
 21
-0.031745
 31
0.0
  0
LINE
  8
0
  6
CONTINUOUS
 62
     7
  5
51E
 10
-0.165354
 20
0.031745
 30
0.0
 11
-0.244094
 21
0.031745
 31
0.0
  0
LINE
  8
0
  6
CONTINUOUS
 62
     7
  5
51F
 10
-0.244094
 20
0.031745
 30
0.0
 11
-0.244094
 21
0.078252
 31
0.0
  0
LINE
  8
0
  6
CONTINUOUS
 62
     7
  5
520
 10
-0.244094
 20
0.078252
 30
0.0
 11
-0.165354
 21
0.078252
 31
0.0
  0
LINE
  8
0
  6
CONTINUOUS
 62
     7
  5
521
 10
-0.165354
 20
0.138634
 30
0.0
 11
-0.244094
 21
0.138634
 31
0.0
  0
LINE
  8
0
  6
CONTINUOUS
 62
     7
  5
522
 10
-0.244094
 20
0.138634
 30
0.0
 11
-0.244094
 21
0.180589
 31
0.0
  0
LINE
  8
0
  6
CONTINUOUS
 62
     7
  5
523
 10
-0.244094
 20
0.180589
 30
0.0
 11
-0.165354
 21
0.180589
 31
0.0
  0
LINE
  8
0
  6
CONTINUOUS
 62
     7
  5
524
 10
-0.165354
 20
0.231953
 30
0.0
 11
-0.244094
 21
0.231953
 31
0.0
  0
LINE
  8
0
  6
CONTINUOUS
 62
     7
  5
525
 10
-0.244094
 20
0.231953
 30
0.0
 11
-0.244094
 21
0.265248
 31
0.0
  0
LINE
  8
0
  6
CONTINUOUS
 62
     7
  5
526
 10
-0.244094
 20
0.265248
 30
0.0
 11
-0.165354
 21
0.265248
 31
0.0
  0
LINE
  8
0
  6
CONTINUOUS
 62
     7
  5
527
 10
-0.165354
 20
0.302567
 30
0.0
 11
-0.244094
 21
0.302567
 31
0.0
  0
LINE
  8
0
  6
CONTINUOUS
 62
     7
  5
528
 10
-0.244094
 20
0.302567
 30
0.0
 11
-0.244094
 21
0.323944
 31
0.0
  0
LINE
  8
0
  6
CONTINUOUS
 62
     7
  5
529
 10
-0.244094
 20
0.323944
 30
0.0
 11
-0.165354
 21
0.323944
 31
0.0
  0
LINE
  8
0
  6
CONTINUOUS
 62
     7
  5
52A
 10
-0.165354
 20
0.343563
 30
0.0
 11
-0.244094
 21
0.343563
 31
0.0
  0
LINE
  8
0
  6
CONTINUOUS
 62
     7
  5
52B
 10
-0.244094
 20
0.343563
 30
0.0
 11
-0.244094
 21
0.350929
 31
0.0
  0
LINE
  8
0
  6
CONTINUOUS
 62
     7
  5
52C
 10
-0.244094
 20
0.350929
 30
0.0
 11
-0.165354
 21
0.350929
 31
0.0
  0
LINE
  8
0
  6
CONTINUOUS
 62
     7
  5
52D
 10
-0.125984
 20
-0.244094
 30
0.0
 11
-0.125984
 21
0.244094
 31
0.0
  0
LINE
  8
0
  6
CONTINUOUS
 62
     7
  5
52E
 10
-0.099144
 20
-0.354331
 30
0.0
 11
-0.125984
 21
-0.244094
 31
0.0
  0
LINE
  8
0
  6
CONTINUOUS
 62
     7
  5
52F
 10
-0.099144
 20
-0.354331
 30
0.0
 11
-0.138514
 21
-0.354331
 31
0.0
  0
LINE
  8
0
  6
CONTINUOUS
 62
     7
  5
530
 10
-0.138514
 20
-0.354331
 30
0.0
 11
-0.165354
 21
-0.354331
 31
0.0
  0
LINE
  8
0
  6
CONTINUOUS
 62
     7
  5
531
 10
-0.125984
 20
0.244094
 30
0.0
 11
-0.099144
 21
0.354331
 31
0.0
  0
LINE
  8
0
  6
CONTINUOUS
 62
     7
  5
532
 10
-0.099144
 20
0.354331
 30
0.0
 11
-0.138514
 21
0.354331
 31
0.0
  0
LINE
  8
0
  6
CONTINUOUS
 62
     7
  5
533
 10
-0.138514
 20
0.354331
 30
0.0
 11
-0.165354
 21
0.244094
 31
0.0
  0
LINE
  8
0
  6
CONTINUOUS
 62
     7
  5
534
 10
-0.165354
 20
-0.244094
 30
0.0
 11
-0.165354
 21
0.244094
 31
0.0
  0
LINE
  8
0
  6
CONTINUOUS
 62
     7
  5
535
 10
-0.165354
 20
-0.244094
 30
0.0
 11
-0.138514
 21
-0.354331
 31
0.0
  0
LINE
  8
0
  6
CONTINUOUS
 62
     7
  5
536
 10
-0.165354
 20
0.354331
 30
0.0
 11
-0.138514
 21
0.354331
 31
0.0
  0
LINE
  8
0
  6
CONTINUOUS
 62
     7
  5
537
 10
-0.165354
 20
-0.354331
 30
0.0
 11
-0.165354
 21
-0.244094
 31
0.0
  0
LINE
  8
0
  6
CONTINUOUS
 62
     7
  5
538
 10
-0.165354
 20
0.244094
 30
0.0
 11
-0.165354
 21
0.354331
 31
0.0
  0
ARC
  8
0
  6
CONTINUOUS
 62
     7
  5
539
 10
-1.070472
 20
0.0
 30
0.0
 40
0.087008
 50
183.112614
 51
185.192242
  0
ARC
  8
0
  6
CONTINUOUS
 62
     7
  5
53A
 10
-1.070472
 20
0.0
 30
0.0
 40
0.087008
 50
174.807758
 51
176.887386
  0
LINE
  8
0
  6
CONTINUOUS
 62
     7
  5
53B
 10
-1.140815
 20
-0.051208
 30
0.0
 11
-1.140675
 21
-0.051399
 31
0.0
  0
LINE
  8
0
  6
CONTINUOUS
 62
     7
  5
53C
 10
-1.140675
 20
-0.051399
 30
0.0
 11
-1.140538
 21
-0.051587
 31
0.0
  0
LINE
  8
0
  6
CONTINUOUS
 62
     7
  5
53D
 10
-1.140538
 20
-0.051587
 30
0.0
 11
-1.140403
 21
-0.05177
 31
0.0
  0
LINE
  8
0
  6
CONTINUOUS
 62
     7
  5
53E
 10
-1.140403
 20
-0.05177
 30
0.0
 11
-1.14027
 21
-0.051948
 31
0.0
  0
LINE
  8
0
  6
CONTINUOUS
 62
     7
  5
53F
 10
-1.14027
 20
-0.051948
 30
0.0
 11
-1.14014
 21
-0.052123
 31
0.0
  0
LINE
  8
0
  6
CONTINUOUS
 62
     7
  5
540
 10
-1.14014
 20
-0.052123
 30
0.0
 11
-1.140013
 21
-0.052293
 31
0.0
  0
LINE
  8
0
  6
CONTINUOUS
 62
     7
  5
541
 10
-1.140013
 20
-0.052293
 30
0.0
 11
-1.139888
 21
-0.052458
 31
0.0
  0
LINE
  8
0
  6
CONTINUOUS
 62
     7
  5
542
 10
-1.139888
 20
-0.052458
 30
0.0
 11
-1.139766
 21
-0.052619
 31
0.0
  0
LINE
  8
0
  6
CONTINUOUS
 62
     7
  5
543
 10
-1.139766
 20
-0.052619
 30
0.0
 11
-1.139645
 21
-0.052779
 31
0.0
  0
LINE
  8
0
  6
CONTINUOUS
 62
     7
  5
544
 10
-1.139645
 20
-0.052779
 30
0.0
 11
-1.139525
 21
-0.052935
 31
0.0
  0
LINE
  8
0
  6
CONTINUOUS
 62
     7
  5
545
 10
-1.139525
 20
-0.052935
 30
0.0
 11
-1.139406
 21
-0.053089
 31
0.0
  0
LINE
  8
0
  6
CONTINUOUS
 62
     7
  5
546
 10
-1.139406
 20
-0.053089
 30
0.0
 11
-1.13929
 21
-0.05324
 31
0.0
  0
LINE
  8
0
  6
CONTINUOUS
 62
     7
  5
547
 10
-1.13929
 20
-0.05324
 30
0.0
 11
-1.139176
 21
-0.053387
 31
0.0
  0
LINE
  8
0
  6
CONTINUOUS
 62
     7
  5
548
 10
-1.139176
 20
-0.053387
 30
0.0
 11
-1.139065
 21
-0.05353
 31
0.0
  0
LINE
  8
0
  6
CONTINUOUS
 62
     7
  5
549
 10
-1.139065
 20
-0.05353
 30
0.0
 11
-1.138957
 21
-0.053668
 31
0.0
  0
LINE
  8
0
  6
CONTINUOUS
 62
     7
  5
54A
 10
-1.138957
 20
-0.053668
 30
0.0
 11
-1.138852
 21
-0.053802
 31
0.0
  0
LINE
  8
0
  6
CONTINUOUS
 62
     7
  5
54B
 10
-1.138852
 20
-0.053802
 30
0.0
 11
-1.13875
 21
-0.053931
 31
0.0
  0
LINE
  8
0
  6
CONTINUOUS
 62
     7
  5
54C
 10
-1.13875
 20
-0.053931
 30
0.0
 11
-1.138653
 21
-0.054054
 31
0.0
  0
LINE
  8
0
  6
CONTINUOUS
 62
     7
  5
54D
 10
-1.138653
 20
-0.054054
 30
0.0
 11
-1.13856
 21
-0.054171
 31
0.0
  0
LINE
  8
0
  6
CONTINUOUS
 62
     7
  5
54E
 10
-1.13856
 20
-0.054171
 30
0.0
 11
-1.138471
 21
-0.054283
 31
0.0
  0
LINE
  8
0
  6
CONTINUOUS
 62
     7
  5
54F
 10
-1.138471
 20
-0.054283
 30
0.0
 11
-1.138387
 21
-0.054388
 31
0.0
  0
LINE
  8
0
  6
CONTINUOUS
 62
     7
  5
550
 10
-1.138387
 20
-0.054388
 30
0.0
 11
-1.138307
 21
-0.054486
 31
0.0
  0
LINE
  8
0
  6
CONTINUOUS
 62
     7
  5
551
 10
-1.138307
 20
-0.054486
 30
0.0
 11
-1.138233
 21
-0.054579
 31
0.0
  0
LINE
  8
0
  6
CONTINUOUS
 62
     7
  5
552
 10
-1.138233
 20
-0.054579
 30
0.0
 11
-1.138165
 21
-0.054664
 31
0.0
  0
LINE
  8
0
  6
CONTINUOUS
 62
     7
  5
553
 10
-1.138165
 20
-0.054664
 30
0.0
 11
-1.138101
 21
-0.054742
 31
0.0
  0
LINE
  8
0
  6
CONTINUOUS
 62
     7
  5
554
 10
-1.138101
 20
-0.054742
 30
0.0
 11
-1.138044
 21
-0.054813
 31
0.0
  0
LINE
  8
0
  6
CONTINUOUS
 62
     7
  5
555
 10
-1.138044
 20
-0.054813
 30
0.0
 11
-1.137992
 21
-0.054877
 31
0.0
  0
LINE
  8
0
  6
CONTINUOUS
 62
     7
  5
556
 10
-1.137992
 20
-0.054877
 30
0.0
 11
-1.137946
 21
-0.054933
 31
0.0
  0
LINE
  8
0
  6
CONTINUOUS
 62
     7
  5
557
 10
-1.137946
 20
-0.054933
 30
0.0
 11
-1.137906
 21
-0.054982
 31
0.0
  0
LINE
  8
0
  6
CONTINUOUS
 62
     7
  5
558
 10
-1.137906
 20
-0.054982
 30
0.0
 11
-1.137873
 21
-0.055024
 31
0.0
  0
LINE
  8
0
  6
CONTINUOUS
 62
     7
  5
559
 10
-1.137873
 20
-0.055024
 30
0.0
 11
-1.137845
 21
-0.055057
 31
0.0
  0
LINE
  8
0
  6
CONTINUOUS
 62
     7
  5
55A
 10
-1.137845
 20
-0.055057
 30
0.0
 11
-1.137824
 21
-0.055083
 31
0.0
  0
LINE
  8
0
  6
CONTINUOUS
 62
     7
  5
55B
 10
-1.137824
 20
-0.055083
 30
0.0
 11
-1.137808
 21
-0.055102
 31
0.0
  0
LINE
  8
0
  6
CONTINUOUS
 62
     7
  5
55C
 10
-1.137808
 20
-0.055102
 30
0.0
 11
-1.137799
 21
-0.055113
 31
0.0
  0
LINE
  8
0
  6
CONTINUOUS
 62
     7
  5
55D
 10
-1.137799
 20
-0.055113
 30
0.0
 11
-1.137796
 21
-0.055117
 31
0.0
  0
LINE
  8
0
  6
CONTINUOUS
 62
     7
  5
55E
 10
-1.15748
 20
0.0
 30
0.0
 11
-1.15748
 21
-0.000205
 31
0.0
  0
LINE
  8
0
  6
CONTINUOUS
 62
     7
  5
55F
 10
-1.15748
 20
-0.000205
 30
0.0
 11
-1.157479
 21
-0.000412
 31
0.0
  0
LINE
  8
0
  6
CONTINUOUS
 62
     7
  5
560
 10
-1.157479
 20
-0.000412
 30
0.0
 11
-1.157478
 21
-0.000621
 31
0.0
  0
LINE
  8
0
  6
CONTINUOUS
 62
     7
  5
561
 10
-1.157478
 20
-0.000621
 30
0.0
 11
-1.157476
 21
-0.00083
 31
0.0
  0
LINE
  8
0
  6
CONTINUOUS
 62
     7
  5
562
 10
-1.157476
 20
-0.00083
 30
0.0
 11
-1.157474
 21
-0.001039
 31
0.0
  0
LINE
  8
0
  6
CONTINUOUS
 62
     7
  5
563
 10
-1.157474
 20
-0.001039
 30
0.0
 11
-1.157471
 21
-0.001247
 31
0.0
  0
LINE
  8
0
  6
CONTINUOUS
 62
     7
  5
564
 10
-1.157471
 20
-0.001247
 30
0.0
 11
-1.157468
 21
-0.001454
 31
0.0
  0
LINE
  8
0
  6
CONTINUOUS
 62
     7
  5
565
 10
-1.157468
 20
-0.001454
 30
0.0
 11
-1.157465
 21
-0.001657
 31
0.0
  0
LINE
  8
0
  6
CONTINUOUS
 62
     7
  5
566
 10
-1.157465
 20
-0.001657
 30
0.0
 11
-1.15746
 21
-0.001858
 31
0.0
  0
LINE
  8
0
  6
CONTINUOUS
 62
     7
  5
567
 10
-1.15746
 20
-0.001858
 30
0.0
 11
-1.157456
 21
-0.002054
 31
0.0
  0
LINE
  8
0
  6
CONTINUOUS
 62
     7
  5
568
 10
-1.157456
 20
-0.002054
 30
0.0
 11
-1.157451
 21
-0.002246
 31
0.0
  0
LINE
  8
0
  6
CONTINUOUS
 62
     7
  5
569
 10
-1.157451
 20
-0.002246
 30
0.0
 11
-1.157446
 21
-0.002433
 31
0.0
  0
LINE
  8
0
  6
CONTINUOUS
 62
     7
  5
56A
 10
-1.157446
 20
-0.002433
 30
0.0
 11
-1.157441
 21
-0.002614
 31
0.0
  0
LINE
  8
0
  6
CONTINUOUS
 62
     7
  5
56B
 10
-1.157441
 20
-0.002614
 30
0.0
 11
-1.157436
 21
-0.002788
 31
0.0
  0
LINE
  8
0
  6
CONTINUOUS
 62
     7
  5
56C
 10
-1.157436
 20
-0.002788
 30
0.0
 11
-1.15743
 21
-0.002956
 31
0.0
  0
LINE
  8
0
  6
CONTINUOUS
 62
     7
  5
56D
 10
-1.15743
 20
-0.002956
 30
0.0
 11
-1.157425
 21
-0.003116
 31
0.0
  0
LINE
  8
0
  6
CONTINUOUS
 62
     7
  5
56E
 10
-1.157425
 20
-0.003116
 30
0.0
 11
-1.157419
 21
-0.003268
 31
0.0
  0
LINE
  8
0
  6
CONTINUOUS
 62
     7
  5
56F
 10
-1.157419
 20
-0.003268
 30
0.0
 11
-1.157413
 21
-0.003412
 31
0.0
  0
LINE
  8
0
  6
CONTINUOUS
 62
     7
  5
570
 10
-1.157413
 20
-0.003412
 30
0.0
 11
-1.157408
 21
-0.003551
 31
0.0
  0
LINE
  8
0
  6
CONTINUOUS
 62
     7
  5
571
 10
-1.157408
 20
-0.003551
 30
0.0
 11
-1.157402
 21
-0.003686
 31
0.0
  0
LINE
  8
0
  6
CONTINUOUS
 62
     7
  5
572
 10
-1.157402
 20
-0.003686
 30
0.0
 11
-1.157397
 21
-0.003814
 31
0.0
  0
LINE
  8
0
  6
CONTINUOUS
 62
     7
  5
573
 10
-1.157397
 20
-0.003814
 30
0.0
 11
-1.157391
 21
-0.003935
 31
0.0
  0
LINE
  8
0
  6
CONTINUOUS
 62
     7
  5
574
 10
-1.157391
 20
-0.003935
 30
0.0
 11
-1.157386
 21
-0.00405
 31
0.0
  0
LINE
  8
0
  6
CONTINUOUS
 62
     7
  5
575
 10
-1.157386
 20
-0.00405
 30
0.0
 11
-1.157381
 21
-0.004156
 31
0.0
  0
LINE
  8
0
  6
CONTINUOUS
 62
     7
  5
576
 10
-1.157381
 20
-0.004156
 30
0.0
 11
-1.157376
 21
-0.004254
 31
0.0
  0
LINE
  8
0
  6
CONTINUOUS
 62
     7
  5
577
 10
-1.157376
 20
-0.004254
 30
0.0
 11
-1.157372
 21
-0.004344
 31
0.0
  0
LINE
  8
0
  6
CONTINUOUS
 62
     7
  5
578
 10
-1.157372
 20
-0.004344
 30
0.0
 11
-1.157368
 21
-0.004424
 31
0.0
  0
LINE
  8
0
  6
CONTINUOUS
 62
     7
  5
579
 10
-1.157368
 20
-0.004424
 30
0.0
 11
-1.157364
 21
-0.004495
 31
0.0
  0
LINE
  8
0
  6
CONTINUOUS
 62
     7
  5
57A
 10
-1.157364
 20
-0.004495
 30
0.0
 11
-1.157361
 21
-0.004557
 31
0.0
  0
LINE
  8
0
  6
CONTINUOUS
 62
     7
  5
57B
 10
-1.157361
 20
-0.004557
 30
0.0
 11
-1.157358
 21
-0.004609
 31
0.0
  0
LINE
  8
0
  6
CONTINUOUS
 62
     7
  5
57C
 10
-1.157358
 20
-0.004609
 30
0.0
 11
-1.157356
 21
-0.004651
 31
0.0
  0
LINE
  8
0
  6
CONTINUOUS
 62
     7
  5
57D
 10
-1.157356
 20
-0.004651
 30
0.0
 11
-1.157354
 21
-0.004684
 31
0.0
  0
LINE
  8
0
  6
CONTINUOUS
 62
     7
  5
57E
 10
-1.157354
 20
-0.004684
 30
0.0
 11
-1.157353
 21
-0.004706
 31
0.0
  0
LINE
  8
0
  6
CONTINUOUS
 62
     7
  5
57F
 10
-1.157353
 20
-0.004706
 30
0.0
 11
-1.157352
 21
-0.00472
 31
0.0
  0
LINE
  8
0
  6
CONTINUOUS
 62
     7
  5
580
 10
-1.157352
 20
-0.00472
 30
0.0
 11
-1.157352
 21
-0.004724
 31
0.0
  0
LINE
  8
0
  6
CONTINUOUS
 62
     7
  5
581
 10
-1.157352
 20
0.004724
 30
0.0
 11
-1.157352
 21
0.00472
 31
0.0
  0
LINE
  8
0
  6
CONTINUOUS
 62
     7
  5
582
 10
-1.157352
 20
0.00472
 30
0.0
 11
-1.157353
 21
0.004706
 31
0.0
  0
LINE
  8
0
  6
CONTINUOUS
 62
     7
  5
583
 10
-1.157353
 20
0.004706
 30
0.0
 11
-1.157354
 21
0.004684
 31
0.0
  0
LINE
  8
0
  6
CONTINUOUS
 62
     7
  5
584
 10
-1.157354
 20
0.004684
 30
0.0
 11
-1.157356
 21
0.004651
 31
0.0
  0
LINE
  8
0
  6
CONTINUOUS
 62
     7
  5
585
 10
-1.157356
 20
0.004651
 30
0.0
 11
-1.157358
 21
0.004609
 31
0.0
  0
LINE
  8
0
  6
CONTINUOUS
 62
     7
  5
586
 10
-1.157358
 20
0.004609
 30
0.0
 11
-1.157361
 21
0.004557
 31
0.0
  0
LINE
  8
0
  6
CONTINUOUS
 62
     7
  5
587
 10
-1.157361
 20
0.004557
 30
0.0
 11
-1.157364
 21
0.004495
 31
0.0
  0
LINE
  8
0
  6
CONTINUOUS
 62
     7
  5
588
 10
-1.157364
 20
0.004495
 30
0.0
 11
-1.157368
 21
0.004424
 31
0.0
  0
LINE
  8
0
  6
CONTINUOUS
 62
     7
  5
589
 10
-1.157368
 20
0.004424
 30
0.0
 11
-1.157372
 21
0.004344
 31
0.0
  0
LINE
  8
0
  6
CONTINUOUS
 62
     7
  5
58A
 10
-1.157372
 20
0.004344
 30
0.0
 11
-1.157376
 21
0.004254
 31
0.0
  0
LINE
  8
0
  6
CONTINUOUS
 62
     7
  5
58B
 10
-1.157376
 20
0.004254
 30
0.0
 11
-1.157381
 21
0.004156
 31
0.0
  0
LINE
  8
0
  6
CONTINUOUS
 62
     7
  5
58C
 10
-1.157381
 20
0.004156
 30
0.0
 11
-1.157386
 21
0.00405
 31
0.0
  0
LINE
  8
0
  6
CONTINUOUS
 62
     7
  5
58D
 10
-1.157386
 20
0.00405
 30
0.0
 11
-1.157391
 21
0.003935
 31
0.0
  0
LINE
  8
0
  6
CONTINUOUS
 62
     7
  5
58E
 10
-1.157391
 20
0.003935
 30
0.0
 11
-1.157397
 21
0.003814
 31
0.0
  0
LINE
  8
0
  6
CONTINUOUS
 62
     7
  5
58F
 10
-1.157397
 20
0.003814
 30
0.0
 11
-1.157402
 21
0.003686
 31
0.0
  0
LINE
  8
0
  6
CONTINUOUS
 62
     7
  5
590
 10
-1.157402
 20
0.003686
 30
0.0
 11
-1.157408
 21
0.003551
 31
0.0
  0
LINE
  8
0
  6
CONTINUOUS
 62
     7
  5
591
 10
-1.157408
 20
0.003551
 30
0.0
 11
-1.157413
 21
0.003412
 31
0.0
  0
LINE
  8
0
  6
CONTINUOUS
 62
     7
  5
592
 10
-1.157413
 20
0.003412
 30
0.0
 11
-1.157419
 21
0.003268
 31
0.0
  0
LINE
  8
0
  6
CONTINUOUS
 62
     7
  5
593
 10
-1.157419
 20
0.003268
 30
0.0
 11
-1.157425
 21
0.003116
 31
0.0
  0
LINE
  8
0
  6
CONTINUOUS
 62
     7
  5
594
 10
-1.157425
 20
0.003116
 30
0.0
 11
-1.15743
 21
0.002956
 31
0.0
  0
LINE
  8
0
  6
CONTINUOUS
 62
     7
  5
595
 10
-1.15743
 20
0.002956
 30
0.0
 11
-1.157436
 21
0.002788
 31
0.0
  0
LINE
  8
0
  6
CONTINUOUS
 62
     7
  5
596
 10
-1.157436
 20
0.002788
 30
0.0
 11
-1.157441
 21
0.002614
 31
0.0
  0
LINE
  8
0
  6
CONTINUOUS
 62
     7
  5
597
 10
-1.157441
 20
0.002614
 30
0.0
 11
-1.157446
 21
0.002433
 31
0.0
  0
LINE
  8
0
  6
CONTINUOUS
 62
     7
  5
598
 10
-1.157446
 20
0.002433
 30
0.0
 11
-1.157451
 21
0.002246
 31
0.0
  0
LINE
  8
0
  6
CONTINUOUS
 62
     7
  5
599
 10
-1.157451
 20
0.002246
 30
0.0
 11
-1.157456
 21
0.002054
 31
0.0
  0
LINE
  8
0
  6
CONTINUOUS
 62
     7
  5
59A
 10
-1.157456
 20
0.002054
 30
0.0
 11
-1.15746
 21
0.001858
 31
0.0
  0
LINE
  8
0
  6
CONTINUOUS
 62
     7
  5
59B
 10
-1.15746
 20
0.001858
 30
0.0
 11
-1.157465
 21
0.001657
 31
0.0
  0
LINE
  8
0
  6
CONTINUOUS
 62
     7
  5
59C
 10
-1.157465
 20
0.001657
 30
0.0
 11
-1.157468
 21
0.001454
 31
0.0
  0
LINE
  8
0
  6
CONTINUOUS
 62
     7
  5
59D
 10
-1.157468
 20
0.001454
 30
0.0
 11
-1.157471
 21
0.001247
 31
0.0
  0
LINE
  8
0
  6
CONTINUOUS
 62
     7
  5
59E
 10
-1.157471
 20
0.001247
 30
0.0
 11
-1.157474
 21
0.001039
 31
0.0
  0
LINE
  8
0
  6
CONTINUOUS
 62
     7
  5
59F
 10
-1.157474
 20
0.001039
 30
0.0
 11
-1.157476
 21
0.00083
 31
0.0
  0
LINE
  8
0
  6
CONTINUOUS
 62
     7
  5
5A0
 10
-1.157476
 20
0.00083
 30
0.0
 11
-1.157478
 21
0.000621
 31
0.0
  0
LINE
  8
0
  6
CONTINUOUS
 62
     7
  5
5A1
 10
-1.157478
 20
0.000621
 30
0.0
 11
-1.157479
 21
0.000412
 31
0.0
  0
LINE
  8
0
  6
CONTINUOUS
 62
     7
  5
5A2
 10
-1.157479
 20
0.000412
 30
0.0
 11
-1.15748
 21
0.000205
 31
0.0
  0
LINE
  8
0
  6
CONTINUOUS
 62
     7
  5
5A3
 10
-1.15748
 20
0.000205
 30
0.0
 11
-1.15748
 21
0.0
 31
0.0
  0
LINE
  8
0
  6
CONTINUOUS
 62
     7
  5
5A4
 10
-1.137796
 20
0.055117
 30
0.0
 11
-1.137799
 21
0.055113
 31
0.0
  0
LINE
  8
0
  6
CONTINUOUS
 62
     7
  5
5A5
 10
-1.137799
 20
0.055113
 30
0.0
 11
-1.137808
 21
0.055102
 31
0.0
  0
LINE
  8
0
  6
CONTINUOUS
 62
     7
  5
5A6
 10
-1.137808
 20
0.055102
 30
0.0
 11
-1.137824
 21
0.055083
 31
0.0
  0
LINE
  8
0
  6
CONTINUOUS
 62
     7
  5
5A7
 10
-1.137824
 20
0.055083
 30
0.0
 11
-1.137845
 21
0.055057
 31
0.0
  0
LINE
  8
0
  6
CONTINUOUS
 62
     7
  5
5A8
 10
-1.137845
 20
0.055057
 30
0.0
 11
-1.137873
 21
0.055024
 31
0.0
  0
LINE
  8
0
  6
CONTINUOUS
 62
     7
  5
5A9
 10
-1.137873
 20
0.055024
 30
0.0
 11
-1.137906
 21
0.054982
 31
0.0
  0
LINE
  8
0
  6
CONTINUOUS
 62
     7
  5
5AA
 10
-1.137906
 20
0.054982
 30
0.0
 11
-1.137946
 21
0.054933
 31
0.0
  0
LINE
  8
0
  6
CONTINUOUS
 62
     7
  5
5AB
 10
-1.137946
 20
0.054933
 30
0.0
 11
-1.137992
 21
0.054877
 31
0.0
  0
LINE
  8
0
  6
CONTINUOUS
 62
     7
  5
5AC
 10
-1.137992
 20
0.054877
 30
0.0
 11
-1.138044
 21
0.054813
 31
0.0
  0
LINE
  8
0
  6
CONTINUOUS
 62
     7
  5
5AD
 10
-1.138044
 20
0.054813
 30
0.0
 11
-1.138101
 21
0.054742
 31
0.0
  0
LINE
  8
0
  6
CONTINUOUS
 62
     7
  5
5AE
 10
-1.138101
 20
0.054742
 30
0.0
 11
-1.138165
 21
0.054664
 31
0.0
  0
LINE
  8
0
  6
CONTINUOUS
 62
     7
  5
5AF
 10
-1.138165
 20
0.054664
 30
0.0
 11
-1.138233
 21
0.054579
 31
0.0
  0
LINE
  8
0
  6
CONTINUOUS
 62
     7
  5
5B0
 10
-1.138233
 20
0.054579
 30
0.0
 11
-1.138307
 21
0.054486
 31
0.0
  0
LINE
  8
0
  6
CONTINUOUS
 62
     7
  5
5B1
 10
-1.138307
 20
0.054486
 30
0.0
 11
-1.138387
 21
0.054388
 31
0.0
  0
LINE
  8
0
  6
CONTINUOUS
 62
     7
  5
5B2
 10
-1.138387
 20
0.054388
 30
0.0
 11
-1.138471
 21
0.054283
 31
0.0
  0
LINE
  8
0
  6
CONTINUOUS
 62
     7
  5
5B3
 10
-1.138471
 20
0.054283
 30
0.0
 11
-1.13856
 21
0.054171
 31
0.0
  0
LINE
  8
0
  6
CONTINUOUS
 62
     7
  5
5B4
 10
-1.13856
 20
0.054171
 30
0.0
 11
-1.138653
 21
0.054054
 31
0.0
  0
LINE
  8
0
  6
CONTINUOUS
 62
     7
  5
5B5
 10
-1.138653
 20
0.054054
 30
0.0
 11
-1.13875
 21
0.053931
 31
0.0
  0
LINE
  8
0
  6
CONTINUOUS
 62
     7
  5
5B6
 10
-1.13875
 20
0.053931
 30
0.0
 11
-1.138852
 21
0.053802
 31
0.0
  0
LINE
  8
0
  6
CONTINUOUS
 62
     7
  5
5B7
 10
-1.138852
 20
0.053802
 30
0.0
 11
-1.138957
 21
0.053668
 31
0.0
  0
LINE
  8
0
  6
CONTINUOUS
 62
     7
  5
5B8
 10
-1.138957
 20
0.053668
 30
0.0
 11
-1.139065
 21
0.05353
 31
0.0
  0
LINE
  8
0
  6
CONTINUOUS
 62
     7
  5
5B9
 10
-1.139065
 20
0.05353
 30
0.0
 11
-1.139176
 21
0.053387
 31
0.0
  0
LINE
  8
0
  6
CONTINUOUS
 62
     7
  5
5BA
 10
-1.139176
 20
0.053387
 30
0.0
 11
-1.13929
 21
0.05324
 31
0.0
  0
LINE
  8
0
  6
CONTINUOUS
 62
     7
  5
5BB
 10
-1.13929
 20
0.05324
 30
0.0
 11
-1.139406
 21
0.053089
 31
0.0
  0
LINE
  8
0
  6
CONTINUOUS
 62
     7
  5
5BC
 10
-1.139406
 20
0.053089
 30
0.0
 11
-1.139525
 21
0.052935
 31
0.0
  0
LINE
  8
0
  6
CONTINUOUS
 62
     7
  5
5BD
 10
-1.139525
 20
0.052935
 30
0.0
 11
-1.139645
 21
0.052779
 31
0.0
  0
LINE
  8
0
  6
CONTINUOUS
 62
     7
  5
5BE
 10
-1.139645
 20
0.052779
 30
0.0
 11
-1.139766
 21
0.052619
 31
0.0
  0
LINE
  8
0
  6
CONTINUOUS
 62
     7
  5
5BF
 10
-1.139766
 20
0.052619
 30
0.0
 11
-1.139888
 21
0.052458
 31
0.0
  0
LINE
  8
0
  6
CONTINUOUS
 62
     7
  5
5C0
 10
-1.139888
 20
0.052458
 30
0.0
 11
-1.140013
 21
0.052293
 31
0.0
  0
LINE
  8
0
  6
CONTINUOUS
 62
     7
  5
5C1
 10
-1.140013
 20
0.052293
 30
0.0
 11
-1.14014
 21
0.052123
 31
0.0
  0
LINE
  8
0
  6
CONTINUOUS
 62
     7
  5
5C2
 10
-1.14014
 20
0.052123
 30
0.0
 11
-1.14027
 21
0.051948
 31
0.0
  0
LINE
  8
0
  6
CONTINUOUS
 62
     7
  5
5C3
 10
-1.14027
 20
0.051948
 30
0.0
 11
-1.140403
 21
0.05177
 31
0.0
  0
LINE
  8
0
  6
CONTINUOUS
 62
     7
  5
5C4
 10
-1.140403
 20
0.05177
 30
0.0
 11
-1.140538
 21
0.051587
 31
0.0
  0
LINE
  8
0
  6
CONTINUOUS
 62
     7
  5
5C5
 10
-1.140538
 20
0.051587
 30
0.0
 11
-1.140675
 21
0.051399
 31
0.0
  0
LINE
  8
0
  6
CONTINUOUS
 62
     7
  5
5C6
 10
-1.140675
 20
0.051399
 30
0.0
 11
-1.140815
 21
0.051208
 31
0.0
  0
LINE
  8
0
  6
CONTINUOUS
 62
     7
  5
5C7
 10
-1.062451
 20
-0.023622
 30
0.0
 11
-1.107451
 21
-0.023622
 31
0.0
  0
LINE
  8
0
  6
CONTINUOUS
 62
     7
  5
5C8
 10
-1.09448
 20
-0.045276
 30
0.0
 11
-1.107451
 21
-0.023622
 31
0.0
  0
LINE
  8
0
  6
CONTINUOUS
 62
     7
  5
5C9
 10
-1.141045
 20
-0.050891
 30
0.0
 11
-1.138757
 21
-0.050822
 31
0.0
  0
LINE
  8
0
  6
CONTINUOUS
 62
     7
  5
5CA
 10
-1.138757
 20
-0.050822
 30
0.0
 11
-1.136498
 21
-0.050745
 31
0.0
  0
LINE
  8
0
  6
CONTINUOUS
 62
     7
  5
5CB
 10
-1.136498
 20
-0.050745
 30
0.0
 11
-1.134273
 21
-0.050662
 31
0.0
  0
LINE
  8
0
  6
CONTINUOUS
 62
     7
  5
5CC
 10
-1.134273
 20
-0.050662
 30
0.0
 11
-1.132083
 21
-0.050571
 31
0.0
  0
LINE
  8
0
  6
CONTINUOUS
 62
     7
  5
5CD
 10
-1.132083
 20
-0.050571
 30
0.0
 11
-1.129932
 21
-0.050474
 31
0.0
  0
LINE
  8
0
  6
CONTINUOUS
 62
     7
  5
5CE
 10
-1.129932
 20
-0.050474
 30
0.0
 11
-1.127822
 21
-0.05037
 31
0.0
  0
LINE
  8
0
  6
CONTINUOUS
 62
     7
  5
5CF
 10
-1.127822
 20
-0.05037
 30
0.0
 11
-1.125755
 21
-0.05026
 31
0.0
  0
LINE
  8
0
  6
CONTINUOUS
 62
     7
  5
5D0
 10
-1.125755
 20
-0.05026
 30
0.0
 11
-1.123736
 21
-0.050143
 31
0.0
  0
LINE
  8
0
  6
CONTINUOUS
 62
     7
  5
5D1
 10
-1.123736
 20
-0.050143
 30
0.0
 11
-1.121765
 21
-0.05002
 31
0.0
  0
LINE
  8
0
  6
CONTINUOUS
 62
     7
  5
5D2
 10
-1.121765
 20
-0.05002
 30
0.0
 11
-1.119847
 21
-0.04989
 31
0.0
  0
LINE
  8
0
  6
CONTINUOUS
 62
     7
  5
5D3
 10
-1.119847
 20
-0.04989
 30
0.0
 11
-1.117982
 21
-0.049755
 31
0.0
  0
LINE
  8
0
  6
CONTINUOUS
 62
     7
  5
5D4
 10
-1.117982
 20
-0.049755
 30
0.0
 11
-1.116175
 21
-0.049614
 31
0.0
  0
LINE
  8
0
  6
CONTINUOUS
 62
     7
  5
5D5
 10
-1.116175
 20
-0.049614
 30
0.0
 11
-1.114426
 21
-0.049468
 31
0.0
  0
LINE
  8
0
  6
CONTINUOUS
 62
     7
  5
5D6
 10
-1.114426
 20
-0.049468
 30
0.0
 11
-1.112738
 21
-0.049316
 31
0.0
  0
LINE
  8
0
  6
CONTINUOUS
 62
     7
  5
5D7
 10
-1.112738
 20
-0.049316
 30
0.0
 11
-1.111114
 21
-0.049159
 31
0.0
  0
LINE
  8
0
  6
CONTINUOUS
 62
     7
  5
5D8
 10
-1.111114
 20
-0.049159
 30
0.0
 11
-1.109555
 21
-0.048997
 31
0.0
  0
LINE
  8
0
  6
CONTINUOUS
 62
     7
  5
5D9
 10
-1.109555
 20
-0.048997
 30
0.0
 11
-1.108064
 21
-0.04883
 31
0.0
  0
LINE
  8
0
  6
CONTINUOUS
 62
     7
  5
5DA
 10
-1.108064
 20
-0.04883
 30
0.0
 11
-1.106642
 21
-0.048658
 31
0.0
  0
LINE
  8
0
  6
CONTINUOUS
 62
     7
  5
5DB
 10
-1.106642
 20
-0.048658
 30
0.0
 11
-1.105291
 21
-0.048482
 31
0.0
  0
LINE
  8
0
  6
CONTINUOUS
 62
     7
  5
5DC
 10
-1.105291
 20
-0.048482
 30
0.0
 11
-1.104013
 21
-0.048302
 31
0.0
  0
LINE
  8
0
  6
CONTINUOUS
 62
     7
  5
5DD
 10
-1.104013
 20
-0.048302
 30
0.0
 11
-1.10281
 21
-0.048119
 31
0.0
  0
LINE
  8
0
  6
CONTINUOUS
 62
     7
  5
5DE
 10
-1.10281
 20
-0.048119
 30
0.0
 11
-1.101683
 21
-0.047931
 31
0.0
  0
LINE
  8
0
  6
CONTINUOUS
 62
     7
  5
5DF
 10
-1.101683
 20
-0.047931
 30
0.0
 11
-1.100634
 21
-0.04774
 31
0.0
  0
LINE
  8
0
  6
CONTINUOUS
 62
     7
  5
5E0
 10
-1.100634
 20
-0.04774
 30
0.0
 11
-1.099663
 21
-0.047546
 31
0.0
  0
LINE
  8
0
  6
CONTINUOUS
 62
     7
  5
5E1
 10
-1.099663
 20
-0.047546
 30
0.0
 11
-1.098773
 21
-0.047349
 31
0.0
  0
LINE
  8
0
  6
CONTINUOUS
 62
     7
  5
5E2
 10
-1.098773
 20
-0.047349
 30
0.0
 11
-1.097964
 21
-0.047149
 31
0.0
  0
LINE
  8
0
  6
CONTINUOUS
 62
     7
  5
5E3
 10
-1.097964
 20
-0.047149
 30
0.0
 11
-1.097237
 21
-0.046947
 31
0.0
  0
LINE
  8
0
  6
CONTINUOUS
 62
     7
  5
5E4
 10
-1.097237
 20
-0.046947
 30
0.0
 11
-1.096594
 21
-0.046743
 31
0.0
  0
LINE
  8
0
  6
CONTINUOUS
 62
     7
  5
5E5
 10
-1.096594
 20
-0.046743
 30
0.0
 11
-1.096035
 21
-0.046537
 31
0.0
  0
LINE
  8
0
  6
CONTINUOUS
 62
     7
  5
5E6
 10
-1.096035
 20
-0.046537
 30
0.0
 11
-1.095561
 21
-0.046329
 31
0.0
  0
LINE
  8
0
  6
CONTINUOUS
 62
     7
  5
5E7
 10
-1.095561
 20
-0.046329
 30
0.0
 11
-1.095172
 21
-0.04612
 31
0.0
  0
LINE
  8
0
  6
CONTINUOUS
 62
     7
  5
5E8
 10
-1.095172
 20
-0.04612
 30
0.0
 11
-1.094869
 21
-0.04591
 31
0.0
  0
LINE
  8
0
  6
CONTINUOUS
 62
     7
  5
5E9
 10
-1.094869
 20
-0.04591
 30
0.0
 11
-1.094653
 21
-0.045699
 31
0.0
  0
LINE
  8
0
  6
CONTINUOUS
 62
     7
  5
5EA
 10
-1.094653
 20
-0.045699
 30
0.0
 11
-1.094523
 21
-0.045487
 31
0.0
  0
LINE
  8
0
  6
CONTINUOUS
 62
     7
  5
5EB
 10
-1.094523
 20
-0.045487
 30
0.0
 11
-1.09448
 21
-0.045276
 31
0.0
  0
LINE
  8
0
  6
CONTINUOUS
 62
     7
  5
5EC
 10
-1.137981
 20
-0.05489
 30
0.0
 11
-1.138072
 21
-0.054778
 31
0.0
  0
LINE
  8
0
  6
CONTINUOUS
 62
     7
  5
5ED
 10
-1.138072
 20
-0.054778
 30
0.0
 11
-1.138163
 21
-0.054666
 31
0.0
  0
LINE
  8
0
  6
CONTINUOUS
 62
     7
  5
5EE
 10
-1.138163
 20
-0.054666
 30
0.0
 11
-1.138253
 21
-0.054554
 31
0.0
  0
LINE
  8
0
  6
CONTINUOUS
 62
     7
  5
5EF
 10
-1.138253
 20
-0.054554
 30
0.0
 11
-1.138343
 21
-0.054442
 31
0.0
  0
LINE
  8
0
  6
CONTINUOUS
 62
     7
  5
5F0
 10
-1.138343
 20
-0.054442
 30
0.0
 11
-1.138433
 21
-0.05433
 31
0.0
  0
LINE
  8
0
  6
CONTINUOUS
 62
     7
  5
5F1
 10
-1.138433
 20
-0.05433
 30
0.0
 11
-1.138523
 21
-0.054217
 31
0.0
  0
LINE
  8
0
  6
CONTINUOUS
 62
     7
  5
5F2
 10
-1.138523
 20
-0.054217
 30
0.0
 11
-1.138612
 21
-0.054105
 31
0.0
  0
LINE
  8
0
  6
CONTINUOUS
 62
     7
  5
5F3
 10
-1.138612
 20
-0.054105
 30
0.0
 11
-1.138702
 21
-0.053992
 31
0.0
  0
LINE
  8
0
  6
CONTINUOUS
 62
     7
  5
5F4
 10
-1.138702
 20
-0.053992
 30
0.0
 11
-1.138791
 21
-0.053879
 31
0.0
  0
LINE
  8
0
  6
CONTINUOUS
 62
     7
  5
5F5
 10
-1.138791
 20
-0.053879
 30
0.0
 11
-1.13888
 21
-0.053766
 31
0.0
  0
LINE
  8
0
  6
CONTINUOUS
 62
     7
  5
5F6
 10
-1.13888
 20
-0.053766
 30
0.0
 11
-1.138969
 21
-0.053652
 31
0.0
  0
LINE
  8
0
  6
CONTINUOUS
 62
     7
  5
5F7
 10
-1.138969
 20
-0.053652
 30
0.0
 11
-1.139058
 21
-0.053539
 31
0.0
  0
LINE
  8
0
  6
CONTINUOUS
 62
     7
  5
5F8
 10
-1.139058
 20
-0.053539
 30
0.0
 11
-1.139146
 21
-0.053426
 31
0.0
  0
LINE
  8
0
  6
CONTINUOUS
 62
     7
  5
5F9
 10
-1.139146
 20
-0.053426
 30
0.0
 11
-1.139234
 21
-0.053312
 31
0.0
  0
LINE
  8
0
  6
CONTINUOUS
 62
     7
  5
5FA
 10
-1.139234
 20
-0.053312
 30
0.0
 11
-1.139323
 21
-0.053198
 31
0.0
  0
LINE
  8
0
  6
CONTINUOUS
 62
     7
  5
5FB
 10
-1.139323
 20
-0.053198
 30
0.0
 11
-1.139411
 21
-0.053084
 31
0.0
  0
LINE
  8
0
  6
CONTINUOUS
 62
     7
  5
5FC
 10
-1.139411
 20
-0.053084
 30
0.0
 11
-1.139498
 21
-0.05297
 31
0.0
  0
LINE
  8
0
  6
CONTINUOUS
 62
     7
  5
5FD
 10
-1.139498
 20
-0.05297
 30
0.0
 11
-1.139586
 21
-0.052856
 31
0.0
  0
LINE
  8
0
  6
CONTINUOUS
 62
     7
  5
5FE
 10
-1.139586
 20
-0.052856
 30
0.0
 11
-1.139673
 21
-0.052741
 31
0.0
  0
LINE
  8
0
  6
CONTINUOUS
 62
     7
  5
5FF
 10
-1.139673
 20
-0.052741
 30
0.0
 11
-1.13976
 21
-0.052627
 31
0.0
  0
LINE
  8
0
  6
CONTINUOUS
 62
     7
  5
600
 10
-1.13976
 20
-0.052627
 30
0.0
 11
-1.139847
 21
-0.052512
 31
0.0
  0
LINE
  8
0
  6
CONTINUOUS
 62
     7
  5
601
 10
-1.139847
 20
-0.052512
 30
0.0
 11
-1.139934
 21
-0.052397
 31
0.0
  0
LINE
  8
0
  6
CONTINUOUS
 62
     7
  5
602
 10
-1.139934
 20
-0.052397
 30
0.0
 11
-1.140021
 21
-0.052282
 31
0.0
  0
LINE
  8
0
  6
CONTINUOUS
 62
     7
  5
603
 10
-1.140021
 20
-0.052282
 30
0.0
 11
-1.140107
 21
-0.052167
 31
0.0
  0
LINE
  8
0
  6
CONTINUOUS
 62
     7
  5
604
 10
-1.140107
 20
-0.052167
 30
0.0
 11
-1.140193
 21
-0.052052
 31
0.0
  0
LINE
  8
0
  6
CONTINUOUS
 62
     7
  5
605
 10
-1.140193
 20
-0.052052
 30
0.0
 11
-1.140279
 21
-0.051936
 31
0.0
  0
LINE
  8
0
  6
CONTINUOUS
 62
     7
  5
606
 10
-1.140279
 20
-0.051936
 30
0.0
 11
-1.140365
 21
-0.051821
 31
0.0
  0
LINE
  8
0
  6
CONTINUOUS
 62
     7
  5
607
 10
-1.140365
 20
-0.051821
 30
0.0
 11
-1.140451
 21
-0.051705
 31
0.0
  0
LINE
  8
0
  6
CONTINUOUS
 62
     7
  5
608
 10
-1.140451
 20
-0.051705
 30
0.0
 11
-1.140536
 21
-0.051589
 31
0.0
  0
LINE
  8
0
  6
CONTINUOUS
 62
     7
  5
609
 10
-1.140536
 20
-0.051589
 30
0.0
 11
-1.140622
 21
-0.051473
 31
0.0
  0
LINE
  8
0
  6
CONTINUOUS
 62
     7
  5
60A
 10
-1.140622
 20
-0.051473
 30
0.0
 11
-1.140707
 21
-0.051357
 31
0.0
  0
LINE
  8
0
  6
CONTINUOUS
 62
     7
  5
60B
 10
-1.140707
 20
-0.051357
 30
0.0
 11
-1.140791
 21
-0.051241
 31
0.0
  0
LINE
  8
0
  6
CONTINUOUS
 62
     7
  5
60C
 10
-1.140791
 20
-0.051241
 30
0.0
 11
-1.140876
 21
-0.051124
 31
0.0
  0
LINE
  8
0
  6
CONTINUOUS
 62
     7
  5
60D
 10
-1.140876
 20
-0.051124
 30
0.0
 11
-1.140961
 21
-0.051008
 31
0.0
  0
LINE
  8
0
  6
CONTINUOUS
 62
     7
  5
60E
 10
-1.140961
 20
-0.051008
 30
0.0
 11
-1.141045
 21
-0.050891
 31
0.0
  0
LINE
  8
0
  6
CONTINUOUS
 62
     7
  5
60F
 10
-1.04948
 20
-0.045276
 30
0.0
 11
-1.049565
 21
-0.045657
 31
0.0
  0
LINE
  8
0
  6
CONTINUOUS
 62
     7
  5
610
 10
-1.049565
 20
-0.045657
 30
0.0
 11
-1.049818
 21
-0.046037
 31
0.0
  0
LINE
  8
0
  6
CONTINUOUS
 62
     7
  5
611
 10
-1.049818
 20
-0.046037
 30
0.0
 11
-1.05024
 21
-0.046417
 31
0.0
  0
LINE
  8
0
  6
CONTINUOUS
 62
     7
  5
612
 10
-1.05024
 20
-0.046417
 30
0.0
 11
-1.05083
 21
-0.046794
 31
0.0
  0
LINE
  8
0
  6
CONTINUOUS
 62
     7
  5
613
 10
-1.05083
 20
-0.046794
 30
0.0
 11
-1.051586
 21
-0.04717
 31
0.0
  0
LINE
  8
0
  6
CONTINUOUS
 62
     7
  5
614
 10
-1.051586
 20
-0.04717
 30
0.0
 11
-1.052508
 21
-0.047542
 31
0.0
  0
LINE
  8
0
  6
CONTINUOUS
 62
     7
  5
615
 10
-1.052508
 20
-0.047542
 30
0.0
 11
-1.053594
 21
-0.047912
 31
0.0
  0
LINE
  8
0
  6
CONTINUOUS
 62
     7
  5
616
 10
-1.053594
 20
-0.047912
 30
0.0
 11
-1.054843
 21
-0.048277
 31
0.0
  0
LINE
  8
0
  6
CONTINUOUS
 62
     7
  5
617
 10
-1.054843
 20
-0.048277
 30
0.0
 11
-1.056252
 21
-0.048638
 31
0.0
  0
LINE
  8
0
  6
CONTINUOUS
 62
     7
  5
618
 10
-1.056252
 20
-0.048638
 30
0.0
 11
-1.05782
 21
-0.048993
 31
0.0
  0
LINE
  8
0
  6
CONTINUOUS
 62
     7
  5
619
 10
-1.05782
 20
-0.048993
 30
0.0
 11
-1.059544
 21
-0.049343
 31
0.0
  0
LINE
  8
0
  6
CONTINUOUS
 62
     7
  5
61A
 10
-1.059544
 20
-0.049343
 30
0.0
 11
-1.061422
 21
-0.049687
 31
0.0
  0
LINE
  8
0
  6
CONTINUOUS
 62
     7
  5
61B
 10
-1.061422
 20
-0.049687
 30
0.0
 11
-1.063451
 21
-0.050025
 31
0.0
  0
LINE
  8
0
  6
CONTINUOUS
 62
     7
  5
61C
 10
-1.063451
 20
-0.050025
 30
0.0
 11
-1.065628
 21
-0.050355
 31
0.0
  0
LINE
  8
0
  6
CONTINUOUS
 62
     7
  5
61D
 10
-1.065628
 20
-0.050355
 30
0.0
 11
-1.067949
 21
-0.050678
 31
0.0
  0
LINE
  8
0
  6
CONTINUOUS
 62
     7
  5
61E
 10
-1.067949
 20
-0.050678
 30
0.0
 11
-1.070411
 21
-0.050992
 31
0.0
  0
LINE
  8
0
  6
CONTINUOUS
 62
     7
  5
61F
 10
-1.070411
 20
-0.050992
 30
0.0
 11
-1.07301
 21
-0.051298
 31
0.0
  0
LINE
  8
0
  6
CONTINUOUS
 62
     7
  5
620
 10
-1.07301
 20
-0.051298
 30
0.0
 11
-1.075743
 21
-0.051595
 31
0.0
  0
LINE
  8
0
  6
CONTINUOUS
 62
     7
  5
621
 10
-1.075743
 20
-0.051595
 30
0.0
 11
-1.078606
 21
-0.051882
 31
0.0
  0
LINE
  8
0
  6
CONTINUOUS
 62
     7
  5
622
 10
-1.078606
 20
-0.051882
 30
0.0
 11
-1.081593
 21
-0.05216
 31
0.0
  0
LINE
  8
0
  6
CONTINUOUS
 62
     7
  5
623
 10
-1.081593
 20
-0.05216
 30
0.0
 11
-1.084701
 21
-0.052427
 31
0.0
  0
LINE
  8
0
  6
CONTINUOUS
 62
     7
  5
624
 10
-1.084701
 20
-0.052427
 30
0.0
 11
-1.087925
 21
-0.052683
 31
0.0
  0
LINE
  8
0
  6
CONTINUOUS
 62
     7
  5
625
 10
-1.087925
 20
-0.052683
 30
0.0
 11
-1.09126
 21
-0.052929
 31
0.0
  0
LINE
  8
0
  6
CONTINUOUS
 62
     7
  5
626
 10
-1.09126
 20
-0.052929
 30
0.0
 11
-1.094701
 21
-0.053163
 31
0.0
  0
LINE
  8
0
  6
CONTINUOUS
 62
     7
  5
627
 10
-1.094701
 20
-0.053163
 30
0.0
 11
-1.098243
 21
-0.053385
 31
0.0
  0
LINE
  8
0
  6
CONTINUOUS
 62
     7
  5
628
 10
-1.098243
 20
-0.053385
 30
0.0
 11
-1.101881
 21
-0.053595
 31
0.0
  0
LINE
  8
0
  6
CONTINUOUS
 62
     7
  5
629
 10
-1.101881
 20
-0.053595
 30
0.0
 11
-1.105609
 21
-0.053792
 31
0.0
  0
LINE
  8
0
  6
CONTINUOUS
 62
     7
  5
62A
 10
-1.105609
 20
-0.053792
 30
0.0
 11
-1.109421
 21
-0.053977
 31
0.0
  0
LINE
  8
0
  6
CONTINUOUS
 62
     7
  5
62B
 10
-1.109421
 20
-0.053977
 30
0.0
 11
-1.113312
 21
-0.054148
 31
0.0
  0
LINE
  8
0
  6
CONTINUOUS
 62
     7
  5
62C
 10
-1.113312
 20
-0.054148
 30
0.0
 11
-1.117276
 21
-0.054306
 31
0.0
  0
LINE
  8
0
  6
CONTINUOUS
 62
     7
  5
62D
 10
-1.117276
 20
-0.054306
 30
0.0
 11
-1.121308
 21
-0.054451
 31
0.0
  0
LINE
  8
0
  6
CONTINUOUS
 62
     7
  5
62E
 10
-1.121308
 20
-0.054451
 30
0.0
 11
-1.1254
 21
-0.054582
 31
0.0
  0
LINE
  8
0
  6
CONTINUOUS
 62
     7
  5
62F
 10
-1.1254
 20
-0.054582
 30
0.0
 11
-1.129547
 21
-0.054699
 31
0.0
  0
LINE
  8
0
  6
CONTINUOUS
 62
     7
  5
630
 10
-1.129547
 20
-0.054699
 30
0.0
 11
-1.133743
 21
-0.054802
 31
0.0
  0
LINE
  8
0
  6
CONTINUOUS
 62
     7
  5
631
 10
-1.133743
 20
-0.054802
 30
0.0
 11
-1.137981
 21
-0.05489
 31
0.0
  0
LINE
  8
0
  6
CONTINUOUS
 62
     7
  5
632
 10
-1.062451
 20
-0.023622
 30
0.0
 11
-1.04948
 21
-0.045276
 31
0.0
  0
LINE
  8
0
  6
CONTINUOUS
 62
     7
  5
633
 10
-1.107451
 20
0.023622
 30
0.0
 11
-1.062451
 21
0.023622
 31
0.0
  0
LINE
  8
0
  6
CONTINUOUS
 62
     7
  5
634
 10
-1.04948
 20
0.045276
 30
0.0
 11
-1.062451
 21
0.023622
 31
0.0
  0
LINE
  8
0
  6
CONTINUOUS
 62
     7
  5
635
 10
-1.137981
 20
0.05489
 30
0.0
 11
-1.133743
 21
0.054802
 31
0.0
  0
LINE
  8
0
  6
CONTINUOUS
 62
     7
  5
636
 10
-1.133743
 20
0.054802
 30
0.0
 11
-1.129547
 21
0.054699
 31
0.0
  0
LINE
  8
0
  6
CONTINUOUS
 62
     7
  5
637
 10
-1.129547
 20
0.054699
 30
0.0
 11
-1.1254
 21
0.054582
 31
0.0
  0
LINE
  8
0
  6
CONTINUOUS
 62
     7
  5
638
 10
-1.1254
 20
0.054582
 30
0.0
 11
-1.121308
 21
0.054451
 31
0.0
  0
LINE
  8
0
  6
CONTINUOUS
 62
     7
  5
639
 10
-1.121308
 20
0.054451
 30
0.0
 11
-1.117276
 21
0.054306
 31
0.0
  0
LINE
  8
0
  6
CONTINUOUS
 62
     7
  5
63A
 10
-1.117276
 20
0.054306
 30
0.0
 11
-1.113312
 21
0.054148
 31
0.0
  0
LINE
  8
0
  6
CONTINUOUS
 62
     7
  5
63B
 10
-1.113312
 20
0.054148
 30
0.0
 11
-1.109421
 21
0.053977
 31
0.0
  0
LINE
  8
0
  6
CONTINUOUS
 62
     7
  5
63C
 10
-1.109421
 20
0.053977
 30
0.0
 11
-1.105609
 21
0.053792
 31
0.0
  0
LINE
  8
0
  6
CONTINUOUS
 62
     7
  5
63D
 10
-1.105609
 20
0.053792
 30
0.0
 11
-1.101881
 21
0.053595
 31
0.0
  0
LINE
  8
0
  6
CONTINUOUS
 62
     7
  5
63E
 10
-1.101881
 20
0.053595
 30
0.0
 11
-1.098243
 21
0.053385
 31
0.0
  0
LINE
  8
0
  6
CONTINUOUS
 62
     7
  5
63F
 10
-1.098243
 20
0.053385
 30
0.0
 11
-1.094701
 21
0.053163
 31
0.0
  0
LINE
  8
0
  6
CONTINUOUS
 62
     7
  5
640
 10
-1.094701
 20
0.053163
 30
0.0
 11
-1.09126
 21
0.052929
 31
0.0
  0
LINE
  8
0
  6
CONTINUOUS
 62
     7
  5
641
 10
-1.09126
 20
0.052929
 30
0.0
 11
-1.087925
 21
0.052683
 31
0.0
  0
LINE
  8
0
  6
CONTINUOUS
 62
     7
  5
642
 10
-1.087925
 20
0.052683
 30
0.0
 11
-1.084701
 21
0.052427
 31
0.0
  0
LINE
  8
0
  6
CONTINUOUS
 62
     7
  5
643
 10
-1.084701
 20
0.052427
 30
0.0
 11
-1.081593
 21
0.05216
 31
0.0
  0
LINE
  8
0
  6
CONTINUOUS
 62
     7
  5
644
 10
-1.081593
 20
0.05216
 30
0.0
 11
-1.078606
 21
0.051882
 31
0.0
  0
LINE
  8
0
  6
CONTINUOUS
 62
     7
  5
645
 10
-1.078606
 20
0.051882
 30
0.0
 11
-1.075743
 21
0.051595
 31
0.0
  0
LINE
  8
0
  6
CONTINUOUS
 62
     7
  5
646
 10
-1.075743
 20
0.051595
 30
0.0
 11
-1.07301
 21
0.051298
 31
0.0
  0
LINE
  8
0
  6
CONTINUOUS
 62
     7
  5
647
 10
-1.07301
 20
0.051298
 30
0.0
 11
-1.070411
 21
0.050992
 31
0.0
  0
LINE
  8
0
  6
CONTINUOUS
 62
     7
  5
648
 10
-1.070411
 20
0.050992
 30
0.0
 11
-1.067949
 21
0.050678
 31
0.0
  0
LINE
  8
0
  6
CONTINUOUS
 62
     7
  5
649
 10
-1.067949
 20
0.050678
 30
0.0
 11
-1.065628
 21
0.050355
 31
0.0
  0
LINE
  8
0
  6
CONTINUOUS
 62
     7
  5
64A
 10
-1.065628
 20
0.050355
 30
0.0
 11
-1.063451
 21
0.050025
 31
0.0
  0
LINE
  8
0
  6
CONTINUOUS
 62
     7
  5
64B
 10
-1.063451
 20
0.050025
 30
0.0
 11
-1.061422
 21
0.049687
 31
0.0
  0
LINE
  8
0
  6
CONTINUOUS
 62
     7
  5
64C
 10
-1.061422
 20
0.049687
 30
0.0
 11
-1.059544
 21
0.049343
 31
0.0
  0
LINE
  8
0
  6
CONTINUOUS
 62
     7
  5
64D
 10
-1.059544
 20
0.049343
 30
0.0
 11
-1.05782
 21
0.048993
 31
0.0
  0
LINE
  8
0
  6
CONTINUOUS
 62
     7
  5
64E
 10
-1.05782
 20
0.048993
 30
0.0
 11
-1.056252
 21
0.048638
 31
0.0
  0
LINE
  8
0
  6
CONTINUOUS
 62
     7
  5
64F
 10
-1.056252
 20
0.048638
 30
0.0
 11
-1.054843
 21
0.048277
 31
0.0
  0
LINE
  8
0
  6
CONTINUOUS
 62
     7
  5
650
 10
-1.054843
 20
0.048277
 30
0.0
 11
-1.053594
 21
0.047912
 31
0.0
  0
LINE
  8
0
  6
CONTINUOUS
 62
     7
  5
651
 10
-1.053594
 20
0.047912
 30
0.0
 11
-1.052508
 21
0.047542
 31
0.0
  0
LINE
  8
0
  6
CONTINUOUS
 62
     7
  5
652
 10
-1.052508
 20
0.047542
 30
0.0
 11
-1.051586
 21
0.04717
 31
0.0
  0
LINE
  8
0
  6
CONTINUOUS
 62
     7
  5
653
 10
-1.051586
 20
0.04717
 30
0.0
 11
-1.05083
 21
0.046794
 31
0.0
  0
LINE
  8
0
  6
CONTINUOUS
 62
     7
  5
654
 10
-1.05083
 20
0.046794
 30
0.0
 11
-1.05024
 21
0.046417
 31
0.0
  0
LINE
  8
0
  6
CONTINUOUS
 62
     7
  5
655
 10
-1.05024
 20
0.046417
 30
0.0
 11
-1.049818
 21
0.046037
 31
0.0
  0
LINE
  8
0
  6
CONTINUOUS
 62
     7
  5
656
 10
-1.049818
 20
0.046037
 30
0.0
 11
-1.049565
 21
0.045657
 31
0.0
  0
LINE
  8
0
  6
CONTINUOUS
 62
     7
  5
657
 10
-1.049565
 20
0.045657
 30
0.0
 11
-1.04948
 21
0.045276
 31
0.0
  0
LINE
  8
0
  6
CONTINUOUS
 62
     7
  5
658
 10
-1.141045
 20
0.050891
 30
0.0
 11
-1.140961
 21
0.051008
 31
0.0
  0
LINE
  8
0
  6
CONTINUOUS
 62
     7
  5
659
 10
-1.140961
 20
0.051008
 30
0.0
 11
-1.140876
 21
0.051124
 31
0.0
  0
LINE
  8
0
  6
CONTINUOUS
 62
     7
  5
65A
 10
-1.140876
 20
0.051124
 30
0.0
 11
-1.140791
 21
0.051241
 31
0.0
  0
LINE
  8
0
  6
CONTINUOUS
 62
     7
  5
65B
 10
-1.140791
 20
0.051241
 30
0.0
 11
-1.140707
 21
0.051357
 31
0.0
  0
LINE
  8
0
  6
CONTINUOUS
 62
     7
  5
65C
 10
-1.140707
 20
0.051357
 30
0.0
 11
-1.140622
 21
0.051473
 31
0.0
  0
LINE
  8
0
  6
CONTINUOUS
 62
     7
  5
65D
 10
-1.140622
 20
0.051473
 30
0.0
 11
-1.140536
 21
0.051589
 31
0.0
  0
LINE
  8
0
  6
CONTINUOUS
 62
     7
  5
65E
 10
-1.140536
 20
0.051589
 30
0.0
 11
-1.140451
 21
0.051705
 31
0.0
  0
LINE
  8
0
  6
CONTINUOUS
 62
     7
  5
65F
 10
-1.140451
 20
0.051705
 30
0.0
 11
-1.140365
 21
0.051821
 31
0.0
  0
LINE
  8
0
  6
CONTINUOUS
 62
     7
  5
660
 10
-1.140365
 20
0.051821
 30
0.0
 11
-1.140279
 21
0.051936
 31
0.0
  0
LINE
  8
0
  6
CONTINUOUS
 62
     7
  5
661
 10
-1.140279
 20
0.051936
 30
0.0
 11
-1.140193
 21
0.052052
 31
0.0
  0
LINE
  8
0
  6
CONTINUOUS
 62
     7
  5
662
 10
-1.140193
 20
0.052052
 30
0.0
 11
-1.140107
 21
0.052167
 31
0.0
  0
LINE
  8
0
  6
CONTINUOUS
 62
     7
  5
663
 10
-1.140107
 20
0.052167
 30
0.0
 11
-1.140021
 21
0.052282
 31
0.0
  0
LINE
  8
0
  6
CONTINUOUS
 62
     7
  5
664
 10
-1.140021
 20
0.052282
 30
0.0
 11
-1.139934
 21
0.052397
 31
0.0
  0
LINE
  8
0
  6
CONTINUOUS
 62
     7
  5
665
 10
-1.139934
 20
0.052397
 30
0.0
 11
-1.139847
 21
0.052512
 31
0.0
  0
LINE
  8
0
  6
CONTINUOUS
 62
     7
  5
666
 10
-1.139847
 20
0.052512
 30
0.0
 11
-1.13976
 21
0.052627
 31
0.0
  0
LINE
  8
0
  6
CONTINUOUS
 62
     7
  5
667
 10
-1.13976
 20
0.052627
 30
0.0
 11
-1.139673
 21
0.052741
 31
0.0
  0
LINE
  8
0
  6
CONTINUOUS
 62
     7
  5
668
 10
-1.139673
 20
0.052741
 30
0.0
 11
-1.139586
 21
0.052856
 31
0.0
  0
LINE
  8
0
  6
CONTINUOUS
 62
     7
  5
669
 10
-1.139586
 20
0.052856
 30
0.0
 11
-1.139498
 21
0.05297
 31
0.0
  0
LINE
  8
0
  6
CONTINUOUS
 62
     7
  5
66A
 10
-1.139498
 20
0.05297
 30
0.0
 11
-1.139411
 21
0.053084
 31
0.0
  0
LINE
  8
0
  6
CONTINUOUS
 62
     7
  5
66B
 10
-1.139411
 20
0.053084
 30
0.0
 11
-1.139323
 21
0.053198
 31
0.0
  0
LINE
  8
0
  6
CONTINUOUS
 62
     7
  5
66C
 10
-1.139323
 20
0.053198
 30
0.0
 11
-1.139234
 21
0.053312
 31
0.0
  0
LINE
  8
0
  6
CONTINUOUS
 62
     7
  5
66D
 10
-1.139234
 20
0.053312
 30
0.0
 11
-1.139146
 21
0.053426
 31
0.0
  0
LINE
  8
0
  6
CONTINUOUS
 62
     7
  5
66E
 10
-1.139146
 20
0.053426
 30
0.0
 11
-1.139058
 21
0.053539
 31
0.0
  0
LINE
  8
0
  6
CONTINUOUS
 62
     7
  5
66F
 10
-1.139058
 20
0.053539
 30
0.0
 11
-1.138969
 21
0.053652
 31
0.0
  0
LINE
  8
0
  6
CONTINUOUS
 62
     7
  5
670
 10
-1.138969
 20
0.053652
 30
0.0
 11
-1.13888
 21
0.053766
 31
0.0
  0
LINE
  8
0
  6
CONTINUOUS
 62
     7
  5
671
 10
-1.13888
 20
0.053766
 30
0.0
 11
-1.138791
 21
0.053879
 31
0.0
  0
LINE
  8
0
  6
CONTINUOUS
 62
     7
  5
672
 10
-1.138791
 20
0.053879
 30
0.0
 11
-1.138702
 21
0.053992
 31
0.0
  0
LINE
  8
0
  6
CONTINUOUS
 62
     7
  5
673
 10
-1.138702
 20
0.053992
 30
0.0
 11
-1.138612
 21
0.054105
 31
0.0
  0
LINE
  8
0
  6
CONTINUOUS
 62
     7
  5
674
 10
-1.138612
 20
0.054105
 30
0.0
 11
-1.138523
 21
0.054217
 31
0.0
  0
LINE
  8
0
  6
CONTINUOUS
 62
     7
  5
675
 10
-1.138523
 20
0.054217
 30
0.0
 11
-1.138433
 21
0.05433
 31
0.0
  0
LINE
  8
0
  6
CONTINUOUS
 62
     7
  5
676
 10
-1.138433
 20
0.05433
 30
0.0
 11
-1.138343
 21
0.054442
 31
0.0
  0
LINE
  8
0
  6
CONTINUOUS
 62
     7
  5
677
 10
-1.138343
 20
0.054442
 30
0.0
 11
-1.138253
 21
0.054554
 31
0.0
  0
LINE
  8
0
  6
CONTINUOUS
 62
     7
  5
678
 10
-1.138253
 20
0.054554
 30
0.0
 11
-1.138163
 21
0.054666
 31
0.0
  0
LINE
  8
0
  6
CONTINUOUS
 62
     7
  5
679
 10
-1.138163
 20
0.054666
 30
0.0
 11
-1.138072
 21
0.054778
 31
0.0
  0
LINE
  8
0
  6
CONTINUOUS
 62
     7
  5
67A
 10
-1.138072
 20
0.054778
 30
0.0
 11
-1.137981
 21
0.05489
 31
0.0
  0
LINE
  8
0
  6
CONTINUOUS
 62
     7
  5
67B
 10
-1.09448
 20
0.045276
 30
0.0
 11
-1.094523
 21
0.045487
 31
0.0
  0
LINE
  8
0
  6
CONTINUOUS
 62
     7
  5
67C
 10
-1.094523
 20
0.045487
 30
0.0
 11
-1.094653
 21
0.045699
 31
0.0
  0
LINE
  8
0
  6
CONTINUOUS
 62
     7
  5
67D
 10
-1.094653
 20
0.045699
 30
0.0
 11
-1.094869
 21
0.04591
 31
0.0
  0
LINE
  8
0
  6
CONTINUOUS
 62
     7
  5
67E
 10
-1.094869
 20
0.04591
 30
0.0
 11
-1.095172
 21
0.04612
 31
0.0
  0
LINE
  8
0
  6
CONTINUOUS
 62
     7
  5
67F
 10
-1.095172
 20
0.04612
 30
0.0
 11
-1.095561
 21
0.046329
 31
0.0
  0
LINE
  8
0
  6
CONTINUOUS
 62
     7
  5
680
 10
-1.095561
 20
0.046329
 30
0.0
 11
-1.096035
 21
0.046537
 31
0.0
  0
LINE
  8
0
  6
CONTINUOUS
 62
     7
  5
681
 10
-1.096035
 20
0.046537
 30
0.0
 11
-1.096594
 21
0.046743
 31
0.0
  0
LINE
  8
0
  6
CONTINUOUS
 62
     7
  5
682
 10
-1.096594
 20
0.046743
 30
0.0
 11
-1.097237
 21
0.046947
 31
0.0
  0
LINE
  8
0
  6
CONTINUOUS
 62
     7
  5
683
 10
-1.097237
 20
0.046947
 30
0.0
 11
-1.097964
 21
0.047149
 31
0.0
  0
LINE
  8
0
  6
CONTINUOUS
 62
     7
  5
684
 10
-1.097964
 20
0.047149
 30
0.0
 11
-1.098773
 21
0.047349
 31
0.0
  0
LINE
  8
0
  6
CONTINUOUS
 62
     7
  5
685
 10
-1.098773
 20
0.047349
 30
0.0
 11
-1.099663
 21
0.047546
 31
0.0
  0
LINE
  8
0
  6
CONTINUOUS
 62
     7
  5
686
 10
-1.099663
 20
0.047546
 30
0.0
 11
-1.100634
 21
0.04774
 31
0.0
  0
LINE
  8
0
  6
CONTINUOUS
 62
     7
  5
687
 10
-1.100634
 20
0.04774
 30
0.0
 11
-1.101683
 21
0.047931
 31
0.0
  0
LINE
  8
0
  6
CONTINUOUS
 62
     7
  5
688
 10
-1.101683
 20
0.047931
 30
0.0
 11
-1.10281
 21
0.048119
 31
0.0
  0
LINE
  8
0
  6
CONTINUOUS
 62
     7
  5
689
 10
-1.10281
 20
0.048119
 30
0.0
 11
-1.104013
 21
0.048302
 31
0.0
  0
LINE
  8
0
  6
CONTINUOUS
 62
     7
  5
68A
 10
-1.104013
 20
0.048302
 30
0.0
 11
-1.105291
 21
0.048482
 31
0.0
  0
LINE
  8
0
  6
CONTINUOUS
 62
     7
  5
68B
 10
-1.105291
 20
0.048482
 30
0.0
 11
-1.106642
 21
0.048658
 31
0.0
  0
LINE
  8
0
  6
CONTINUOUS
 62
     7
  5
68C
 10
-1.106642
 20
0.048658
 30
0.0
 11
-1.108064
 21
0.04883
 31
0.0
  0
LINE
  8
0
  6
CONTINUOUS
 62
     7
  5
68D
 10
-1.108064
 20
0.04883
 30
0.0
 11
-1.109555
 21
0.048997
 31
0.0
  0
LINE
  8
0
  6
CONTINUOUS
 62
     7
  5
68E
 10
-1.109555
 20
0.048997
 30
0.0
 11
-1.111114
 21
0.049159
 31
0.0
  0
LINE
  8
0
  6
CONTINUOUS
 62
     7
  5
68F
 10
-1.111114
 20
0.049159
 30
0.0
 11
-1.112738
 21
0.049316
 31
0.0
  0
LINE
  8
0
  6
CONTINUOUS
 62
     7
  5
690
 10
-1.112738
 20
0.049316
 30
0.0
 11
-1.114426
 21
0.049468
 31
0.0
  0
LINE
  8
0
  6
CONTINUOUS
 62
     7
  5
691
 10
-1.114426
 20
0.049468
 30
0.0
 11
-1.116175
 21
0.049614
 31
0.0
  0
LINE
  8
0
  6
CONTINUOUS
 62
     7
  5
692
 10
-1.116175
 20
0.049614
 30
0.0
 11
-1.117982
 21
0.049755
 31
0.0
  0
LINE
  8
0
  6
CONTINUOUS
 62
     7
  5
693
 10
-1.117982
 20
0.049755
 30
0.0
 11
-1.119847
 21
0.04989
 31
0.0
  0
LINE
  8
0
  6
CONTINUOUS
 62
     7
  5
694
 10
-1.119847
 20
0.04989
 30
0.0
 11
-1.121765
 21
0.05002
 31
0.0
  0
LINE
  8
0
  6
CONTINUOUS
 62
     7
  5
695
 10
-1.121765
 20
0.05002
 30
0.0
 11
-1.123736
 21
0.050143
 31
0.0
  0
LINE
  8
0
  6
CONTINUOUS
 62
     7
  5
696
 10
-1.123736
 20
0.050143
 30
0.0
 11
-1.125755
 21
0.05026
 31
0.0
  0
LINE
  8
0
  6
CONTINUOUS
 62
     7
  5
697
 10
-1.125755
 20
0.05026
 30
0.0
 11
-1.127822
 21
0.05037
 31
0.0
  0
LINE
  8
0
  6
CONTINUOUS
 62
     7
  5
698
 10
-1.127822
 20
0.05037
 30
0.0
 11
-1.129932
 21
0.050474
 31
0.0
  0
LINE
  8
0
  6
CONTINUOUS
 62
     7
  5
699
 10
-1.129932
 20
0.050474
 30
0.0
 11
-1.132083
 21
0.050571
 31
0.0
  0
LINE
  8
0
  6
CONTINUOUS
 62
     7
  5
69A
 10
-1.132083
 20
0.050571
 30
0.0
 11
-1.134273
 21
0.050662
 31
0.0
  0
LINE
  8
0
  6
CONTINUOUS
 62
     7
  5
69B
 10
-1.134273
 20
0.050662
 30
0.0
 11
-1.136498
 21
0.050745
 31
0.0
  0
LINE
  8
0
  6
CONTINUOUS
 62
     7
  5
69C
 10
-1.136498
 20
0.050745
 30
0.0
 11
-1.138757
 21
0.050822
 31
0.0
  0
LINE
  8
0
  6
CONTINUOUS
 62
     7
  5
69D
 10
-1.138757
 20
0.050822
 30
0.0
 11
-1.141045
 21
0.050891
 31
0.0
  0
LINE
  8
0
  6
CONTINUOUS
 62
     7
  5
69E
 10
-1.107451
 20
0.023622
 30
0.0
 11
-1.09448
 21
0.045276
 31
0.0
  0
LINE
  8
0
  6
CONTINUOUS
 62
     7
  5
69F
 10
-1.03937
 20
-0.023622
 30
0.0
 11
-1.062451
 21
-0.023622
 31
0.0
  0
LINE
  8
0
  6
CONTINUOUS
 62
     7
  5
6A0
 10
-1.062451
 20
0.023622
 30
0.0
 11
-1.03937
 21
0.023622
 31
0.0
  0
ARC
  8
0
  6
CONTINUOUS
 62
     7
  5
6A1
 10
-1.088583
 20
0.0
 30
0.0
 40
0.023622
 50
199.471221
 51
270.0
  0
LINE
  8
0
  6
CONTINUOUS
 62
     7
  5
6A2
 10
-1.110854
 20
-0.007874
 30
0.0
 11
-1.157123
 21
-0.007874
 31
0.0
  0
ARC
  8
0
  6
CONTINUOUS
 62
     7
  5
6A3
 10
-1.070472
 20
0.0
 30
0.0
 40
0.087008
 50
185.192242
 51
211.356536
  0
ARC
  8
0
  6
CONTINUOUS
 62
     7
  5
6A4
 10
-1.088583
 20
0.0
 30
0.0
 40
0.023622
 50
90.0
 51
160.528779
  0
LINE
  8
0
  6
CONTINUOUS
 62
     7
  5
6A5
 10
-1.110854
 20
-0.007874
 30
0.0
 11
-1.110947
 21
-0.007605
 31
0.0
  0
LINE
  8
0
  6
CONTINUOUS
 62
     7
  5
6A6
 10
-1.110947
 20
-0.007605
 30
0.0
 11
-1.111046
 21
-0.007308
 31
0.0
  0
LINE
  8
0
  6
CONTINUOUS
 62
     7
  5
6A7
 10
-1.111046
 20
-0.007308
 30
0.0
 11
-1.111149
 21
-0.006983
 31
0.0
  0
LINE
  8
0
  6
CONTINUOUS
 62
     7
  5
6A8
 10
-1.111149
 20
-0.006983
 30
0.0
 11
-1.111253
 21
-0.006636
 31
0.0
  0
LINE
  8
0
  6
CONTINUOUS
 62
     7
  5
6A9
 10
-1.111253
 20
-0.006636
 30
0.0
 11
-1.111357
 21
-0.00627
 31
0.0
  0
LINE
  8
0
  6
CONTINUOUS
 62
     7
  5
6AA
 10
-1.111357
 20
-0.00627
 30
0.0
 11
-1.11146
 21
-0.005883
 31
0.0
  0
LINE
  8
0
  6
CONTINUOUS
 62
     7
  5
6AB
 10
-1.11146
 20
-0.005883
 30
0.0
 11
-1.111564
 21
-0.005466
 31
0.0
  0
LINE
  8
0
  6
CONTINUOUS
 62
     7
  5
6AC
 10
-1.111564
 20
-0.005466
 30
0.0
 11
-1.111665
 21
-0.005021
 31
0.0
  0
LINE
  8
0
  6
CONTINUOUS
 62
     7
  5
6AD
 10
-1.111665
 20
-0.005021
 30
0.0
 11
-1.111762
 21
-0.00455
 31
0.0
  0
LINE
  8
0
  6
CONTINUOUS
 62
     7
  5
6AE
 10
-1.111762
 20
-0.00455
 30
0.0
 11
-1.111854
 21
-0.004058
 31
0.0
  0
LINE
  8
0
  6
CONTINUOUS
 62
     7
  5
6AF
 10
-1.111854
 20
-0.004058
 30
0.0
 11
-1.111937
 21
-0.003546
 31
0.0
  0
LINE
  8
0
  6
CONTINUOUS
 62
     7
  5
6B0
 10
-1.111937
 20
-0.003546
 30
0.0
 11
-1.112011
 21
-0.003019
 31
0.0
  0
LINE
  8
0
  6
CONTINUOUS
 62
     7
  5
6B1
 10
-1.112011
 20
-0.003019
 30
0.0
 11
-1.112074
 21
-0.002478
 31
0.0
  0
LINE
  8
0
  6
CONTINUOUS
 62
     7
  5
6B2
 10
-1.112074
 20
-0.002478
 30
0.0
 11
-1.112126
 21
-0.001929
 31
0.0
  0
LINE
  8
0
  6
CONTINUOUS
 62
     7
  5
6B3
 10
-1.112126
 20
-0.001929
 30
0.0
 11
-1.112165
 21
-0.001375
 31
0.0
  0
LINE
  8
0
  6
CONTINUOUS
 62
     7
  5
6B4
 10
-1.112165
 20
-0.001375
 30
0.0
 11
-1.11219
 21
-0.000822
 31
0.0
  0
LINE
  8
0
  6
CONTINUOUS
 62
     7
  5
6B5
 10
-1.11219
 20
-0.000822
 30
0.0
 11
-1.112203
 21
-0.000272
 31
0.0
  0
LINE
  8
0
  6
CONTINUOUS
 62
     7
  5
6B6
 10
-1.112203
 20
-0.000272
 30
0.0
 11
-1.112203
 21
0.000272
 31
0.0
  0
LINE
  8
0
  6
CONTINUOUS
 62
     7
  5
6B7
 10
-1.112203
 20
0.000272
 30
0.0
 11
-1.11219
 21
0.000822
 31
0.0
  0
LINE
  8
0
  6
CONTINUOUS
 62
     7
  5
6B8
 10
-1.11219
 20
0.000822
 30
0.0
 11
-1.112165
 21
0.001375
 31
0.0
  0
LINE
  8
0
  6
CONTINUOUS
 62
     7
  5
6B9
 10
-1.112165
 20
0.001375
 30
0.0
 11
-1.112126
 21
0.001929
 31
0.0
  0
LINE
  8
0
  6
CONTINUOUS
 62
     7
  5
6BA
 10
-1.112126
 20
0.001929
 30
0.0
 11
-1.112074
 21
0.002478
 31
0.0
  0
LINE
  8
0
  6
CONTINUOUS
 62
     7
  5
6BB
 10
-1.112074
 20
0.002478
 30
0.0
 11
-1.112011
 21
0.003019
 31
0.0
  0
LINE
  8
0
  6
CONTINUOUS
 62
     7
  5
6BC
 10
-1.112011
 20
0.003019
 30
0.0
 11
-1.111937
 21
0.003546
 31
0.0
  0
LINE
  8
0
  6
CONTINUOUS
 62
     7
  5
6BD
 10
-1.111937
 20
0.003546
 30
0.0
 11
-1.111854
 21
0.004058
 31
0.0
  0
LINE
  8
0
  6
CONTINUOUS
 62
     7
  5
6BE
 10
-1.111854
 20
0.004058
 30
0.0
 11
-1.111762
 21
0.00455
 31
0.0
  0
LINE
  8
0
  6
CONTINUOUS
 62
     7
  5
6BF
 10
-1.111762
 20
0.00455
 30
0.0
 11
-1.111665
 21
0.005021
 31
0.0
  0
LINE
  8
0
  6
CONTINUOUS
 62
     7
  5
6C0
 10
-1.111665
 20
0.005021
 30
0.0
 11
-1.111564
 21
0.005466
 31
0.0
  0
LINE
  8
0
  6
CONTINUOUS
 62
     7
  5
6C1
 10
-1.111564
 20
0.005466
 30
0.0
 11
-1.11146
 21
0.005883
 31
0.0
  0
LINE
  8
0
  6
CONTINUOUS
 62
     7
  5
6C2
 10
-1.11146
 20
0.005883
 30
0.0
 11
-1.111357
 21
0.00627
 31
0.0
  0
LINE
  8
0
  6
CONTINUOUS
 62
     7
  5
6C3
 10
-1.111357
 20
0.00627
 30
0.0
 11
-1.111253
 21
0.006636
 31
0.0
  0
LINE
  8
0
  6
CONTINUOUS
 62
     7
  5
6C4
 10
-1.111253
 20
0.006636
 30
0.0
 11
-1.111149
 21
0.006983
 31
0.0
  0
LINE
  8
0
  6
CONTINUOUS
 62
     7
  5
6C5
 10
-1.111149
 20
0.006983
 30
0.0
 11
-1.111046
 21
0.007308
 31
0.0
  0
LINE
  8
0
  6
CONTINUOUS
 62
     7
  5
6C6
 10
-1.111046
 20
0.007308
 30
0.0
 11
-1.110947
 21
0.007605
 31
0.0
  0
LINE
  8
0
  6
CONTINUOUS
 62
     7
  5
6C7
 10
-1.110947
 20
0.007605
 30
0.0
 11
-1.110854
 21
0.007874
 31
0.0
  0
LINE
  8
0
  6
CONTINUOUS
 62
     7
  5
6C8
 10
-1.016498
 20
-0.005906
 30
0.0
 11
-1.016737
 21
-0.006762
 31
0.0
  0
LINE
  8
0
  6
CONTINUOUS
 62
     7
  5
6C9
 10
-1.016737
 20
-0.006762
 30
0.0
 11
-1.017007
 21
-0.00761
 31
0.0
  0
LINE
  8
0
  6
CONTINUOUS
 62
     7
  5
6CA
 10
-1.017007
 20
-0.00761
 30
0.0
 11
-1.01731
 21
-0.008446
 31
0.0
  0
LINE
  8
0
  6
CONTINUOUS
 62
     7
  5
6CB
 10
-1.01731
 20
-0.008446
 30
0.0
 11
-1.017643
 21
-0.009271
 31
0.0
  0
LINE
  8
0
  6
CONTINUOUS
 62
     7
  5
6CC
 10
-1.017643
 20
-0.009271
 30
0.0
 11
-1.018008
 21
-0.010083
 31
0.0
  0
LINE
  8
0
  6
CONTINUOUS
 62
     7
  5
6CD
 10
-1.018008
 20
-0.010083
 30
0.0
 11
-1.018403
 21
-0.01088
 31
0.0
  0
LINE
  8
0
  6
CONTINUOUS
 62
     7
  5
6CE
 10
-1.018403
 20
-0.01088
 30
0.0
 11
-1.018827
 21
-0.011661
 31
0.0
  0
LINE
  8
0
  6
CONTINUOUS
 62
     7
  5
6CF
 10
-1.018827
 20
-0.011661
 30
0.0
 11
-1.019281
 21
-0.012427
 31
0.0
  0
LINE
  8
0
  6
CONTINUOUS
 62
     7
  5
6D0
 10
-1.019281
 20
-0.012427
 30
0.0
 11
-1.019763
 21
-0.013174
 31
0.0
  0
LINE
  8
0
  6
CONTINUOUS
 62
     7
  5
6D1
 10
-1.019763
 20
-0.013174
 30
0.0
 11
-1.020273
 21
-0.013903
 31
0.0
  0
LINE
  8
0
  6
CONTINUOUS
 62
     7
  5
6D2
 10
-1.020273
 20
-0.013903
 30
0.0
 11
-1.02081
 21
-0.014612
 31
0.0
  0
LINE
  8
0
  6
CONTINUOUS
 62
     7
  5
6D3
 10
-1.02081
 20
-0.014612
 30
0.0
 11
-1.021373
 21
-0.015301
 31
0.0
  0
LINE
  8
0
  6
CONTINUOUS
 62
     7
  5
6D4
 10
-1.021373
 20
-0.015301
 30
0.0
 11
-1.021962
 21
-0.015968
 31
0.0
  0
LINE
  8
0
  6
CONTINUOUS
 62
     7
  5
6D5
 10
-1.021962
 20
-0.015968
 30
0.0
 11
-1.022576
 21
-0.016612
 31
0.0
  0
LINE
  8
0
  6
CONTINUOUS
 62
     7
  5
6D6
 10
-1.022576
 20
-0.016612
 30
0.0
 11
-1.023213
 21
-0.017232
 31
0.0
  0
LINE
  8
0
  6
CONTINUOUS
 62
     7
  5
6D7
 10
-1.023213
 20
-0.017232
 30
0.0
 11
-1.023873
 21
-0.017828
 31
0.0
  0
LINE
  8
0
  6
CONTINUOUS
 62
     7
  5
6D8
 10
-1.023873
 20
-0.017828
 30
0.0
 11
-1.024556
 21
-0.018399
 31
0.0
  0
LINE
  8
0
  6
CONTINUOUS
 62
     7
  5
6D9
 10
-1.024556
 20
-0.018399
 30
0.0
 11
-1.025259
 21
-0.018944
 31
0.0
  0
LINE
  8
0
  6
CONTINUOUS
 62
     7
  5
6DA
 10
-1.025259
 20
-0.018944
 30
0.0
 11
-1.025982
 21
-0.019462
 31
0.0
  0
LINE
  8
0
  6
CONTINUOUS
 62
     7
  5
6DB
 10
-1.025982
 20
-0.019462
 30
0.0
 11
-1.026724
 21
-0.019952
 31
0.0
  0
LINE
  8
0
  6
CONTINUOUS
 62
     7
  5
6DC
 10
-1.026724
 20
-0.019952
 30
0.0
 11
-1.027485
 21
-0.020414
 31
0.0
  0
LINE
  8
0
  6
CONTINUOUS
 62
     7
  5
6DD
 10
-1.027485
 20
-0.020414
 30
0.0
 11
-1.028262
 21
-0.020847
 31
0.0
  0
LINE
  8
0
  6
CONTINUOUS
 62
     7
  5
6DE
 10
-1.028262
 20
-0.020847
 30
0.0
 11
-1.029054
 21
-0.021251
 31
0.0
  0
LINE
  8
0
  6
CONTINUOUS
 62
     7
  5
6DF
 10
-1.029054
 20
-0.021251
 30
0.0
 11
-1.029862
 21
-0.021624
 31
0.0
  0
LINE
  8
0
  6
CONTINUOUS
 62
     7
  5
6E0
 10
-1.029862
 20
-0.021624
 30
0.0
 11
-1.030683
 21
-0.021967
 31
0.0
  0
LINE
  8
0
  6
CONTINUOUS
 62
     7
  5
6E1
 10
-1.030683
 20
-0.021967
 30
0.0
 11
-1.031516
 21
-0.022278
 31
0.0
  0
LINE
  8
0
  6
CONTINUOUS
 62
     7
  5
6E2
 10
-1.031516
 20
-0.022278
 30
0.0
 11
-1.03236
 21
-0.022558
 31
0.0
  0
LINE
  8
0
  6
CONTINUOUS
 62
     7
  5
6E3
 10
-1.03236
 20
-0.022558
 30
0.0
 11
-1.033215
 21
-0.022806
 31
0.0
  0
LINE
  8
0
  6
CONTINUOUS
 62
     7
  5
6E4
 10
-1.033215
 20
-0.022806
 30
0.0
 11
-1.034078
 21
-0.023022
 31
0.0
  0
LINE
  8
0
  6
CONTINUOUS
 62
     7
  5
6E5
 10
-1.034078
 20
-0.023022
 30
0.0
 11
-1.034948
 21
-0.023204
 31
0.0
  0
LINE
  8
0
  6
CONTINUOUS
 62
     7
  5
6E6
 10
-1.034948
 20
-0.023204
 30
0.0
 11
-1.035825
 21
-0.023355
 31
0.0
  0
LINE
  8
0
  6
CONTINUOUS
 62
     7
  5
6E7
 10
-1.035825
 20
-0.023355
 30
0.0
 11
-1.036707
 21
-0.023471
 31
0.0
  0
LINE
  8
0
  6
CONTINUOUS
 62
     7
  5
6E8
 10
-1.036707
 20
-0.023471
 30
0.0
 11
-1.037593
 21
-0.023555
 31
0.0
  0
LINE
  8
0
  6
CONTINUOUS
 62
     7
  5
6E9
 10
-1.037593
 20
-0.023555
 30
0.0
 11
-1.038481
 21
-0.023605
 31
0.0
  0
LINE
  8
0
  6
CONTINUOUS
 62
     7
  5
6EA
 10
-1.038481
 20
-0.023605
 30
0.0
 11
-1.03937
 21
-0.023622
 31
0.0
  0
LINE
  8
0
  6
CONTINUOUS
 62
     7
  5
6EB
 10
-1.03937
 20
0.023622
 30
0.0
 11
-1.038481
 21
0.023605
 31
0.0
  0
LINE
  8
0
  6
CONTINUOUS
 62
     7
  5
6EC
 10
-1.038481
 20
0.023605
 30
0.0
 11
-1.037593
 21
0.023555
 31
0.0
  0
LINE
  8
0
  6
CONTINUOUS
 62
     7
  5
6ED
 10
-1.037593
 20
0.023555
 30
0.0
 11
-1.036707
 21
0.023471
 31
0.0
  0
LINE
  8
0
  6
CONTINUOUS
 62
     7
  5
6EE
 10
-1.036707
 20
0.023471
 30
0.0
 11
-1.035825
 21
0.023355
 31
0.0
  0
LINE
  8
0
  6
CONTINUOUS
 62
     7
  5
6EF
 10
-1.035825
 20
0.023355
 30
0.0
 11
-1.034948
 21
0.023204
 31
0.0
  0
LINE
  8
0
  6
CONTINUOUS
 62
     7
  5
6F0
 10
-1.034948
 20
0.023204
 30
0.0
 11
-1.034078
 21
0.023022
 31
0.0
  0
LINE
  8
0
  6
CONTINUOUS
 62
     7
  5
6F1
 10
-1.034078
 20
0.023022
 30
0.0
 11
-1.033215
 21
0.022806
 31
0.0
  0
LINE
  8
0
  6
CONTINUOUS
 62
     7
  5
6F2
 10
-1.033215
 20
0.022806
 30
0.0
 11
-1.03236
 21
0.022558
 31
0.0
  0
LINE
  8
0
  6
CONTINUOUS
 62
     7
  5
6F3
 10
-1.03236
 20
0.022558
 30
0.0
 11
-1.031516
 21
0.022278
 31
0.0
  0
LINE
  8
0
  6
CONTINUOUS
 62
     7
  5
6F4
 10
-1.031516
 20
0.022278
 30
0.0
 11
-1.030683
 21
0.021967
 31
0.0
  0
LINE
  8
0
  6
CONTINUOUS
 62
     7
  5
6F5
 10
-1.030683
 20
0.021967
 30
0.0
 11
-1.029862
 21
0.021624
 31
0.0
  0
LINE
  8
0
  6
CONTINUOUS
 62
     7
  5
6F6
 10
-1.029862
 20
0.021624
 30
0.0
 11
-1.029054
 21
0.021251
 31
0.0
  0
LINE
  8
0
  6
CONTINUOUS
 62
     7
  5
6F7
 10
-1.029054
 20
0.021251
 30
0.0
 11
-1.028262
 21
0.020847
 31
0.0
  0
LINE
  8
0
  6
CONTINUOUS
 62
     7
  5
6F8
 10
-1.028262
 20
0.020847
 30
0.0
 11
-1.027485
 21
0.020414
 31
0.0
  0
LINE
  8
0
  6
CONTINUOUS
 62
     7
  5
6F9
 10
-1.027485
 20
0.020414
 30
0.0
 11
-1.026724
 21
0.019952
 31
0.0
  0
LINE
  8
0
  6
CONTINUOUS
 62
     7
  5
6FA
 10
-1.026724
 20
0.019952
 30
0.0
 11
-1.025982
 21
0.019462
 31
0.0
  0
LINE
  8
0
  6
CONTINUOUS
 62
     7
  5
6FB
 10
-1.025982
 20
0.019462
 30
0.0
 11
-1.025259
 21
0.018944
 31
0.0
  0
LINE
  8
0
  6
CONTINUOUS
 62
     7
  5
6FC
 10
-1.025259
 20
0.018944
 30
0.0
 11
-1.024556
 21
0.018399
 31
0.0
  0
LINE
  8
0
  6
CONTINUOUS
 62
     7
  5
6FD
 10
-1.024556
 20
0.018399
 30
0.0
 11
-1.023873
 21
0.017828
 31
0.0
  0
LINE
  8
0
  6
CONTINUOUS
 62
     7
  5
6FE
 10
-1.023873
 20
0.017828
 30
0.0
 11
-1.023213
 21
0.017232
 31
0.0
  0
LINE
  8
0
  6
CONTINUOUS
 62
     7
  5
6FF
 10
-1.023213
 20
0.017232
 30
0.0
 11
-1.022576
 21
0.016612
 31
0.0
  0
LINE
  8
0
  6
CONTINUOUS
 62
     7
  5
700
 10
-1.022576
 20
0.016612
 30
0.0
 11
-1.021962
 21
0.015968
 31
0.0
  0
LINE
  8
0
  6
CONTINUOUS
 62
     7
  5
701
 10
-1.021962
 20
0.015968
 30
0.0
 11
-1.021373
 21
0.015301
 31
0.0
  0
LINE
  8
0
  6
CONTINUOUS
 62
     7
  5
702
 10
-1.021373
 20
0.015301
 30
0.0
 11
-1.02081
 21
0.014612
 31
0.0
  0
LINE
  8
0
  6
CONTINUOUS
 62
     7
  5
703
 10
-1.02081
 20
0.014612
 30
0.0
 11
-1.020273
 21
0.013903
 31
0.0
  0
LINE
  8
0
  6
CONTINUOUS
 62
     7
  5
704
 10
-1.020273
 20
0.013903
 30
0.0
 11
-1.019763
 21
0.013174
 31
0.0
  0
LINE
  8
0
  6
CONTINUOUS
 62
     7
  5
705
 10
-1.019763
 20
0.013174
 30
0.0
 11
-1.019281
 21
0.012427
 31
0.0
  0
LINE
  8
0
  6
CONTINUOUS
 62
     7
  5
706
 10
-1.019281
 20
0.012427
 30
0.0
 11
-1.018827
 21
0.011661
 31
0.0
  0
LINE
  8
0
  6
CONTINUOUS
 62
     7
  5
707
 10
-1.018827
 20
0.011661
 30
0.0
 11
-1.018403
 21
0.01088
 31
0.0
  0
LINE
  8
0
  6
CONTINUOUS
 62
     7
  5
708
 10
-1.018403
 20
0.01088
 30
0.0
 11
-1.018008
 21
0.010083
 31
0.0
  0
LINE
  8
0
  6
CONTINUOUS
 62
     7
  5
709
 10
-1.018008
 20
0.010083
 30
0.0
 11
-1.017643
 21
0.009271
 31
0.0
  0
LINE
  8
0
  6
CONTINUOUS
 62
     7
  5
70A
 10
-1.017643
 20
0.009271
 30
0.0
 11
-1.01731
 21
0.008446
 31
0.0
  0
LINE
  8
0
  6
CONTINUOUS
 62
     7
  5
70B
 10
-1.01731
 20
0.008446
 30
0.0
 11
-1.017007
 21
0.00761
 31
0.0
  0
LINE
  8
0
  6
CONTINUOUS
 62
     7
  5
70C
 10
-1.017007
 20
0.00761
 30
0.0
 11
-1.016737
 21
0.006762
 31
0.0
  0
LINE
  8
0
  6
CONTINUOUS
 62
     7
  5
70D
 10
-1.016737
 20
0.006762
 30
0.0
 11
-1.016498
 21
0.005906
 31
0.0
  0
LINE
  8
0
  6
CONTINUOUS
 62
     7
  5
70E
 10
-0.84252
 20
-0.045276
 30
0.0
 11
-1.04948
 21
-0.045276
 31
0.0
  0
LINE
  8
0
  6
CONTINUOUS
 62
     7
  5
70F
 10
-0.84252
 20
-0.005906
 30
0.0
 11
-1.016498
 21
-0.005906
 31
0.0
  0
ARC
  8
0
  6
CONTINUOUS
 62
     7
  5
710
 10
-1.070472
 20
0.0
 30
0.0
 40
0.087008
 50
148.643464
 51
174.807758
  0
LINE
  8
0
  6
CONTINUOUS
 62
     7
  5
711
 10
-1.110854
 20
0.007874
 30
0.0
 11
-1.157123
 21
0.007874
 31
0.0
  0
LINE
  8
0
  6
CONTINUOUS
 62
     7
  5
712
 10
-0.84252
 20
0.005906
 30
0.0
 11
-1.016498
 21
0.005906
 31
0.0
  0
LINE
  8
0
  6
CONTINUOUS
 62
     7
  5
713
 10
-0.84252
 20
0.045276
 30
0.0
 11
-1.04948
 21
0.045276
 31
0.0
  0
LINE
  8
0
  6
CONTINUOUS
 62
     7
  5
714
 10
-1.157123
 20
0.007874
 30
0.0
 11
-1.157135
 21
0.007743
 31
0.0
  0
LINE
  8
0
  6
CONTINUOUS
 62
     7
  5
715
 10
-1.157135
 20
0.007743
 30
0.0
 11
-1.157147
 21
0.007605
 31
0.0
  0
LINE
  8
0
  6
CONTINUOUS
 62
     7
  5
716
 10
-1.157147
 20
0.007605
 30
0.0
 11
-1.15716
 21
0.007459
 31
0.0
  0
LINE
  8
0
  6
CONTINUOUS
 62
     7
  5
717
 10
-1.15716
 20
0.007459
 30
0.0
 11
-1.157173
 21
0.007306
 31
0.0
  0
LINE
  8
0
  6
CONTINUOUS
 62
     7
  5
718
 10
-1.157173
 20
0.007306
 30
0.0
 11
-1.157186
 21
0.007146
 31
0.0
  0
LINE
  8
0
  6
CONTINUOUS
 62
     7
  5
719
 10
-1.157186
 20
0.007146
 30
0.0
 11
-1.1572
 21
0.00698
 31
0.0
  0
LINE
  8
0
  6
CONTINUOUS
 62
     7
  5
71A
 10
-1.1572
 20
0.00698
 30
0.0
 11
-1.157214
 21
0.006809
 31
0.0
  0
LINE
  8
0
  6
CONTINUOUS
 62
     7
  5
71B
 10
-1.157214
 20
0.006809
 30
0.0
 11
-1.157227
 21
0.006631
 31
0.0
  0
LINE
  8
0
  6
CONTINUOUS
 62
     7
  5
71C
 10
-1.157227
 20
0.006631
 30
0.0
 11
-1.157241
 21
0.006449
 31
0.0
  0
LINE
  8
0
  6
CONTINUOUS
 62
     7
  5
71D
 10
-1.157241
 20
0.006449
 30
0.0
 11
-1.157255
 21
0.006263
 31
0.0
  0
LINE
  8
0
  6
CONTINUOUS
 62
     7
  5
71E
 10
-1.157255
 20
0.006263
 30
0.0
 11
-1.157268
 21
0.006072
 31
0.0
  0
LINE
  8
0
  6
CONTINUOUS
 62
     7
  5
71F
 10
-1.157268
 20
0.006072
 30
0.0
 11
-1.157282
 21
0.005873
 31
0.0
  0
LINE
  8
0
  6
CONTINUOUS
 62
     7
  5
720
 10
-1.157282
 20
0.005873
 30
0.0
 11
-1.157296
 21
0.005666
 31
0.0
  0
LINE
  8
0
  6
CONTINUOUS
 62
     7
  5
721
 10
-1.157296
 20
0.005666
 30
0.0
 11
-1.157309
 21
0.005453
 31
0.0
  0
LINE
  8
0
  6
CONTINUOUS
 62
     7
  5
722
 10
-1.157309
 20
0.005453
 30
0.0
 11
-1.157323
 21
0.005232
 31
0.0
  0
LINE
  8
0
  6
CONTINUOUS
 62
     7
  5
723
 10
-1.157323
 20
0.005232
 30
0.0
 11
-1.157336
 21
0.005005
 31
0.0
  0
LINE
  8
0
  6
CONTINUOUS
 62
     7
  5
724
 10
-1.157336
 20
0.005005
 30
0.0
 11
-1.157349
 21
0.004772
 31
0.0
  0
LINE
  8
0
  6
CONTINUOUS
 62
     7
  5
725
 10
-1.157349
 20
0.004772
 30
0.0
 11
-1.157362
 21
0.004533
 31
0.0
  0
LINE
  8
0
  6
CONTINUOUS
 62
     7
  5
726
 10
-1.157362
 20
0.004533
 30
0.0
 11
-1.157375
 21
0.004289
 31
0.0
  0
LINE
  8
0
  6
CONTINUOUS
 62
     7
  5
727
 10
-1.157375
 20
0.004289
 30
0.0
 11
-1.157386
 21
0.004039
 31
0.0
  0
LINE
  8
0
  6
CONTINUOUS
 62
     7
  5
728
 10
-1.157386
 20
0.004039
 30
0.0
 11
-1.157398
 21
0.003785
 31
0.0
  0
LINE
  8
0
  6
CONTINUOUS
 62
     7
  5
729
 10
-1.157398
 20
0.003785
 30
0.0
 11
-1.157409
 21
0.003527
 31
0.0
  0
LINE
  8
0
  6
CONTINUOUS
 62
     7
  5
72A
 10
-1.157409
 20
0.003527
 30
0.0
 11
-1.157419
 21
0.003265
 31
0.0
  0
LINE
  8
0
  6
CONTINUOUS
 62
     7
  5
72B
 10
-1.157419
 20
0.003265
 30
0.0
 11
-1.157429
 21
0.003
 31
0.0
  0
LINE
  8
0
  6
CONTINUOUS
 62
     7
  5
72C
 10
-1.157429
 20
0.003
 30
0.0
 11
-1.157437
 21
0.002731
 31
0.0
  0
LINE
  8
0
  6
CONTINUOUS
 62
     7
  5
72D
 10
-1.157437
 20
0.002731
 30
0.0
 11
-1.157446
 21
0.002461
 31
0.0
  0
LINE
  8
0
  6
CONTINUOUS
 62
     7
  5
72E
 10
-1.157446
 20
0.002461
 30
0.0
 11
-1.157453
 21
0.002188
 31
0.0
  0
LINE
  8
0
  6
CONTINUOUS
 62
     7
  5
72F
 10
-1.157453
 20
0.002188
 30
0.0
 11
-1.157459
 21
0.001914
 31
0.0
  0
LINE
  8
0
  6
CONTINUOUS
 62
     7
  5
730
 10
-1.157459
 20
0.001914
 30
0.0
 11
-1.157465
 21
0.001639
 31
0.0
  0
LINE
  8
0
  6
CONTINUOUS
 62
     7
  5
731
 10
-1.157465
 20
0.001639
 30
0.0
 11
-1.15747
 21
0.001363
 31
0.0
  0
LINE
  8
0
  6
CONTINUOUS
 62
     7
  5
732
 10
-1.15747
 20
0.001363
 30
0.0
 11
-1.157474
 21
0.001088
 31
0.0
  0
LINE
  8
0
  6
CONTINUOUS
 62
     7
  5
733
 10
-1.157474
 20
0.001088
 30
0.0
 11
-1.157477
 21
0.000814
 31
0.0
  0
LINE
  8
0
  6
CONTINUOUS
 62
     7
  5
734
 10
-1.157477
 20
0.000814
 30
0.0
 11
-1.157479
 21
0.00054
 31
0.0
  0
LINE
  8
0
  6
CONTINUOUS
 62
     7
  5
735
 10
-1.157479
 20
0.00054
 30
0.0
 11
-1.15748
 21
0.000269
 31
0.0
  0
LINE
  8
0
  6
CONTINUOUS
 62
     7
  5
736
 10
-1.15748
 20
0.000269
 30
0.0
 11
-1.15748
 21
0.0
 31
0.0
  0
LINE
  8
0
  6
CONTINUOUS
 62
     7
  5
737
 10
-1.15748
 20
0.0
 30
0.0
 11
-1.15748
 21
-0.000269
 31
0.0
  0
LINE
  8
0
  6
CONTINUOUS
 62
     7
  5
738
 10
-1.15748
 20
-0.000269
 30
0.0
 11
-1.157479
 21
-0.00054
 31
0.0
  0
LINE
  8
0
  6
CONTINUOUS
 62
     7
  5
739
 10
-1.157479
 20
-0.00054
 30
0.0
 11
-1.157477
 21
-0.000814
 31
0.0
  0
LINE
  8
0
  6
CONTINUOUS
 62
     7
  5
73A
 10
-1.157477
 20
-0.000814
 30
0.0
 11
-1.157474
 21
-0.001088
 31
0.0
  0
LINE
  8
0
  6
CONTINUOUS
 62
     7
  5
73B
 10
-1.157474
 20
-0.001088
 30
0.0
 11
-1.15747
 21
-0.001363
 31
0.0
  0
LINE
  8
0
  6
CONTINUOUS
 62
     7
  5
73C
 10
-1.15747
 20
-0.001363
 30
0.0
 11
-1.157465
 21
-0.001639
 31
0.0
  0
LINE
  8
0
  6
CONTINUOUS
 62
     7
  5
73D
 10
-1.157465
 20
-0.001639
 30
0.0
 11
-1.157459
 21
-0.001914
 31
0.0
  0
LINE
  8
0
  6
CONTINUOUS
 62
     7
  5
73E
 10
-1.157459
 20
-0.001914
 30
0.0
 11
-1.157453
 21
-0.002188
 31
0.0
  0
LINE
  8
0
  6
CONTINUOUS
 62
     7
  5
73F
 10
-1.157453
 20
-0.002188
 30
0.0
 11
-1.157446
 21
-0.002461
 31
0.0
  0
LINE
  8
0
  6
CONTINUOUS
 62
     7
  5
740
 10
-1.157446
 20
-0.002461
 30
0.0
 11
-1.157437
 21
-0.002731
 31
0.0
  0
LINE
  8
0
  6
CONTINUOUS
 62
     7
  5
741
 10
-1.157437
 20
-0.002731
 30
0.0
 11
-1.157429
 21
-0.003
 31
0.0
  0
LINE
  8
0
  6
CONTINUOUS
 62
     7
  5
742
 10
-1.157429
 20
-0.003
 30
0.0
 11
-1.157419
 21
-0.003265
 31
0.0
  0
LINE
  8
0
  6
CONTINUOUS
 62
     7
  5
743
 10
-1.157419
 20
-0.003265
 30
0.0
 11
-1.157409
 21
-0.003527
 31
0.0
  0
LINE
  8
0
  6
CONTINUOUS
 62
     7
  5
744
 10
-1.157409
 20
-0.003527
 30
0.0
 11
-1.157398
 21
-0.003785
 31
0.0
  0
LINE
  8
0
  6
CONTINUOUS
 62
     7
  5
745
 10
-1.157398
 20
-0.003785
 30
0.0
 11
-1.157386
 21
-0.004039
 31
0.0
  0
LINE
  8
0
  6
CONTINUOUS
 62
     7
  5
746
 10
-1.157386
 20
-0.004039
 30
0.0
 11
-1.157375
 21
-0.004289
 31
0.0
  0
LINE
  8
0
  6
CONTINUOUS
 62
     7
  5
747
 10
-1.157375
 20
-0.004289
 30
0.0
 11
-1.157362
 21
-0.004533
 31
0.0
  0
LINE
  8
0
  6
CONTINUOUS
 62
     7
  5
748
 10
-1.157362
 20
-0.004533
 30
0.0
 11
-1.157349
 21
-0.004772
 31
0.0
  0
LINE
  8
0
  6
CONTINUOUS
 62
     7
  5
749
 10
-1.157349
 20
-0.004772
 30
0.0
 11
-1.157336
 21
-0.005005
 31
0.0
  0
LINE
  8
0
  6
CONTINUOUS
 62
     7
  5
74A
 10
-1.157336
 20
-0.005005
 30
0.0
 11
-1.157323
 21
-0.005232
 31
0.0
  0
LINE
  8
0
  6
CONTINUOUS
 62
     7
  5
74B
 10
-1.157323
 20
-0.005232
 30
0.0
 11
-1.157309
 21
-0.005453
 31
0.0
  0
LINE
  8
0
  6
CONTINUOUS
 62
     7
  5
74C
 10
-1.157309
 20
-0.005453
 30
0.0
 11
-1.157296
 21
-0.005666
 31
0.0
  0
LINE
  8
0
  6
CONTINUOUS
 62
     7
  5
74D
 10
-1.157296
 20
-0.005666
 30
0.0
 11
-1.157282
 21
-0.005873
 31
0.0
  0
LINE
  8
0
  6
CONTINUOUS
 62
     7
  5
74E
 10
-1.157282
 20
-0.005873
 30
0.0
 11
-1.157268
 21
-0.006072
 31
0.0
  0
LINE
  8
0
  6
CONTINUOUS
 62
     7
  5
74F
 10
-1.157268
 20
-0.006072
 30
0.0
 11
-1.157255
 21
-0.006263
 31
0.0
  0
LINE
  8
0
  6
CONTINUOUS
 62
     7
  5
750
 10
-1.157255
 20
-0.006263
 30
0.0
 11
-1.157241
 21
-0.006449
 31
0.0
  0
LINE
  8
0
  6
CONTINUOUS
 62
     7
  5
751
 10
-1.157241
 20
-0.006449
 30
0.0
 11
-1.157227
 21
-0.006631
 31
0.0
  0
LINE
  8
0
  6
CONTINUOUS
 62
     7
  5
752
 10
-1.157227
 20
-0.006631
 30
0.0
 11
-1.157214
 21
-0.006809
 31
0.0
  0
LINE
  8
0
  6
CONTINUOUS
 62
     7
  5
753
 10
-1.157214
 20
-0.006809
 30
0.0
 11
-1.1572
 21
-0.00698
 31
0.0
  0
LINE
  8
0
  6
CONTINUOUS
 62
     7
  5
754
 10
-1.1572
 20
-0.00698
 30
0.0
 11
-1.157186
 21
-0.007146
 31
0.0
  0
LINE
  8
0
  6
CONTINUOUS
 62
     7
  5
755
 10
-1.157186
 20
-0.007146
 30
0.0
 11
-1.157173
 21
-0.007306
 31
0.0
  0
LINE
  8
0
  6
CONTINUOUS
 62
     7
  5
756
 10
-1.157173
 20
-0.007306
 30
0.0
 11
-1.15716
 21
-0.007459
 31
0.0
  0
LINE
  8
0
  6
CONTINUOUS
 62
     7
  5
757
 10
-1.15716
 20
-0.007459
 30
0.0
 11
-1.157147
 21
-0.007605
 31
0.0
  0
LINE
  8
0
  6
CONTINUOUS
 62
     7
  5
758
 10
-1.157147
 20
-0.007605
 30
0.0
 11
-1.157135
 21
-0.007743
 31
0.0
  0
LINE
  8
0
  6
CONTINUOUS
 62
     7
  5
759
 10
-1.157135
 20
-0.007743
 30
0.0
 11
-1.157123
 21
-0.007874
 31
0.0
  0
LINE
  8
0
  6
CONTINUOUS
 62
     7
  5
75A
 10
-1.140834
 20
0.051182
 30
0.0
 11
-1.140839
 21
0.051175
 31
0.0
  0
LINE
  8
0
  6
CONTINUOUS
 62
     7
  5
75B
 10
-1.140839
 20
0.051175
 30
0.0
 11
-1.140854
 21
0.051155
 31
0.0
  0
LINE
  8
0
  6
CONTINUOUS
 62
     7
  5
75C
 10
-1.140854
 20
0.051155
 30
0.0
 11
-1.140879
 21
0.051121
 31
0.0
  0
LINE
  8
0
  6
CONTINUOUS
 62
     7
  5
75D
 10
-1.140879
 20
0.051121
 30
0.0
 11
-1.140914
 21
0.051072
 31
0.0
  0
LINE
  8
0
  6
CONTINUOUS
 62
     7
  5
75E
 10
-1.140914
 20
0.051072
 30
0.0
 11
-1.140959
 21
0.05101
 31
0.0
  0
LINE
  8
0
  6
CONTINUOUS
 62
     7
  5
75F
 10
-1.140959
 20
0.05101
 30
0.0
 11
-1.141014
 21
0.050934
 31
0.0
  0
LINE
  8
0
  6
CONTINUOUS
 62
     7
  5
760
 10
-1.141014
 20
0.050934
 30
0.0
 11
-1.141078
 21
0.050845
 31
0.0
  0
LINE
  8
0
  6
CONTINUOUS
 62
     7
  5
761
 10
-1.141078
 20
0.050845
 30
0.0
 11
-1.141151
 21
0.050744
 31
0.0
  0
LINE
  8
0
  6
CONTINUOUS
 62
     7
  5
762
 10
-1.141151
 20
0.050744
 30
0.0
 11
-1.141232
 21
0.05063
 31
0.0
  0
LINE
  8
0
  6
CONTINUOUS
 62
     7
  5
763
 10
-1.141232
 20
0.05063
 30
0.0
 11
-1.141322
 21
0.050505
 31
0.0
  0
LINE
  8
0
  6
CONTINUOUS
 62
     7
  5
764
 10
-1.141322
 20
0.050505
 30
0.0
 11
-1.141418
 21
0.050369
 31
0.0
  0
LINE
  8
0
  6
CONTINUOUS
 62
     7
  5
765
 10
-1.141418
 20
0.050369
 30
0.0
 11
-1.141521
 21
0.050224
 31
0.0
  0
LINE
  8
0
  6
CONTINUOUS
 62
     7
  5
766
 10
-1.141521
 20
0.050224
 30
0.0
 11
-1.14163
 21
0.05007
 31
0.0
  0
LINE
  8
0
  6
CONTINUOUS
 62
     7
  5
767
 10
-1.14163
 20
0.05007
 30
0.0
 11
-1.141743
 21
0.049909
 31
0.0
  0
LINE
  8
0
  6
CONTINUOUS
 62
     7
  5
768
 10
-1.141743
 20
0.049909
 30
0.0
 11
-1.141859
 21
0.049743
 31
0.0
  0
LINE
  8
0
  6
CONTINUOUS
 62
     7
  5
769
 10
-1.141859
 20
0.049743
 30
0.0
 11
-1.141978
 21
0.049571
 31
0.0
  0
LINE
  8
0
  6
CONTINUOUS
 62
     7
  5
76A
 10
-1.141978
 20
0.049571
 30
0.0
 11
-1.142101
 21
0.049393
 31
0.0
  0
LINE
  8
0
  6
CONTINUOUS
 62
     7
  5
76B
 10
-1.142101
 20
0.049393
 30
0.0
 11
-1.14223
 21
0.049206
 31
0.0
  0
LINE
  8
0
  6
CONTINUOUS
 62
     7
  5
76C
 10
-1.14223
 20
0.049206
 30
0.0
 11
-1.142363
 21
0.049011
 31
0.0
  0
LINE
  8
0
  6
CONTINUOUS
 62
     7
  5
76D
 10
-1.142363
 20
0.049011
 30
0.0
 11
-1.142501
 21
0.048809
 31
0.0
  0
LINE
  8
0
  6
CONTINUOUS
 62
     7
  5
76E
 10
-1.142501
 20
0.048809
 30
0.0
 11
-1.142642
 21
0.048599
 31
0.0
  0
LINE
  8
0
  6
CONTINUOUS
 62
     7
  5
76F
 10
-1.142642
 20
0.048599
 30
0.0
 11
-1.142787
 21
0.048383
 31
0.0
  0
LINE
  8
0
  6
CONTINUOUS
 62
     7
  5
770
 10
-1.142787
 20
0.048383
 30
0.0
 11
-1.142935
 21
0.048162
 31
0.0
  0
LINE
  8
0
  6
CONTINUOUS
 62
     7
  5
771
 10
-1.142935
 20
0.048162
 30
0.0
 11
-1.143085
 21
0.047935
 31
0.0
  0
LINE
  8
0
  6
CONTINUOUS
 62
     7
  5
772
 10
-1.143085
 20
0.047935
 30
0.0
 11
-1.143238
 21
0.047703
 31
0.0
  0
LINE
  8
0
  6
CONTINUOUS
 62
     7
  5
773
 10
-1.143238
 20
0.047703
 30
0.0
 11
-1.143392
 21
0.047467
 31
0.0
  0
LINE
  8
0
  6
CONTINUOUS
 62
     7
  5
774
 10
-1.143392
 20
0.047467
 30
0.0
 11
-1.143547
 21
0.047228
 31
0.0
  0
LINE
  8
0
  6
CONTINUOUS
 62
     7
  5
775
 10
-1.143547
 20
0.047228
 30
0.0
 11
-1.143703
 21
0.046986
 31
0.0
  0
LINE
  8
0
  6
CONTINUOUS
 62
     7
  5
776
 10
-1.143703
 20
0.046986
 30
0.0
 11
-1.143859
 21
0.046742
 31
0.0
  0
LINE
  8
0
  6
CONTINUOUS
 62
     7
  5
777
 10
-1.143859
 20
0.046742
 30
0.0
 11
-1.144015
 21
0.046496
 31
0.0
  0
LINE
  8
0
  6
CONTINUOUS
 62
     7
  5
778
 10
-1.144015
 20
0.046496
 30
0.0
 11
-1.14417
 21
0.04625
 31
0.0
  0
LINE
  8
0
  6
CONTINUOUS
 62
     7
  5
779
 10
-1.14417
 20
0.04625
 30
0.0
 11
-1.144323
 21
0.046004
 31
0.0
  0
LINE
  8
0
  6
CONTINUOUS
 62
     7
  5
77A
 10
-1.144323
 20
0.046004
 30
0.0
 11
-1.144475
 21
0.045759
 31
0.0
  0
LINE
  8
0
  6
CONTINUOUS
 62
     7
  5
77B
 10
-1.144475
 20
0.045759
 30
0.0
 11
-1.144625
 21
0.045516
 31
0.0
  0
LINE
  8
0
  6
CONTINUOUS
 62
     7
  5
77C
 10
-1.144625
 20
0.045516
 30
0.0
 11
-1.144772
 21
0.045276
 31
0.0
  0
LINE
  8
0
  6
CONTINUOUS
 62
     7
  5
77D
 10
-1.144772
 20
-0.045276
 30
0.0
 11
-1.144625
 21
-0.045516
 31
0.0
  0
LINE
  8
0
  6
CONTINUOUS
 62
     7
  5
77E
 10
-1.144625
 20
-0.045516
 30
0.0
 11
-1.144475
 21
-0.045759
 31
0.0
  0
LINE
  8
0
  6
CONTINUOUS
 62
     7
  5
77F
 10
-1.144475
 20
-0.045759
 30
0.0
 11
-1.144323
 21
-0.046004
 31
0.0
  0
LINE
  8
0
  6
CONTINUOUS
 62
     7
  5
780
 10
-1.144323
 20
-0.046004
 30
0.0
 11
-1.14417
 21
-0.04625
 31
0.0
  0
LINE
  8
0
  6
CONTINUOUS
 62
     7
  5
781
 10
-1.14417
 20
-0.04625
 30
0.0
 11
-1.144015
 21
-0.046496
 31
0.0
  0
LINE
  8
0
  6
CONTINUOUS
 62
     7
  5
782
 10
-1.144015
 20
-0.046496
 30
0.0
 11
-1.143859
 21
-0.046742
 31
0.0
  0
LINE
  8
0
  6
CONTINUOUS
 62
     7
  5
783
 10
-1.143859
 20
-0.046742
 30
0.0
 11
-1.143703
 21
-0.046986
 31
0.0
  0
LINE
  8
0
  6
CONTINUOUS
 62
     7
  5
784
 10
-1.143703
 20
-0.046986
 30
0.0
 11
-1.143547
 21
-0.047228
 31
0.0
  0
LINE
  8
0
  6
CONTINUOUS
 62
     7
  5
785
 10
-1.143547
 20
-0.047228
 30
0.0
 11
-1.143392
 21
-0.047467
 31
0.0
  0
LINE
  8
0
  6
CONTINUOUS
 62
     7
  5
786
 10
-1.143392
 20
-0.047467
 30
0.0
 11
-1.143238
 21
-0.047703
 31
0.0
  0
LINE
  8
0
  6
CONTINUOUS
 62
     7
  5
787
 10
-1.143238
 20
-0.047703
 30
0.0
 11
-1.143085
 21
-0.047935
 31
0.0
  0
LINE
  8
0
  6
CONTINUOUS
 62
     7
  5
788
 10
-1.143085
 20
-0.047935
 30
0.0
 11
-1.142935
 21
-0.048162
 31
0.0
  0
LINE
  8
0
  6
CONTINUOUS
 62
     7
  5
789
 10
-1.142935
 20
-0.048162
 30
0.0
 11
-1.142787
 21
-0.048383
 31
0.0
  0
LINE
  8
0
  6
CONTINUOUS
 62
     7
  5
78A
 10
-1.142787
 20
-0.048383
 30
0.0
 11
-1.142642
 21
-0.048599
 31
0.0
  0
LINE
  8
0
  6
CONTINUOUS
 62
     7
  5
78B
 10
-1.142642
 20
-0.048599
 30
0.0
 11
-1.142501
 21
-0.048809
 31
0.0
  0
LINE
  8
0
  6
CONTINUOUS
 62
     7
  5
78C
 10
-1.142501
 20
-0.048809
 30
0.0
 11
-1.142363
 21
-0.049011
 31
0.0
  0
LINE
  8
0
  6
CONTINUOUS
 62
     7
  5
78D
 10
-1.142363
 20
-0.049011
 30
0.0
 11
-1.14223
 21
-0.049206
 31
0.0
  0
LINE
  8
0
  6
CONTINUOUS
 62
     7
  5
78E
 10
-1.14223
 20
-0.049206
 30
0.0
 11
-1.142101
 21
-0.049393
 31
0.0
  0
LINE
  8
0
  6
CONTINUOUS
 62
     7
  5
78F
 10
-1.142101
 20
-0.049393
 30
0.0
 11
-1.141978
 21
-0.049571
 31
0.0
  0
LINE
  8
0
  6
CONTINUOUS
 62
     7
  5
790
 10
-1.141978
 20
-0.049571
 30
0.0
 11
-1.141859
 21
-0.049743
 31
0.0
  0
LINE
  8
0
  6
CONTINUOUS
 62
     7
  5
791
 10
-1.141859
 20
-0.049743
 30
0.0
 11
-1.141743
 21
-0.049909
 31
0.0
  0
LINE
  8
0
  6
CONTINUOUS
 62
     7
  5
792
 10
-1.141743
 20
-0.049909
 30
0.0
 11
-1.14163
 21
-0.05007
 31
0.0
  0
LINE
  8
0
  6
CONTINUOUS
 62
     7
  5
793
 10
-1.14163
 20
-0.05007
 30
0.0
 11
-1.141521
 21
-0.050224
 31
0.0
  0
LINE
  8
0
  6
CONTINUOUS
 62
     7
  5
794
 10
-1.141521
 20
-0.050224
 30
0.0
 11
-1.141418
 21
-0.050369
 31
0.0
  0
LINE
  8
0
  6
CONTINUOUS
 62
     7
  5
795
 10
-1.141418
 20
-0.050369
 30
0.0
 11
-1.141322
 21
-0.050505
 31
0.0
  0
LINE
  8
0
  6
CONTINUOUS
 62
     7
  5
796
 10
-1.141322
 20
-0.050505
 30
0.0
 11
-1.141232
 21
-0.05063
 31
0.0
  0
LINE
  8
0
  6
CONTINUOUS
 62
     7
  5
797
 10
-1.141232
 20
-0.05063
 30
0.0
 11
-1.141151
 21
-0.050744
 31
0.0
  0
LINE
  8
0
  6
CONTINUOUS
 62
     7
  5
798
 10
-1.141151
 20
-0.050744
 30
0.0
 11
-1.141078
 21
-0.050845
 31
0.0
  0
LINE
  8
0
  6
CONTINUOUS
 62
     7
  5
799
 10
-1.141078
 20
-0.050845
 30
0.0
 11
-1.141014
 21
-0.050934
 31
0.0
  0
LINE
  8
0
  6
CONTINUOUS
 62
     7
  5
79A
 10
-1.141014
 20
-0.050934
 30
0.0
 11
-1.140959
 21
-0.05101
 31
0.0
  0
LINE
  8
0
  6
CONTINUOUS
 62
     7
  5
79B
 10
-1.140959
 20
-0.05101
 30
0.0
 11
-1.140914
 21
-0.051072
 31
0.0
  0
LINE
  8
0
  6
CONTINUOUS
 62
     7
  5
79C
 10
-1.140914
 20
-0.051072
 30
0.0
 11
-1.140879
 21
-0.051121
 31
0.0
  0
LINE
  8
0
  6
CONTINUOUS
 62
     7
  5
79D
 10
-1.140879
 20
-0.051121
 30
0.0
 11
-1.140854
 21
-0.051155
 31
0.0
  0
LINE
  8
0
  6
CONTINUOUS
 62
     7
  5
79E
 10
-1.140854
 20
-0.051155
 30
0.0
 11
-1.140839
 21
-0.051175
 31
0.0
  0
LINE
  8
0
  6
CONTINUOUS
 62
     7
  5
79F
 10
-1.140839
 20
-0.051175
 30
0.0
 11
-1.140834
 21
-0.051182
 31
0.0
  0
LINE
  8
0
  6
CONTINUOUS
 62
     7
  5
7A0
 10
-1.137796
 20
0.055117
 30
0.0
 11
-1.137797
 21
0.055117
 31
0.0
  0
LINE
  8
0
  6
CONTINUOUS
 62
     7
  5
7A1
 10
-1.137797
 20
0.055117
 30
0.0
 11
-1.137797
 21
0.055116
 31
0.0
  0
LINE
  8
0
  6
CONTINUOUS
 62
     7
  5
7A2
 10
-1.137797
 20
0.055116
 30
0.0
 11
-1.137798
 21
0.055115
 31
0.0
  0
LINE
  8
0
  6
CONTINUOUS
 62
     7
  5
7A3
 10
-1.137798
 20
0.055115
 30
0.0
 11
-1.137799
 21
0.055114
 31
0.0
  0
LINE
  8
0
  6
CONTINUOUS
 62
     7
  5
7A4
 10
-1.137799
 20
0.055114
 30
0.0
 11
-1.1378
 21
0.055112
 31
0.0
  0
LINE
  8
0
  6
CONTINUOUS
 62
     7
  5
7A5
 10
-1.1378
 20
0.055112
 30
0.0
 11
-1.137802
 21
0.05511
 31
0.0
  0
LINE
  8
0
  6
CONTINUOUS
 62
     7
  5
7A6
 10
-1.137802
 20
0.05511
 30
0.0
 11
-1.137804
 21
0.055108
 31
0.0
  0
LINE
  8
0
  6
CONTINUOUS
 62
     7
  5
7A7
 10
-1.137804
 20
0.055108
 30
0.0
 11
-1.137806
 21
0.055105
 31
0.0
  0
LINE
  8
0
  6
CONTINUOUS
 62
     7
  5
7A8
 10
-1.137806
 20
0.055105
 30
0.0
 11
-1.137809
 21
0.055102
 31
0.0
  0
LINE
  8
0
  6
CONTINUOUS
 62
     7
  5
7A9
 10
-1.137809
 20
0.055102
 30
0.0
 11
-1.137811
 21
0.055098
 31
0.0
  0
LINE
  8
0
  6
CONTINUOUS
 62
     7
  5
7AA
 10
-1.137811
 20
0.055098
 30
0.0
 11
-1.137815
 21
0.055095
 31
0.0
  0
LINE
  8
0
  6
CONTINUOUS
 62
     7
  5
7AB
 10
-1.137815
 20
0.055095
 30
0.0
 11
-1.137818
 21
0.05509
 31
0.0
  0
LINE
  8
0
  6
CONTINUOUS
 62
     7
  5
7AC
 10
-1.137818
 20
0.05509
 30
0.0
 11
-1.137822
 21
0.055086
 31
0.0
  0
LINE
  8
0
  6
CONTINUOUS
 62
     7
  5
7AD
 10
-1.137822
 20
0.055086
 30
0.0
 11
-1.137826
 21
0.055081
 31
0.0
  0
LINE
  8
0
  6
CONTINUOUS
 62
     7
  5
7AE
 10
-1.137826
 20
0.055081
 30
0.0
 11
-1.13783
 21
0.055075
 31
0.0
  0
LINE
  8
0
  6
CONTINUOUS
 62
     7
  5
7AF
 10
-1.13783
 20
0.055075
 30
0.0
 11
-1.137835
 21
0.05507
 31
0.0
  0
LINE
  8
0
  6
CONTINUOUS
 62
     7
  5
7B0
 10
-1.137835
 20
0.05507
 30
0.0
 11
-1.13784
 21
0.055064
 31
0.0
  0
LINE
  8
0
  6
CONTINUOUS
 62
     7
  5
7B1
 10
-1.13784
 20
0.055064
 30
0.0
 11
-1.137845
 21
0.055057
 31
0.0
  0
LINE
  8
0
  6
CONTINUOUS
 62
     7
  5
7B2
 10
-1.137845
 20
0.055057
 30
0.0
 11
-1.137851
 21
0.05505
 31
0.0
  0
LINE
  8
0
  6
CONTINUOUS
 62
     7
  5
7B3
 10
-1.137851
 20
0.05505
 30
0.0
 11
-1.137857
 21
0.055043
 31
0.0
  0
LINE
  8
0
  6
CONTINUOUS
 62
     7
  5
7B4
 10
-1.137857
 20
0.055043
 30
0.0
 11
-1.137863
 21
0.055035
 31
0.0
  0
LINE
  8
0
  6
CONTINUOUS
 62
     7
  5
7B5
 10
-1.137863
 20
0.055035
 30
0.0
 11
-1.137869
 21
0.055027
 31
0.0
  0
LINE
  8
0
  6
CONTINUOUS
 62
     7
  5
7B6
 10
-1.137869
 20
0.055027
 30
0.0
 11
-1.137876
 21
0.055019
 31
0.0
  0
LINE
  8
0
  6
CONTINUOUS
 62
     7
  5
7B7
 10
-1.137876
 20
0.055019
 30
0.0
 11
-1.137883
 21
0.05501
 31
0.0
  0
LINE
  8
0
  6
CONTINUOUS
 62
     7
  5
7B8
 10
-1.137883
 20
0.05501
 30
0.0
 11
-1.137891
 21
0.055001
 31
0.0
  0
LINE
  8
0
  6
CONTINUOUS
 62
     7
  5
7B9
 10
-1.137891
 20
0.055001
 30
0.0
 11
-1.137898
 21
0.054992
 31
0.0
  0
LINE
  8
0
  6
CONTINUOUS
 62
     7
  5
7BA
 10
-1.137898
 20
0.054992
 30
0.0
 11
-1.137906
 21
0.054982
 31
0.0
  0
LINE
  8
0
  6
CONTINUOUS
 62
     7
  5
7BB
 10
-1.137906
 20
0.054982
 30
0.0
 11
-1.137915
 21
0.054972
 31
0.0
  0
LINE
  8
0
  6
CONTINUOUS
 62
     7
  5
7BC
 10
-1.137915
 20
0.054972
 30
0.0
 11
-1.137923
 21
0.054961
 31
0.0
  0
LINE
  8
0
  6
CONTINUOUS
 62
     7
  5
7BD
 10
-1.137923
 20
0.054961
 30
0.0
 11
-1.137932
 21
0.05495
 31
0.0
  0
LINE
  8
0
  6
CONTINUOUS
 62
     7
  5
7BE
 10
-1.137932
 20
0.05495
 30
0.0
 11
-1.137941
 21
0.054939
 31
0.0
  0
LINE
  8
0
  6
CONTINUOUS
 62
     7
  5
7BF
 10
-1.137941
 20
0.054939
 30
0.0
 11
-1.137951
 21
0.054927
 31
0.0
  0
LINE
  8
0
  6
CONTINUOUS
 62
     7
  5
7C0
 10
-1.137951
 20
0.054927
 30
0.0
 11
-1.137961
 21
0.054915
 31
0.0
  0
LINE
  8
0
  6
CONTINUOUS
 62
     7
  5
7C1
 10
-1.137961
 20
0.054915
 30
0.0
 11
-1.137971
 21
0.054903
 31
0.0
  0
LINE
  8
0
  6
CONTINUOUS
 62
     7
  5
7C2
 10
-1.137971
 20
0.054903
 30
0.0
 11
-1.137981
 21
0.05489
 31
0.0
  0
LINE
  8
0
  6
CONTINUOUS
 62
     7
  5
7C3
 10
-1.137981
 20
-0.05489
 30
0.0
 11
-1.137971
 21
-0.054903
 31
0.0
  0
LINE
  8
0
  6
CONTINUOUS
 62
     7
  5
7C4
 10
-1.137971
 20
-0.054903
 30
0.0
 11
-1.137961
 21
-0.054915
 31
0.0
  0
LINE
  8
0
  6
CONTINUOUS
 62
     7
  5
7C5
 10
-1.137961
 20
-0.054915
 30
0.0
 11
-1.137951
 21
-0.054927
 31
0.0
  0
LINE
  8
0
  6
CONTINUOUS
 62
     7
  5
7C6
 10
-1.137951
 20
-0.054927
 30
0.0
 11
-1.137941
 21
-0.054939
 31
0.0
  0
LINE
  8
0
  6
CONTINUOUS
 62
     7
  5
7C7
 10
-1.137941
 20
-0.054939
 30
0.0
 11
-1.137932
 21
-0.05495
 31
0.0
  0
LINE
  8
0
  6
CONTINUOUS
 62
     7
  5
7C8
 10
-1.137932
 20
-0.05495
 30
0.0
 11
-1.137923
 21
-0.054961
 31
0.0
  0
LINE
  8
0
  6
CONTINUOUS
 62
     7
  5
7C9
 10
-1.137923
 20
-0.054961
 30
0.0
 11
-1.137915
 21
-0.054972
 31
0.0
  0
LINE
  8
0
  6
CONTINUOUS
 62
     7
  5
7CA
 10
-1.137915
 20
-0.054972
 30
0.0
 11
-1.137906
 21
-0.054982
 31
0.0
  0
LINE
  8
0
  6
CONTINUOUS
 62
     7
  5
7CB
 10
-1.137906
 20
-0.054982
 30
0.0
 11
-1.137898
 21
-0.054992
 31
0.0
  0
LINE
  8
0
  6
CONTINUOUS
 62
     7
  5
7CC
 10
-1.137898
 20
-0.054992
 30
0.0
 11
-1.137891
 21
-0.055001
 31
0.0
  0
LINE
  8
0
  6
CONTINUOUS
 62
     7
  5
7CD
 10
-1.137891
 20
-0.055001
 30
0.0
 11
-1.137883
 21
-0.05501
 31
0.0
  0
LINE
  8
0
  6
CONTINUOUS
 62
     7
  5
7CE
 10
-1.137883
 20
-0.05501
 30
0.0
 11
-1.137876
 21
-0.055019
 31
0.0
  0
LINE
  8
0
  6
CONTINUOUS
 62
     7
  5
7CF
 10
-1.137876
 20
-0.055019
 30
0.0
 11
-1.137869
 21
-0.055027
 31
0.0
  0
LINE
  8
0
  6
CONTINUOUS
 62
     7
  5
7D0
 10
-1.137869
 20
-0.055027
 30
0.0
 11
-1.137863
 21
-0.055035
 31
0.0
  0
LINE
  8
0
  6
CONTINUOUS
 62
     7
  5
7D1
 10
-1.137863
 20
-0.055035
 30
0.0
 11
-1.137857
 21
-0.055043
 31
0.0
  0
LINE
  8
0
  6
CONTINUOUS
 62
     7
  5
7D2
 10
-1.137857
 20
-0.055043
 30
0.0
 11
-1.137851
 21
-0.05505
 31
0.0
  0
LINE
  8
0
  6
CONTINUOUS
 62
     7
  5
7D3
 10
-1.137851
 20
-0.05505
 30
0.0
 11
-1.137845
 21
-0.055057
 31
0.0
  0
LINE
  8
0
  6
CONTINUOUS
 62
     7
  5
7D4
 10
-1.137845
 20
-0.055057
 30
0.0
 11
-1.13784
 21
-0.055064
 31
0.0
  0
LINE
  8
0
  6
CONTINUOUS
 62
     7
  5
7D5
 10
-1.13784
 20
-0.055064
 30
0.0
 11
-1.137835
 21
-0.05507
 31
0.0
  0
LINE
  8
0
  6
CONTINUOUS
 62
     7
  5
7D6
 10
-1.137835
 20
-0.05507
 30
0.0
 11
-1.13783
 21
-0.055075
 31
0.0
  0
LINE
  8
0
  6
CONTINUOUS
 62
     7
  5
7D7
 10
-1.13783
 20
-0.055075
 30
0.0
 11
-1.137826
 21
-0.055081
 31
0.0
  0
LINE
  8
0
  6
CONTINUOUS
 62
     7
  5
7D8
 10
-1.137826
 20
-0.055081
 30
0.0
 11
-1.137822
 21
-0.055086
 31
0.0
  0
LINE
  8
0
  6
CONTINUOUS
 62
     7
  5
7D9
 10
-1.137822
 20
-0.055086
 30
0.0
 11
-1.137818
 21
-0.05509
 31
0.0
  0
LINE
  8
0
  6
CONTINUOUS
 62
     7
  5
7DA
 10
-1.137818
 20
-0.05509
 30
0.0
 11
-1.137815
 21
-0.055095
 31
0.0
  0
LINE
  8
0
  6
CONTINUOUS
 62
     7
  5
7DB
 10
-1.137815
 20
-0.055095
 30
0.0
 11
-1.137811
 21
-0.055098
 31
0.0
  0
LINE
  8
0
  6
CONTINUOUS
 62
     7
  5
7DC
 10
-1.137811
 20
-0.055098
 30
0.0
 11
-1.137809
 21
-0.055102
 31
0.0
  0
LINE
  8
0
  6
CONTINUOUS
 62
     7
  5
7DD
 10
-1.137809
 20
-0.055102
 30
0.0
 11
-1.137806
 21
-0.055105
 31
0.0
  0
LINE
  8
0
  6
CONTINUOUS
 62
     7
  5
7DE
 10
-1.137806
 20
-0.055105
 30
0.0
 11
-1.137804
 21
-0.055108
 31
0.0
  0
LINE
  8
0
  6
CONTINUOUS
 62
     7
  5
7DF
 10
-1.137804
 20
-0.055108
 30
0.0
 11
-1.137802
 21
-0.05511
 31
0.0
  0
LINE
  8
0
  6
CONTINUOUS
 62
     7
  5
7E0
 10
-1.137802
 20
-0.05511
 30
0.0
 11
-1.1378
 21
-0.055112
 31
0.0
  0
LINE
  8
0
  6
CONTINUOUS
 62
     7
  5
7E1
 10
-1.1378
 20
-0.055112
 30
0.0
 11
-1.137799
 21
-0.055114
 31
0.0
  0
LINE
  8
0
  6
CONTINUOUS
 62
     7
  5
7E2
 10
-1.137799
 20
-0.055114
 30
0.0
 11
-1.137798
 21
-0.055115
 31
0.0
  0
LINE
  8
0
  6
CONTINUOUS
 62
     7
  5
7E3
 10
-1.137798
 20
-0.055115
 30
0.0
 11
-1.137797
 21
-0.055116
 31
0.0
  0
LINE
  8
0
  6
CONTINUOUS
 62
     7
  5
7E4
 10
-1.137797
 20
-0.055116
 30
0.0
 11
-1.137797
 21
-0.055117
 31
0.0
  0
LINE
  8
0
  6
CONTINUOUS
 62
     7
  5
7E5
 10
-1.137797
 20
-0.055117
 30
0.0
 11
-1.137796
 21
-0.055117
 31
0.0
  0
LINE
  8
0
  6
CONTINUOUS
 62
     7
  5
7E6
 10
-0.84252
 20
-0.098425
 30
0.0
 11
-0.84252
 21
0.098425
 31
0.0
  0
LINE
  8
0
  6
CONTINUOUS
 62
     7
  5
7E7
 10
-0.645669
 20
-0.098425
 30
0.0
 11
-0.84252
 21
-0.098425
 31
0.0
  0
LINE
  8
0
  6
CONTINUOUS
 62
     7
  5
7E8
 10
-0.645669
 20
0.098425
 30
0.0
 11
-0.645669
 21
-0.098425
 31
0.0
  0
LINE
  8
0
  6
CONTINUOUS
 62
     7
  5
7E9
 10
-0.84252
 20
0.098425
 30
0.0
 11
-0.645669
 21
0.098425
 31
0.0
  0
LINE
  8
0
  6
CONTINUOUS
 62
     7
  5
7EA
 10
-0.84252
 20
-0.291339
 30
0.0
 11
-0.84252
 21
-0.098425
 31
0.0
  0
LINE
  8
0
  6
CONTINUOUS
 62
     7
  5
7EB
 10
-0.84252
 20
0.098425
 30
0.0
 11
-0.84252
 21
0.291339
 31
0.0
  0
LINE
  8
0
  6
CONTINUOUS
 62
     7
  5
7EC
 10
0.110236
 20
0.311024
 30
0.0
 11
0.102362
 21
0.311024
 31
0.0
  0
LINE
  8
0
  6
CONTINUOUS
 62
     7
  5
7ED
 10
0.102362
 20
-0.311024
 30
0.0
 11
0.110236
 21
-0.311024
 31
0.0
  0
LINE
  8
0
  6
CONTINUOUS
 62
     7
  5
7EE
 10
0.0
 20
-0.34252
 30
0.0
 11
0.023622
 21
-0.34252
 31
0.0
  0
LINE
  8
0
  6
CONTINUOUS
 62
     7
  5
7EF
 10
0.023622
 20
0.34252
 30
0.0
 11
0.0
 21
0.34252
 31
0.0
  0
LINE
  8
0
  6
CONTINUOUS
 62
     7
  5
7F0
 10
-0.275591
 20
-0.352362
 30
0.0
 11
-0.165354
 21
-0.352362
 31
0.0
  0
LINE
  8
0
  6
CONTINUOUS
 62
     7
  5
7F1
 10
-0.165354
 20
0.352362
 30
0.0
 11
-0.275591
 21
0.352362
 31
0.0
  0
LINE
  8
0
  6
CONTINUOUS
 62
     7
  5
7F2
 10
-1.137796
 20
-0.055117
 30
0.0
 11
-0.84252
 21
-0.055117
 31
0.0
  0
LINE
  8
0
  6
CONTINUOUS
 62
     7
  5
7F3
 10
-0.84252
 20
0.055117
 30
0.0
 11
-1.137796
 21
0.055117
 31
0.0
  0
LINE
  8
0
  6
CONTINUOUS
 62
     7
  5
7F4
 10
-0.84252
 20
-0.291339
 30
0.0
 11
-0.448819
 21
-0.291339
 31
0.0
  0
LINE
  8
0
  6
CONTINUOUS
 62
     7
  5
7F5
 10
-0.448819
 20
0.291339
 30
0.0
 11
-0.84252
 21
0.291339
 31
0.0
  0
LINE
  8
0
  6
CONTINUOUS
 62
     3
  5
7F6
 10
-0.88189
 20
0.0
 30
0.0
 11
0.43911
 21
0.0
 31
0.0
  0
LINE
  8
0
  6
CONTINUOUS
 62
     3
  5
7F7
 10
-1.116929
 20
0.0
 30
0.0
 11
-1.011024
 21
0.0
 31
0.0
  0
LINE
  8
0
  6
CONTINUOUS
 62
     3
  5
7F8
 10
-1.03937
 20
-0.028346
 30
0.0
 11
-1.03937
 21
0.028346
 31
0.0
  0
LINE
  8
0
  6
CONTINUOUS
 62
     3
  5
7F9
 10
-1.088583
 20
-0.028346
 30
0.0
 11
-1.088583
 21
0.028346
 31
0.0
  0
ENDSEC
  0
EOF
