  0
SECTION
  2
HEADER
  9
$ACADVER
  1
AC1009
  9
$DWGCODEPAGE
  3
ansi_1250
  9
$INSBASE
 10
0.0
 20
0.0
 30
0.0
  9
$EXTMIN
 10
-1.208661
 20
-0.779528
 30
0.0
  9
$EXTMAX
 10
1.208661
 20
1.588543
 30
0.0
  9
$LIMMIN
 10
0.0
 20
0.0
  9
$LIMMAX
 10
0.0
 20
0.0
  9
$ORTHOMODE
 70
     0
  9
$REGENMODE
 70
     1
  9
$FILLMODE
 70
     1
  9
$QTEXTMODE
 70
     0
  9
$MIRRTEXT
 70
     1
  9
$DRAGMODE
 70
     2
  9
$LTSCALE
 40
1.0
  9
$OSMODE
 70
     0
  9
$ATTMODE
 70
     1
  9
$TEXTSIZE
 40
0.2
  9
$TRACEWID
 40
0.05
  9
$TEXTSTYLE
  7
STANDARD
  9
$CLAYER
  8
0
  9
$CELTYPE
  6
CONTINUOUS
  9
$CECOLOR
 62
   256
  9
$DIMSCALE
 40
1.0
  9
$DIMASZ
 40
0.18
  9
$DIMEXO
 40
0.0625
  9
$DIMDLI
 40
0.38
  9
$DIMRND
 40
0.0
  9
$DIMDLE
 40
0.0
  9
$DIMEXE
 40
0.18
  9
$DIMTP
 40
0.0
  9
$DIMTM
 40
0.0
  9
$DIMTXT
 40
0.18
  9
$DIMCEN
 40
0.09
  9
$DIMTSZ
 40
0.0
  9
$DIMTOL
 70
     0
  9
$DIMLIM
 70
     0
  9
$DIMTIH
 70
     1
  9
$DIMTOH
 70
     1
  9
$DIMSE1
 70
     0
  9
$DIMSE2
 70
     0
  9
$DIMTAD
 70
     0
  9
$DIMZIN
 70
     0
  9
$DIMBLK
  1

  9
$DIMASO
 70
     1
  9
$DIMSHO
 70
     1
  9
$DIMPOST
  1

  9
$DIMAPOST
  1

  9
$DIMALT
 70
     0
  9
$DIMALTD
 70
     2
  9
$DIMALTF
 40
25.4
  9
$DIMLFAC
 40
1.0
  9
$DIMTOFL
 70
     0
  9
$DIMTVP
 40
0.0
  9
$DIMTIX
 70
     0
  9
$DIMSOXD
 70
     0
  9
$DIMSAH
 70
     0
  9
$DIMBLK1
  1

  9
$DIMBLK2
  1

  9
$DIMSTYLE
  2
STANDARD
  9
$DIMCLRD
 70
     0
  9
$DIMCLRE
 70
     0
  9
$DIMCLRT
 70
     0
  9
$DIMTFAC
 40
1.0
  9
$DIMGAP
 40
0.09
  9
$LUNITS
 70
     2
  9
$LUPREC
 70
     4
  9
$AXISMODE
 70
     0
  9
$AXISUNIT
 10
0.0
 20
0.0
  9
$SKETCHINC
 40
0.1
  9
$FILLETRAD
 40
0.0
  9
$AUNITS
 70
     0
  9
$AUPREC
 70
     0
  9
$MENU
  1
acad
  9
$ELEVATION
 40
0.0
  9
$PELEVATION
 40
0.0
  9
$THICKNESS
 40
0.0
  9
$LIMCHECK
 70
     0
  9
$BLIPMODE
 70
     1
  9
$CHAMFERA
 40
0.0
  9
$CHAMFERB
 40
0.0
  9
$SKPOLY
 70
     0
  9
$TDCREATE
 40
0.000000000
  9
$TDUPDATE
 40
0.000000000
  9
$TDINDWG
 40
0.0000000000
  9
$TDUSRTIMER
 40
0.0000000000
  9
$USRTIMER
 70
     1
  9
$ANGBASE
 50
0.0
  9
$ANGDIR
 70
     0
  9
$PDMODE
 70
     0
  9
$PDSIZE
 40
0.0
  9
$PLINEWID
 40
0.0
  9
$COORDS
 70
     0
  9
$SPLFRAME
 70
     0
  9
$SPLINETYPE
 70
     6
  9
$SPLINESEGS
 70
     8
  9
$ATTDIA
 70
     0
  9
$ATTREQ
 70
     1
  9
$HANDLING
 70
     1
  9
$HANDSEED
  5
BD2
  9
$SURFTAB1
 70
     6
  9
$SURFTAB2
 70
     6
  9
$SURFTYPE
 70
     6
  9
$SURFU
 70
     6
  9
$SURFV
 70
     6
  9
$UCSNAME
  2

  9
$UCSORG
 10
0.0
 20
0.0
 30
0.0
  9
$UCSXDIR
 10
1.0
 20
0.0
 30
0.0
  9
$UCSYDIR
 10
0.0
 20
1.0
 30
0.0
  9
$PUCSNAME
  2

  9
$PUCSORG
 10
0.0
 20
0.0
 30
0.0
  9
$PUCSXDIR
 10
1.0
 20
0.0
 30
0.0
  9
$PUCSYDIR
 10
0.0
 20
1.0
 30
0.0
  9
$USERI1
 70
     0
  9
$USERI2
 70
     0
  9
$USERI3
 70
     0
  9
$USERI4
 70
     0
  9
$USERI5
 70
     0
  9
$USERR1
 40
0.0
  9
$USERR2
 40
0.0
  9
$USERR3
 40
0.0
  9
$USERR4
 40
0.0
  9
$USERR5
 40
0.0
  9
$WORLDVIEW
 70
     1
  9
$SHADEDGE
 70
     3
  9
$SHADEDIF
 70
    70
  9
$TILEMODE
 70
     1
  9
$MAXACTVP
 70
    16
  9
$PINSBASE
 10
0.0
 20
0.0
 30
0.0
  9
$PLIMCHECK
 70
     0
  9
$PEXTMIN
 10
1.000000E+20
 20
1.000000E+20
 30
1.000000E+20
  9
$PEXTMAX
 10
-1.000000E+20
 20
-1.000000E+20
 30
-1.000000E+20
  9
$PLIMMIN
 10
0.0
 20
0.0
  9
$PLIMMAX
 10
12.0
 20
9.0
  9
$UNITMODE
 70
     0
  9
$VISRETAIN
 70
     0
  9
$PLINEGEN
 70
     1
  9
$PSLTSCALE
 70
     0
  9
$TREEDEPTH
 70
  3020
  0
ENDSEC
  0
SECTION
  2
TABLES
  0
TABLE
  2
VPORT
 70
     1
  0
VPORT
  2
*ACTIVE
 70
     0
 10
0.0
 20
0.0
 11
1.0
 21
1.0
 12
6.591288
 22
4.579184
 13
0.0
 23
0.0
 14
1.0
 24
1.0
 15
0.0
 25
0.0
 16
0.0
 26
0.0
 36
1.0
 17
0.0
 27
0.0
 37
0.0
 40
9.158369
 41
0.688564
 42
50.0
 43
0.0
 44
0.0
 50
0.0
 51
0.0
 71
     0
 72
   100
 73
     1
 74
     1
 75
     0
 76
     0
 77
     0
 78
     0
  0
ENDTAB
  0
TABLE
  2
LTYPE
 70
     5
  0
LTYPE
  2
CONTINUOUS
 70
    64
  3
Solid line
 72
    65
 73
     0
 40
0.0
  0
LTYPE
  2
CENTER
 70
    64
  3
Center ____ _ ____ _ ____ _ ____ _ ____ _ ____
 72
    65
 73
     4
 40
50.8
 49
31.75
 49
-6.35
 49
6.35
 49
-6.35
  0
LTYPE
  2
HIDDEN
 70
    64
  3
Hidden __ __ __ __ __ __ __ __ __ __ __ __ __ __
 72
    65
 73
     2
 40
9.525
 49
6.35
 49
-3.175
  0
LTYPE
  2
CENTER2
 70
    64
  3
Center (.5x) ___ _ ___ _ ___ _ ___ _ ___ _ ___
 72
    65
 73
     4
 40
28.575
 49
19.05
 49
-3.175
 49
3.175
 49
-3.175
  0
LTYPE
  2
HIDDEN2
 70
    64
  3
Hidden (.5x) _ _ _ _ _ _ _ _ _ _ _ _ _ _ _ _ _
 72
    65
 73
     2
 40
4.7625
 49
3.175
 49
-1.5875
  0
ENDTAB
  0
TABLE
  2
LAYER
 70
     1
  0
LAYER
  2
0
 70
     0
 62
     7
  6
CONTINUOUS
  0
ENDTAB
  0
TABLE
  2
STYLE
 70
     1
  0
STYLE
  2
STANDARD
 70
     0
 40
0.0
 41
1.0
 50
0.0
 71
     0
 42
0.0
  3
txt
  4

  0
ENDTAB
  0
TABLE
  2
VIEW
 70
     0
  0
ENDTAB
  0
TABLE
  2
UCS
 70
     0
  0
ENDTAB
  0
TABLE
  2
APPID
 70
     1
  0
APPID
  2
ACAD
 70
     0
  0
ENDTAB
  0
TABLE
  2
DIMSTYLE
 70
     1
  0
DIMSTYLE
  2
STANDARD
 70
     0
  3

  4

  5

  6

  7

 40
1.0
 41
0.18
 42
0.0625
 43
0.38
 44
0.18
 45
0.0
 46
0.0
 47
0.0
 48
0.0
 71
     0
 72
     0
 73
     1
 74
     1
 75
     0
 76
     0
 77
     0
 78
     0
140
0.18
141
0.09
142
0.0
143
25.4
144
1.0
145
0.0
146
1.0
147
0.09
170
     0
171
     2
172
     0
173
     0
174
     0
175
     0
176
     0
177
     0
178
     0
  0
ENDTAB
  0
ENDSEC
  0
SECTION
  2
BLOCKS
  0
BLOCK
  8
0
  5
625
  2
B11100269503042020_0000000
 70
     0
 10
0.0
 20
0.0
 30
0.0
  3
B11100269503042020_00000029
  0
LINE
  8
0
  6
CONTINUOUS
 62
     1
  5
626
 10
-0.653939
 20
-0.15748
 30
0.0
 11
-0.653939
 21
-0.708661
 31
0.0
  0
LINE
  8
0
  6
CONTINUOUS
 62
     1
  5
627
 10
-0.812167
 20
-0.708661
 30
0.0
 11
-0.812167
 21
-0.15748
 31
0.0
  0
ENDBLK
  8
0
  5
628
  0
BLOCK
  8
0
  5
62B
  2
B11100269503042020_0000001
 70
     0
 10
0.0
 20
0.0
 30
0.0
  3
B11100269503042020_0000002A
  0
LINE
  8
0
  6
CONTINUOUS
 62
     1
  5
62C
 10
0.812167
 20
-0.15748
 30
0.0
 11
0.812167
 21
-0.708661
 31
0.0
  0
LINE
  8
0
  6
CONTINUOUS
 62
     1
  5
62D
 10
0.653939
 20
-0.708661
 30
0.0
 11
0.653939
 21
-0.15748
 31
0.0
  0
ENDBLK
  8
0
  5
62E
  0
BLOCK
  8
0
  5
631
  2
B11100269503042020_0000002
 70
     0
 10
0.0
 20
0.0
 30
0.0
  3
B11100269503042020_0000002B
  0
LINE
  8
0
  6
CONTINUOUS
 62
     1
  5
632
 10
0.079114
 20
-0.15748
 30
0.0
 11
0.079114
 21
-0.708661
 31
0.0
  0
LINE
  8
0
  6
CONTINUOUS
 62
     1
  5
633
 10
-0.079114
 20
-0.708661
 30
0.0
 11
-0.079114
 21
-0.15748
 31
0.0
  0
ENDBLK
  8
0
  5
634
  0
ENDSEC
  0
SECTION
  2
ENTITIES
  0
LINE
  8
0
  6
CONTINUOUS
 62
     7
  5
63E
 10
0.15748
 20
-0.15748
 30
0.0
 11
0.136382
 21
-0.15748
 31
0.0
  0
LINE
  8
0
  6
CONTINUOUS
 62
     7
  5
63F
 10
0.136382
 20
-0.15748
 30
0.0
 11
0.0
 21
-0.15748
 31
0.0
  0
LINE
  8
0
  6
CONTINUOUS
 62
     7
  5
640
 10
0.0
 20
-0.15748
 30
0.0
 11
-0.136382
 21
-0.15748
 31
0.0
  0
LINE
  8
0
  6
CONTINUOUS
 62
     7
  5
641
 10
-0.136382
 20
-0.15748
 30
0.0
 11
-0.15748
 21
-0.15748
 31
0.0
  0
LINE
  8
0
  6
CONTINUOUS
 62
     7
  5
642
 10
0.136382
 20
-0.15748
 30
0.0
 11
0.137632
 21
-0.157469
 31
0.0
  0
LINE
  8
0
  6
CONTINUOUS
 62
     7
  5
643
 10
0.137632
 20
-0.157469
 30
0.0
 11
0.13888
 21
-0.157435
 31
0.0
  0
LINE
  8
0
  6
CONTINUOUS
 62
     7
  5
644
 10
0.13888
 20
-0.157435
 30
0.0
 11
0.140126
 21
-0.157378
 31
0.0
  0
LINE
  8
0
  6
CONTINUOUS
 62
     7
  5
645
 10
0.140126
 20
-0.157378
 30
0.0
 11
0.141371
 21
-0.157298
 31
0.0
  0
LINE
  8
0
  6
CONTINUOUS
 62
     7
  5
646
 10
0.141371
 20
-0.157298
 30
0.0
 11
0.142615
 21
-0.157196
 31
0.0
  0
LINE
  8
0
  6
CONTINUOUS
 62
     7
  5
647
 10
0.142615
 20
-0.157196
 30
0.0
 11
0.143858
 21
-0.157071
 31
0.0
  0
LINE
  8
0
  6
CONTINUOUS
 62
     7
  5
648
 10
0.143858
 20
-0.157071
 30
0.0
 11
0.145102
 21
-0.156924
 31
0.0
  0
LINE
  8
0
  6
CONTINUOUS
 62
     7
  5
649
 10
0.145102
 20
-0.156924
 30
0.0
 11
0.146346
 21
-0.156755
 31
0.0
  0
LINE
  8
0
  6
CONTINUOUS
 62
     7
  5
64A
 10
0.146346
 20
-0.156755
 30
0.0
 11
0.147592
 21
-0.156564
 31
0.0
  0
LINE
  8
0
  6
CONTINUOUS
 62
     7
  5
64B
 10
0.147592
 20
-0.156564
 30
0.0
 11
0.148838
 21
-0.15635
 31
0.0
  0
LINE
  8
0
  6
CONTINUOUS
 62
     7
  5
64C
 10
0.148838
 20
-0.15635
 30
0.0
 11
0.150087
 21
-0.156113
 31
0.0
  0
LINE
  8
0
  6
CONTINUOUS
 62
     7
  5
64D
 10
0.150087
 20
-0.156113
 30
0.0
 11
0.151338
 21
-0.155855
 31
0.0
  0
LINE
  8
0
  6
CONTINUOUS
 62
     7
  5
64E
 10
0.151338
 20
-0.155855
 30
0.0
 11
0.152592
 21
-0.155574
 31
0.0
  0
LINE
  8
0
  6
CONTINUOUS
 62
     7
  5
64F
 10
0.152592
 20
-0.155574
 30
0.0
 11
0.153849
 21
-0.15527
 31
0.0
  0
LINE
  8
0
  6
CONTINUOUS
 62
     7
  5
650
 10
0.153849
 20
-0.15527
 30
0.0
 11
0.15511
 21
-0.154944
 31
0.0
  0
LINE
  8
0
  6
CONTINUOUS
 62
     7
  5
651
 10
0.15511
 20
-0.154944
 30
0.0
 11
0.156375
 21
-0.154595
 31
0.0
  0
LINE
  8
0
  6
CONTINUOUS
 62
     7
  5
652
 10
0.156375
 20
-0.154595
 30
0.0
 11
0.157644
 21
-0.154224
 31
0.0
  0
LINE
  8
0
  6
CONTINUOUS
 62
     7
  5
653
 10
0.157644
 20
-0.154224
 30
0.0
 11
0.158919
 21
-0.153829
 31
0.0
  0
LINE
  8
0
  6
CONTINUOUS
 62
     7
  5
654
 10
0.158919
 20
-0.153829
 30
0.0
 11
0.160199
 21
-0.153412
 31
0.0
  0
LINE
  8
0
  6
CONTINUOUS
 62
     7
  5
655
 10
0.160199
 20
-0.153412
 30
0.0
 11
0.161486
 21
-0.152971
 31
0.0
  0
LINE
  8
0
  6
CONTINUOUS
 62
     7
  5
656
 10
0.161486
 20
-0.152971
 30
0.0
 11
0.162778
 21
-0.152507
 31
0.0
  0
LINE
  8
0
  6
CONTINUOUS
 62
     7
  5
657
 10
0.162778
 20
-0.152507
 30
0.0
 11
0.164078
 21
-0.15202
 31
0.0
  0
LINE
  8
0
  6
CONTINUOUS
 62
     7
  5
658
 10
0.164078
 20
-0.15202
 30
0.0
 11
0.165386
 21
-0.151508
 31
0.0
  0
LINE
  8
0
  6
CONTINUOUS
 62
     7
  5
659
 10
0.165386
 20
-0.151508
 30
0.0
 11
0.166701
 21
-0.150973
 31
0.0
  0
LINE
  8
0
  6
CONTINUOUS
 62
     7
  5
65A
 10
0.166701
 20
-0.150973
 30
0.0
 11
0.168024
 21
-0.150413
 31
0.0
  0
LINE
  8
0
  6
CONTINUOUS
 62
     7
  5
65B
 10
0.168024
 20
-0.150413
 30
0.0
 11
0.169357
 21
-0.149829
 31
0.0
  0
LINE
  8
0
  6
CONTINUOUS
 62
     7
  5
65C
 10
0.169357
 20
-0.149829
 30
0.0
 11
0.170699
 21
-0.14922
 31
0.0
  0
LINE
  8
0
  6
CONTINUOUS
 62
     7
  5
65D
 10
0.170699
 20
-0.14922
 30
0.0
 11
0.172051
 21
-0.148586
 31
0.0
  0
LINE
  8
0
  6
CONTINUOUS
 62
     7
  5
65E
 10
0.172051
 20
-0.148586
 30
0.0
 11
0.173414
 21
-0.147927
 31
0.0
  0
LINE
  8
0
  6
CONTINUOUS
 62
     7
  5
65F
 10
0.173414
 20
-0.147927
 30
0.0
 11
0.174788
 21
-0.147242
 31
0.0
  0
LINE
  8
0
  6
CONTINUOUS
 62
     7
  5
660
 10
0.174788
 20
-0.147242
 30
0.0
 11
0.176173
 21
-0.14653
 31
0.0
  0
LINE
  8
0
  6
CONTINUOUS
 62
     7
  5
661
 10
0.176173
 20
-0.14653
 30
0.0
 11
0.177571
 21
-0.145792
 31
0.0
  0
LINE
  8
0
  6
CONTINUOUS
 62
     7
  5
662
 10
0.177571
 20
-0.145792
 30
0.0
 11
0.178981
 21
-0.145027
 31
0.0
  0
LINE
  8
0
  6
CONTINUOUS
 62
     7
  5
663
 10
0.178981
 20
-0.145027
 30
0.0
 11
0.180405
 21
-0.144235
 31
0.0
  0
LINE
  8
0
  6
CONTINUOUS
 62
     7
  5
664
 10
0.180405
 20
-0.144235
 30
0.0
 11
0.181843
 21
-0.143415
 31
0.0
  0
LINE
  8
0
  6
CONTINUOUS
 62
     7
  5
665
 10
-0.181843
 20
-0.143415
 30
0.0
 11
-0.180405
 21
-0.144235
 31
0.0
  0
LINE
  8
0
  6
CONTINUOUS
 62
     7
  5
666
 10
-0.180405
 20
-0.144235
 30
0.0
 11
-0.178981
 21
-0.145027
 31
0.0
  0
LINE
  8
0
  6
CONTINUOUS
 62
     7
  5
667
 10
-0.178981
 20
-0.145027
 30
0.0
 11
-0.177571
 21
-0.145792
 31
0.0
  0
LINE
  8
0
  6
CONTINUOUS
 62
     7
  5
668
 10
-0.177571
 20
-0.145792
 30
0.0
 11
-0.176173
 21
-0.14653
 31
0.0
  0
LINE
  8
0
  6
CONTINUOUS
 62
     7
  5
669
 10
-0.176173
 20
-0.14653
 30
0.0
 11
-0.174788
 21
-0.147242
 31
0.0
  0
LINE
  8
0
  6
CONTINUOUS
 62
     7
  5
66A
 10
-0.174788
 20
-0.147242
 30
0.0
 11
-0.173414
 21
-0.147927
 31
0.0
  0
LINE
  8
0
  6
CONTINUOUS
 62
     7
  5
66B
 10
-0.173414
 20
-0.147927
 30
0.0
 11
-0.172051
 21
-0.148586
 31
0.0
  0
LINE
  8
0
  6
CONTINUOUS
 62
     7
  5
66C
 10
-0.172051
 20
-0.148586
 30
0.0
 11
-0.170699
 21
-0.14922
 31
0.0
  0
LINE
  8
0
  6
CONTINUOUS
 62
     7
  5
66D
 10
-0.170699
 20
-0.14922
 30
0.0
 11
-0.169357
 21
-0.149829
 31
0.0
  0
LINE
  8
0
  6
CONTINUOUS
 62
     7
  5
66E
 10
-0.169357
 20
-0.149829
 30
0.0
 11
-0.168024
 21
-0.150413
 31
0.0
  0
LINE
  8
0
  6
CONTINUOUS
 62
     7
  5
66F
 10
-0.168024
 20
-0.150413
 30
0.0
 11
-0.166701
 21
-0.150973
 31
0.0
  0
LINE
  8
0
  6
CONTINUOUS
 62
     7
  5
670
 10
-0.166701
 20
-0.150973
 30
0.0
 11
-0.165386
 21
-0.151508
 31
0.0
  0
LINE
  8
0
  6
CONTINUOUS
 62
     7
  5
671
 10
-0.165386
 20
-0.151508
 30
0.0
 11
-0.164078
 21
-0.15202
 31
0.0
  0
LINE
  8
0
  6
CONTINUOUS
 62
     7
  5
672
 10
-0.164078
 20
-0.15202
 30
0.0
 11
-0.162778
 21
-0.152507
 31
0.0
  0
LINE
  8
0
  6
CONTINUOUS
 62
     7
  5
673
 10
-0.162778
 20
-0.152507
 30
0.0
 11
-0.161486
 21
-0.152971
 31
0.0
  0
LINE
  8
0
  6
CONTINUOUS
 62
     7
  5
674
 10
-0.161486
 20
-0.152971
 30
0.0
 11
-0.160199
 21
-0.153412
 31
0.0
  0
LINE
  8
0
  6
CONTINUOUS
 62
     7
  5
675
 10
-0.160199
 20
-0.153412
 30
0.0
 11
-0.158919
 21
-0.153829
 31
0.0
  0
LINE
  8
0
  6
CONTINUOUS
 62
     7
  5
676
 10
-0.158919
 20
-0.153829
 30
0.0
 11
-0.157644
 21
-0.154224
 31
0.0
  0
LINE
  8
0
  6
CONTINUOUS
 62
     7
  5
677
 10
-0.157644
 20
-0.154224
 30
0.0
 11
-0.156375
 21
-0.154595
 31
0.0
  0
LINE
  8
0
  6
CONTINUOUS
 62
     7
  5
678
 10
-0.156375
 20
-0.154595
 30
0.0
 11
-0.15511
 21
-0.154944
 31
0.0
  0
LINE
  8
0
  6
CONTINUOUS
 62
     7
  5
679
 10
-0.15511
 20
-0.154944
 30
0.0
 11
-0.153849
 21
-0.15527
 31
0.0
  0
LINE
  8
0
  6
CONTINUOUS
 62
     7
  5
67A
 10
-0.153849
 20
-0.15527
 30
0.0
 11
-0.152592
 21
-0.155574
 31
0.0
  0
LINE
  8
0
  6
CONTINUOUS
 62
     7
  5
67B
 10
-0.152592
 20
-0.155574
 30
0.0
 11
-0.151338
 21
-0.155855
 31
0.0
  0
LINE
  8
0
  6
CONTINUOUS
 62
     7
  5
67C
 10
-0.151338
 20
-0.155855
 30
0.0
 11
-0.150087
 21
-0.156113
 31
0.0
  0
LINE
  8
0
  6
CONTINUOUS
 62
     7
  5
67D
 10
-0.150087
 20
-0.156113
 30
0.0
 11
-0.148838
 21
-0.15635
 31
0.0
  0
LINE
  8
0
  6
CONTINUOUS
 62
     7
  5
67E
 10
-0.148838
 20
-0.15635
 30
0.0
 11
-0.147592
 21
-0.156564
 31
0.0
  0
LINE
  8
0
  6
CONTINUOUS
 62
     7
  5
67F
 10
-0.147592
 20
-0.156564
 30
0.0
 11
-0.146346
 21
-0.156755
 31
0.0
  0
LINE
  8
0
  6
CONTINUOUS
 62
     7
  5
680
 10
-0.146346
 20
-0.156755
 30
0.0
 11
-0.145102
 21
-0.156924
 31
0.0
  0
LINE
  8
0
  6
CONTINUOUS
 62
     7
  5
681
 10
-0.145102
 20
-0.156924
 30
0.0
 11
-0.143858
 21
-0.157071
 31
0.0
  0
LINE
  8
0
  6
CONTINUOUS
 62
     7
  5
682
 10
-0.143858
 20
-0.157071
 30
0.0
 11
-0.142615
 21
-0.157196
 31
0.0
  0
LINE
  8
0
  6
CONTINUOUS
 62
     7
  5
683
 10
-0.142615
 20
-0.157196
 30
0.0
 11
-0.141371
 21
-0.157298
 31
0.0
  0
LINE
  8
0
  6
CONTINUOUS
 62
     7
  5
684
 10
-0.141371
 20
-0.157298
 30
0.0
 11
-0.140126
 21
-0.157378
 31
0.0
  0
LINE
  8
0
  6
CONTINUOUS
 62
     7
  5
685
 10
-0.140126
 20
-0.157378
 30
0.0
 11
-0.13888
 21
-0.157435
 31
0.0
  0
LINE
  8
0
  6
CONTINUOUS
 62
     7
  5
686
 10
-0.13888
 20
-0.157435
 30
0.0
 11
-0.137632
 21
-0.157469
 31
0.0
  0
LINE
  8
0
  6
CONTINUOUS
 62
     7
  5
687
 10
-0.137632
 20
-0.157469
 30
0.0
 11
-0.136382
 21
-0.15748
 31
0.0
  0
LINE
  8
0
  6
CONTINUOUS
 62
     7
  5
688
 10
0.0
 20
-0.15748
 30
0.0
 11
0.0025
 21
-0.157469
 31
0.0
  0
LINE
  8
0
  6
CONTINUOUS
 62
     7
  5
689
 10
0.0025
 20
-0.157469
 30
0.0
 11
0.004996
 21
-0.157435
 31
0.0
  0
LINE
  8
0
  6
CONTINUOUS
 62
     7
  5
68A
 10
0.004996
 20
-0.157435
 30
0.0
 11
0.007488
 21
-0.157378
 31
0.0
  0
LINE
  8
0
  6
CONTINUOUS
 62
     7
  5
68B
 10
0.007488
 20
-0.157378
 30
0.0
 11
0.009978
 21
-0.157298
 31
0.0
  0
LINE
  8
0
  6
CONTINUOUS
 62
     7
  5
68C
 10
0.009978
 20
-0.157298
 30
0.0
 11
0.012466
 21
-0.157196
 31
0.0
  0
LINE
  8
0
  6
CONTINUOUS
 62
     7
  5
68D
 10
0.012466
 20
-0.157196
 30
0.0
 11
0.014953
 21
-0.157071
 31
0.0
  0
LINE
  8
0
  6
CONTINUOUS
 62
     7
  5
68E
 10
0.014953
 20
-0.157071
 30
0.0
 11
0.01744
 21
-0.156924
 31
0.0
  0
LINE
  8
0
  6
CONTINUOUS
 62
     7
  5
68F
 10
0.01744
 20
-0.156924
 30
0.0
 11
0.019929
 21
-0.156755
 31
0.0
  0
LINE
  8
0
  6
CONTINUOUS
 62
     7
  5
690
 10
0.019929
 20
-0.156755
 30
0.0
 11
0.02242
 21
-0.156564
 31
0.0
  0
LINE
  8
0
  6
CONTINUOUS
 62
     7
  5
691
 10
0.02242
 20
-0.156564
 30
0.0
 11
0.024913
 21
-0.15635
 31
0.0
  0
LINE
  8
0
  6
CONTINUOUS
 62
     7
  5
692
 10
0.024913
 20
-0.15635
 30
0.0
 11
0.02741
 21
-0.156113
 31
0.0
  0
LINE
  8
0
  6
CONTINUOUS
 62
     7
  5
693
 10
0.02741
 20
-0.156113
 30
0.0
 11
0.029912
 21
-0.155855
 31
0.0
  0
LINE
  8
0
  6
CONTINUOUS
 62
     7
  5
694
 10
0.029912
 20
-0.155855
 30
0.0
 11
0.03242
 21
-0.155574
 31
0.0
  0
LINE
  8
0
  6
CONTINUOUS
 62
     7
  5
695
 10
0.03242
 20
-0.155574
 30
0.0
 11
0.034934
 21
-0.15527
 31
0.0
  0
LINE
  8
0
  6
CONTINUOUS
 62
     7
  5
696
 10
0.034934
 20
-0.15527
 30
0.0
 11
0.037456
 21
-0.154944
 31
0.0
  0
LINE
  8
0
  6
CONTINUOUS
 62
     7
  5
697
 10
0.037456
 20
-0.154944
 30
0.0
 11
0.039986
 21
-0.154595
 31
0.0
  0
LINE
  8
0
  6
CONTINUOUS
 62
     7
  5
698
 10
0.039986
 20
-0.154595
 30
0.0
 11
0.042525
 21
-0.154224
 31
0.0
  0
LINE
  8
0
  6
CONTINUOUS
 62
     7
  5
699
 10
0.042525
 20
-0.154224
 30
0.0
 11
0.045074
 21
-0.153829
 31
0.0
  0
LINE
  8
0
  6
CONTINUOUS
 62
     7
  5
69A
 10
0.045074
 20
-0.153829
 30
0.0
 11
0.047635
 21
-0.153412
 31
0.0
  0
LINE
  8
0
  6
CONTINUOUS
 62
     7
  5
69B
 10
0.047635
 20
-0.153412
 30
0.0
 11
0.050207
 21
-0.152971
 31
0.0
  0
LINE
  8
0
  6
CONTINUOUS
 62
     7
  5
69C
 10
0.050207
 20
-0.152971
 30
0.0
 11
0.052793
 21
-0.152507
 31
0.0
  0
LINE
  8
0
  6
CONTINUOUS
 62
     7
  5
69D
 10
0.052793
 20
-0.152507
 30
0.0
 11
0.055393
 21
-0.15202
 31
0.0
  0
LINE
  8
0
  6
CONTINUOUS
 62
     7
  5
69E
 10
0.055393
 20
-0.15202
 30
0.0
 11
0.058007
 21
-0.151508
 31
0.0
  0
LINE
  8
0
  6
CONTINUOUS
 62
     7
  5
69F
 10
0.058007
 20
-0.151508
 30
0.0
 11
0.060638
 21
-0.150973
 31
0.0
  0
LINE
  8
0
  6
CONTINUOUS
 62
     7
  5
6A0
 10
0.060638
 20
-0.150973
 30
0.0
 11
0.063285
 21
-0.150413
 31
0.0
  0
LINE
  8
0
  6
CONTINUOUS
 62
     7
  5
6A1
 10
0.063285
 20
-0.150413
 30
0.0
 11
0.06595
 21
-0.149829
 31
0.0
  0
LINE
  8
0
  6
CONTINUOUS
 62
     7
  5
6A2
 10
0.06595
 20
-0.149829
 30
0.0
 11
0.068634
 21
-0.14922
 31
0.0
  0
LINE
  8
0
  6
CONTINUOUS
 62
     7
  5
6A3
 10
0.068634
 20
-0.14922
 30
0.0
 11
0.071339
 21
-0.148586
 31
0.0
  0
LINE
  8
0
  6
CONTINUOUS
 62
     7
  5
6A4
 10
0.071339
 20
-0.148586
 30
0.0
 11
0.074064
 21
-0.147927
 31
0.0
  0
LINE
  8
0
  6
CONTINUOUS
 62
     7
  5
6A5
 10
0.074064
 20
-0.147927
 30
0.0
 11
0.076811
 21
-0.147242
 31
0.0
  0
LINE
  8
0
  6
CONTINUOUS
 62
     7
  5
6A6
 10
0.076811
 20
-0.147242
 30
0.0
 11
0.079582
 21
-0.14653
 31
0.0
  0
LINE
  8
0
  6
CONTINUOUS
 62
     7
  5
6A7
 10
0.079582
 20
-0.14653
 30
0.0
 11
0.082377
 21
-0.145792
 31
0.0
  0
LINE
  8
0
  6
CONTINUOUS
 62
     7
  5
6A8
 10
0.082377
 20
-0.145792
 30
0.0
 11
0.085198
 21
-0.145027
 31
0.0
  0
LINE
  8
0
  6
CONTINUOUS
 62
     7
  5
6A9
 10
0.085198
 20
-0.145027
 30
0.0
 11
0.088046
 21
-0.144235
 31
0.0
  0
LINE
  8
0
  6
CONTINUOUS
 62
     7
  5
6AA
 10
0.088046
 20
-0.144235
 30
0.0
 11
0.090921
 21
-0.143415
 31
0.0
  0
LINE
  8
0
  6
CONTINUOUS
 62
     7
  5
6AB
 10
0.090921
 20
-0.143415
 30
0.0
 11
0.092359
 21
-0.144235
 31
0.0
  0
LINE
  8
0
  6
CONTINUOUS
 62
     7
  5
6AC
 10
0.092359
 20
-0.144235
 30
0.0
 11
0.093783
 21
-0.145027
 31
0.0
  0
LINE
  8
0
  6
CONTINUOUS
 62
     7
  5
6AD
 10
0.093783
 20
-0.145027
 30
0.0
 11
0.095193
 21
-0.145792
 31
0.0
  0
LINE
  8
0
  6
CONTINUOUS
 62
     7
  5
6AE
 10
0.095193
 20
-0.145792
 30
0.0
 11
0.096591
 21
-0.14653
 31
0.0
  0
LINE
  8
0
  6
CONTINUOUS
 62
     7
  5
6AF
 10
0.096591
 20
-0.14653
 30
0.0
 11
0.097976
 21
-0.147242
 31
0.0
  0
LINE
  8
0
  6
CONTINUOUS
 62
     7
  5
6B0
 10
0.097976
 20
-0.147242
 30
0.0
 11
0.09935
 21
-0.147927
 31
0.0
  0
LINE
  8
0
  6
CONTINUOUS
 62
     7
  5
6B1
 10
0.09935
 20
-0.147927
 30
0.0
 11
0.100713
 21
-0.148586
 31
0.0
  0
LINE
  8
0
  6
CONTINUOUS
 62
     7
  5
6B2
 10
0.100713
 20
-0.148586
 30
0.0
 11
0.102065
 21
-0.14922
 31
0.0
  0
LINE
  8
0
  6
CONTINUOUS
 62
     7
  5
6B3
 10
0.102065
 20
-0.14922
 30
0.0
 11
0.103407
 21
-0.149829
 31
0.0
  0
LINE
  8
0
  6
CONTINUOUS
 62
     7
  5
6B4
 10
0.103407
 20
-0.149829
 30
0.0
 11
0.10474
 21
-0.150413
 31
0.0
  0
LINE
  8
0
  6
CONTINUOUS
 62
     7
  5
6B5
 10
0.10474
 20
-0.150413
 30
0.0
 11
0.106063
 21
-0.150973
 31
0.0
  0
LINE
  8
0
  6
CONTINUOUS
 62
     7
  5
6B6
 10
0.106063
 20
-0.150973
 30
0.0
 11
0.107378
 21
-0.151508
 31
0.0
  0
LINE
  8
0
  6
CONTINUOUS
 62
     7
  5
6B7
 10
0.107378
 20
-0.151508
 30
0.0
 11
0.108686
 21
-0.15202
 31
0.0
  0
LINE
  8
0
  6
CONTINUOUS
 62
     7
  5
6B8
 10
0.108686
 20
-0.15202
 30
0.0
 11
0.109985
 21
-0.152507
 31
0.0
  0
LINE
  8
0
  6
CONTINUOUS
 62
     7
  5
6B9
 10
0.109985
 20
-0.152507
 30
0.0
 11
0.111278
 21
-0.152971
 31
0.0
  0
LINE
  8
0
  6
CONTINUOUS
 62
     7
  5
6BA
 10
0.111278
 20
-0.152971
 30
0.0
 11
0.112565
 21
-0.153412
 31
0.0
  0
LINE
  8
0
  6
CONTINUOUS
 62
     7
  5
6BB
 10
0.112565
 20
-0.153412
 30
0.0
 11
0.113845
 21
-0.153829
 31
0.0
  0
LINE
  8
0
  6
CONTINUOUS
 62
     7
  5
6BC
 10
0.113845
 20
-0.153829
 30
0.0
 11
0.115119
 21
-0.154224
 31
0.0
  0
LINE
  8
0
  6
CONTINUOUS
 62
     7
  5
6BD
 10
0.115119
 20
-0.154224
 30
0.0
 11
0.116389
 21
-0.154595
 31
0.0
  0
LINE
  8
0
  6
CONTINUOUS
 62
     7
  5
6BE
 10
0.116389
 20
-0.154595
 30
0.0
 11
0.117654
 21
-0.154944
 31
0.0
  0
LINE
  8
0
  6
CONTINUOUS
 62
     7
  5
6BF
 10
0.117654
 20
-0.154944
 30
0.0
 11
0.118915
 21
-0.15527
 31
0.0
  0
LINE
  8
0
  6
CONTINUOUS
 62
     7
  5
6C0
 10
0.118915
 20
-0.15527
 30
0.0
 11
0.120172
 21
-0.155574
 31
0.0
  0
LINE
  8
0
  6
CONTINUOUS
 62
     7
  5
6C1
 10
0.120172
 20
-0.155574
 30
0.0
 11
0.121426
 21
-0.155855
 31
0.0
  0
LINE
  8
0
  6
CONTINUOUS
 62
     7
  5
6C2
 10
0.121426
 20
-0.155855
 30
0.0
 11
0.122677
 21
-0.156113
 31
0.0
  0
LINE
  8
0
  6
CONTINUOUS
 62
     7
  5
6C3
 10
0.122677
 20
-0.156113
 30
0.0
 11
0.123925
 21
-0.15635
 31
0.0
  0
LINE
  8
0
  6
CONTINUOUS
 62
     7
  5
6C4
 10
0.123925
 20
-0.15635
 30
0.0
 11
0.125172
 21
-0.156564
 31
0.0
  0
LINE
  8
0
  6
CONTINUOUS
 62
     7
  5
6C5
 10
0.125172
 20
-0.156564
 30
0.0
 11
0.126417
 21
-0.156755
 31
0.0
  0
LINE
  8
0
  6
CONTINUOUS
 62
     7
  5
6C6
 10
0.126417
 20
-0.156755
 30
0.0
 11
0.127662
 21
-0.156924
 31
0.0
  0
LINE
  8
0
  6
CONTINUOUS
 62
     7
  5
6C7
 10
0.127662
 20
-0.156924
 30
0.0
 11
0.128905
 21
-0.157071
 31
0.0
  0
LINE
  8
0
  6
CONTINUOUS
 62
     7
  5
6C8
 10
0.128905
 20
-0.157071
 30
0.0
 11
0.130149
 21
-0.157196
 31
0.0
  0
LINE
  8
0
  6
CONTINUOUS
 62
     7
  5
6C9
 10
0.130149
 20
-0.157196
 30
0.0
 11
0.131393
 21
-0.157298
 31
0.0
  0
LINE
  8
0
  6
CONTINUOUS
 62
     7
  5
6CA
 10
0.131393
 20
-0.157298
 30
0.0
 11
0.132638
 21
-0.157378
 31
0.0
  0
LINE
  8
0
  6
CONTINUOUS
 62
     7
  5
6CB
 10
0.132638
 20
-0.157378
 30
0.0
 11
0.133884
 21
-0.157435
 31
0.0
  0
LINE
  8
0
  6
CONTINUOUS
 62
     7
  5
6CC
 10
0.133884
 20
-0.157435
 30
0.0
 11
0.135132
 21
-0.157469
 31
0.0
  0
LINE
  8
0
  6
CONTINUOUS
 62
     7
  5
6CD
 10
0.135132
 20
-0.157469
 30
0.0
 11
0.136382
 21
-0.15748
 31
0.0
  0
LINE
  8
0
  6
CONTINUOUS
 62
     7
  5
6CE
 10
-0.090921
 20
-0.143415
 30
0.0
 11
-0.088046
 21
-0.144235
 31
0.0
  0
LINE
  8
0
  6
CONTINUOUS
 62
     7
  5
6CF
 10
-0.088046
 20
-0.144235
 30
0.0
 11
-0.085198
 21
-0.145027
 31
0.0
  0
LINE
  8
0
  6
CONTINUOUS
 62
     7
  5
6D0
 10
-0.085198
 20
-0.145027
 30
0.0
 11
-0.082377
 21
-0.145792
 31
0.0
  0
LINE
  8
0
  6
CONTINUOUS
 62
     7
  5
6D1
 10
-0.082377
 20
-0.145792
 30
0.0
 11
-0.079582
 21
-0.14653
 31
0.0
  0
LINE
  8
0
  6
CONTINUOUS
 62
     7
  5
6D2
 10
-0.079582
 20
-0.14653
 30
0.0
 11
-0.076811
 21
-0.147242
 31
0.0
  0
LINE
  8
0
  6
CONTINUOUS
 62
     7
  5
6D3
 10
-0.076811
 20
-0.147242
 30
0.0
 11
-0.074064
 21
-0.147927
 31
0.0
  0
LINE
  8
0
  6
CONTINUOUS
 62
     7
  5
6D4
 10
-0.074064
 20
-0.147927
 30
0.0
 11
-0.071339
 21
-0.148586
 31
0.0
  0
LINE
  8
0
  6
CONTINUOUS
 62
     7
  5
6D5
 10
-0.071339
 20
-0.148586
 30
0.0
 11
-0.068634
 21
-0.14922
 31
0.0
  0
LINE
  8
0
  6
CONTINUOUS
 62
     7
  5
6D6
 10
-0.068634
 20
-0.14922
 30
0.0
 11
-0.06595
 21
-0.149829
 31
0.0
  0
LINE
  8
0
  6
CONTINUOUS
 62
     7
  5
6D7
 10
-0.06595
 20
-0.149829
 30
0.0
 11
-0.063285
 21
-0.150413
 31
0.0
  0
LINE
  8
0
  6
CONTINUOUS
 62
     7
  5
6D8
 10
-0.063285
 20
-0.150413
 30
0.0
 11
-0.060638
 21
-0.150973
 31
0.0
  0
LINE
  8
0
  6
CONTINUOUS
 62
     7
  5
6D9
 10
-0.060638
 20
-0.150973
 30
0.0
 11
-0.058007
 21
-0.151508
 31
0.0
  0
LINE
  8
0
  6
CONTINUOUS
 62
     7
  5
6DA
 10
-0.058007
 20
-0.151508
 30
0.0
 11
-0.055393
 21
-0.15202
 31
0.0
  0
LINE
  8
0
  6
CONTINUOUS
 62
     7
  5
6DB
 10
-0.055393
 20
-0.15202
 30
0.0
 11
-0.052793
 21
-0.152507
 31
0.0
  0
LINE
  8
0
  6
CONTINUOUS
 62
     7
  5
6DC
 10
-0.052793
 20
-0.152507
 30
0.0
 11
-0.050207
 21
-0.152971
 31
0.0
  0
LINE
  8
0
  6
CONTINUOUS
 62
     7
  5
6DD
 10
-0.050207
 20
-0.152971
 30
0.0
 11
-0.047635
 21
-0.153412
 31
0.0
  0
LINE
  8
0
  6
CONTINUOUS
 62
     7
  5
6DE
 10
-0.047635
 20
-0.153412
 30
0.0
 11
-0.045074
 21
-0.153829
 31
0.0
  0
LINE
  8
0
  6
CONTINUOUS
 62
     7
  5
6DF
 10
-0.045074
 20
-0.153829
 30
0.0
 11
-0.042525
 21
-0.154224
 31
0.0
  0
LINE
  8
0
  6
CONTINUOUS
 62
     7
  5
6E0
 10
-0.042525
 20
-0.154224
 30
0.0
 11
-0.039986
 21
-0.154595
 31
0.0
  0
LINE
  8
0
  6
CONTINUOUS
 62
     7
  5
6E1
 10
-0.039986
 20
-0.154595
 30
0.0
 11
-0.037456
 21
-0.154944
 31
0.0
  0
LINE
  8
0
  6
CONTINUOUS
 62
     7
  5
6E2
 10
-0.037456
 20
-0.154944
 30
0.0
 11
-0.034934
 21
-0.15527
 31
0.0
  0
LINE
  8
0
  6
CONTINUOUS
 62
     7
  5
6E3
 10
-0.034934
 20
-0.15527
 30
0.0
 11
-0.03242
 21
-0.155574
 31
0.0
  0
LINE
  8
0
  6
CONTINUOUS
 62
     7
  5
6E4
 10
-0.03242
 20
-0.155574
 30
0.0
 11
-0.029912
 21
-0.155855
 31
0.0
  0
LINE
  8
0
  6
CONTINUOUS
 62
     7
  5
6E5
 10
-0.029912
 20
-0.155855
 30
0.0
 11
-0.02741
 21
-0.156113
 31
0.0
  0
LINE
  8
0
  6
CONTINUOUS
 62
     7
  5
6E6
 10
-0.02741
 20
-0.156113
 30
0.0
 11
-0.024913
 21
-0.15635
 31
0.0
  0
LINE
  8
0
  6
CONTINUOUS
 62
     7
  5
6E7
 10
-0.024913
 20
-0.15635
 30
0.0
 11
-0.02242
 21
-0.156564
 31
0.0
  0
LINE
  8
0
  6
CONTINUOUS
 62
     7
  5
6E8
 10
-0.02242
 20
-0.156564
 30
0.0
 11
-0.019929
 21
-0.156755
 31
0.0
  0
LINE
  8
0
  6
CONTINUOUS
 62
     7
  5
6E9
 10
-0.019929
 20
-0.156755
 30
0.0
 11
-0.01744
 21
-0.156924
 31
0.0
  0
LINE
  8
0
  6
CONTINUOUS
 62
     7
  5
6EA
 10
-0.01744
 20
-0.156924
 30
0.0
 11
-0.014953
 21
-0.157071
 31
0.0
  0
LINE
  8
0
  6
CONTINUOUS
 62
     7
  5
6EB
 10
-0.014953
 20
-0.157071
 30
0.0
 11
-0.012466
 21
-0.157196
 31
0.0
  0
LINE
  8
0
  6
CONTINUOUS
 62
     7
  5
6EC
 10
-0.012466
 20
-0.157196
 30
0.0
 11
-0.009978
 21
-0.157298
 31
0.0
  0
LINE
  8
0
  6
CONTINUOUS
 62
     7
  5
6ED
 10
-0.009978
 20
-0.157298
 30
0.0
 11
-0.007488
 21
-0.157378
 31
0.0
  0
LINE
  8
0
  6
CONTINUOUS
 62
     7
  5
6EE
 10
-0.007488
 20
-0.157378
 30
0.0
 11
-0.004996
 21
-0.157435
 31
0.0
  0
LINE
  8
0
  6
CONTINUOUS
 62
     7
  5
6EF
 10
-0.004996
 20
-0.157435
 30
0.0
 11
-0.0025
 21
-0.157469
 31
0.0
  0
LINE
  8
0
  6
CONTINUOUS
 62
     7
  5
6F0
 10
-0.0025
 20
-0.157469
 30
0.0
 11
0.0
 21
-0.15748
 31
0.0
  0
LINE
  8
0
  6
CONTINUOUS
 62
     7
  5
6F1
 10
-0.136382
 20
-0.15748
 30
0.0
 11
-0.135132
 21
-0.157469
 31
0.0
  0
LINE
  8
0
  6
CONTINUOUS
 62
     7
  5
6F2
 10
-0.135132
 20
-0.157469
 30
0.0
 11
-0.133884
 21
-0.157435
 31
0.0
  0
LINE
  8
0
  6
CONTINUOUS
 62
     7
  5
6F3
 10
-0.133884
 20
-0.157435
 30
0.0
 11
-0.132638
 21
-0.157378
 31
0.0
  0
LINE
  8
0
  6
CONTINUOUS
 62
     7
  5
6F4
 10
-0.132638
 20
-0.157378
 30
0.0
 11
-0.131393
 21
-0.157298
 31
0.0
  0
LINE
  8
0
  6
CONTINUOUS
 62
     7
  5
6F5
 10
-0.131393
 20
-0.157298
 30
0.0
 11
-0.130149
 21
-0.157196
 31
0.0
  0
LINE
  8
0
  6
CONTINUOUS
 62
     7
  5
6F6
 10
-0.130149
 20
-0.157196
 30
0.0
 11
-0.128905
 21
-0.157071
 31
0.0
  0
LINE
  8
0
  6
CONTINUOUS
 62
     7
  5
6F7
 10
-0.128905
 20
-0.157071
 30
0.0
 11
-0.127662
 21
-0.156924
 31
0.0
  0
LINE
  8
0
  6
CONTINUOUS
 62
     7
  5
6F8
 10
-0.127662
 20
-0.156924
 30
0.0
 11
-0.126417
 21
-0.156755
 31
0.0
  0
LINE
  8
0
  6
CONTINUOUS
 62
     7
  5
6F9
 10
-0.126417
 20
-0.156755
 30
0.0
 11
-0.125172
 21
-0.156564
 31
0.0
  0
LINE
  8
0
  6
CONTINUOUS
 62
     7
  5
6FA
 10
-0.125172
 20
-0.156564
 30
0.0
 11
-0.123925
 21
-0.15635
 31
0.0
  0
LINE
  8
0
  6
CONTINUOUS
 62
     7
  5
6FB
 10
-0.123925
 20
-0.15635
 30
0.0
 11
-0.122677
 21
-0.156113
 31
0.0
  0
LINE
  8
0
  6
CONTINUOUS
 62
     7
  5
6FC
 10
-0.122677
 20
-0.156113
 30
0.0
 11
-0.121426
 21
-0.155855
 31
0.0
  0
LINE
  8
0
  6
CONTINUOUS
 62
     7
  5
6FD
 10
-0.121426
 20
-0.155855
 30
0.0
 11
-0.120172
 21
-0.155574
 31
0.0
  0
LINE
  8
0
  6
CONTINUOUS
 62
     7
  5
6FE
 10
-0.120172
 20
-0.155574
 30
0.0
 11
-0.118915
 21
-0.15527
 31
0.0
  0
LINE
  8
0
  6
CONTINUOUS
 62
     7
  5
6FF
 10
-0.118915
 20
-0.15527
 30
0.0
 11
-0.117654
 21
-0.154944
 31
0.0
  0
LINE
  8
0
  6
CONTINUOUS
 62
     7
  5
700
 10
-0.117654
 20
-0.154944
 30
0.0
 11
-0.116389
 21
-0.154595
 31
0.0
  0
LINE
  8
0
  6
CONTINUOUS
 62
     7
  5
701
 10
-0.116389
 20
-0.154595
 30
0.0
 11
-0.115119
 21
-0.154224
 31
0.0
  0
LINE
  8
0
  6
CONTINUOUS
 62
     7
  5
702
 10
-0.115119
 20
-0.154224
 30
0.0
 11
-0.113845
 21
-0.153829
 31
0.0
  0
LINE
  8
0
  6
CONTINUOUS
 62
     7
  5
703
 10
-0.113845
 20
-0.153829
 30
0.0
 11
-0.112565
 21
-0.153412
 31
0.0
  0
LINE
  8
0
  6
CONTINUOUS
 62
     7
  5
704
 10
-0.112565
 20
-0.153412
 30
0.0
 11
-0.111278
 21
-0.152971
 31
0.0
  0
LINE
  8
0
  6
CONTINUOUS
 62
     7
  5
705
 10
-0.111278
 20
-0.152971
 30
0.0
 11
-0.109985
 21
-0.152507
 31
0.0
  0
LINE
  8
0
  6
CONTINUOUS
 62
     7
  5
706
 10
-0.109985
 20
-0.152507
 30
0.0
 11
-0.108686
 21
-0.15202
 31
0.0
  0
LINE
  8
0
  6
CONTINUOUS
 62
     7
  5
707
 10
-0.108686
 20
-0.15202
 30
0.0
 11
-0.107378
 21
-0.151508
 31
0.0
  0
LINE
  8
0
  6
CONTINUOUS
 62
     7
  5
708
 10
-0.107378
 20
-0.151508
 30
0.0
 11
-0.106063
 21
-0.150973
 31
0.0
  0
LINE
  8
0
  6
CONTINUOUS
 62
     7
  5
709
 10
-0.106063
 20
-0.150973
 30
0.0
 11
-0.10474
 21
-0.150413
 31
0.0
  0
LINE
  8
0
  6
CONTINUOUS
 62
     7
  5
70A
 10
-0.10474
 20
-0.150413
 30
0.0
 11
-0.103407
 21
-0.149829
 31
0.0
  0
LINE
  8
0
  6
CONTINUOUS
 62
     7
  5
70B
 10
-0.103407
 20
-0.149829
 30
0.0
 11
-0.102065
 21
-0.14922
 31
0.0
  0
LINE
  8
0
  6
CONTINUOUS
 62
     7
  5
70C
 10
-0.102065
 20
-0.14922
 30
0.0
 11
-0.100713
 21
-0.148586
 31
0.0
  0
LINE
  8
0
  6
CONTINUOUS
 62
     7
  5
70D
 10
-0.100713
 20
-0.148586
 30
0.0
 11
-0.09935
 21
-0.147927
 31
0.0
  0
LINE
  8
0
  6
CONTINUOUS
 62
     7
  5
70E
 10
-0.09935
 20
-0.147927
 30
0.0
 11
-0.097976
 21
-0.147242
 31
0.0
  0
LINE
  8
0
  6
CONTINUOUS
 62
     7
  5
70F
 10
-0.097976
 20
-0.147242
 30
0.0
 11
-0.096591
 21
-0.14653
 31
0.0
  0
LINE
  8
0
  6
CONTINUOUS
 62
     7
  5
710
 10
-0.096591
 20
-0.14653
 30
0.0
 11
-0.095193
 21
-0.145792
 31
0.0
  0
LINE
  8
0
  6
CONTINUOUS
 62
     7
  5
711
 10
-0.095193
 20
-0.145792
 30
0.0
 11
-0.093783
 21
-0.145027
 31
0.0
  0
LINE
  8
0
  6
CONTINUOUS
 62
     7
  5
712
 10
-0.093783
 20
-0.145027
 30
0.0
 11
-0.092359
 21
-0.144235
 31
0.0
  0
LINE
  8
0
  6
CONTINUOUS
 62
     7
  5
713
 10
-0.092359
 20
-0.144235
 30
0.0
 11
-0.090921
 21
-0.143415
 31
0.0
  0
LINE
  8
0
  6
CONTINUOUS
 62
     7
  5
714
 10
0.090921
 20
-0.143415
 30
0.0
 11
0.090921
 21
-0.014066
 31
0.0
  0
LINE
  8
0
  6
CONTINUOUS
 62
     7
  5
715
 10
0.090921
 20
-0.014066
 30
0.0
 11
0.088046
 21
-0.013245
 31
0.0
  0
LINE
  8
0
  6
CONTINUOUS
 62
     7
  5
716
 10
0.088046
 20
-0.013245
 30
0.0
 11
0.085198
 21
-0.012453
 31
0.0
  0
LINE
  8
0
  6
CONTINUOUS
 62
     7
  5
717
 10
0.085198
 20
-0.012453
 30
0.0
 11
0.082377
 21
-0.011688
 31
0.0
  0
LINE
  8
0
  6
CONTINUOUS
 62
     7
  5
718
 10
0.082377
 20
-0.011688
 30
0.0
 11
0.079582
 21
-0.01095
 31
0.0
  0
LINE
  8
0
  6
CONTINUOUS
 62
     7
  5
719
 10
0.079582
 20
-0.01095
 30
0.0
 11
0.076811
 21
-0.010239
 31
0.0
  0
LINE
  8
0
  6
CONTINUOUS
 62
     7
  5
71A
 10
0.076811
 20
-0.010239
 30
0.0
 11
0.074064
 21
-0.009553
 31
0.0
  0
LINE
  8
0
  6
CONTINUOUS
 62
     7
  5
71B
 10
0.074064
 20
-0.009553
 30
0.0
 11
0.071339
 21
-0.008894
 31
0.0
  0
LINE
  8
0
  6
CONTINUOUS
 62
     7
  5
71C
 10
0.071339
 20
-0.008894
 30
0.0
 11
0.068634
 21
-0.00826
 31
0.0
  0
LINE
  8
0
  6
CONTINUOUS
 62
     7
  5
71D
 10
0.068634
 20
-0.00826
 30
0.0
 11
0.06595
 21
-0.007651
 31
0.0
  0
LINE
  8
0
  6
CONTINUOUS
 62
     7
  5
71E
 10
0.06595
 20
-0.007651
 30
0.0
 11
0.063285
 21
-0.007067
 31
0.0
  0
LINE
  8
0
  6
CONTINUOUS
 62
     7
  5
71F
 10
0.063285
 20
-0.007067
 30
0.0
 11
0.060638
 21
-0.006507
 31
0.0
  0
LINE
  8
0
  6
CONTINUOUS
 62
     7
  5
720
 10
0.060638
 20
-0.006507
 30
0.0
 11
0.058007
 21
-0.005972
 31
0.0
  0
LINE
  8
0
  6
CONTINUOUS
 62
     7
  5
721
 10
0.058007
 20
-0.005972
 30
0.0
 11
0.055393
 21
-0.005461
 31
0.0
  0
LINE
  8
0
  6
CONTINUOUS
 62
     7
  5
722
 10
0.055393
 20
-0.005461
 30
0.0
 11
0.052793
 21
-0.004973
 31
0.0
  0
LINE
  8
0
  6
CONTINUOUS
 62
     7
  5
723
 10
0.052793
 20
-0.004973
 30
0.0
 11
0.050207
 21
-0.004509
 31
0.0
  0
LINE
  8
0
  6
CONTINUOUS
 62
     7
  5
724
 10
0.050207
 20
-0.004509
 30
0.0
 11
0.047635
 21
-0.004068
 31
0.0
  0
LINE
  8
0
  6
CONTINUOUS
 62
     7
  5
725
 10
0.047635
 20
-0.004068
 30
0.0
 11
0.045074
 21
-0.003651
 31
0.0
  0
LINE
  8
0
  6
CONTINUOUS
 62
     7
  5
726
 10
0.045074
 20
-0.003651
 30
0.0
 11
0.042525
 21
-0.003257
 31
0.0
  0
LINE
  8
0
  6
CONTINUOUS
 62
     7
  5
727
 10
0.042525
 20
-0.003257
 30
0.0
 11
0.039986
 21
-0.002885
 31
0.0
  0
LINE
  8
0
  6
CONTINUOUS
 62
     7
  5
728
 10
0.039986
 20
-0.002885
 30
0.0
 11
0.037456
 21
-0.002536
 31
0.0
  0
LINE
  8
0
  6
CONTINUOUS
 62
     7
  5
729
 10
0.037456
 20
-0.002536
 30
0.0
 11
0.034934
 21
-0.00221
 31
0.0
  0
LINE
  8
0
  6
CONTINUOUS
 62
     7
  5
72A
 10
0.034934
 20
-0.00221
 30
0.0
 11
0.03242
 21
-0.001907
 31
0.0
  0
LINE
  8
0
  6
CONTINUOUS
 62
     7
  5
72B
 10
0.03242
 20
-0.001907
 30
0.0
 11
0.029912
 21
-0.001626
 31
0.0
  0
LINE
  8
0
  6
CONTINUOUS
 62
     7
  5
72C
 10
0.029912
 20
-0.001626
 30
0.0
 11
0.02741
 21
-0.001367
 31
0.0
  0
LINE
  8
0
  6
CONTINUOUS
 62
     7
  5
72D
 10
0.02741
 20
-0.001367
 30
0.0
 11
0.024913
 21
-0.001131
 31
0.0
  0
LINE
  8
0
  6
CONTINUOUS
 62
     7
  5
72E
 10
0.024913
 20
-0.001131
 30
0.0
 11
0.02242
 21
-0.000917
 31
0.0
  0
LINE
  8
0
  6
CONTINUOUS
 62
     7
  5
72F
 10
0.02242
 20
-0.000917
 30
0.0
 11
0.019929
 21
-0.000725
 31
0.0
  0
LINE
  8
0
  6
CONTINUOUS
 62
     7
  5
730
 10
0.019929
 20
-0.000725
 30
0.0
 11
0.01744
 21
-0.000556
 31
0.0
  0
LINE
  8
0
  6
CONTINUOUS
 62
     7
  5
731
 10
0.01744
 20
-0.000556
 30
0.0
 11
0.014953
 21
-0.000409
 31
0.0
  0
LINE
  8
0
  6
CONTINUOUS
 62
     7
  5
732
 10
0.014953
 20
-0.000409
 30
0.0
 11
0.012466
 21
-0.000284
 31
0.0
  0
LINE
  8
0
  6
CONTINUOUS
 62
     7
  5
733
 10
0.012466
 20
-0.000284
 30
0.0
 11
0.009978
 21
-0.000182
 31
0.0
  0
LINE
  8
0
  6
CONTINUOUS
 62
     7
  5
734
 10
0.009978
 20
-0.000182
 30
0.0
 11
0.007488
 21
-0.000103
 31
0.0
  0
LINE
  8
0
  6
CONTINUOUS
 62
     7
  5
735
 10
0.007488
 20
-0.000103
 30
0.0
 11
0.004996
 21
-0.000046
 31
0.0
  0
LINE
  8
0
  6
CONTINUOUS
 62
     7
  5
736
 10
0.004996
 20
-0.000046
 30
0.0
 11
0.0025
 21
-0.000011
 31
0.0
  0
LINE
  8
0
  6
CONTINUOUS
 62
     7
  5
737
 10
0.0025
 20
-0.000011
 30
0.0
 11
0.0
 21
0.0
 31
0.0
  0
LINE
  8
0
  6
CONTINUOUS
 62
     7
  5
738
 10
0.0
 20
0.0
 30
0.0
 11
-0.0025
 21
-0.000011
 31
0.0
  0
LINE
  8
0
  6
CONTINUOUS
 62
     7
  5
739
 10
-0.0025
 20
-0.000011
 30
0.0
 11
-0.004996
 21
-0.000046
 31
0.0
  0
LINE
  8
0
  6
CONTINUOUS
 62
     7
  5
73A
 10
-0.004996
 20
-0.000046
 30
0.0
 11
-0.007488
 21
-0.000103
 31
0.0
  0
LINE
  8
0
  6
CONTINUOUS
 62
     7
  5
73B
 10
-0.007488
 20
-0.000103
 30
0.0
 11
-0.009978
 21
-0.000182
 31
0.0
  0
LINE
  8
0
  6
CONTINUOUS
 62
     7
  5
73C
 10
-0.009978
 20
-0.000182
 30
0.0
 11
-0.012466
 21
-0.000284
 31
0.0
  0
LINE
  8
0
  6
CONTINUOUS
 62
     7
  5
73D
 10
-0.012466
 20
-0.000284
 30
0.0
 11
-0.014953
 21
-0.000409
 31
0.0
  0
LINE
  8
0
  6
CONTINUOUS
 62
     7
  5
73E
 10
-0.014953
 20
-0.000409
 30
0.0
 11
-0.01744
 21
-0.000556
 31
0.0
  0
LINE
  8
0
  6
CONTINUOUS
 62
     7
  5
73F
 10
-0.01744
 20
-0.000556
 30
0.0
 11
-0.019929
 21
-0.000725
 31
0.0
  0
LINE
  8
0
  6
CONTINUOUS
 62
     7
  5
740
 10
-0.019929
 20
-0.000725
 30
0.0
 11
-0.02242
 21
-0.000917
 31
0.0
  0
LINE
  8
0
  6
CONTINUOUS
 62
     7
  5
741
 10
-0.02242
 20
-0.000917
 30
0.0
 11
-0.024913
 21
-0.001131
 31
0.0
  0
LINE
  8
0
  6
CONTINUOUS
 62
     7
  5
742
 10
-0.024913
 20
-0.001131
 30
0.0
 11
-0.02741
 21
-0.001367
 31
0.0
  0
LINE
  8
0
  6
CONTINUOUS
 62
     7
  5
743
 10
-0.02741
 20
-0.001367
 30
0.0
 11
-0.029912
 21
-0.001626
 31
0.0
  0
LINE
  8
0
  6
CONTINUOUS
 62
     7
  5
744
 10
-0.029912
 20
-0.001626
 30
0.0
 11
-0.03242
 21
-0.001907
 31
0.0
  0
LINE
  8
0
  6
CONTINUOUS
 62
     7
  5
745
 10
-0.03242
 20
-0.001907
 30
0.0
 11
-0.034934
 21
-0.00221
 31
0.0
  0
LINE
  8
0
  6
CONTINUOUS
 62
     7
  5
746
 10
-0.034934
 20
-0.00221
 30
0.0
 11
-0.037456
 21
-0.002536
 31
0.0
  0
LINE
  8
0
  6
CONTINUOUS
 62
     7
  5
747
 10
-0.037456
 20
-0.002536
 30
0.0
 11
-0.039986
 21
-0.002885
 31
0.0
  0
LINE
  8
0
  6
CONTINUOUS
 62
     7
  5
748
 10
-0.039986
 20
-0.002885
 30
0.0
 11
-0.042525
 21
-0.003257
 31
0.0
  0
LINE
  8
0
  6
CONTINUOUS
 62
     7
  5
749
 10
-0.042525
 20
-0.003257
 30
0.0
 11
-0.045074
 21
-0.003651
 31
0.0
  0
LINE
  8
0
  6
CONTINUOUS
 62
     7
  5
74A
 10
-0.045074
 20
-0.003651
 30
0.0
 11
-0.047635
 21
-0.004068
 31
0.0
  0
LINE
  8
0
  6
CONTINUOUS
 62
     7
  5
74B
 10
-0.047635
 20
-0.004068
 30
0.0
 11
-0.050207
 21
-0.004509
 31
0.0
  0
LINE
  8
0
  6
CONTINUOUS
 62
     7
  5
74C
 10
-0.050207
 20
-0.004509
 30
0.0
 11
-0.052793
 21
-0.004973
 31
0.0
  0
LINE
  8
0
  6
CONTINUOUS
 62
     7
  5
74D
 10
-0.052793
 20
-0.004973
 30
0.0
 11
-0.055393
 21
-0.005461
 31
0.0
  0
LINE
  8
0
  6
CONTINUOUS
 62
     7
  5
74E
 10
-0.055393
 20
-0.005461
 30
0.0
 11
-0.058007
 21
-0.005972
 31
0.0
  0
LINE
  8
0
  6
CONTINUOUS
 62
     7
  5
74F
 10
-0.058007
 20
-0.005972
 30
0.0
 11
-0.060638
 21
-0.006507
 31
0.0
  0
LINE
  8
0
  6
CONTINUOUS
 62
     7
  5
750
 10
-0.060638
 20
-0.006507
 30
0.0
 11
-0.063285
 21
-0.007067
 31
0.0
  0
LINE
  8
0
  6
CONTINUOUS
 62
     7
  5
751
 10
-0.063285
 20
-0.007067
 30
0.0
 11
-0.06595
 21
-0.007651
 31
0.0
  0
LINE
  8
0
  6
CONTINUOUS
 62
     7
  5
752
 10
-0.06595
 20
-0.007651
 30
0.0
 11
-0.068634
 21
-0.00826
 31
0.0
  0
LINE
  8
0
  6
CONTINUOUS
 62
     7
  5
753
 10
-0.068634
 20
-0.00826
 30
0.0
 11
-0.071339
 21
-0.008894
 31
0.0
  0
LINE
  8
0
  6
CONTINUOUS
 62
     7
  5
754
 10
-0.071339
 20
-0.008894
 30
0.0
 11
-0.074064
 21
-0.009553
 31
0.0
  0
LINE
  8
0
  6
CONTINUOUS
 62
     7
  5
755
 10
-0.074064
 20
-0.009553
 30
0.0
 11
-0.076811
 21
-0.010239
 31
0.0
  0
LINE
  8
0
  6
CONTINUOUS
 62
     7
  5
756
 10
-0.076811
 20
-0.010239
 30
0.0
 11
-0.079582
 21
-0.01095
 31
0.0
  0
LINE
  8
0
  6
CONTINUOUS
 62
     7
  5
757
 10
-0.079582
 20
-0.01095
 30
0.0
 11
-0.082377
 21
-0.011688
 31
0.0
  0
LINE
  8
0
  6
CONTINUOUS
 62
     7
  5
758
 10
-0.082377
 20
-0.011688
 30
0.0
 11
-0.085198
 21
-0.012453
 31
0.0
  0
LINE
  8
0
  6
CONTINUOUS
 62
     7
  5
759
 10
-0.085198
 20
-0.012453
 30
0.0
 11
-0.088046
 21
-0.013245
 31
0.0
  0
LINE
  8
0
  6
CONTINUOUS
 62
     7
  5
75A
 10
-0.088046
 20
-0.013245
 30
0.0
 11
-0.090921
 21
-0.014066
 31
0.0
  0
LINE
  8
0
  6
CONTINUOUS
 62
     7
  5
75B
 10
-0.090921
 20
-0.143415
 30
0.0
 11
-0.090921
 21
-0.014066
 31
0.0
  0
LINE
  8
0
  6
CONTINUOUS
 62
     7
  5
75C
 10
0.181843
 20
-0.143415
 30
0.0
 11
0.181843
 21
-0.014066
 31
0.0
  0
LINE
  8
0
  6
CONTINUOUS
 62
     7
  5
75D
 10
0.181843
 20
-0.014066
 30
0.0
 11
0.180405
 21
-0.013245
 31
0.0
  0
LINE
  8
0
  6
CONTINUOUS
 62
     7
  5
75E
 10
0.180405
 20
-0.013245
 30
0.0
 11
0.178981
 21
-0.012453
 31
0.0
  0
LINE
  8
0
  6
CONTINUOUS
 62
     7
  5
75F
 10
0.178981
 20
-0.012453
 30
0.0
 11
0.177571
 21
-0.011688
 31
0.0
  0
LINE
  8
0
  6
CONTINUOUS
 62
     7
  5
760
 10
0.177571
 20
-0.011688
 30
0.0
 11
0.176173
 21
-0.01095
 31
0.0
  0
LINE
  8
0
  6
CONTINUOUS
 62
     7
  5
761
 10
0.176173
 20
-0.01095
 30
0.0
 11
0.174788
 21
-0.010239
 31
0.0
  0
LINE
  8
0
  6
CONTINUOUS
 62
     7
  5
762
 10
0.174788
 20
-0.010239
 30
0.0
 11
0.173414
 21
-0.009553
 31
0.0
  0
LINE
  8
0
  6
CONTINUOUS
 62
     7
  5
763
 10
0.173414
 20
-0.009553
 30
0.0
 11
0.172051
 21
-0.008894
 31
0.0
  0
LINE
  8
0
  6
CONTINUOUS
 62
     7
  5
764
 10
0.172051
 20
-0.008894
 30
0.0
 11
0.170699
 21
-0.00826
 31
0.0
  0
LINE
  8
0
  6
CONTINUOUS
 62
     7
  5
765
 10
0.170699
 20
-0.00826
 30
0.0
 11
0.169357
 21
-0.007651
 31
0.0
  0
LINE
  8
0
  6
CONTINUOUS
 62
     7
  5
766
 10
0.169357
 20
-0.007651
 30
0.0
 11
0.168024
 21
-0.007067
 31
0.0
  0
LINE
  8
0
  6
CONTINUOUS
 62
     7
  5
767
 10
0.168024
 20
-0.007067
 30
0.0
 11
0.166701
 21
-0.006507
 31
0.0
  0
LINE
  8
0
  6
CONTINUOUS
 62
     7
  5
768
 10
0.166701
 20
-0.006507
 30
0.0
 11
0.165386
 21
-0.005972
 31
0.0
  0
LINE
  8
0
  6
CONTINUOUS
 62
     7
  5
769
 10
0.165386
 20
-0.005972
 30
0.0
 11
0.164078
 21
-0.005461
 31
0.0
  0
LINE
  8
0
  6
CONTINUOUS
 62
     7
  5
76A
 10
0.164078
 20
-0.005461
 30
0.0
 11
0.162778
 21
-0.004973
 31
0.0
  0
LINE
  8
0
  6
CONTINUOUS
 62
     7
  5
76B
 10
0.162778
 20
-0.004973
 30
0.0
 11
0.161486
 21
-0.004509
 31
0.0
  0
LINE
  8
0
  6
CONTINUOUS
 62
     7
  5
76C
 10
0.161486
 20
-0.004509
 30
0.0
 11
0.160199
 21
-0.004068
 31
0.0
  0
LINE
  8
0
  6
CONTINUOUS
 62
     7
  5
76D
 10
0.160199
 20
-0.004068
 30
0.0
 11
0.158919
 21
-0.003651
 31
0.0
  0
LINE
  8
0
  6
CONTINUOUS
 62
     7
  5
76E
 10
0.158919
 20
-0.003651
 30
0.0
 11
0.157644
 21
-0.003257
 31
0.0
  0
LINE
  8
0
  6
CONTINUOUS
 62
     7
  5
76F
 10
0.157644
 20
-0.003257
 30
0.0
 11
0.156375
 21
-0.002885
 31
0.0
  0
LINE
  8
0
  6
CONTINUOUS
 62
     7
  5
770
 10
0.156375
 20
-0.002885
 30
0.0
 11
0.15511
 21
-0.002536
 31
0.0
  0
LINE
  8
0
  6
CONTINUOUS
 62
     7
  5
771
 10
0.15511
 20
-0.002536
 30
0.0
 11
0.153849
 21
-0.00221
 31
0.0
  0
LINE
  8
0
  6
CONTINUOUS
 62
     7
  5
772
 10
0.153849
 20
-0.00221
 30
0.0
 11
0.152592
 21
-0.001907
 31
0.0
  0
LINE
  8
0
  6
CONTINUOUS
 62
     7
  5
773
 10
0.152592
 20
-0.001907
 30
0.0
 11
0.151338
 21
-0.001626
 31
0.0
  0
LINE
  8
0
  6
CONTINUOUS
 62
     7
  5
774
 10
0.151338
 20
-0.001626
 30
0.0
 11
0.150087
 21
-0.001367
 31
0.0
  0
LINE
  8
0
  6
CONTINUOUS
 62
     7
  5
775
 10
0.150087
 20
-0.001367
 30
0.0
 11
0.148838
 21
-0.001131
 31
0.0
  0
LINE
  8
0
  6
CONTINUOUS
 62
     7
  5
776
 10
0.148838
 20
-0.001131
 30
0.0
 11
0.147592
 21
-0.000917
 31
0.0
  0
LINE
  8
0
  6
CONTINUOUS
 62
     7
  5
777
 10
0.147592
 20
-0.000917
 30
0.0
 11
0.146346
 21
-0.000725
 31
0.0
  0
LINE
  8
0
  6
CONTINUOUS
 62
     7
  5
778
 10
0.146346
 20
-0.000725
 30
0.0
 11
0.145102
 21
-0.000556
 31
0.0
  0
LINE
  8
0
  6
CONTINUOUS
 62
     7
  5
779
 10
0.145102
 20
-0.000556
 30
0.0
 11
0.143858
 21
-0.000409
 31
0.0
  0
LINE
  8
0
  6
CONTINUOUS
 62
     7
  5
77A
 10
0.143858
 20
-0.000409
 30
0.0
 11
0.142615
 21
-0.000284
 31
0.0
  0
LINE
  8
0
  6
CONTINUOUS
 62
     7
  5
77B
 10
0.142615
 20
-0.000284
 30
0.0
 11
0.141371
 21
-0.000182
 31
0.0
  0
LINE
  8
0
  6
CONTINUOUS
 62
     7
  5
77C
 10
0.141371
 20
-0.000182
 30
0.0
 11
0.140126
 21
-0.000103
 31
0.0
  0
LINE
  8
0
  6
CONTINUOUS
 62
     7
  5
77D
 10
0.140126
 20
-0.000103
 30
0.0
 11
0.13888
 21
-0.000046
 31
0.0
  0
LINE
  8
0
  6
CONTINUOUS
 62
     7
  5
77E
 10
0.13888
 20
-0.000046
 30
0.0
 11
0.137632
 21
-0.000011
 31
0.0
  0
LINE
  8
0
  6
CONTINUOUS
 62
     7
  5
77F
 10
0.137632
 20
-0.000011
 30
0.0
 11
0.136382
 21
0.0
 31
0.0
  0
LINE
  8
0
  6
CONTINUOUS
 62
     7
  5
780
 10
0.136382
 20
0.0
 30
0.0
 11
0.135132
 21
-0.000011
 31
0.0
  0
LINE
  8
0
  6
CONTINUOUS
 62
     7
  5
781
 10
0.135132
 20
-0.000011
 30
0.0
 11
0.133884
 21
-0.000046
 31
0.0
  0
LINE
  8
0
  6
CONTINUOUS
 62
     7
  5
782
 10
0.133884
 20
-0.000046
 30
0.0
 11
0.132638
 21
-0.000103
 31
0.0
  0
LINE
  8
0
  6
CONTINUOUS
 62
     7
  5
783
 10
0.132638
 20
-0.000103
 30
0.0
 11
0.131393
 21
-0.000182
 31
0.0
  0
LINE
  8
0
  6
CONTINUOUS
 62
     7
  5
784
 10
0.131393
 20
-0.000182
 30
0.0
 11
0.130149
 21
-0.000284
 31
0.0
  0
LINE
  8
0
  6
CONTINUOUS
 62
     7
  5
785
 10
0.130149
 20
-0.000284
 30
0.0
 11
0.128905
 21
-0.000409
 31
0.0
  0
LINE
  8
0
  6
CONTINUOUS
 62
     7
  5
786
 10
0.128905
 20
-0.000409
 30
0.0
 11
0.127662
 21
-0.000556
 31
0.0
  0
LINE
  8
0
  6
CONTINUOUS
 62
     7
  5
787
 10
0.127662
 20
-0.000556
 30
0.0
 11
0.126417
 21
-0.000725
 31
0.0
  0
LINE
  8
0
  6
CONTINUOUS
 62
     7
  5
788
 10
0.126417
 20
-0.000725
 30
0.0
 11
0.125172
 21
-0.000917
 31
0.0
  0
LINE
  8
0
  6
CONTINUOUS
 62
     7
  5
789
 10
0.125172
 20
-0.000917
 30
0.0
 11
0.123925
 21
-0.001131
 31
0.0
  0
LINE
  8
0
  6
CONTINUOUS
 62
     7
  5
78A
 10
0.123925
 20
-0.001131
 30
0.0
 11
0.122677
 21
-0.001367
 31
0.0
  0
LINE
  8
0
  6
CONTINUOUS
 62
     7
  5
78B
 10
0.122677
 20
-0.001367
 30
0.0
 11
0.121426
 21
-0.001626
 31
0.0
  0
LINE
  8
0
  6
CONTINUOUS
 62
     7
  5
78C
 10
0.121426
 20
-0.001626
 30
0.0
 11
0.120172
 21
-0.001907
 31
0.0
  0
LINE
  8
0
  6
CONTINUOUS
 62
     7
  5
78D
 10
0.120172
 20
-0.001907
 30
0.0
 11
0.118915
 21
-0.00221
 31
0.0
  0
LINE
  8
0
  6
CONTINUOUS
 62
     7
  5
78E
 10
0.118915
 20
-0.00221
 30
0.0
 11
0.117654
 21
-0.002536
 31
0.0
  0
LINE
  8
0
  6
CONTINUOUS
 62
     7
  5
78F
 10
0.117654
 20
-0.002536
 30
0.0
 11
0.116389
 21
-0.002885
 31
0.0
  0
LINE
  8
0
  6
CONTINUOUS
 62
     7
  5
790
 10
0.116389
 20
-0.002885
 30
0.0
 11
0.115119
 21
-0.003257
 31
0.0
  0
LINE
  8
0
  6
CONTINUOUS
 62
     7
  5
791
 10
0.115119
 20
-0.003257
 30
0.0
 11
0.113845
 21
-0.003651
 31
0.0
  0
LINE
  8
0
  6
CONTINUOUS
 62
     7
  5
792
 10
0.113845
 20
-0.003651
 30
0.0
 11
0.112565
 21
-0.004068
 31
0.0
  0
LINE
  8
0
  6
CONTINUOUS
 62
     7
  5
793
 10
0.112565
 20
-0.004068
 30
0.0
 11
0.111278
 21
-0.004509
 31
0.0
  0
LINE
  8
0
  6
CONTINUOUS
 62
     7
  5
794
 10
0.111278
 20
-0.004509
 30
0.0
 11
0.109985
 21
-0.004973
 31
0.0
  0
LINE
  8
0
  6
CONTINUOUS
 62
     7
  5
795
 10
0.109985
 20
-0.004973
 30
0.0
 11
0.108686
 21
-0.005461
 31
0.0
  0
LINE
  8
0
  6
CONTINUOUS
 62
     7
  5
796
 10
0.108686
 20
-0.005461
 30
0.0
 11
0.107378
 21
-0.005972
 31
0.0
  0
LINE
  8
0
  6
CONTINUOUS
 62
     7
  5
797
 10
0.107378
 20
-0.005972
 30
0.0
 11
0.106063
 21
-0.006507
 31
0.0
  0
LINE
  8
0
  6
CONTINUOUS
 62
     7
  5
798
 10
0.106063
 20
-0.006507
 30
0.0
 11
0.10474
 21
-0.007067
 31
0.0
  0
LINE
  8
0
  6
CONTINUOUS
 62
     7
  5
799
 10
0.10474
 20
-0.007067
 30
0.0
 11
0.103407
 21
-0.007651
 31
0.0
  0
LINE
  8
0
  6
CONTINUOUS
 62
     7
  5
79A
 10
0.103407
 20
-0.007651
 30
0.0
 11
0.102065
 21
-0.00826
 31
0.0
  0
LINE
  8
0
  6
CONTINUOUS
 62
     7
  5
79B
 10
0.102065
 20
-0.00826
 30
0.0
 11
0.100713
 21
-0.008894
 31
0.0
  0
LINE
  8
0
  6
CONTINUOUS
 62
     7
  5
79C
 10
0.100713
 20
-0.008894
 30
0.0
 11
0.09935
 21
-0.009553
 31
0.0
  0
LINE
  8
0
  6
CONTINUOUS
 62
     7
  5
79D
 10
0.09935
 20
-0.009553
 30
0.0
 11
0.097976
 21
-0.010239
 31
0.0
  0
LINE
  8
0
  6
CONTINUOUS
 62
     7
  5
79E
 10
0.097976
 20
-0.010239
 30
0.0
 11
0.096591
 21
-0.01095
 31
0.0
  0
LINE
  8
0
  6
CONTINUOUS
 62
     7
  5
79F
 10
0.096591
 20
-0.01095
 30
0.0
 11
0.095193
 21
-0.011688
 31
0.0
  0
LINE
  8
0
  6
CONTINUOUS
 62
     7
  5
7A0
 10
0.095193
 20
-0.011688
 30
0.0
 11
0.093783
 21
-0.012453
 31
0.0
  0
LINE
  8
0
  6
CONTINUOUS
 62
     7
  5
7A1
 10
0.093783
 20
-0.012453
 30
0.0
 11
0.092359
 21
-0.013245
 31
0.0
  0
LINE
  8
0
  6
CONTINUOUS
 62
     7
  5
7A2
 10
0.092359
 20
-0.013245
 30
0.0
 11
0.090921
 21
-0.014066
 31
0.0
  0
LINE
  8
0
  6
CONTINUOUS
 62
     7
  5
7A3
 10
-0.136382
 20
0.0
 30
0.0
 11
-0.137632
 21
-0.000011
 31
0.0
  0
LINE
  8
0
  6
CONTINUOUS
 62
     7
  5
7A4
 10
-0.137632
 20
-0.000011
 30
0.0
 11
-0.13888
 21
-0.000046
 31
0.0
  0
LINE
  8
0
  6
CONTINUOUS
 62
     7
  5
7A5
 10
-0.13888
 20
-0.000046
 30
0.0
 11
-0.140126
 21
-0.000103
 31
0.0
  0
LINE
  8
0
  6
CONTINUOUS
 62
     7
  5
7A6
 10
-0.140126
 20
-0.000103
 30
0.0
 11
-0.141371
 21
-0.000182
 31
0.0
  0
LINE
  8
0
  6
CONTINUOUS
 62
     7
  5
7A7
 10
-0.141371
 20
-0.000182
 30
0.0
 11
-0.142615
 21
-0.000284
 31
0.0
  0
LINE
  8
0
  6
CONTINUOUS
 62
     7
  5
7A8
 10
-0.142615
 20
-0.000284
 30
0.0
 11
-0.143858
 21
-0.000409
 31
0.0
  0
LINE
  8
0
  6
CONTINUOUS
 62
     7
  5
7A9
 10
-0.143858
 20
-0.000409
 30
0.0
 11
-0.145102
 21
-0.000556
 31
0.0
  0
LINE
  8
0
  6
CONTINUOUS
 62
     7
  5
7AA
 10
-0.145102
 20
-0.000556
 30
0.0
 11
-0.146346
 21
-0.000725
 31
0.0
  0
LINE
  8
0
  6
CONTINUOUS
 62
     7
  5
7AB
 10
-0.146346
 20
-0.000725
 30
0.0
 11
-0.147592
 21
-0.000917
 31
0.0
  0
LINE
  8
0
  6
CONTINUOUS
 62
     7
  5
7AC
 10
-0.147592
 20
-0.000917
 30
0.0
 11
-0.148838
 21
-0.001131
 31
0.0
  0
LINE
  8
0
  6
CONTINUOUS
 62
     7
  5
7AD
 10
-0.148838
 20
-0.001131
 30
0.0
 11
-0.150087
 21
-0.001367
 31
0.0
  0
LINE
  8
0
  6
CONTINUOUS
 62
     7
  5
7AE
 10
-0.150087
 20
-0.001367
 30
0.0
 11
-0.151338
 21
-0.001626
 31
0.0
  0
LINE
  8
0
  6
CONTINUOUS
 62
     7
  5
7AF
 10
-0.151338
 20
-0.001626
 30
0.0
 11
-0.152592
 21
-0.001907
 31
0.0
  0
LINE
  8
0
  6
CONTINUOUS
 62
     7
  5
7B0
 10
-0.152592
 20
-0.001907
 30
0.0
 11
-0.153849
 21
-0.00221
 31
0.0
  0
LINE
  8
0
  6
CONTINUOUS
 62
     7
  5
7B1
 10
-0.153849
 20
-0.00221
 30
0.0
 11
-0.15511
 21
-0.002536
 31
0.0
  0
LINE
  8
0
  6
CONTINUOUS
 62
     7
  5
7B2
 10
-0.15511
 20
-0.002536
 30
0.0
 11
-0.156375
 21
-0.002885
 31
0.0
  0
LINE
  8
0
  6
CONTINUOUS
 62
     7
  5
7B3
 10
-0.156375
 20
-0.002885
 30
0.0
 11
-0.157644
 21
-0.003257
 31
0.0
  0
LINE
  8
0
  6
CONTINUOUS
 62
     7
  5
7B4
 10
-0.157644
 20
-0.003257
 30
0.0
 11
-0.158919
 21
-0.003651
 31
0.0
  0
LINE
  8
0
  6
CONTINUOUS
 62
     7
  5
7B5
 10
-0.158919
 20
-0.003651
 30
0.0
 11
-0.160199
 21
-0.004068
 31
0.0
  0
LINE
  8
0
  6
CONTINUOUS
 62
     7
  5
7B6
 10
-0.160199
 20
-0.004068
 30
0.0
 11
-0.161486
 21
-0.004509
 31
0.0
  0
LINE
  8
0
  6
CONTINUOUS
 62
     7
  5
7B7
 10
-0.161486
 20
-0.004509
 30
0.0
 11
-0.162778
 21
-0.004973
 31
0.0
  0
LINE
  8
0
  6
CONTINUOUS
 62
     7
  5
7B8
 10
-0.162778
 20
-0.004973
 30
0.0
 11
-0.164078
 21
-0.005461
 31
0.0
  0
LINE
  8
0
  6
CONTINUOUS
 62
     7
  5
7B9
 10
-0.164078
 20
-0.005461
 30
0.0
 11
-0.165386
 21
-0.005972
 31
0.0
  0
LINE
  8
0
  6
CONTINUOUS
 62
     7
  5
7BA
 10
-0.165386
 20
-0.005972
 30
0.0
 11
-0.166701
 21
-0.006507
 31
0.0
  0
LINE
  8
0
  6
CONTINUOUS
 62
     7
  5
7BB
 10
-0.166701
 20
-0.006507
 30
0.0
 11
-0.168024
 21
-0.007067
 31
0.0
  0
LINE
  8
0
  6
CONTINUOUS
 62
     7
  5
7BC
 10
-0.168024
 20
-0.007067
 30
0.0
 11
-0.169357
 21
-0.007651
 31
0.0
  0
LINE
  8
0
  6
CONTINUOUS
 62
     7
  5
7BD
 10
-0.169357
 20
-0.007651
 30
0.0
 11
-0.170699
 21
-0.00826
 31
0.0
  0
LINE
  8
0
  6
CONTINUOUS
 62
     7
  5
7BE
 10
-0.170699
 20
-0.00826
 30
0.0
 11
-0.172051
 21
-0.008894
 31
0.0
  0
LINE
  8
0
  6
CONTINUOUS
 62
     7
  5
7BF
 10
-0.172051
 20
-0.008894
 30
0.0
 11
-0.173414
 21
-0.009553
 31
0.0
  0
LINE
  8
0
  6
CONTINUOUS
 62
     7
  5
7C0
 10
-0.173414
 20
-0.009553
 30
0.0
 11
-0.174788
 21
-0.010239
 31
0.0
  0
LINE
  8
0
  6
CONTINUOUS
 62
     7
  5
7C1
 10
-0.174788
 20
-0.010239
 30
0.0
 11
-0.176173
 21
-0.01095
 31
0.0
  0
LINE
  8
0
  6
CONTINUOUS
 62
     7
  5
7C2
 10
-0.176173
 20
-0.01095
 30
0.0
 11
-0.177571
 21
-0.011688
 31
0.0
  0
LINE
  8
0
  6
CONTINUOUS
 62
     7
  5
7C3
 10
-0.177571
 20
-0.011688
 30
0.0
 11
-0.178981
 21
-0.012453
 31
0.0
  0
LINE
  8
0
  6
CONTINUOUS
 62
     7
  5
7C4
 10
-0.178981
 20
-0.012453
 30
0.0
 11
-0.180405
 21
-0.013245
 31
0.0
  0
LINE
  8
0
  6
CONTINUOUS
 62
     7
  5
7C5
 10
-0.180405
 20
-0.013245
 30
0.0
 11
-0.181843
 21
-0.014066
 31
0.0
  0
LINE
  8
0
  6
CONTINUOUS
 62
     7
  5
7C6
 10
-0.090921
 20
-0.014066
 30
0.0
 11
-0.092359
 21
-0.013245
 31
0.0
  0
LINE
  8
0
  6
CONTINUOUS
 62
     7
  5
7C7
 10
-0.092359
 20
-0.013245
 30
0.0
 11
-0.093783
 21
-0.012453
 31
0.0
  0
LINE
  8
0
  6
CONTINUOUS
 62
     7
  5
7C8
 10
-0.093783
 20
-0.012453
 30
0.0
 11
-0.095193
 21
-0.011688
 31
0.0
  0
LINE
  8
0
  6
CONTINUOUS
 62
     7
  5
7C9
 10
-0.095193
 20
-0.011688
 30
0.0
 11
-0.096591
 21
-0.01095
 31
0.0
  0
LINE
  8
0
  6
CONTINUOUS
 62
     7
  5
7CA
 10
-0.096591
 20
-0.01095
 30
0.0
 11
-0.097976
 21
-0.010239
 31
0.0
  0
LINE
  8
0
  6
CONTINUOUS
 62
     7
  5
7CB
 10
-0.097976
 20
-0.010239
 30
0.0
 11
-0.09935
 21
-0.009553
 31
0.0
  0
LINE
  8
0
  6
CONTINUOUS
 62
     7
  5
7CC
 10
-0.09935
 20
-0.009553
 30
0.0
 11
-0.100713
 21
-0.008894
 31
0.0
  0
LINE
  8
0
  6
CONTINUOUS
 62
     7
  5
7CD
 10
-0.100713
 20
-0.008894
 30
0.0
 11
-0.102065
 21
-0.00826
 31
0.0
  0
LINE
  8
0
  6
CONTINUOUS
 62
     7
  5
7CE
 10
-0.102065
 20
-0.00826
 30
0.0
 11
-0.103407
 21
-0.007651
 31
0.0
  0
LINE
  8
0
  6
CONTINUOUS
 62
     7
  5
7CF
 10
-0.103407
 20
-0.007651
 30
0.0
 11
-0.10474
 21
-0.007067
 31
0.0
  0
LINE
  8
0
  6
CONTINUOUS
 62
     7
  5
7D0
 10
-0.10474
 20
-0.007067
 30
0.0
 11
-0.106063
 21
-0.006507
 31
0.0
  0
LINE
  8
0
  6
CONTINUOUS
 62
     7
  5
7D1
 10
-0.106063
 20
-0.006507
 30
0.0
 11
-0.107378
 21
-0.005972
 31
0.0
  0
LINE
  8
0
  6
CONTINUOUS
 62
     7
  5
7D2
 10
-0.107378
 20
-0.005972
 30
0.0
 11
-0.108686
 21
-0.005461
 31
0.0
  0
LINE
  8
0
  6
CONTINUOUS
 62
     7
  5
7D3
 10
-0.108686
 20
-0.005461
 30
0.0
 11
-0.109985
 21
-0.004973
 31
0.0
  0
LINE
  8
0
  6
CONTINUOUS
 62
     7
  5
7D4
 10
-0.109985
 20
-0.004973
 30
0.0
 11
-0.111278
 21
-0.004509
 31
0.0
  0
LINE
  8
0
  6
CONTINUOUS
 62
     7
  5
7D5
 10
-0.111278
 20
-0.004509
 30
0.0
 11
-0.112565
 21
-0.004068
 31
0.0
  0
LINE
  8
0
  6
CONTINUOUS
 62
     7
  5
7D6
 10
-0.112565
 20
-0.004068
 30
0.0
 11
-0.113845
 21
-0.003651
 31
0.0
  0
LINE
  8
0
  6
CONTINUOUS
 62
     7
  5
7D7
 10
-0.113845
 20
-0.003651
 30
0.0
 11
-0.115119
 21
-0.003257
 31
0.0
  0
LINE
  8
0
  6
CONTINUOUS
 62
     7
  5
7D8
 10
-0.115119
 20
-0.003257
 30
0.0
 11
-0.116389
 21
-0.002885
 31
0.0
  0
LINE
  8
0
  6
CONTINUOUS
 62
     7
  5
7D9
 10
-0.116389
 20
-0.002885
 30
0.0
 11
-0.117654
 21
-0.002536
 31
0.0
  0
LINE
  8
0
  6
CONTINUOUS
 62
     7
  5
7DA
 10
-0.117654
 20
-0.002536
 30
0.0
 11
-0.118915
 21
-0.00221
 31
0.0
  0
LINE
  8
0
  6
CONTINUOUS
 62
     7
  5
7DB
 10
-0.118915
 20
-0.00221
 30
0.0
 11
-0.120172
 21
-0.001907
 31
0.0
  0
LINE
  8
0
  6
CONTINUOUS
 62
     7
  5
7DC
 10
-0.120172
 20
-0.001907
 30
0.0
 11
-0.121426
 21
-0.001626
 31
0.0
  0
LINE
  8
0
  6
CONTINUOUS
 62
     7
  5
7DD
 10
-0.121426
 20
-0.001626
 30
0.0
 11
-0.122677
 21
-0.001367
 31
0.0
  0
LINE
  8
0
  6
CONTINUOUS
 62
     7
  5
7DE
 10
-0.122677
 20
-0.001367
 30
0.0
 11
-0.123925
 21
-0.001131
 31
0.0
  0
LINE
  8
0
  6
CONTINUOUS
 62
     7
  5
7DF
 10
-0.123925
 20
-0.001131
 30
0.0
 11
-0.125172
 21
-0.000917
 31
0.0
  0
LINE
  8
0
  6
CONTINUOUS
 62
     7
  5
7E0
 10
-0.125172
 20
-0.000917
 30
0.0
 11
-0.126417
 21
-0.000725
 31
0.0
  0
LINE
  8
0
  6
CONTINUOUS
 62
     7
  5
7E1
 10
-0.126417
 20
-0.000725
 30
0.0
 11
-0.127662
 21
-0.000556
 31
0.0
  0
LINE
  8
0
  6
CONTINUOUS
 62
     7
  5
7E2
 10
-0.127662
 20
-0.000556
 30
0.0
 11
-0.128905
 21
-0.000409
 31
0.0
  0
LINE
  8
0
  6
CONTINUOUS
 62
     7
  5
7E3
 10
-0.128905
 20
-0.000409
 30
0.0
 11
-0.130149
 21
-0.000284
 31
0.0
  0
LINE
  8
0
  6
CONTINUOUS
 62
     7
  5
7E4
 10
-0.130149
 20
-0.000284
 30
0.0
 11
-0.131393
 21
-0.000182
 31
0.0
  0
LINE
  8
0
  6
CONTINUOUS
 62
     7
  5
7E5
 10
-0.131393
 20
-0.000182
 30
0.0
 11
-0.132638
 21
-0.000103
 31
0.0
  0
LINE
  8
0
  6
CONTINUOUS
 62
     7
  5
7E6
 10
-0.132638
 20
-0.000103
 30
0.0
 11
-0.133884
 21
-0.000046
 31
0.0
  0
LINE
  8
0
  6
CONTINUOUS
 62
     7
  5
7E7
 10
-0.133884
 20
-0.000046
 30
0.0
 11
-0.135132
 21
-0.000011
 31
0.0
  0
LINE
  8
0
  6
CONTINUOUS
 62
     7
  5
7E8
 10
-0.135132
 20
-0.000011
 30
0.0
 11
-0.136382
 21
0.0
 31
0.0
  0
LINE
  8
0
  6
CONTINUOUS
 62
     7
  5
7E9
 10
-0.181843
 20
-0.143415
 30
0.0
 11
-0.181843
 21
-0.014066
 31
0.0
  0
LINE
  8
0
  6
CONTINUOUS
 62
     7
  5
7EA
 10
0.890533
 20
-0.15748
 30
0.0
 11
0.869435
 21
-0.15748
 31
0.0
  0
LINE
  8
0
  6
CONTINUOUS
 62
     7
  5
7EB
 10
0.869435
 20
-0.15748
 30
0.0
 11
0.733053
 21
-0.15748
 31
0.0
  0
LINE
  8
0
  6
CONTINUOUS
 62
     7
  5
7EC
 10
0.733053
 20
-0.15748
 30
0.0
 11
0.596671
 21
-0.15748
 31
0.0
  0
LINE
  8
0
  6
CONTINUOUS
 62
     7
  5
7ED
 10
0.596671
 20
-0.15748
 30
0.0
 11
0.575573
 21
-0.15748
 31
0.0
  0
LINE
  8
0
  6
CONTINUOUS
 62
     7
  5
7EE
 10
0.869435
 20
-0.15748
 30
0.0
 11
0.870685
 21
-0.157469
 31
0.0
  0
LINE
  8
0
  6
CONTINUOUS
 62
     7
  5
7EF
 10
0.870685
 20
-0.157469
 30
0.0
 11
0.871933
 21
-0.157435
 31
0.0
  0
LINE
  8
0
  6
CONTINUOUS
 62
     7
  5
7F0
 10
0.871933
 20
-0.157435
 30
0.0
 11
0.873179
 21
-0.157378
 31
0.0
  0
LINE
  8
0
  6
CONTINUOUS
 62
     7
  5
7F1
 10
0.873179
 20
-0.157378
 30
0.0
 11
0.874424
 21
-0.157298
 31
0.0
  0
LINE
  8
0
  6
CONTINUOUS
 62
     7
  5
7F2
 10
0.874424
 20
-0.157298
 30
0.0
 11
0.875668
 21
-0.157196
 31
0.0
  0
LINE
  8
0
  6
CONTINUOUS
 62
     7
  5
7F3
 10
0.875668
 20
-0.157196
 30
0.0
 11
0.876911
 21
-0.157071
 31
0.0
  0
LINE
  8
0
  6
CONTINUOUS
 62
     7
  5
7F4
 10
0.876911
 20
-0.157071
 30
0.0
 11
0.878155
 21
-0.156924
 31
0.0
  0
LINE
  8
0
  6
CONTINUOUS
 62
     7
  5
7F5
 10
0.878155
 20
-0.156924
 30
0.0
 11
0.879399
 21
-0.156755
 31
0.0
  0
LINE
  8
0
  6
CONTINUOUS
 62
     7
  5
7F6
 10
0.879399
 20
-0.156755
 30
0.0
 11
0.880645
 21
-0.156564
 31
0.0
  0
LINE
  8
0
  6
CONTINUOUS
 62
     7
  5
7F7
 10
0.880645
 20
-0.156564
 30
0.0
 11
0.881891
 21
-0.15635
 31
0.0
  0
LINE
  8
0
  6
CONTINUOUS
 62
     7
  5
7F8
 10
0.881891
 20
-0.15635
 30
0.0
 11
0.88314
 21
-0.156113
 31
0.0
  0
LINE
  8
0
  6
CONTINUOUS
 62
     7
  5
7F9
 10
0.88314
 20
-0.156113
 30
0.0
 11
0.884391
 21
-0.155855
 31
0.0
  0
LINE
  8
0
  6
CONTINUOUS
 62
     7
  5
7FA
 10
0.884391
 20
-0.155855
 30
0.0
 11
0.885645
 21
-0.155574
 31
0.0
  0
LINE
  8
0
  6
CONTINUOUS
 62
     7
  5
7FB
 10
0.885645
 20
-0.155574
 30
0.0
 11
0.886902
 21
-0.15527
 31
0.0
  0
LINE
  8
0
  6
CONTINUOUS
 62
     7
  5
7FC
 10
0.886902
 20
-0.15527
 30
0.0
 11
0.888163
 21
-0.154944
 31
0.0
  0
LINE
  8
0
  6
CONTINUOUS
 62
     7
  5
7FD
 10
0.888163
 20
-0.154944
 30
0.0
 11
0.889428
 21
-0.154595
 31
0.0
  0
LINE
  8
0
  6
CONTINUOUS
 62
     7
  5
7FE
 10
0.889428
 20
-0.154595
 30
0.0
 11
0.890697
 21
-0.154224
 31
0.0
  0
LINE
  8
0
  6
CONTINUOUS
 62
     7
  5
7FF
 10
0.890697
 20
-0.154224
 30
0.0
 11
0.891972
 21
-0.153829
 31
0.0
  0
LINE
  8
0
  6
CONTINUOUS
 62
     7
  5
800
 10
0.891972
 20
-0.153829
 30
0.0
 11
0.893252
 21
-0.153412
 31
0.0
  0
LINE
  8
0
  6
CONTINUOUS
 62
     7
  5
801
 10
0.893252
 20
-0.153412
 30
0.0
 11
0.894539
 21
-0.152971
 31
0.0
  0
LINE
  8
0
  6
CONTINUOUS
 62
     7
  5
802
 10
0.894539
 20
-0.152971
 30
0.0
 11
0.895831
 21
-0.152507
 31
0.0
  0
LINE
  8
0
  6
CONTINUOUS
 62
     7
  5
803
 10
0.895831
 20
-0.152507
 30
0.0
 11
0.897131
 21
-0.15202
 31
0.0
  0
LINE
  8
0
  6
CONTINUOUS
 62
     7
  5
804
 10
0.897131
 20
-0.15202
 30
0.0
 11
0.898439
 21
-0.151508
 31
0.0
  0
LINE
  8
0
  6
CONTINUOUS
 62
     7
  5
805
 10
0.898439
 20
-0.151508
 30
0.0
 11
0.899754
 21
-0.150973
 31
0.0
  0
LINE
  8
0
  6
CONTINUOUS
 62
     7
  5
806
 10
0.899754
 20
-0.150973
 30
0.0
 11
0.901077
 21
-0.150413
 31
0.0
  0
LINE
  8
0
  6
CONTINUOUS
 62
     7
  5
807
 10
0.901077
 20
-0.150413
 30
0.0
 11
0.90241
 21
-0.149829
 31
0.0
  0
LINE
  8
0
  6
CONTINUOUS
 62
     7
  5
808
 10
0.90241
 20
-0.149829
 30
0.0
 11
0.903752
 21
-0.14922
 31
0.0
  0
LINE
  8
0
  6
CONTINUOUS
 62
     7
  5
809
 10
0.903752
 20
-0.14922
 30
0.0
 11
0.905104
 21
-0.148586
 31
0.0
  0
LINE
  8
0
  6
CONTINUOUS
 62
     7
  5
80A
 10
0.905104
 20
-0.148586
 30
0.0
 11
0.906467
 21
-0.147927
 31
0.0
  0
LINE
  8
0
  6
CONTINUOUS
 62
     7
  5
80B
 10
0.906467
 20
-0.147927
 30
0.0
 11
0.907841
 21
-0.147242
 31
0.0
  0
LINE
  8
0
  6
CONTINUOUS
 62
     7
  5
80C
 10
0.907841
 20
-0.147242
 30
0.0
 11
0.909226
 21
-0.14653
 31
0.0
  0
LINE
  8
0
  6
CONTINUOUS
 62
     7
  5
80D
 10
0.909226
 20
-0.14653
 30
0.0
 11
0.910624
 21
-0.145792
 31
0.0
  0
LINE
  8
0
  6
CONTINUOUS
 62
     7
  5
80E
 10
0.910624
 20
-0.145792
 30
0.0
 11
0.912034
 21
-0.145027
 31
0.0
  0
LINE
  8
0
  6
CONTINUOUS
 62
     7
  5
80F
 10
0.912034
 20
-0.145027
 30
0.0
 11
0.913458
 21
-0.144235
 31
0.0
  0
LINE
  8
0
  6
CONTINUOUS
 62
     7
  5
810
 10
0.913458
 20
-0.144235
 30
0.0
 11
0.914896
 21
-0.143415
 31
0.0
  0
LINE
  8
0
  6
CONTINUOUS
 62
     7
  5
811
 10
0.55121
 20
-0.143415
 30
0.0
 11
0.552648
 21
-0.144235
 31
0.0
  0
LINE
  8
0
  6
CONTINUOUS
 62
     7
  5
812
 10
0.552648
 20
-0.144235
 30
0.0
 11
0.554072
 21
-0.145027
 31
0.0
  0
LINE
  8
0
  6
CONTINUOUS
 62
     7
  5
813
 10
0.554072
 20
-0.145027
 30
0.0
 11
0.555482
 21
-0.145792
 31
0.0
  0
LINE
  8
0
  6
CONTINUOUS
 62
     7
  5
814
 10
0.555482
 20
-0.145792
 30
0.0
 11
0.55688
 21
-0.14653
 31
0.0
  0
LINE
  8
0
  6
CONTINUOUS
 62
     7
  5
815
 10
0.55688
 20
-0.14653
 30
0.0
 11
0.558265
 21
-0.147242
 31
0.0
  0
LINE
  8
0
  6
CONTINUOUS
 62
     7
  5
816
 10
0.558265
 20
-0.147242
 30
0.0
 11
0.559639
 21
-0.147927
 31
0.0
  0
LINE
  8
0
  6
CONTINUOUS
 62
     7
  5
817
 10
0.559639
 20
-0.147927
 30
0.0
 11
0.561002
 21
-0.148586
 31
0.0
  0
LINE
  8
0
  6
CONTINUOUS
 62
     7
  5
818
 10
0.561002
 20
-0.148586
 30
0.0
 11
0.562354
 21
-0.14922
 31
0.0
  0
LINE
  8
0
  6
CONTINUOUS
 62
     7
  5
819
 10
0.562354
 20
-0.14922
 30
0.0
 11
0.563696
 21
-0.149829
 31
0.0
  0
LINE
  8
0
  6
CONTINUOUS
 62
     7
  5
81A
 10
0.563696
 20
-0.149829
 30
0.0
 11
0.565029
 21
-0.150413
 31
0.0
  0
LINE
  8
0
  6
CONTINUOUS
 62
     7
  5
81B
 10
0.565029
 20
-0.150413
 30
0.0
 11
0.566352
 21
-0.150973
 31
0.0
  0
LINE
  8
0
  6
CONTINUOUS
 62
     7
  5
81C
 10
0.566352
 20
-0.150973
 30
0.0
 11
0.567667
 21
-0.151508
 31
0.0
  0
LINE
  8
0
  6
CONTINUOUS
 62
     7
  5
81D
 10
0.567667
 20
-0.151508
 30
0.0
 11
0.568975
 21
-0.15202
 31
0.0
  0
LINE
  8
0
  6
CONTINUOUS
 62
     7
  5
81E
 10
0.568975
 20
-0.15202
 30
0.0
 11
0.570275
 21
-0.152507
 31
0.0
  0
LINE
  8
0
  6
CONTINUOUS
 62
     7
  5
81F
 10
0.570275
 20
-0.152507
 30
0.0
 11
0.571567
 21
-0.152971
 31
0.0
  0
LINE
  8
0
  6
CONTINUOUS
 62
     7
  5
820
 10
0.571567
 20
-0.152971
 30
0.0
 11
0.572854
 21
-0.153412
 31
0.0
  0
LINE
  8
0
  6
CONTINUOUS
 62
     7
  5
821
 10
0.572854
 20
-0.153412
 30
0.0
 11
0.574134
 21
-0.153829
 31
0.0
  0
LINE
  8
0
  6
CONTINUOUS
 62
     7
  5
822
 10
0.574134
 20
-0.153829
 30
0.0
 11
0.575409
 21
-0.154224
 31
0.0
  0
LINE
  8
0
  6
CONTINUOUS
 62
     7
  5
823
 10
0.575409
 20
-0.154224
 30
0.0
 11
0.576678
 21
-0.154595
 31
0.0
  0
LINE
  8
0
  6
CONTINUOUS
 62
     7
  5
824
 10
0.576678
 20
-0.154595
 30
0.0
 11
0.577943
 21
-0.154944
 31
0.0
  0
LINE
  8
0
  6
CONTINUOUS
 62
     7
  5
825
 10
0.577943
 20
-0.154944
 30
0.0
 11
0.579204
 21
-0.15527
 31
0.0
  0
LINE
  8
0
  6
CONTINUOUS
 62
     7
  5
826
 10
0.579204
 20
-0.15527
 30
0.0
 11
0.580461
 21
-0.155574
 31
0.0
  0
LINE
  8
0
  6
CONTINUOUS
 62
     7
  5
827
 10
0.580461
 20
-0.155574
 30
0.0
 11
0.581715
 21
-0.155855
 31
0.0
  0
LINE
  8
0
  6
CONTINUOUS
 62
     7
  5
828
 10
0.581715
 20
-0.155855
 30
0.0
 11
0.582966
 21
-0.156113
 31
0.0
  0
LINE
  8
0
  6
CONTINUOUS
 62
     7
  5
829
 10
0.582966
 20
-0.156113
 30
0.0
 11
0.584215
 21
-0.15635
 31
0.0
  0
LINE
  8
0
  6
CONTINUOUS
 62
     7
  5
82A
 10
0.584215
 20
-0.15635
 30
0.0
 11
0.585461
 21
-0.156564
 31
0.0
  0
LINE
  8
0
  6
CONTINUOUS
 62
     7
  5
82B
 10
0.585461
 20
-0.156564
 30
0.0
 11
0.586707
 21
-0.156755
 31
0.0
  0
LINE
  8
0
  6
CONTINUOUS
 62
     7
  5
82C
 10
0.586707
 20
-0.156755
 30
0.0
 11
0.587951
 21
-0.156924
 31
0.0
  0
LINE
  8
0
  6
CONTINUOUS
 62
     7
  5
82D
 10
0.587951
 20
-0.156924
 30
0.0
 11
0.589195
 21
-0.157071
 31
0.0
  0
LINE
  8
0
  6
CONTINUOUS
 62
     7
  5
82E
 10
0.589195
 20
-0.157071
 30
0.0
 11
0.590438
 21
-0.157196
 31
0.0
  0
LINE
  8
0
  6
CONTINUOUS
 62
     7
  5
82F
 10
0.590438
 20
-0.157196
 30
0.0
 11
0.591682
 21
-0.157298
 31
0.0
  0
LINE
  8
0
  6
CONTINUOUS
 62
     7
  5
830
 10
0.591682
 20
-0.157298
 30
0.0
 11
0.592927
 21
-0.157378
 31
0.0
  0
LINE
  8
0
  6
CONTINUOUS
 62
     7
  5
831
 10
0.592927
 20
-0.157378
 30
0.0
 11
0.594173
 21
-0.157435
 31
0.0
  0
LINE
  8
0
  6
CONTINUOUS
 62
     7
  5
832
 10
0.594173
 20
-0.157435
 30
0.0
 11
0.595421
 21
-0.157469
 31
0.0
  0
LINE
  8
0
  6
CONTINUOUS
 62
     7
  5
833
 10
0.595421
 20
-0.157469
 30
0.0
 11
0.596671
 21
-0.15748
 31
0.0
  0
LINE
  8
0
  6
CONTINUOUS
 62
     7
  5
834
 10
0.733053
 20
-0.15748
 30
0.0
 11
0.735553
 21
-0.157469
 31
0.0
  0
LINE
  8
0
  6
CONTINUOUS
 62
     7
  5
835
 10
0.735553
 20
-0.157469
 30
0.0
 11
0.738049
 21
-0.157435
 31
0.0
  0
LINE
  8
0
  6
CONTINUOUS
 62
     7
  5
836
 10
0.738049
 20
-0.157435
 30
0.0
 11
0.740541
 21
-0.157378
 31
0.0
  0
LINE
  8
0
  6
CONTINUOUS
 62
     7
  5
837
 10
0.740541
 20
-0.157378
 30
0.0
 11
0.743031
 21
-0.157298
 31
0.0
  0
LINE
  8
0
  6
CONTINUOUS
 62
     7
  5
838
 10
0.743031
 20
-0.157298
 30
0.0
 11
0.745519
 21
-0.157196
 31
0.0
  0
LINE
  8
0
  6
CONTINUOUS
 62
     7
  5
839
 10
0.745519
 20
-0.157196
 30
0.0
 11
0.748006
 21
-0.157071
 31
0.0
  0
LINE
  8
0
  6
CONTINUOUS
 62
     7
  5
83A
 10
0.748006
 20
-0.157071
 30
0.0
 11
0.750493
 21
-0.156924
 31
0.0
  0
LINE
  8
0
  6
CONTINUOUS
 62
     7
  5
83B
 10
0.750493
 20
-0.156924
 30
0.0
 11
0.752982
 21
-0.156755
 31
0.0
  0
LINE
  8
0
  6
CONTINUOUS
 62
     7
  5
83C
 10
0.752982
 20
-0.156755
 30
0.0
 11
0.755473
 21
-0.156564
 31
0.0
  0
LINE
  8
0
  6
CONTINUOUS
 62
     7
  5
83D
 10
0.755473
 20
-0.156564
 30
0.0
 11
0.757966
 21
-0.15635
 31
0.0
  0
LINE
  8
0
  6
CONTINUOUS
 62
     7
  5
83E
 10
0.757966
 20
-0.15635
 30
0.0
 11
0.760463
 21
-0.156113
 31
0.0
  0
LINE
  8
0
  6
CONTINUOUS
 62
     7
  5
83F
 10
0.760463
 20
-0.156113
 30
0.0
 11
0.762965
 21
-0.155855
 31
0.0
  0
LINE
  8
0
  6
CONTINUOUS
 62
     7
  5
840
 10
0.762965
 20
-0.155855
 30
0.0
 11
0.765473
 21
-0.155574
 31
0.0
  0
LINE
  8
0
  6
CONTINUOUS
 62
     7
  5
841
 10
0.765473
 20
-0.155574
 30
0.0
 11
0.767987
 21
-0.15527
 31
0.0
  0
LINE
  8
0
  6
CONTINUOUS
 62
     7
  5
842
 10
0.767987
 20
-0.15527
 30
0.0
 11
0.770509
 21
-0.154944
 31
0.0
  0
LINE
  8
0
  6
CONTINUOUS
 62
     7
  5
843
 10
0.770509
 20
-0.154944
 30
0.0
 11
0.773039
 21
-0.154595
 31
0.0
  0
LINE
  8
0
  6
CONTINUOUS
 62
     7
  5
844
 10
0.773039
 20
-0.154595
 30
0.0
 11
0.775578
 21
-0.154224
 31
0.0
  0
LINE
  8
0
  6
CONTINUOUS
 62
     7
  5
845
 10
0.775578
 20
-0.154224
 30
0.0
 11
0.778127
 21
-0.153829
 31
0.0
  0
LINE
  8
0
  6
CONTINUOUS
 62
     7
  5
846
 10
0.778127
 20
-0.153829
 30
0.0
 11
0.780688
 21
-0.153412
 31
0.0
  0
LINE
  8
0
  6
CONTINUOUS
 62
     7
  5
847
 10
0.780688
 20
-0.153412
 30
0.0
 11
0.78326
 21
-0.152971
 31
0.0
  0
LINE
  8
0
  6
CONTINUOUS
 62
     7
  5
848
 10
0.78326
 20
-0.152971
 30
0.0
 11
0.785846
 21
-0.152507
 31
0.0
  0
LINE
  8
0
  6
CONTINUOUS
 62
     7
  5
849
 10
0.785846
 20
-0.152507
 30
0.0
 11
0.788446
 21
-0.15202
 31
0.0
  0
LINE
  8
0
  6
CONTINUOUS
 62
     7
  5
84A
 10
0.788446
 20
-0.15202
 30
0.0
 11
0.79106
 21
-0.151508
 31
0.0
  0
LINE
  8
0
  6
CONTINUOUS
 62
     7
  5
84B
 10
0.79106
 20
-0.151508
 30
0.0
 11
0.793691
 21
-0.150973
 31
0.0
  0
LINE
  8
0
  6
CONTINUOUS
 62
     7
  5
84C
 10
0.793691
 20
-0.150973
 30
0.0
 11
0.796338
 21
-0.150413
 31
0.0
  0
LINE
  8
0
  6
CONTINUOUS
 62
     7
  5
84D
 10
0.796338
 20
-0.150413
 30
0.0
 11
0.799003
 21
-0.149829
 31
0.0
  0
LINE
  8
0
  6
CONTINUOUS
 62
     7
  5
84E
 10
0.799003
 20
-0.149829
 30
0.0
 11
0.801687
 21
-0.14922
 31
0.0
  0
LINE
  8
0
  6
CONTINUOUS
 62
     7
  5
84F
 10
0.801687
 20
-0.14922
 30
0.0
 11
0.804392
 21
-0.148586
 31
0.0
  0
LINE
  8
0
  6
CONTINUOUS
 62
     7
  5
850
 10
0.804392
 20
-0.148586
 30
0.0
 11
0.807117
 21
-0.147927
 31
0.0
  0
LINE
  8
0
  6
CONTINUOUS
 62
     7
  5
851
 10
0.807117
 20
-0.147927
 30
0.0
 11
0.809864
 21
-0.147242
 31
0.0
  0
LINE
  8
0
  6
CONTINUOUS
 62
     7
  5
852
 10
0.809864
 20
-0.147242
 30
0.0
 11
0.812635
 21
-0.14653
 31
0.0
  0
LINE
  8
0
  6
CONTINUOUS
 62
     7
  5
853
 10
0.812635
 20
-0.14653
 30
0.0
 11
0.81543
 21
-0.145792
 31
0.0
  0
LINE
  8
0
  6
CONTINUOUS
 62
     7
  5
854
 10
0.81543
 20
-0.145792
 30
0.0
 11
0.818251
 21
-0.145027
 31
0.0
  0
LINE
  8
0
  6
CONTINUOUS
 62
     7
  5
855
 10
0.818251
 20
-0.145027
 30
0.0
 11
0.821099
 21
-0.144235
 31
0.0
  0
LINE
  8
0
  6
CONTINUOUS
 62
     7
  5
856
 10
0.821099
 20
-0.144235
 30
0.0
 11
0.823974
 21
-0.143415
 31
0.0
  0
LINE
  8
0
  6
CONTINUOUS
 62
     7
  5
857
 10
0.823974
 20
-0.143415
 30
0.0
 11
0.825412
 21
-0.144235
 31
0.0
  0
LINE
  8
0
  6
CONTINUOUS
 62
     7
  5
858
 10
0.825412
 20
-0.144235
 30
0.0
 11
0.826836
 21
-0.145027
 31
0.0
  0
LINE
  8
0
  6
CONTINUOUS
 62
     7
  5
859
 10
0.826836
 20
-0.145027
 30
0.0
 11
0.828246
 21
-0.145792
 31
0.0
  0
LINE
  8
0
  6
CONTINUOUS
 62
     7
  5
85A
 10
0.828246
 20
-0.145792
 30
0.0
 11
0.829644
 21
-0.14653
 31
0.0
  0
LINE
  8
0
  6
CONTINUOUS
 62
     7
  5
85B
 10
0.829644
 20
-0.14653
 30
0.0
 11
0.831029
 21
-0.147242
 31
0.0
  0
LINE
  8
0
  6
CONTINUOUS
 62
     7
  5
85C
 10
0.831029
 20
-0.147242
 30
0.0
 11
0.832403
 21
-0.147927
 31
0.0
  0
LINE
  8
0
  6
CONTINUOUS
 62
     7
  5
85D
 10
0.832403
 20
-0.147927
 30
0.0
 11
0.833766
 21
-0.148586
 31
0.0
  0
LINE
  8
0
  6
CONTINUOUS
 62
     7
  5
85E
 10
0.833766
 20
-0.148586
 30
0.0
 11
0.835118
 21
-0.14922
 31
0.0
  0
LINE
  8
0
  6
CONTINUOUS
 62
     7
  5
85F
 10
0.835118
 20
-0.14922
 30
0.0
 11
0.83646
 21
-0.149829
 31
0.0
  0
LINE
  8
0
  6
CONTINUOUS
 62
     7
  5
860
 10
0.83646
 20
-0.149829
 30
0.0
 11
0.837793
 21
-0.150413
 31
0.0
  0
LINE
  8
0
  6
CONTINUOUS
 62
     7
  5
861
 10
0.837793
 20
-0.150413
 30
0.0
 11
0.839116
 21
-0.150973
 31
0.0
  0
LINE
  8
0
  6
CONTINUOUS
 62
     7
  5
862
 10
0.839116
 20
-0.150973
 30
0.0
 11
0.840431
 21
-0.151508
 31
0.0
  0
LINE
  8
0
  6
CONTINUOUS
 62
     7
  5
863
 10
0.840431
 20
-0.151508
 30
0.0
 11
0.841739
 21
-0.15202
 31
0.0
  0
LINE
  8
0
  6
CONTINUOUS
 62
     7
  5
864
 10
0.841739
 20
-0.15202
 30
0.0
 11
0.843038
 21
-0.152507
 31
0.0
  0
LINE
  8
0
  6
CONTINUOUS
 62
     7
  5
865
 10
0.843038
 20
-0.152507
 30
0.0
 11
0.844331
 21
-0.152971
 31
0.0
  0
LINE
  8
0
  6
CONTINUOUS
 62
     7
  5
866
 10
0.844331
 20
-0.152971
 30
0.0
 11
0.845618
 21
-0.153412
 31
0.0
  0
LINE
  8
0
  6
CONTINUOUS
 62
     7
  5
867
 10
0.845618
 20
-0.153412
 30
0.0
 11
0.846898
 21
-0.153829
 31
0.0
  0
LINE
  8
0
  6
CONTINUOUS
 62
     7
  5
868
 10
0.846898
 20
-0.153829
 30
0.0
 11
0.848172
 21
-0.154224
 31
0.0
  0
LINE
  8
0
  6
CONTINUOUS
 62
     7
  5
869
 10
0.848172
 20
-0.154224
 30
0.0
 11
0.849442
 21
-0.154595
 31
0.0
  0
LINE
  8
0
  6
CONTINUOUS
 62
     7
  5
86A
 10
0.849442
 20
-0.154595
 30
0.0
 11
0.850707
 21
-0.154944
 31
0.0
  0
LINE
  8
0
  6
CONTINUOUS
 62
     7
  5
86B
 10
0.850707
 20
-0.154944
 30
0.0
 11
0.851968
 21
-0.15527
 31
0.0
  0
LINE
  8
0
  6
CONTINUOUS
 62
     7
  5
86C
 10
0.851968
 20
-0.15527
 30
0.0
 11
0.853225
 21
-0.155574
 31
0.0
  0
LINE
  8
0
  6
CONTINUOUS
 62
     7
  5
86D
 10
0.853225
 20
-0.155574
 30
0.0
 11
0.854479
 21
-0.155855
 31
0.0
  0
LINE
  8
0
  6
CONTINUOUS
 62
     7
  5
86E
 10
0.854479
 20
-0.155855
 30
0.0
 11
0.85573
 21
-0.156113
 31
0.0
  0
LINE
  8
0
  6
CONTINUOUS
 62
     7
  5
86F
 10
0.85573
 20
-0.156113
 30
0.0
 11
0.856978
 21
-0.15635
 31
0.0
  0
LINE
  8
0
  6
CONTINUOUS
 62
     7
  5
870
 10
0.856978
 20
-0.15635
 30
0.0
 11
0.858225
 21
-0.156564
 31
0.0
  0
LINE
  8
0
  6
CONTINUOUS
 62
     7
  5
871
 10
0.858225
 20
-0.156564
 30
0.0
 11
0.85947
 21
-0.156755
 31
0.0
  0
LINE
  8
0
  6
CONTINUOUS
 62
     7
  5
872
 10
0.85947
 20
-0.156755
 30
0.0
 11
0.860715
 21
-0.156924
 31
0.0
  0
LINE
  8
0
  6
CONTINUOUS
 62
     7
  5
873
 10
0.860715
 20
-0.156924
 30
0.0
 11
0.861958
 21
-0.157071
 31
0.0
  0
LINE
  8
0
  6
CONTINUOUS
 62
     7
  5
874
 10
0.861958
 20
-0.157071
 30
0.0
 11
0.863202
 21
-0.157196
 31
0.0
  0
LINE
  8
0
  6
CONTINUOUS
 62
     7
  5
875
 10
0.863202
 20
-0.157196
 30
0.0
 11
0.864446
 21
-0.157298
 31
0.0
  0
LINE
  8
0
  6
CONTINUOUS
 62
     7
  5
876
 10
0.864446
 20
-0.157298
 30
0.0
 11
0.865691
 21
-0.157378
 31
0.0
  0
LINE
  8
0
  6
CONTINUOUS
 62
     7
  5
877
 10
0.865691
 20
-0.157378
 30
0.0
 11
0.866937
 21
-0.157435
 31
0.0
  0
LINE
  8
0
  6
CONTINUOUS
 62
     7
  5
878
 10
0.866937
 20
-0.157435
 30
0.0
 11
0.868185
 21
-0.157469
 31
0.0
  0
LINE
  8
0
  6
CONTINUOUS
 62
     7
  5
879
 10
0.868185
 20
-0.157469
 30
0.0
 11
0.869435
 21
-0.15748
 31
0.0
  0
LINE
  8
0
  6
CONTINUOUS
 62
     7
  5
87A
 10
0.642132
 20
-0.143415
 30
0.0
 11
0.645007
 21
-0.144235
 31
0.0
  0
LINE
  8
0
  6
CONTINUOUS
 62
     7
  5
87B
 10
0.645007
 20
-0.144235
 30
0.0
 11
0.647855
 21
-0.145027
 31
0.0
  0
LINE
  8
0
  6
CONTINUOUS
 62
     7
  5
87C
 10
0.647855
 20
-0.145027
 30
0.0
 11
0.650676
 21
-0.145792
 31
0.0
  0
LINE
  8
0
  6
CONTINUOUS
 62
     7
  5
87D
 10
0.650676
 20
-0.145792
 30
0.0
 11
0.653471
 21
-0.14653
 31
0.0
  0
LINE
  8
0
  6
CONTINUOUS
 62
     7
  5
87E
 10
0.653471
 20
-0.14653
 30
0.0
 11
0.656242
 21
-0.147242
 31
0.0
  0
LINE
  8
0
  6
CONTINUOUS
 62
     7
  5
87F
 10
0.656242
 20
-0.147242
 30
0.0
 11
0.658989
 21
-0.147927
 31
0.0
  0
LINE
  8
0
  6
CONTINUOUS
 62
     7
  5
880
 10
0.658989
 20
-0.147927
 30
0.0
 11
0.661714
 21
-0.148586
 31
0.0
  0
LINE
  8
0
  6
CONTINUOUS
 62
     7
  5
881
 10
0.661714
 20
-0.148586
 30
0.0
 11
0.664419
 21
-0.14922
 31
0.0
  0
LINE
  8
0
  6
CONTINUOUS
 62
     7
  5
882
 10
0.664419
 20
-0.14922
 30
0.0
 11
0.667103
 21
-0.149829
 31
0.0
  0
LINE
  8
0
  6
CONTINUOUS
 62
     7
  5
883
 10
0.667103
 20
-0.149829
 30
0.0
 11
0.669768
 21
-0.150413
 31
0.0
  0
LINE
  8
0
  6
CONTINUOUS
 62
     7
  5
884
 10
0.669768
 20
-0.150413
 30
0.0
 11
0.672415
 21
-0.150973
 31
0.0
  0
LINE
  8
0
  6
CONTINUOUS
 62
     7
  5
885
 10
0.672415
 20
-0.150973
 30
0.0
 11
0.675046
 21
-0.151508
 31
0.0
  0
LINE
  8
0
  6
CONTINUOUS
 62
     7
  5
886
 10
0.675046
 20
-0.151508
 30
0.0
 11
0.67766
 21
-0.15202
 31
0.0
  0
LINE
  8
0
  6
CONTINUOUS
 62
     7
  5
887
 10
0.67766
 20
-0.15202
 30
0.0
 11
0.68026
 21
-0.152507
 31
0.0
  0
LINE
  8
0
  6
CONTINUOUS
 62
     7
  5
888
 10
0.68026
 20
-0.152507
 30
0.0
 11
0.682846
 21
-0.152971
 31
0.0
  0
LINE
  8
0
  6
CONTINUOUS
 62
     7
  5
889
 10
0.682846
 20
-0.152971
 30
0.0
 11
0.685418
 21
-0.153412
 31
0.0
  0
LINE
  8
0
  6
CONTINUOUS
 62
     7
  5
88A
 10
0.685418
 20
-0.153412
 30
0.0
 11
0.687979
 21
-0.153829
 31
0.0
  0
LINE
  8
0
  6
CONTINUOUS
 62
     7
  5
88B
 10
0.687979
 20
-0.153829
 30
0.0
 11
0.690528
 21
-0.154224
 31
0.0
  0
LINE
  8
0
  6
CONTINUOUS
 62
     7
  5
88C
 10
0.690528
 20
-0.154224
 30
0.0
 11
0.693067
 21
-0.154595
 31
0.0
  0
LINE
  8
0
  6
CONTINUOUS
 62
     7
  5
88D
 10
0.693067
 20
-0.154595
 30
0.0
 11
0.695597
 21
-0.154944
 31
0.0
  0
LINE
  8
0
  6
CONTINUOUS
 62
     7
  5
88E
 10
0.695597
 20
-0.154944
 30
0.0
 11
0.698119
 21
-0.15527
 31
0.0
  0
LINE
  8
0
  6
CONTINUOUS
 62
     7
  5
88F
 10
0.698119
 20
-0.15527
 30
0.0
 11
0.700633
 21
-0.155574
 31
0.0
  0
LINE
  8
0
  6
CONTINUOUS
 62
     7
  5
890
 10
0.700633
 20
-0.155574
 30
0.0
 11
0.703141
 21
-0.155855
 31
0.0
  0
LINE
  8
0
  6
CONTINUOUS
 62
     7
  5
891
 10
0.703141
 20
-0.155855
 30
0.0
 11
0.705643
 21
-0.156113
 31
0.0
  0
LINE
  8
0
  6
CONTINUOUS
 62
     7
  5
892
 10
0.705643
 20
-0.156113
 30
0.0
 11
0.70814
 21
-0.15635
 31
0.0
  0
LINE
  8
0
  6
CONTINUOUS
 62
     7
  5
893
 10
0.70814
 20
-0.15635
 30
0.0
 11
0.710633
 21
-0.156564
 31
0.0
  0
LINE
  8
0
  6
CONTINUOUS
 62
     7
  5
894
 10
0.710633
 20
-0.156564
 30
0.0
 11
0.713124
 21
-0.156755
 31
0.0
  0
LINE
  8
0
  6
CONTINUOUS
 62
     7
  5
895
 10
0.713124
 20
-0.156755
 30
0.0
 11
0.715613
 21
-0.156924
 31
0.0
  0
LINE
  8
0
  6
CONTINUOUS
 62
     7
  5
896
 10
0.715613
 20
-0.156924
 30
0.0
 11
0.7181
 21
-0.157071
 31
0.0
  0
LINE
  8
0
  6
CONTINUOUS
 62
     7
  5
897
 10
0.7181
 20
-0.157071
 30
0.0
 11
0.720587
 21
-0.157196
 31
0.0
  0
LINE
  8
0
  6
CONTINUOUS
 62
     7
  5
898
 10
0.720587
 20
-0.157196
 30
0.0
 11
0.723075
 21
-0.157298
 31
0.0
  0
LINE
  8
0
  6
CONTINUOUS
 62
     7
  5
899
 10
0.723075
 20
-0.157298
 30
0.0
 11
0.725565
 21
-0.157378
 31
0.0
  0
LINE
  8
0
  6
CONTINUOUS
 62
     7
  5
89A
 10
0.725565
 20
-0.157378
 30
0.0
 11
0.728057
 21
-0.157435
 31
0.0
  0
LINE
  8
0
  6
CONTINUOUS
 62
     7
  5
89B
 10
0.728057
 20
-0.157435
 30
0.0
 11
0.730553
 21
-0.157469
 31
0.0
  0
LINE
  8
0
  6
CONTINUOUS
 62
     7
  5
89C
 10
0.730553
 20
-0.157469
 30
0.0
 11
0.733053
 21
-0.15748
 31
0.0
  0
LINE
  8
0
  6
CONTINUOUS
 62
     7
  5
89D
 10
0.596671
 20
-0.15748
 30
0.0
 11
0.597921
 21
-0.157469
 31
0.0
  0
LINE
  8
0
  6
CONTINUOUS
 62
     7
  5
89E
 10
0.597921
 20
-0.157469
 30
0.0
 11
0.599169
 21
-0.157435
 31
0.0
  0
LINE
  8
0
  6
CONTINUOUS
 62
     7
  5
89F
 10
0.599169
 20
-0.157435
 30
0.0
 11
0.600415
 21
-0.157378
 31
0.0
  0
LINE
  8
0
  6
CONTINUOUS
 62
     7
  5
8A0
 10
0.600415
 20
-0.157378
 30
0.0
 11
0.60166
 21
-0.157298
 31
0.0
  0
LINE
  8
0
  6
CONTINUOUS
 62
     7
  5
8A1
 10
0.60166
 20
-0.157298
 30
0.0
 11
0.602904
 21
-0.157196
 31
0.0
  0
LINE
  8
0
  6
CONTINUOUS
 62
     7
  5
8A2
 10
0.602904
 20
-0.157196
 30
0.0
 11
0.604148
 21
-0.157071
 31
0.0
  0
LINE
  8
0
  6
CONTINUOUS
 62
     7
  5
8A3
 10
0.604148
 20
-0.157071
 30
0.0
 11
0.605391
 21
-0.156924
 31
0.0
  0
LINE
  8
0
  6
CONTINUOUS
 62
     7
  5
8A4
 10
0.605391
 20
-0.156924
 30
0.0
 11
0.606636
 21
-0.156755
 31
0.0
  0
LINE
  8
0
  6
CONTINUOUS
 62
     7
  5
8A5
 10
0.606636
 20
-0.156755
 30
0.0
 11
0.607881
 21
-0.156564
 31
0.0
  0
LINE
  8
0
  6
CONTINUOUS
 62
     7
  5
8A6
 10
0.607881
 20
-0.156564
 30
0.0
 11
0.609128
 21
-0.15635
 31
0.0
  0
LINE
  8
0
  6
CONTINUOUS
 62
     7
  5
8A7
 10
0.609128
 20
-0.15635
 30
0.0
 11
0.610376
 21
-0.156113
 31
0.0
  0
LINE
  8
0
  6
CONTINUOUS
 62
     7
  5
8A8
 10
0.610376
 20
-0.156113
 30
0.0
 11
0.611627
 21
-0.155855
 31
0.0
  0
LINE
  8
0
  6
CONTINUOUS
 62
     7
  5
8A9
 10
0.611627
 20
-0.155855
 30
0.0
 11
0.612881
 21
-0.155574
 31
0.0
  0
LINE
  8
0
  6
CONTINUOUS
 62
     7
  5
8AA
 10
0.612881
 20
-0.155574
 30
0.0
 11
0.614138
 21
-0.15527
 31
0.0
  0
LINE
  8
0
  6
CONTINUOUS
 62
     7
  5
8AB
 10
0.614138
 20
-0.15527
 30
0.0
 11
0.615399
 21
-0.154944
 31
0.0
  0
LINE
  8
0
  6
CONTINUOUS
 62
     7
  5
8AC
 10
0.615399
 20
-0.154944
 30
0.0
 11
0.616664
 21
-0.154595
 31
0.0
  0
LINE
  8
0
  6
CONTINUOUS
 62
     7
  5
8AD
 10
0.616664
 20
-0.154595
 30
0.0
 11
0.617934
 21
-0.154224
 31
0.0
  0
LINE
  8
0
  6
CONTINUOUS
 62
     7
  5
8AE
 10
0.617934
 20
-0.154224
 30
0.0
 11
0.619208
 21
-0.153829
 31
0.0
  0
LINE
  8
0
  6
CONTINUOUS
 62
     7
  5
8AF
 10
0.619208
 20
-0.153829
 30
0.0
 11
0.620488
 21
-0.153412
 31
0.0
  0
LINE
  8
0
  6
CONTINUOUS
 62
     7
  5
8B0
 10
0.620488
 20
-0.153412
 30
0.0
 11
0.621775
 21
-0.152971
 31
0.0
  0
LINE
  8
0
  6
CONTINUOUS
 62
     7
  5
8B1
 10
0.621775
 20
-0.152971
 30
0.0
 11
0.623068
 21
-0.152507
 31
0.0
  0
LINE
  8
0
  6
CONTINUOUS
 62
     7
  5
8B2
 10
0.623068
 20
-0.152507
 30
0.0
 11
0.624367
 21
-0.15202
 31
0.0
  0
LINE
  8
0
  6
CONTINUOUS
 62
     7
  5
8B3
 10
0.624367
 20
-0.15202
 30
0.0
 11
0.625675
 21
-0.151508
 31
0.0
  0
LINE
  8
0
  6
CONTINUOUS
 62
     7
  5
8B4
 10
0.625675
 20
-0.151508
 30
0.0
 11
0.62699
 21
-0.150973
 31
0.0
  0
LINE
  8
0
  6
CONTINUOUS
 62
     7
  5
8B5
 10
0.62699
 20
-0.150973
 30
0.0
 11
0.628313
 21
-0.150413
 31
0.0
  0
LINE
  8
0
  6
CONTINUOUS
 62
     7
  5
8B6
 10
0.628313
 20
-0.150413
 30
0.0
 11
0.629646
 21
-0.149829
 31
0.0
  0
LINE
  8
0
  6
CONTINUOUS
 62
     7
  5
8B7
 10
0.629646
 20
-0.149829
 30
0.0
 11
0.630988
 21
-0.14922
 31
0.0
  0
LINE
  8
0
  6
CONTINUOUS
 62
     7
  5
8B8
 10
0.630988
 20
-0.14922
 30
0.0
 11
0.63234
 21
-0.148586
 31
0.0
  0
LINE
  8
0
  6
CONTINUOUS
 62
     7
  5
8B9
 10
0.63234
 20
-0.148586
 30
0.0
 11
0.633703
 21
-0.147927
 31
0.0
  0
LINE
  8
0
  6
CONTINUOUS
 62
     7
  5
8BA
 10
0.633703
 20
-0.147927
 30
0.0
 11
0.635077
 21
-0.147242
 31
0.0
  0
LINE
  8
0
  6
CONTINUOUS
 62
     7
  5
8BB
 10
0.635077
 20
-0.147242
 30
0.0
 11
0.636462
 21
-0.14653
 31
0.0
  0
LINE
  8
0
  6
CONTINUOUS
 62
     7
  5
8BC
 10
0.636462
 20
-0.14653
 30
0.0
 11
0.63786
 21
-0.145792
 31
0.0
  0
LINE
  8
0
  6
CONTINUOUS
 62
     7
  5
8BD
 10
0.63786
 20
-0.145792
 30
0.0
 11
0.63927
 21
-0.145027
 31
0.0
  0
LINE
  8
0
  6
CONTINUOUS
 62
     7
  5
8BE
 10
0.63927
 20
-0.145027
 30
0.0
 11
0.640694
 21
-0.144235
 31
0.0
  0
LINE
  8
0
  6
CONTINUOUS
 62
     7
  5
8BF
 10
0.640694
 20
-0.144235
 30
0.0
 11
0.642132
 21
-0.143415
 31
0.0
  0
LINE
  8
0
  6
CONTINUOUS
 62
     7
  5
8C0
 10
0.823974
 20
-0.143415
 30
0.0
 11
0.823974
 21
-0.014066
 31
0.0
  0
LINE
  8
0
  6
CONTINUOUS
 62
     7
  5
8C1
 10
0.823974
 20
-0.014066
 30
0.0
 11
0.821099
 21
-0.013245
 31
0.0
  0
LINE
  8
0
  6
CONTINUOUS
 62
     7
  5
8C2
 10
0.821099
 20
-0.013245
 30
0.0
 11
0.818251
 21
-0.012453
 31
0.0
  0
LINE
  8
0
  6
CONTINUOUS
 62
     7
  5
8C3
 10
0.818251
 20
-0.012453
 30
0.0
 11
0.81543
 21
-0.011688
 31
0.0
  0
LINE
  8
0
  6
CONTINUOUS
 62
     7
  5
8C4
 10
0.81543
 20
-0.011688
 30
0.0
 11
0.812635
 21
-0.01095
 31
0.0
  0
LINE
  8
0
  6
CONTINUOUS
 62
     7
  5
8C5
 10
0.812635
 20
-0.01095
 30
0.0
 11
0.809864
 21
-0.010239
 31
0.0
  0
LINE
  8
0
  6
CONTINUOUS
 62
     7
  5
8C6
 10
0.809864
 20
-0.010239
 30
0.0
 11
0.807117
 21
-0.009553
 31
0.0
  0
LINE
  8
0
  6
CONTINUOUS
 62
     7
  5
8C7
 10
0.807117
 20
-0.009553
 30
0.0
 11
0.804392
 21
-0.008894
 31
0.0
  0
LINE
  8
0
  6
CONTINUOUS
 62
     7
  5
8C8
 10
0.804392
 20
-0.008894
 30
0.0
 11
0.801687
 21
-0.00826
 31
0.0
  0
LINE
  8
0
  6
CONTINUOUS
 62
     7
  5
8C9
 10
0.801687
 20
-0.00826
 30
0.0
 11
0.799003
 21
-0.007651
 31
0.0
  0
LINE
  8
0
  6
CONTINUOUS
 62
     7
  5
8CA
 10
0.799003
 20
-0.007651
 30
0.0
 11
0.796338
 21
-0.007067
 31
0.0
  0
LINE
  8
0
  6
CONTINUOUS
 62
     7
  5
8CB
 10
0.796338
 20
-0.007067
 30
0.0
 11
0.793691
 21
-0.006507
 31
0.0
  0
LINE
  8
0
  6
CONTINUOUS
 62
     7
  5
8CC
 10
0.793691
 20
-0.006507
 30
0.0
 11
0.79106
 21
-0.005972
 31
0.0
  0
LINE
  8
0
  6
CONTINUOUS
 62
     7
  5
8CD
 10
0.79106
 20
-0.005972
 30
0.0
 11
0.788446
 21
-0.005461
 31
0.0
  0
LINE
  8
0
  6
CONTINUOUS
 62
     7
  5
8CE
 10
0.788446
 20
-0.005461
 30
0.0
 11
0.785846
 21
-0.004973
 31
0.0
  0
LINE
  8
0
  6
CONTINUOUS
 62
     7
  5
8CF
 10
0.785846
 20
-0.004973
 30
0.0
 11
0.78326
 21
-0.004509
 31
0.0
  0
LINE
  8
0
  6
CONTINUOUS
 62
     7
  5
8D0
 10
0.78326
 20
-0.004509
 30
0.0
 11
0.780688
 21
-0.004068
 31
0.0
  0
LINE
  8
0
  6
CONTINUOUS
 62
     7
  5
8D1
 10
0.780688
 20
-0.004068
 30
0.0
 11
0.778127
 21
-0.003651
 31
0.0
  0
LINE
  8
0
  6
CONTINUOUS
 62
     7
  5
8D2
 10
0.778127
 20
-0.003651
 30
0.0
 11
0.775578
 21
-0.003257
 31
0.0
  0
LINE
  8
0
  6
CONTINUOUS
 62
     7
  5
8D3
 10
0.775578
 20
-0.003257
 30
0.0
 11
0.773039
 21
-0.002885
 31
0.0
  0
LINE
  8
0
  6
CONTINUOUS
 62
     7
  5
8D4
 10
0.773039
 20
-0.002885
 30
0.0
 11
0.770509
 21
-0.002536
 31
0.0
  0
LINE
  8
0
  6
CONTINUOUS
 62
     7
  5
8D5
 10
0.770509
 20
-0.002536
 30
0.0
 11
0.767987
 21
-0.00221
 31
0.0
  0
LINE
  8
0
  6
CONTINUOUS
 62
     7
  5
8D6
 10
0.767987
 20
-0.00221
 30
0.0
 11
0.765473
 21
-0.001907
 31
0.0
  0
LINE
  8
0
  6
CONTINUOUS
 62
     7
  5
8D7
 10
0.765473
 20
-0.001907
 30
0.0
 11
0.762965
 21
-0.001626
 31
0.0
  0
LINE
  8
0
  6
CONTINUOUS
 62
     7
  5
8D8
 10
0.762965
 20
-0.001626
 30
0.0
 11
0.760463
 21
-0.001367
 31
0.0
  0
LINE
  8
0
  6
CONTINUOUS
 62
     7
  5
8D9
 10
0.760463
 20
-0.001367
 30
0.0
 11
0.757966
 21
-0.001131
 31
0.0
  0
LINE
  8
0
  6
CONTINUOUS
 62
     7
  5
8DA
 10
0.757966
 20
-0.001131
 30
0.0
 11
0.755473
 21
-0.000917
 31
0.0
  0
LINE
  8
0
  6
CONTINUOUS
 62
     7
  5
8DB
 10
0.755473
 20
-0.000917
 30
0.0
 11
0.752982
 21
-0.000725
 31
0.0
  0
LINE
  8
0
  6
CONTINUOUS
 62
     7
  5
8DC
 10
0.752982
 20
-0.000725
 30
0.0
 11
0.750493
 21
-0.000556
 31
0.0
  0
LINE
  8
0
  6
CONTINUOUS
 62
     7
  5
8DD
 10
0.750493
 20
-0.000556
 30
0.0
 11
0.748006
 21
-0.000409
 31
0.0
  0
LINE
  8
0
  6
CONTINUOUS
 62
     7
  5
8DE
 10
0.748006
 20
-0.000409
 30
0.0
 11
0.745519
 21
-0.000284
 31
0.0
  0
LINE
  8
0
  6
CONTINUOUS
 62
     7
  5
8DF
 10
0.745519
 20
-0.000284
 30
0.0
 11
0.743031
 21
-0.000182
 31
0.0
  0
LINE
  8
0
  6
CONTINUOUS
 62
     7
  5
8E0
 10
0.743031
 20
-0.000182
 30
0.0
 11
0.740541
 21
-0.000103
 31
0.0
  0
LINE
  8
0
  6
CONTINUOUS
 62
     7
  5
8E1
 10
0.740541
 20
-0.000103
 30
0.0
 11
0.738049
 21
-0.000046
 31
0.0
  0
LINE
  8
0
  6
CONTINUOUS
 62
     7
  5
8E2
 10
0.738049
 20
-0.000046
 30
0.0
 11
0.735553
 21
-0.000011
 31
0.0
  0
LINE
  8
0
  6
CONTINUOUS
 62
     7
  5
8E3
 10
0.735553
 20
-0.000011
 30
0.0
 11
0.733053
 21
0.0
 31
0.0
  0
LINE
  8
0
  6
CONTINUOUS
 62
     7
  5
8E4
 10
0.733053
 20
0.0
 30
0.0
 11
0.730553
 21
-0.000011
 31
0.0
  0
LINE
  8
0
  6
CONTINUOUS
 62
     7
  5
8E5
 10
0.730553
 20
-0.000011
 30
0.0
 11
0.728057
 21
-0.000046
 31
0.0
  0
LINE
  8
0
  6
CONTINUOUS
 62
     7
  5
8E6
 10
0.728057
 20
-0.000046
 30
0.0
 11
0.725565
 21
-0.000103
 31
0.0
  0
LINE
  8
0
  6
CONTINUOUS
 62
     7
  5
8E7
 10
0.725565
 20
-0.000103
 30
0.0
 11
0.723075
 21
-0.000182
 31
0.0
  0
LINE
  8
0
  6
CONTINUOUS
 62
     7
  5
8E8
 10
0.723075
 20
-0.000182
 30
0.0
 11
0.720587
 21
-0.000284
 31
0.0
  0
LINE
  8
0
  6
CONTINUOUS
 62
     7
  5
8E9
 10
0.720587
 20
-0.000284
 30
0.0
 11
0.7181
 21
-0.000409
 31
0.0
  0
LINE
  8
0
  6
CONTINUOUS
 62
     7
  5
8EA
 10
0.7181
 20
-0.000409
 30
0.0
 11
0.715613
 21
-0.000556
 31
0.0
  0
LINE
  8
0
  6
CONTINUOUS
 62
     7
  5
8EB
 10
0.715613
 20
-0.000556
 30
0.0
 11
0.713124
 21
-0.000725
 31
0.0
  0
LINE
  8
0
  6
CONTINUOUS
 62
     7
  5
8EC
 10
0.713124
 20
-0.000725
 30
0.0
 11
0.710633
 21
-0.000917
 31
0.0
  0
LINE
  8
0
  6
CONTINUOUS
 62
     7
  5
8ED
 10
0.710633
 20
-0.000917
 30
0.0
 11
0.70814
 21
-0.001131
 31
0.0
  0
LINE
  8
0
  6
CONTINUOUS
 62
     7
  5
8EE
 10
0.70814
 20
-0.001131
 30
0.0
 11
0.705643
 21
-0.001367
 31
0.0
  0
LINE
  8
0
  6
CONTINUOUS
 62
     7
  5
8EF
 10
0.705643
 20
-0.001367
 30
0.0
 11
0.703141
 21
-0.001626
 31
0.0
  0
LINE
  8
0
  6
CONTINUOUS
 62
     7
  5
8F0
 10
0.703141
 20
-0.001626
 30
0.0
 11
0.700633
 21
-0.001907
 31
0.0
  0
LINE
  8
0
  6
CONTINUOUS
 62
     7
  5
8F1
 10
0.700633
 20
-0.001907
 30
0.0
 11
0.698119
 21
-0.00221
 31
0.0
  0
LINE
  8
0
  6
CONTINUOUS
 62
     7
  5
8F2
 10
0.698119
 20
-0.00221
 30
0.0
 11
0.695597
 21
-0.002536
 31
0.0
  0
LINE
  8
0
  6
CONTINUOUS
 62
     7
  5
8F3
 10
0.695597
 20
-0.002536
 30
0.0
 11
0.693067
 21
-0.002885
 31
0.0
  0
LINE
  8
0
  6
CONTINUOUS
 62
     7
  5
8F4
 10
0.693067
 20
-0.002885
 30
0.0
 11
0.690528
 21
-0.003257
 31
0.0
  0
LINE
  8
0
  6
CONTINUOUS
 62
     7
  5
8F5
 10
0.690528
 20
-0.003257
 30
0.0
 11
0.687979
 21
-0.003651
 31
0.0
  0
LINE
  8
0
  6
CONTINUOUS
 62
     7
  5
8F6
 10
0.687979
 20
-0.003651
 30
0.0
 11
0.685418
 21
-0.004068
 31
0.0
  0
LINE
  8
0
  6
CONTINUOUS
 62
     7
  5
8F7
 10
0.685418
 20
-0.004068
 30
0.0
 11
0.682846
 21
-0.004509
 31
0.0
  0
LINE
  8
0
  6
CONTINUOUS
 62
     7
  5
8F8
 10
0.682846
 20
-0.004509
 30
0.0
 11
0.68026
 21
-0.004973
 31
0.0
  0
LINE
  8
0
  6
CONTINUOUS
 62
     7
  5
8F9
 10
0.68026
 20
-0.004973
 30
0.0
 11
0.67766
 21
-0.005461
 31
0.0
  0
LINE
  8
0
  6
CONTINUOUS
 62
     7
  5
8FA
 10
0.67766
 20
-0.005461
 30
0.0
 11
0.675046
 21
-0.005972
 31
0.0
  0
LINE
  8
0
  6
CONTINUOUS
 62
     7
  5
8FB
 10
0.675046
 20
-0.005972
 30
0.0
 11
0.672415
 21
-0.006507
 31
0.0
  0
LINE
  8
0
  6
CONTINUOUS
 62
     7
  5
8FC
 10
0.672415
 20
-0.006507
 30
0.0
 11
0.669768
 21
-0.007067
 31
0.0
  0
LINE
  8
0
  6
CONTINUOUS
 62
     7
  5
8FD
 10
0.669768
 20
-0.007067
 30
0.0
 11
0.667103
 21
-0.007651
 31
0.0
  0
LINE
  8
0
  6
CONTINUOUS
 62
     7
  5
8FE
 10
0.667103
 20
-0.007651
 30
0.0
 11
0.664419
 21
-0.00826
 31
0.0
  0
LINE
  8
0
  6
CONTINUOUS
 62
     7
  5
8FF
 10
0.664419
 20
-0.00826
 30
0.0
 11
0.661714
 21
-0.008894
 31
0.0
  0
LINE
  8
0
  6
CONTINUOUS
 62
     7
  5
900
 10
0.661714
 20
-0.008894
 30
0.0
 11
0.658989
 21
-0.009553
 31
0.0
  0
LINE
  8
0
  6
CONTINUOUS
 62
     7
  5
901
 10
0.658989
 20
-0.009553
 30
0.0
 11
0.656242
 21
-0.010239
 31
0.0
  0
LINE
  8
0
  6
CONTINUOUS
 62
     7
  5
902
 10
0.656242
 20
-0.010239
 30
0.0
 11
0.653471
 21
-0.01095
 31
0.0
  0
LINE
  8
0
  6
CONTINUOUS
 62
     7
  5
903
 10
0.653471
 20
-0.01095
 30
0.0
 11
0.650676
 21
-0.011688
 31
0.0
  0
LINE
  8
0
  6
CONTINUOUS
 62
     7
  5
904
 10
0.650676
 20
-0.011688
 30
0.0
 11
0.647855
 21
-0.012453
 31
0.0
  0
LINE
  8
0
  6
CONTINUOUS
 62
     7
  5
905
 10
0.647855
 20
-0.012453
 30
0.0
 11
0.645007
 21
-0.013245
 31
0.0
  0
LINE
  8
0
  6
CONTINUOUS
 62
     7
  5
906
 10
0.645007
 20
-0.013245
 30
0.0
 11
0.642132
 21
-0.014066
 31
0.0
  0
LINE
  8
0
  6
CONTINUOUS
 62
     7
  5
907
 10
0.642132
 20
-0.143415
 30
0.0
 11
0.642132
 21
-0.014066
 31
0.0
  0
LINE
  8
0
  6
CONTINUOUS
 62
     7
  5
908
 10
0.914896
 20
-0.143415
 30
0.0
 11
0.914896
 21
-0.014066
 31
0.0
  0
LINE
  8
0
  6
CONTINUOUS
 62
     7
  5
909
 10
0.914896
 20
-0.014066
 30
0.0
 11
0.913458
 21
-0.013245
 31
0.0
  0
LINE
  8
0
  6
CONTINUOUS
 62
     7
  5
90A
 10
0.913458
 20
-0.013245
 30
0.0
 11
0.912034
 21
-0.012453
 31
0.0
  0
LINE
  8
0
  6
CONTINUOUS
 62
     7
  5
90B
 10
0.912034
 20
-0.012453
 30
0.0
 11
0.910624
 21
-0.011688
 31
0.0
  0
LINE
  8
0
  6
CONTINUOUS
 62
     7
  5
90C
 10
0.910624
 20
-0.011688
 30
0.0
 11
0.909226
 21
-0.01095
 31
0.0
  0
LINE
  8
0
  6
CONTINUOUS
 62
     7
  5
90D
 10
0.909226
 20
-0.01095
 30
0.0
 11
0.907841
 21
-0.010239
 31
0.0
  0
LINE
  8
0
  6
CONTINUOUS
 62
     7
  5
90E
 10
0.907841
 20
-0.010239
 30
0.0
 11
0.906467
 21
-0.009553
 31
0.0
  0
LINE
  8
0
  6
CONTINUOUS
 62
     7
  5
90F
 10
0.906467
 20
-0.009553
 30
0.0
 11
0.905104
 21
-0.008894
 31
0.0
  0
LINE
  8
0
  6
CONTINUOUS
 62
     7
  5
910
 10
0.905104
 20
-0.008894
 30
0.0
 11
0.903752
 21
-0.00826
 31
0.0
  0
LINE
  8
0
  6
CONTINUOUS
 62
     7
  5
911
 10
0.903752
 20
-0.00826
 30
0.0
 11
0.90241
 21
-0.007651
 31
0.0
  0
LINE
  8
0
  6
CONTINUOUS
 62
     7
  5
912
 10
0.90241
 20
-0.007651
 30
0.0
 11
0.901077
 21
-0.007067
 31
0.0
  0
LINE
  8
0
  6
CONTINUOUS
 62
     7
  5
913
 10
0.901077
 20
-0.007067
 30
0.0
 11
0.899754
 21
-0.006507
 31
0.0
  0
LINE
  8
0
  6
CONTINUOUS
 62
     7
  5
914
 10
0.899754
 20
-0.006507
 30
0.0
 11
0.898439
 21
-0.005972
 31
0.0
  0
LINE
  8
0
  6
CONTINUOUS
 62
     7
  5
915
 10
0.898439
 20
-0.005972
 30
0.0
 11
0.897131
 21
-0.005461
 31
0.0
  0
LINE
  8
0
  6
CONTINUOUS
 62
     7
  5
916
 10
0.897131
 20
-0.005461
 30
0.0
 11
0.895831
 21
-0.004973
 31
0.0
  0
LINE
  8
0
  6
CONTINUOUS
 62
     7
  5
917
 10
0.895831
 20
-0.004973
 30
0.0
 11
0.894539
 21
-0.004509
 31
0.0
  0
LINE
  8
0
  6
CONTINUOUS
 62
     7
  5
918
 10
0.894539
 20
-0.004509
 30
0.0
 11
0.893252
 21
-0.004068
 31
0.0
  0
LINE
  8
0
  6
CONTINUOUS
 62
     7
  5
919
 10
0.893252
 20
-0.004068
 30
0.0
 11
0.891972
 21
-0.003651
 31
0.0
  0
LINE
  8
0
  6
CONTINUOUS
 62
     7
  5
91A
 10
0.891972
 20
-0.003651
 30
0.0
 11
0.890697
 21
-0.003257
 31
0.0
  0
LINE
  8
0
  6
CONTINUOUS
 62
     7
  5
91B
 10
0.890697
 20
-0.003257
 30
0.0
 11
0.889428
 21
-0.002885
 31
0.0
  0
LINE
  8
0
  6
CONTINUOUS
 62
     7
  5
91C
 10
0.889428
 20
-0.002885
 30
0.0
 11
0.888163
 21
-0.002536
 31
0.0
  0
LINE
  8
0
  6
CONTINUOUS
 62
     7
  5
91D
 10
0.888163
 20
-0.002536
 30
0.0
 11
0.886902
 21
-0.00221
 31
0.0
  0
LINE
  8
0
  6
CONTINUOUS
 62
     7
  5
91E
 10
0.886902
 20
-0.00221
 30
0.0
 11
0.885645
 21
-0.001907
 31
0.0
  0
LINE
  8
0
  6
CONTINUOUS
 62
     7
  5
91F
 10
0.885645
 20
-0.001907
 30
0.0
 11
0.884391
 21
-0.001626
 31
0.0
  0
LINE
  8
0
  6
CONTINUOUS
 62
     7
  5
920
 10
0.884391
 20
-0.001626
 30
0.0
 11
0.88314
 21
-0.001367
 31
0.0
  0
LINE
  8
0
  6
CONTINUOUS
 62
     7
  5
921
 10
0.88314
 20
-0.001367
 30
0.0
 11
0.881891
 21
-0.001131
 31
0.0
  0
LINE
  8
0
  6
CONTINUOUS
 62
     7
  5
922
 10
0.881891
 20
-0.001131
 30
0.0
 11
0.880645
 21
-0.000917
 31
0.0
  0
LINE
  8
0
  6
CONTINUOUS
 62
     7
  5
923
 10
0.880645
 20
-0.000917
 30
0.0
 11
0.879399
 21
-0.000725
 31
0.0
  0
LINE
  8
0
  6
CONTINUOUS
 62
     7
  5
924
 10
0.879399
 20
-0.000725
 30
0.0
 11
0.878155
 21
-0.000556
 31
0.0
  0
LINE
  8
0
  6
CONTINUOUS
 62
     7
  5
925
 10
0.878155
 20
-0.000556
 30
0.0
 11
0.876911
 21
-0.000409
 31
0.0
  0
LINE
  8
0
  6
CONTINUOUS
 62
     7
  5
926
 10
0.876911
 20
-0.000409
 30
0.0
 11
0.875668
 21
-0.000284
 31
0.0
  0
LINE
  8
0
  6
CONTINUOUS
 62
     7
  5
927
 10
0.875668
 20
-0.000284
 30
0.0
 11
0.874424
 21
-0.000182
 31
0.0
  0
LINE
  8
0
  6
CONTINUOUS
 62
     7
  5
928
 10
0.874424
 20
-0.000182
 30
0.0
 11
0.873179
 21
-0.000103
 31
0.0
  0
LINE
  8
0
  6
CONTINUOUS
 62
     7
  5
929
 10
0.873179
 20
-0.000103
 30
0.0
 11
0.871933
 21
-0.000046
 31
0.0
  0
LINE
  8
0
  6
CONTINUOUS
 62
     7
  5
92A
 10
0.871933
 20
-0.000046
 30
0.0
 11
0.870685
 21
-0.000011
 31
0.0
  0
LINE
  8
0
  6
CONTINUOUS
 62
     7
  5
92B
 10
0.870685
 20
-0.000011
 30
0.0
 11
0.869435
 21
0.0
 31
0.0
  0
LINE
  8
0
  6
CONTINUOUS
 62
     7
  5
92C
 10
0.869435
 20
0.0
 30
0.0
 11
0.868185
 21
-0.000011
 31
0.0
  0
LINE
  8
0
  6
CONTINUOUS
 62
     7
  5
92D
 10
0.868185
 20
-0.000011
 30
0.0
 11
0.866937
 21
-0.000046
 31
0.0
  0
LINE
  8
0
  6
CONTINUOUS
 62
     7
  5
92E
 10
0.866937
 20
-0.000046
 30
0.0
 11
0.865691
 21
-0.000103
 31
0.0
  0
LINE
  8
0
  6
CONTINUOUS
 62
     7
  5
92F
 10
0.865691
 20
-0.000103
 30
0.0
 11
0.864446
 21
-0.000182
 31
0.0
  0
LINE
  8
0
  6
CONTINUOUS
 62
     7
  5
930
 10
0.864446
 20
-0.000182
 30
0.0
 11
0.863202
 21
-0.000284
 31
0.0
  0
LINE
  8
0
  6
CONTINUOUS
 62
     7
  5
931
 10
0.863202
 20
-0.000284
 30
0.0
 11
0.861958
 21
-0.000409
 31
0.0
  0
LINE
  8
0
  6
CONTINUOUS
 62
     7
  5
932
 10
0.861958
 20
-0.000409
 30
0.0
 11
0.860715
 21
-0.000556
 31
0.0
  0
LINE
  8
0
  6
CONTINUOUS
 62
     7
  5
933
 10
0.860715
 20
-0.000556
 30
0.0
 11
0.85947
 21
-0.000725
 31
0.0
  0
LINE
  8
0
  6
CONTINUOUS
 62
     7
  5
934
 10
0.85947
 20
-0.000725
 30
0.0
 11
0.858225
 21
-0.000917
 31
0.0
  0
LINE
  8
0
  6
CONTINUOUS
 62
     7
  5
935
 10
0.858225
 20
-0.000917
 30
0.0
 11
0.856978
 21
-0.001131
 31
0.0
  0
LINE
  8
0
  6
CONTINUOUS
 62
     7
  5
936
 10
0.856978
 20
-0.001131
 30
0.0
 11
0.85573
 21
-0.001367
 31
0.0
  0
LINE
  8
0
  6
CONTINUOUS
 62
     7
  5
937
 10
0.85573
 20
-0.001367
 30
0.0
 11
0.854479
 21
-0.001626
 31
0.0
  0
LINE
  8
0
  6
CONTINUOUS
 62
     7
  5
938
 10
0.854479
 20
-0.001626
 30
0.0
 11
0.853225
 21
-0.001907
 31
0.0
  0
LINE
  8
0
  6
CONTINUOUS
 62
     7
  5
939
 10
0.853225
 20
-0.001907
 30
0.0
 11
0.851968
 21
-0.00221
 31
0.0
  0
LINE
  8
0
  6
CONTINUOUS
 62
     7
  5
93A
 10
0.851968
 20
-0.00221
 30
0.0
 11
0.850707
 21
-0.002536
 31
0.0
  0
LINE
  8
0
  6
CONTINUOUS
 62
     7
  5
93B
 10
0.850707
 20
-0.002536
 30
0.0
 11
0.849442
 21
-0.002885
 31
0.0
  0
LINE
  8
0
  6
CONTINUOUS
 62
     7
  5
93C
 10
0.849442
 20
-0.002885
 30
0.0
 11
0.848172
 21
-0.003257
 31
0.0
  0
LINE
  8
0
  6
CONTINUOUS
 62
     7
  5
93D
 10
0.848172
 20
-0.003257
 30
0.0
 11
0.846898
 21
-0.003651
 31
0.0
  0
LINE
  8
0
  6
CONTINUOUS
 62
     7
  5
93E
 10
0.846898
 20
-0.003651
 30
0.0
 11
0.845618
 21
-0.004068
 31
0.0
  0
LINE
  8
0
  6
CONTINUOUS
 62
     7
  5
93F
 10
0.845618
 20
-0.004068
 30
0.0
 11
0.844331
 21
-0.004509
 31
0.0
  0
LINE
  8
0
  6
CONTINUOUS
 62
     7
  5
940
 10
0.844331
 20
-0.004509
 30
0.0
 11
0.843038
 21
-0.004973
 31
0.0
  0
LINE
  8
0
  6
CONTINUOUS
 62
     7
  5
941
 10
0.843038
 20
-0.004973
 30
0.0
 11
0.841739
 21
-0.005461
 31
0.0
  0
LINE
  8
0
  6
CONTINUOUS
 62
     7
  5
942
 10
0.841739
 20
-0.005461
 30
0.0
 11
0.840431
 21
-0.005972
 31
0.0
  0
LINE
  8
0
  6
CONTINUOUS
 62
     7
  5
943
 10
0.840431
 20
-0.005972
 30
0.0
 11
0.839116
 21
-0.006507
 31
0.0
  0
LINE
  8
0
  6
CONTINUOUS
 62
     7
  5
944
 10
0.839116
 20
-0.006507
 30
0.0
 11
0.837793
 21
-0.007067
 31
0.0
  0
LINE
  8
0
  6
CONTINUOUS
 62
     7
  5
945
 10
0.837793
 20
-0.007067
 30
0.0
 11
0.83646
 21
-0.007651
 31
0.0
  0
LINE
  8
0
  6
CONTINUOUS
 62
     7
  5
946
 10
0.83646
 20
-0.007651
 30
0.0
 11
0.835118
 21
-0.00826
 31
0.0
  0
LINE
  8
0
  6
CONTINUOUS
 62
     7
  5
947
 10
0.835118
 20
-0.00826
 30
0.0
 11
0.833766
 21
-0.008894
 31
0.0
  0
LINE
  8
0
  6
CONTINUOUS
 62
     7
  5
948
 10
0.833766
 20
-0.008894
 30
0.0
 11
0.832403
 21
-0.009553
 31
0.0
  0
LINE
  8
0
  6
CONTINUOUS
 62
     7
  5
949
 10
0.832403
 20
-0.009553
 30
0.0
 11
0.831029
 21
-0.010239
 31
0.0
  0
LINE
  8
0
  6
CONTINUOUS
 62
     7
  5
94A
 10
0.831029
 20
-0.010239
 30
0.0
 11
0.829644
 21
-0.01095
 31
0.0
  0
LINE
  8
0
  6
CONTINUOUS
 62
     7
  5
94B
 10
0.829644
 20
-0.01095
 30
0.0
 11
0.828246
 21
-0.011688
 31
0.0
  0
LINE
  8
0
  6
CONTINUOUS
 62
     7
  5
94C
 10
0.828246
 20
-0.011688
 30
0.0
 11
0.826836
 21
-0.012453
 31
0.0
  0
LINE
  8
0
  6
CONTINUOUS
 62
     7
  5
94D
 10
0.826836
 20
-0.012453
 30
0.0
 11
0.825412
 21
-0.013245
 31
0.0
  0
LINE
  8
0
  6
CONTINUOUS
 62
     7
  5
94E
 10
0.825412
 20
-0.013245
 30
0.0
 11
0.823974
 21
-0.014066
 31
0.0
  0
LINE
  8
0
  6
CONTINUOUS
 62
     7
  5
94F
 10
0.596671
 20
0.0
 30
0.0
 11
0.595421
 21
-0.000011
 31
0.0
  0
LINE
  8
0
  6
CONTINUOUS
 62
     7
  5
950
 10
0.595421
 20
-0.000011
 30
0.0
 11
0.594173
 21
-0.000046
 31
0.0
  0
LINE
  8
0
  6
CONTINUOUS
 62
     7
  5
951
 10
0.594173
 20
-0.000046
 30
0.0
 11
0.592927
 21
-0.000103
 31
0.0
  0
LINE
  8
0
  6
CONTINUOUS
 62
     7
  5
952
 10
0.592927
 20
-0.000103
 30
0.0
 11
0.591682
 21
-0.000182
 31
0.0
  0
LINE
  8
0
  6
CONTINUOUS
 62
     7
  5
953
 10
0.591682
 20
-0.000182
 30
0.0
 11
0.590438
 21
-0.000284
 31
0.0
  0
LINE
  8
0
  6
CONTINUOUS
 62
     7
  5
954
 10
0.590438
 20
-0.000284
 30
0.0
 11
0.589195
 21
-0.000409
 31
0.0
  0
LINE
  8
0
  6
CONTINUOUS
 62
     7
  5
955
 10
0.589195
 20
-0.000409
 30
0.0
 11
0.587951
 21
-0.000556
 31
0.0
  0
LINE
  8
0
  6
CONTINUOUS
 62
     7
  5
956
 10
0.587951
 20
-0.000556
 30
0.0
 11
0.586707
 21
-0.000725
 31
0.0
  0
LINE
  8
0
  6
CONTINUOUS
 62
     7
  5
957
 10
0.586707
 20
-0.000725
 30
0.0
 11
0.585461
 21
-0.000917
 31
0.0
  0
LINE
  8
0
  6
CONTINUOUS
 62
     7
  5
958
 10
0.585461
 20
-0.000917
 30
0.0
 11
0.584215
 21
-0.001131
 31
0.0
  0
LINE
  8
0
  6
CONTINUOUS
 62
     7
  5
959
 10
0.584215
 20
-0.001131
 30
0.0
 11
0.582966
 21
-0.001367
 31
0.0
  0
LINE
  8
0
  6
CONTINUOUS
 62
     7
  5
95A
 10
0.582966
 20
-0.001367
 30
0.0
 11
0.581715
 21
-0.001626
 31
0.0
  0
LINE
  8
0
  6
CONTINUOUS
 62
     7
  5
95B
 10
0.581715
 20
-0.001626
 30
0.0
 11
0.580461
 21
-0.001907
 31
0.0
  0
LINE
  8
0
  6
CONTINUOUS
 62
     7
  5
95C
 10
0.580461
 20
-0.001907
 30
0.0
 11
0.579204
 21
-0.00221
 31
0.0
  0
LINE
  8
0
  6
CONTINUOUS
 62
     7
  5
95D
 10
0.579204
 20
-0.00221
 30
0.0
 11
0.577943
 21
-0.002536
 31
0.0
  0
LINE
  8
0
  6
CONTINUOUS
 62
     7
  5
95E
 10
0.577943
 20
-0.002536
 30
0.0
 11
0.576678
 21
-0.002885
 31
0.0
  0
LINE
  8
0
  6
CONTINUOUS
 62
     7
  5
95F
 10
0.576678
 20
-0.002885
 30
0.0
 11
0.575409
 21
-0.003257
 31
0.0
  0
LINE
  8
0
  6
CONTINUOUS
 62
     7
  5
960
 10
0.575409
 20
-0.003257
 30
0.0
 11
0.574134
 21
-0.003651
 31
0.0
  0
LINE
  8
0
  6
CONTINUOUS
 62
     7
  5
961
 10
0.574134
 20
-0.003651
 30
0.0
 11
0.572854
 21
-0.004068
 31
0.0
  0
LINE
  8
0
  6
CONTINUOUS
 62
     7
  5
962
 10
0.572854
 20
-0.004068
 30
0.0
 11
0.571567
 21
-0.004509
 31
0.0
  0
LINE
  8
0
  6
CONTINUOUS
 62
     7
  5
963
 10
0.571567
 20
-0.004509
 30
0.0
 11
0.570275
 21
-0.004973
 31
0.0
  0
LINE
  8
0
  6
CONTINUOUS
 62
     7
  5
964
 10
0.570275
 20
-0.004973
 30
0.0
 11
0.568975
 21
-0.005461
 31
0.0
  0
LINE
  8
0
  6
CONTINUOUS
 62
     7
  5
965
 10
0.568975
 20
-0.005461
 30
0.0
 11
0.567667
 21
-0.005972
 31
0.0
  0
LINE
  8
0
  6
CONTINUOUS
 62
     7
  5
966
 10
0.567667
 20
-0.005972
 30
0.0
 11
0.566352
 21
-0.006507
 31
0.0
  0
LINE
  8
0
  6
CONTINUOUS
 62
     7
  5
967
 10
0.566352
 20
-0.006507
 30
0.0
 11
0.565029
 21
-0.007067
 31
0.0
  0
LINE
  8
0
  6
CONTINUOUS
 62
     7
  5
968
 10
0.565029
 20
-0.007067
 30
0.0
 11
0.563696
 21
-0.007651
 31
0.0
  0
LINE
  8
0
  6
CONTINUOUS
 62
     7
  5
969
 10
0.563696
 20
-0.007651
 30
0.0
 11
0.562354
 21
-0.00826
 31
0.0
  0
LINE
  8
0
  6
CONTINUOUS
 62
     7
  5
96A
 10
0.562354
 20
-0.00826
 30
0.0
 11
0.561002
 21
-0.008894
 31
0.0
  0
LINE
  8
0
  6
CONTINUOUS
 62
     7
  5
96B
 10
0.561002
 20
-0.008894
 30
0.0
 11
0.559639
 21
-0.009553
 31
0.0
  0
LINE
  8
0
  6
CONTINUOUS
 62
     7
  5
96C
 10
0.559639
 20
-0.009553
 30
0.0
 11
0.558265
 21
-0.010239
 31
0.0
  0
LINE
  8
0
  6
CONTINUOUS
 62
     7
  5
96D
 10
0.558265
 20
-0.010239
 30
0.0
 11
0.55688
 21
-0.01095
 31
0.0
  0
LINE
  8
0
  6
CONTINUOUS
 62
     7
  5
96E
 10
0.55688
 20
-0.01095
 30
0.0
 11
0.555482
 21
-0.011688
 31
0.0
  0
LINE
  8
0
  6
CONTINUOUS
 62
     7
  5
96F
 10
0.555482
 20
-0.011688
 30
0.0
 11
0.554072
 21
-0.012453
 31
0.0
  0
LINE
  8
0
  6
CONTINUOUS
 62
     7
  5
970
 10
0.554072
 20
-0.012453
 30
0.0
 11
0.552648
 21
-0.013245
 31
0.0
  0
LINE
  8
0
  6
CONTINUOUS
 62
     7
  5
971
 10
0.552648
 20
-0.013245
 30
0.0
 11
0.55121
 21
-0.014066
 31
0.0
  0
LINE
  8
0
  6
CONTINUOUS
 62
     7
  5
972
 10
0.642132
 20
-0.014066
 30
0.0
 11
0.640694
 21
-0.013245
 31
0.0
  0
LINE
  8
0
  6
CONTINUOUS
 62
     7
  5
973
 10
0.640694
 20
-0.013245
 30
0.0
 11
0.63927
 21
-0.012453
 31
0.0
  0
LINE
  8
0
  6
CONTINUOUS
 62
     7
  5
974
 10
0.63927
 20
-0.012453
 30
0.0
 11
0.63786
 21
-0.011688
 31
0.0
  0
LINE
  8
0
  6
CONTINUOUS
 62
     7
  5
975
 10
0.63786
 20
-0.011688
 30
0.0
 11
0.636462
 21
-0.01095
 31
0.0
  0
LINE
  8
0
  6
CONTINUOUS
 62
     7
  5
976
 10
0.636462
 20
-0.01095
 30
0.0
 11
0.635077
 21
-0.010239
 31
0.0
  0
LINE
  8
0
  6
CONTINUOUS
 62
     7
  5
977
 10
0.635077
 20
-0.010239
 30
0.0
 11
0.633703
 21
-0.009553
 31
0.0
  0
LINE
  8
0
  6
CONTINUOUS
 62
     7
  5
978
 10
0.633703
 20
-0.009553
 30
0.0
 11
0.63234
 21
-0.008894
 31
0.0
  0
LINE
  8
0
  6
CONTINUOUS
 62
     7
  5
979
 10
0.63234
 20
-0.008894
 30
0.0
 11
0.630988
 21
-0.00826
 31
0.0
  0
LINE
  8
0
  6
CONTINUOUS
 62
     7
  5
97A
 10
0.630988
 20
-0.00826
 30
0.0
 11
0.629646
 21
-0.007651
 31
0.0
  0
LINE
  8
0
  6
CONTINUOUS
 62
     7
  5
97B
 10
0.629646
 20
-0.007651
 30
0.0
 11
0.628313
 21
-0.007067
 31
0.0
  0
LINE
  8
0
  6
CONTINUOUS
 62
     7
  5
97C
 10
0.628313
 20
-0.007067
 30
0.0
 11
0.62699
 21
-0.006507
 31
0.0
  0
LINE
  8
0
  6
CONTINUOUS
 62
     7
  5
97D
 10
0.62699
 20
-0.006507
 30
0.0
 11
0.625675
 21
-0.005972
 31
0.0
  0
LINE
  8
0
  6
CONTINUOUS
 62
     7
  5
97E
 10
0.625675
 20
-0.005972
 30
0.0
 11
0.624367
 21
-0.005461
 31
0.0
  0
LINE
  8
0
  6
CONTINUOUS
 62
     7
  5
97F
 10
0.624367
 20
-0.005461
 30
0.0
 11
0.623068
 21
-0.004973
 31
0.0
  0
LINE
  8
0
  6
CONTINUOUS
 62
     7
  5
980
 10
0.623068
 20
-0.004973
 30
0.0
 11
0.621775
 21
-0.004509
 31
0.0
  0
LINE
  8
0
  6
CONTINUOUS
 62
     7
  5
981
 10
0.621775
 20
-0.004509
 30
0.0
 11
0.620488
 21
-0.004068
 31
0.0
  0
LINE
  8
0
  6
CONTINUOUS
 62
     7
  5
982
 10
0.620488
 20
-0.004068
 30
0.0
 11
0.619208
 21
-0.003651
 31
0.0
  0
LINE
  8
0
  6
CONTINUOUS
 62
     7
  5
983
 10
0.619208
 20
-0.003651
 30
0.0
 11
0.617934
 21
-0.003257
 31
0.0
  0
LINE
  8
0
  6
CONTINUOUS
 62
     7
  5
984
 10
0.617934
 20
-0.003257
 30
0.0
 11
0.616664
 21
-0.002885
 31
0.0
  0
LINE
  8
0
  6
CONTINUOUS
 62
     7
  5
985
 10
0.616664
 20
-0.002885
 30
0.0
 11
0.615399
 21
-0.002536
 31
0.0
  0
LINE
  8
0
  6
CONTINUOUS
 62
     7
  5
986
 10
0.615399
 20
-0.002536
 30
0.0
 11
0.614138
 21
-0.00221
 31
0.0
  0
LINE
  8
0
  6
CONTINUOUS
 62
     7
  5
987
 10
0.614138
 20
-0.00221
 30
0.0
 11
0.612881
 21
-0.001907
 31
0.0
  0
LINE
  8
0
  6
CONTINUOUS
 62
     7
  5
988
 10
0.612881
 20
-0.001907
 30
0.0
 11
0.611627
 21
-0.001626
 31
0.0
  0
LINE
  8
0
  6
CONTINUOUS
 62
     7
  5
989
 10
0.611627
 20
-0.001626
 30
0.0
 11
0.610376
 21
-0.001367
 31
0.0
  0
LINE
  8
0
  6
CONTINUOUS
 62
     7
  5
98A
 10
0.610376
 20
-0.001367
 30
0.0
 11
0.609128
 21
-0.001131
 31
0.0
  0
LINE
  8
0
  6
CONTINUOUS
 62
     7
  5
98B
 10
0.609128
 20
-0.001131
 30
0.0
 11
0.607881
 21
-0.000917
 31
0.0
  0
LINE
  8
0
  6
CONTINUOUS
 62
     7
  5
98C
 10
0.607881
 20
-0.000917
 30
0.0
 11
0.606636
 21
-0.000725
 31
0.0
  0
LINE
  8
0
  6
CONTINUOUS
 62
     7
  5
98D
 10
0.606636
 20
-0.000725
 30
0.0
 11
0.605391
 21
-0.000556
 31
0.0
  0
LINE
  8
0
  6
CONTINUOUS
 62
     7
  5
98E
 10
0.605391
 20
-0.000556
 30
0.0
 11
0.604148
 21
-0.000409
 31
0.0
  0
LINE
  8
0
  6
CONTINUOUS
 62
     7
  5
98F
 10
0.604148
 20
-0.000409
 30
0.0
 11
0.602904
 21
-0.000284
 31
0.0
  0
LINE
  8
0
  6
CONTINUOUS
 62
     7
  5
990
 10
0.602904
 20
-0.000284
 30
0.0
 11
0.60166
 21
-0.000182
 31
0.0
  0
LINE
  8
0
  6
CONTINUOUS
 62
     7
  5
991
 10
0.60166
 20
-0.000182
 30
0.0
 11
0.600415
 21
-0.000103
 31
0.0
  0
LINE
  8
0
  6
CONTINUOUS
 62
     7
  5
992
 10
0.600415
 20
-0.000103
 30
0.0
 11
0.599169
 21
-0.000046
 31
0.0
  0
LINE
  8
0
  6
CONTINUOUS
 62
     7
  5
993
 10
0.599169
 20
-0.000046
 30
0.0
 11
0.597921
 21
-0.000011
 31
0.0
  0
LINE
  8
0
  6
CONTINUOUS
 62
     7
  5
994
 10
0.597921
 20
-0.000011
 30
0.0
 11
0.596671
 21
0.0
 31
0.0
  0
LINE
  8
0
  6
CONTINUOUS
 62
     7
  5
995
 10
0.55121
 20
-0.143415
 30
0.0
 11
0.55121
 21
-0.014066
 31
0.0
  0
LINE
  8
0
  6
CONTINUOUS
 62
     7
  5
996
 10
-0.575573
 20
-0.15748
 30
0.0
 11
-0.596671
 21
-0.15748
 31
0.0
  0
LINE
  8
0
  6
CONTINUOUS
 62
     7
  5
997
 10
-0.596671
 20
-0.15748
 30
0.0
 11
-0.733053
 21
-0.15748
 31
0.0
  0
LINE
  8
0
  6
CONTINUOUS
 62
     7
  5
998
 10
-0.733053
 20
-0.15748
 30
0.0
 11
-0.869435
 21
-0.15748
 31
0.0
  0
LINE
  8
0
  6
CONTINUOUS
 62
     7
  5
999
 10
-0.869435
 20
-0.15748
 30
0.0
 11
-0.890533
 21
-0.15748
 31
0.0
  0
LINE
  8
0
  6
CONTINUOUS
 62
     7
  5
99A
 10
-0.596671
 20
-0.15748
 30
0.0
 11
-0.595421
 21
-0.157469
 31
0.0
  0
LINE
  8
0
  6
CONTINUOUS
 62
     7
  5
99B
 10
-0.595421
 20
-0.157469
 30
0.0
 11
-0.594173
 21
-0.157435
 31
0.0
  0
LINE
  8
0
  6
CONTINUOUS
 62
     7
  5
99C
 10
-0.594173
 20
-0.157435
 30
0.0
 11
-0.592927
 21
-0.157378
 31
0.0
  0
LINE
  8
0
  6
CONTINUOUS
 62
     7
  5
99D
 10
-0.592927
 20
-0.157378
 30
0.0
 11
-0.591682
 21
-0.157298
 31
0.0
  0
LINE
  8
0
  6
CONTINUOUS
 62
     7
  5
99E
 10
-0.591682
 20
-0.157298
 30
0.0
 11
-0.590438
 21
-0.157196
 31
0.0
  0
LINE
  8
0
  6
CONTINUOUS
 62
     7
  5
99F
 10
-0.590438
 20
-0.157196
 30
0.0
 11
-0.589195
 21
-0.157071
 31
0.0
  0
LINE
  8
0
  6
CONTINUOUS
 62
     7
  5
9A0
 10
-0.589195
 20
-0.157071
 30
0.0
 11
-0.587951
 21
-0.156924
 31
0.0
  0
LINE
  8
0
  6
CONTINUOUS
 62
     7
  5
9A1
 10
-0.587951
 20
-0.156924
 30
0.0
 11
-0.586707
 21
-0.156755
 31
0.0
  0
LINE
  8
0
  6
CONTINUOUS
 62
     7
  5
9A2
 10
-0.586707
 20
-0.156755
 30
0.0
 11
-0.585461
 21
-0.156564
 31
0.0
  0
LINE
  8
0
  6
CONTINUOUS
 62
     7
  5
9A3
 10
-0.585461
 20
-0.156564
 30
0.0
 11
-0.584215
 21
-0.15635
 31
0.0
  0
LINE
  8
0
  6
CONTINUOUS
 62
     7
  5
9A4
 10
-0.584215
 20
-0.15635
 30
0.0
 11
-0.582966
 21
-0.156113
 31
0.0
  0
LINE
  8
0
  6
CONTINUOUS
 62
     7
  5
9A5
 10
-0.582966
 20
-0.156113
 30
0.0
 11
-0.581715
 21
-0.155855
 31
0.0
  0
LINE
  8
0
  6
CONTINUOUS
 62
     7
  5
9A6
 10
-0.581715
 20
-0.155855
 30
0.0
 11
-0.580461
 21
-0.155574
 31
0.0
  0
LINE
  8
0
  6
CONTINUOUS
 62
     7
  5
9A7
 10
-0.580461
 20
-0.155574
 30
0.0
 11
-0.579204
 21
-0.15527
 31
0.0
  0
LINE
  8
0
  6
CONTINUOUS
 62
     7
  5
9A8
 10
-0.579204
 20
-0.15527
 30
0.0
 11
-0.577943
 21
-0.154944
 31
0.0
  0
LINE
  8
0
  6
CONTINUOUS
 62
     7
  5
9A9
 10
-0.577943
 20
-0.154944
 30
0.0
 11
-0.576678
 21
-0.154595
 31
0.0
  0
LINE
  8
0
  6
CONTINUOUS
 62
     7
  5
9AA
 10
-0.576678
 20
-0.154595
 30
0.0
 11
-0.575409
 21
-0.154224
 31
0.0
  0
LINE
  8
0
  6
CONTINUOUS
 62
     7
  5
9AB
 10
-0.575409
 20
-0.154224
 30
0.0
 11
-0.574134
 21
-0.153829
 31
0.0
  0
LINE
  8
0
  6
CONTINUOUS
 62
     7
  5
9AC
 10
-0.574134
 20
-0.153829
 30
0.0
 11
-0.572854
 21
-0.153412
 31
0.0
  0
LINE
  8
0
  6
CONTINUOUS
 62
     7
  5
9AD
 10
-0.572854
 20
-0.153412
 30
0.0
 11
-0.571567
 21
-0.152971
 31
0.0
  0
LINE
  8
0
  6
CONTINUOUS
 62
     7
  5
9AE
 10
-0.571567
 20
-0.152971
 30
0.0
 11
-0.570275
 21
-0.152507
 31
0.0
  0
LINE
  8
0
  6
CONTINUOUS
 62
     7
  5
9AF
 10
-0.570275
 20
-0.152507
 30
0.0
 11
-0.568975
 21
-0.15202
 31
0.0
  0
LINE
  8
0
  6
CONTINUOUS
 62
     7
  5
9B0
 10
-0.568975
 20
-0.15202
 30
0.0
 11
-0.567667
 21
-0.151508
 31
0.0
  0
LINE
  8
0
  6
CONTINUOUS
 62
     7
  5
9B1
 10
-0.567667
 20
-0.151508
 30
0.0
 11
-0.566352
 21
-0.150973
 31
0.0
  0
LINE
  8
0
  6
CONTINUOUS
 62
     7
  5
9B2
 10
-0.566352
 20
-0.150973
 30
0.0
 11
-0.565029
 21
-0.150413
 31
0.0
  0
LINE
  8
0
  6
CONTINUOUS
 62
     7
  5
9B3
 10
-0.565029
 20
-0.150413
 30
0.0
 11
-0.563696
 21
-0.149829
 31
0.0
  0
LINE
  8
0
  6
CONTINUOUS
 62
     7
  5
9B4
 10
-0.563696
 20
-0.149829
 30
0.0
 11
-0.562354
 21
-0.14922
 31
0.0
  0
LINE
  8
0
  6
CONTINUOUS
 62
     7
  5
9B5
 10
-0.562354
 20
-0.14922
 30
0.0
 11
-0.561002
 21
-0.148586
 31
0.0
  0
LINE
  8
0
  6
CONTINUOUS
 62
     7
  5
9B6
 10
-0.561002
 20
-0.148586
 30
0.0
 11
-0.559639
 21
-0.147927
 31
0.0
  0
LINE
  8
0
  6
CONTINUOUS
 62
     7
  5
9B7
 10
-0.559639
 20
-0.147927
 30
0.0
 11
-0.558265
 21
-0.147242
 31
0.0
  0
LINE
  8
0
  6
CONTINUOUS
 62
     7
  5
9B8
 10
-0.558265
 20
-0.147242
 30
0.0
 11
-0.55688
 21
-0.14653
 31
0.0
  0
LINE
  8
0
  6
CONTINUOUS
 62
     7
  5
9B9
 10
-0.55688
 20
-0.14653
 30
0.0
 11
-0.555482
 21
-0.145792
 31
0.0
  0
LINE
  8
0
  6
CONTINUOUS
 62
     7
  5
9BA
 10
-0.555482
 20
-0.145792
 30
0.0
 11
-0.554072
 21
-0.145027
 31
0.0
  0
LINE
  8
0
  6
CONTINUOUS
 62
     7
  5
9BB
 10
-0.554072
 20
-0.145027
 30
0.0
 11
-0.552648
 21
-0.144235
 31
0.0
  0
LINE
  8
0
  6
CONTINUOUS
 62
     7
  5
9BC
 10
-0.552648
 20
-0.144235
 30
0.0
 11
-0.55121
 21
-0.143415
 31
0.0
  0
LINE
  8
0
  6
CONTINUOUS
 62
     7
  5
9BD
 10
-0.914896
 20
-0.143415
 30
0.0
 11
-0.913458
 21
-0.144235
 31
0.0
  0
LINE
  8
0
  6
CONTINUOUS
 62
     7
  5
9BE
 10
-0.913458
 20
-0.144235
 30
0.0
 11
-0.912034
 21
-0.145027
 31
0.0
  0
LINE
  8
0
  6
CONTINUOUS
 62
     7
  5
9BF
 10
-0.912034
 20
-0.145027
 30
0.0
 11
-0.910624
 21
-0.145792
 31
0.0
  0
LINE
  8
0
  6
CONTINUOUS
 62
     7
  5
9C0
 10
-0.910624
 20
-0.145792
 30
0.0
 11
-0.909226
 21
-0.14653
 31
0.0
  0
LINE
  8
0
  6
CONTINUOUS
 62
     7
  5
9C1
 10
-0.909226
 20
-0.14653
 30
0.0
 11
-0.907841
 21
-0.147242
 31
0.0
  0
LINE
  8
0
  6
CONTINUOUS
 62
     7
  5
9C2
 10
-0.907841
 20
-0.147242
 30
0.0
 11
-0.906467
 21
-0.147927
 31
0.0
  0
LINE
  8
0
  6
CONTINUOUS
 62
     7
  5
9C3
 10
-0.906467
 20
-0.147927
 30
0.0
 11
-0.905104
 21
-0.148586
 31
0.0
  0
LINE
  8
0
  6
CONTINUOUS
 62
     7
  5
9C4
 10
-0.905104
 20
-0.148586
 30
0.0
 11
-0.903752
 21
-0.14922
 31
0.0
  0
LINE
  8
0
  6
CONTINUOUS
 62
     7
  5
9C5
 10
-0.903752
 20
-0.14922
 30
0.0
 11
-0.90241
 21
-0.149829
 31
0.0
  0
LINE
  8
0
  6
CONTINUOUS
 62
     7
  5
9C6
 10
-0.90241
 20
-0.149829
 30
0.0
 11
-0.901077
 21
-0.150413
 31
0.0
  0
LINE
  8
0
  6
CONTINUOUS
 62
     7
  5
9C7
 10
-0.901077
 20
-0.150413
 30
0.0
 11
-0.899754
 21
-0.150973
 31
0.0
  0
LINE
  8
0
  6
CONTINUOUS
 62
     7
  5
9C8
 10
-0.899754
 20
-0.150973
 30
0.0
 11
-0.898439
 21
-0.151508
 31
0.0
  0
LINE
  8
0
  6
CONTINUOUS
 62
     7
  5
9C9
 10
-0.898439
 20
-0.151508
 30
0.0
 11
-0.897131
 21
-0.15202
 31
0.0
  0
LINE
  8
0
  6
CONTINUOUS
 62
     7
  5
9CA
 10
-0.897131
 20
-0.15202
 30
0.0
 11
-0.895831
 21
-0.152507
 31
0.0
  0
LINE
  8
0
  6
CONTINUOUS
 62
     7
  5
9CB
 10
-0.895831
 20
-0.152507
 30
0.0
 11
-0.894539
 21
-0.152971
 31
0.0
  0
LINE
  8
0
  6
CONTINUOUS
 62
     7
  5
9CC
 10
-0.894539
 20
-0.152971
 30
0.0
 11
-0.893252
 21
-0.153412
 31
0.0
  0
LINE
  8
0
  6
CONTINUOUS
 62
     7
  5
9CD
 10
-0.893252
 20
-0.153412
 30
0.0
 11
-0.891972
 21
-0.153829
 31
0.0
  0
LINE
  8
0
  6
CONTINUOUS
 62
     7
  5
9CE
 10
-0.891972
 20
-0.153829
 30
0.0
 11
-0.890697
 21
-0.154224
 31
0.0
  0
LINE
  8
0
  6
CONTINUOUS
 62
     7
  5
9CF
 10
-0.890697
 20
-0.154224
 30
0.0
 11
-0.889428
 21
-0.154595
 31
0.0
  0
LINE
  8
0
  6
CONTINUOUS
 62
     7
  5
9D0
 10
-0.889428
 20
-0.154595
 30
0.0
 11
-0.888163
 21
-0.154944
 31
0.0
  0
LINE
  8
0
  6
CONTINUOUS
 62
     7
  5
9D1
 10
-0.888163
 20
-0.154944
 30
0.0
 11
-0.886902
 21
-0.15527
 31
0.0
  0
LINE
  8
0
  6
CONTINUOUS
 62
     7
  5
9D2
 10
-0.886902
 20
-0.15527
 30
0.0
 11
-0.885645
 21
-0.155574
 31
0.0
  0
LINE
  8
0
  6
CONTINUOUS
 62
     7
  5
9D3
 10
-0.885645
 20
-0.155574
 30
0.0
 11
-0.884391
 21
-0.155855
 31
0.0
  0
LINE
  8
0
  6
CONTINUOUS
 62
     7
  5
9D4
 10
-0.884391
 20
-0.155855
 30
0.0
 11
-0.88314
 21
-0.156113
 31
0.0
  0
LINE
  8
0
  6
CONTINUOUS
 62
     7
  5
9D5
 10
-0.88314
 20
-0.156113
 30
0.0
 11
-0.881891
 21
-0.15635
 31
0.0
  0
LINE
  8
0
  6
CONTINUOUS
 62
     7
  5
9D6
 10
-0.881891
 20
-0.15635
 30
0.0
 11
-0.880645
 21
-0.156564
 31
0.0
  0
LINE
  8
0
  6
CONTINUOUS
 62
     7
  5
9D7
 10
-0.880645
 20
-0.156564
 30
0.0
 11
-0.879399
 21
-0.156755
 31
0.0
  0
LINE
  8
0
  6
CONTINUOUS
 62
     7
  5
9D8
 10
-0.879399
 20
-0.156755
 30
0.0
 11
-0.878155
 21
-0.156924
 31
0.0
  0
LINE
  8
0
  6
CONTINUOUS
 62
     7
  5
9D9
 10
-0.878155
 20
-0.156924
 30
0.0
 11
-0.876911
 21
-0.157071
 31
0.0
  0
LINE
  8
0
  6
CONTINUOUS
 62
     7
  5
9DA
 10
-0.876911
 20
-0.157071
 30
0.0
 11
-0.875668
 21
-0.157196
 31
0.0
  0
LINE
  8
0
  6
CONTINUOUS
 62
     7
  5
9DB
 10
-0.875668
 20
-0.157196
 30
0.0
 11
-0.874424
 21
-0.157298
 31
0.0
  0
LINE
  8
0
  6
CONTINUOUS
 62
     7
  5
9DC
 10
-0.874424
 20
-0.157298
 30
0.0
 11
-0.873179
 21
-0.157378
 31
0.0
  0
LINE
  8
0
  6
CONTINUOUS
 62
     7
  5
9DD
 10
-0.873179
 20
-0.157378
 30
0.0
 11
-0.871933
 21
-0.157435
 31
0.0
  0
LINE
  8
0
  6
CONTINUOUS
 62
     7
  5
9DE
 10
-0.871933
 20
-0.157435
 30
0.0
 11
-0.870685
 21
-0.157469
 31
0.0
  0
LINE
  8
0
  6
CONTINUOUS
 62
     7
  5
9DF
 10
-0.870685
 20
-0.157469
 30
0.0
 11
-0.869435
 21
-0.15748
 31
0.0
  0
LINE
  8
0
  6
CONTINUOUS
 62
     7
  5
9E0
 10
-0.733053
 20
-0.15748
 30
0.0
 11
-0.730553
 21
-0.157469
 31
0.0
  0
LINE
  8
0
  6
CONTINUOUS
 62
     7
  5
9E1
 10
-0.730553
 20
-0.157469
 30
0.0
 11
-0.728057
 21
-0.157435
 31
0.0
  0
LINE
  8
0
  6
CONTINUOUS
 62
     7
  5
9E2
 10
-0.728057
 20
-0.157435
 30
0.0
 11
-0.725565
 21
-0.157378
 31
0.0
  0
LINE
  8
0
  6
CONTINUOUS
 62
     7
  5
9E3
 10
-0.725565
 20
-0.157378
 30
0.0
 11
-0.723075
 21
-0.157298
 31
0.0
  0
LINE
  8
0
  6
CONTINUOUS
 62
     7
  5
9E4
 10
-0.723075
 20
-0.157298
 30
0.0
 11
-0.720587
 21
-0.157196
 31
0.0
  0
LINE
  8
0
  6
CONTINUOUS
 62
     7
  5
9E5
 10
-0.720587
 20
-0.157196
 30
0.0
 11
-0.7181
 21
-0.157071
 31
0.0
  0
LINE
  8
0
  6
CONTINUOUS
 62
     7
  5
9E6
 10
-0.7181
 20
-0.157071
 30
0.0
 11
-0.715613
 21
-0.156924
 31
0.0
  0
LINE
  8
0
  6
CONTINUOUS
 62
     7
  5
9E7
 10
-0.715613
 20
-0.156924
 30
0.0
 11
-0.713124
 21
-0.156755
 31
0.0
  0
LINE
  8
0
  6
CONTINUOUS
 62
     7
  5
9E8
 10
-0.713124
 20
-0.156755
 30
0.0
 11
-0.710633
 21
-0.156564
 31
0.0
  0
LINE
  8
0
  6
CONTINUOUS
 62
     7
  5
9E9
 10
-0.710633
 20
-0.156564
 30
0.0
 11
-0.70814
 21
-0.15635
 31
0.0
  0
LINE
  8
0
  6
CONTINUOUS
 62
     7
  5
9EA
 10
-0.70814
 20
-0.15635
 30
0.0
 11
-0.705643
 21
-0.156113
 31
0.0
  0
LINE
  8
0
  6
CONTINUOUS
 62
     7
  5
9EB
 10
-0.705643
 20
-0.156113
 30
0.0
 11
-0.703141
 21
-0.155855
 31
0.0
  0
LINE
  8
0
  6
CONTINUOUS
 62
     7
  5
9EC
 10
-0.703141
 20
-0.155855
 30
0.0
 11
-0.700633
 21
-0.155574
 31
0.0
  0
LINE
  8
0
  6
CONTINUOUS
 62
     7
  5
9ED
 10
-0.700633
 20
-0.155574
 30
0.0
 11
-0.698119
 21
-0.15527
 31
0.0
  0
LINE
  8
0
  6
CONTINUOUS
 62
     7
  5
9EE
 10
-0.698119
 20
-0.15527
 30
0.0
 11
-0.695597
 21
-0.154944
 31
0.0
  0
LINE
  8
0
  6
CONTINUOUS
 62
     7
  5
9EF
 10
-0.695597
 20
-0.154944
 30
0.0
 11
-0.693067
 21
-0.154595
 31
0.0
  0
LINE
  8
0
  6
CONTINUOUS
 62
     7
  5
9F0
 10
-0.693067
 20
-0.154595
 30
0.0
 11
-0.690528
 21
-0.154224
 31
0.0
  0
LINE
  8
0
  6
CONTINUOUS
 62
     7
  5
9F1
 10
-0.690528
 20
-0.154224
 30
0.0
 11
-0.687979
 21
-0.153829
 31
0.0
  0
LINE
  8
0
  6
CONTINUOUS
 62
     7
  5
9F2
 10
-0.687979
 20
-0.153829
 30
0.0
 11
-0.685418
 21
-0.153412
 31
0.0
  0
LINE
  8
0
  6
CONTINUOUS
 62
     7
  5
9F3
 10
-0.685418
 20
-0.153412
 30
0.0
 11
-0.682846
 21
-0.152971
 31
0.0
  0
LINE
  8
0
  6
CONTINUOUS
 62
     7
  5
9F4
 10
-0.682846
 20
-0.152971
 30
0.0
 11
-0.68026
 21
-0.152507
 31
0.0
  0
LINE
  8
0
  6
CONTINUOUS
 62
     7
  5
9F5
 10
-0.68026
 20
-0.152507
 30
0.0
 11
-0.67766
 21
-0.15202
 31
0.0
  0
LINE
  8
0
  6
CONTINUOUS
 62
     7
  5
9F6
 10
-0.67766
 20
-0.15202
 30
0.0
 11
-0.675046
 21
-0.151508
 31
0.0
  0
LINE
  8
0
  6
CONTINUOUS
 62
     7
  5
9F7
 10
-0.675046
 20
-0.151508
 30
0.0
 11
-0.672415
 21
-0.150973
 31
0.0
  0
LINE
  8
0
  6
CONTINUOUS
 62
     7
  5
9F8
 10
-0.672415
 20
-0.150973
 30
0.0
 11
-0.669768
 21
-0.150413
 31
0.0
  0
LINE
  8
0
  6
CONTINUOUS
 62
     7
  5
9F9
 10
-0.669768
 20
-0.150413
 30
0.0
 11
-0.667103
 21
-0.149829
 31
0.0
  0
LINE
  8
0
  6
CONTINUOUS
 62
     7
  5
9FA
 10
-0.667103
 20
-0.149829
 30
0.0
 11
-0.664419
 21
-0.14922
 31
0.0
  0
LINE
  8
0
  6
CONTINUOUS
 62
     7
  5
9FB
 10
-0.664419
 20
-0.14922
 30
0.0
 11
-0.661714
 21
-0.148586
 31
0.0
  0
LINE
  8
0
  6
CONTINUOUS
 62
     7
  5
9FC
 10
-0.661714
 20
-0.148586
 30
0.0
 11
-0.658989
 21
-0.147927
 31
0.0
  0
LINE
  8
0
  6
CONTINUOUS
 62
     7
  5
9FD
 10
-0.658989
 20
-0.147927
 30
0.0
 11
-0.656242
 21
-0.147242
 31
0.0
  0
LINE
  8
0
  6
CONTINUOUS
 62
     7
  5
9FE
 10
-0.656242
 20
-0.147242
 30
0.0
 11
-0.653471
 21
-0.14653
 31
0.0
  0
LINE
  8
0
  6
CONTINUOUS
 62
     7
  5
9FF
 10
-0.653471
 20
-0.14653
 30
0.0
 11
-0.650676
 21
-0.145792
 31
0.0
  0
LINE
  8
0
  6
CONTINUOUS
 62
     7
  5
A00
 10
-0.650676
 20
-0.145792
 30
0.0
 11
-0.647855
 21
-0.145027
 31
0.0
  0
LINE
  8
0
  6
CONTINUOUS
 62
     7
  5
A01
 10
-0.647855
 20
-0.145027
 30
0.0
 11
-0.645007
 21
-0.144235
 31
0.0
  0
LINE
  8
0
  6
CONTINUOUS
 62
     7
  5
A02
 10
-0.645007
 20
-0.144235
 30
0.0
 11
-0.642132
 21
-0.143415
 31
0.0
  0
LINE
  8
0
  6
CONTINUOUS
 62
     7
  5
A03
 10
-0.642132
 20
-0.143415
 30
0.0
 11
-0.640694
 21
-0.144235
 31
0.0
  0
LINE
  8
0
  6
CONTINUOUS
 62
     7
  5
A04
 10
-0.640694
 20
-0.144235
 30
0.0
 11
-0.63927
 21
-0.145027
 31
0.0
  0
LINE
  8
0
  6
CONTINUOUS
 62
     7
  5
A05
 10
-0.63927
 20
-0.145027
 30
0.0
 11
-0.63786
 21
-0.145792
 31
0.0
  0
LINE
  8
0
  6
CONTINUOUS
 62
     7
  5
A06
 10
-0.63786
 20
-0.145792
 30
0.0
 11
-0.636462
 21
-0.14653
 31
0.0
  0
LINE
  8
0
  6
CONTINUOUS
 62
     7
  5
A07
 10
-0.636462
 20
-0.14653
 30
0.0
 11
-0.635077
 21
-0.147242
 31
0.0
  0
LINE
  8
0
  6
CONTINUOUS
 62
     7
  5
A08
 10
-0.635077
 20
-0.147242
 30
0.0
 11
-0.633703
 21
-0.147927
 31
0.0
  0
LINE
  8
0
  6
CONTINUOUS
 62
     7
  5
A09
 10
-0.633703
 20
-0.147927
 30
0.0
 11
-0.63234
 21
-0.148586
 31
0.0
  0
LINE
  8
0
  6
CONTINUOUS
 62
     7
  5
A0A
 10
-0.63234
 20
-0.148586
 30
0.0
 11
-0.630988
 21
-0.14922
 31
0.0
  0
LINE
  8
0
  6
CONTINUOUS
 62
     7
  5
A0B
 10
-0.630988
 20
-0.14922
 30
0.0
 11
-0.629646
 21
-0.149829
 31
0.0
  0
LINE
  8
0
  6
CONTINUOUS
 62
     7
  5
A0C
 10
-0.629646
 20
-0.149829
 30
0.0
 11
-0.628313
 21
-0.150413
 31
0.0
  0
LINE
  8
0
  6
CONTINUOUS
 62
     7
  5
A0D
 10
-0.628313
 20
-0.150413
 30
0.0
 11
-0.62699
 21
-0.150973
 31
0.0
  0
LINE
  8
0
  6
CONTINUOUS
 62
     7
  5
A0E
 10
-0.62699
 20
-0.150973
 30
0.0
 11
-0.625675
 21
-0.151508
 31
0.0
  0
LINE
  8
0
  6
CONTINUOUS
 62
     7
  5
A0F
 10
-0.625675
 20
-0.151508
 30
0.0
 11
-0.624367
 21
-0.15202
 31
0.0
  0
LINE
  8
0
  6
CONTINUOUS
 62
     7
  5
A10
 10
-0.624367
 20
-0.15202
 30
0.0
 11
-0.623068
 21
-0.152507
 31
0.0
  0
LINE
  8
0
  6
CONTINUOUS
 62
     7
  5
A11
 10
-0.623068
 20
-0.152507
 30
0.0
 11
-0.621775
 21
-0.152971
 31
0.0
  0
LINE
  8
0
  6
CONTINUOUS
 62
     7
  5
A12
 10
-0.621775
 20
-0.152971
 30
0.0
 11
-0.620488
 21
-0.153412
 31
0.0
  0
LINE
  8
0
  6
CONTINUOUS
 62
     7
  5
A13
 10
-0.620488
 20
-0.153412
 30
0.0
 11
-0.619208
 21
-0.153829
 31
0.0
  0
LINE
  8
0
  6
CONTINUOUS
 62
     7
  5
A14
 10
-0.619208
 20
-0.153829
 30
0.0
 11
-0.617934
 21
-0.154224
 31
0.0
  0
LINE
  8
0
  6
CONTINUOUS
 62
     7
  5
A15
 10
-0.617934
 20
-0.154224
 30
0.0
 11
-0.616664
 21
-0.154595
 31
0.0
  0
LINE
  8
0
  6
CONTINUOUS
 62
     7
  5
A16
 10
-0.616664
 20
-0.154595
 30
0.0
 11
-0.615399
 21
-0.154944
 31
0.0
  0
LINE
  8
0
  6
CONTINUOUS
 62
     7
  5
A17
 10
-0.615399
 20
-0.154944
 30
0.0
 11
-0.614138
 21
-0.15527
 31
0.0
  0
LINE
  8
0
  6
CONTINUOUS
 62
     7
  5
A18
 10
-0.614138
 20
-0.15527
 30
0.0
 11
-0.612881
 21
-0.155574
 31
0.0
  0
LINE
  8
0
  6
CONTINUOUS
 62
     7
  5
A19
 10
-0.612881
 20
-0.155574
 30
0.0
 11
-0.611627
 21
-0.155855
 31
0.0
  0
LINE
  8
0
  6
CONTINUOUS
 62
     7
  5
A1A
 10
-0.611627
 20
-0.155855
 30
0.0
 11
-0.610376
 21
-0.156113
 31
0.0
  0
LINE
  8
0
  6
CONTINUOUS
 62
     7
  5
A1B
 10
-0.610376
 20
-0.156113
 30
0.0
 11
-0.609128
 21
-0.15635
 31
0.0
  0
LINE
  8
0
  6
CONTINUOUS
 62
     7
  5
A1C
 10
-0.609128
 20
-0.15635
 30
0.0
 11
-0.607881
 21
-0.156564
 31
0.0
  0
LINE
  8
0
  6
CONTINUOUS
 62
     7
  5
A1D
 10
-0.607881
 20
-0.156564
 30
0.0
 11
-0.606636
 21
-0.156755
 31
0.0
  0
LINE
  8
0
  6
CONTINUOUS
 62
     7
  5
A1E
 10
-0.606636
 20
-0.156755
 30
0.0
 11
-0.605391
 21
-0.156924
 31
0.0
  0
LINE
  8
0
  6
CONTINUOUS
 62
     7
  5
A1F
 10
-0.605391
 20
-0.156924
 30
0.0
 11
-0.604148
 21
-0.157071
 31
0.0
  0
LINE
  8
0
  6
CONTINUOUS
 62
     7
  5
A20
 10
-0.604148
 20
-0.157071
 30
0.0
 11
-0.602904
 21
-0.157196
 31
0.0
  0
LINE
  8
0
  6
CONTINUOUS
 62
     7
  5
A21
 10
-0.602904
 20
-0.157196
 30
0.0
 11
-0.60166
 21
-0.157298
 31
0.0
  0
LINE
  8
0
  6
CONTINUOUS
 62
     7
  5
A22
 10
-0.60166
 20
-0.157298
 30
0.0
 11
-0.600415
 21
-0.157378
 31
0.0
  0
LINE
  8
0
  6
CONTINUOUS
 62
     7
  5
A23
 10
-0.600415
 20
-0.157378
 30
0.0
 11
-0.599169
 21
-0.157435
 31
0.0
  0
LINE
  8
0
  6
CONTINUOUS
 62
     7
  5
A24
 10
-0.599169
 20
-0.157435
 30
0.0
 11
-0.597921
 21
-0.157469
 31
0.0
  0
LINE
  8
0
  6
CONTINUOUS
 62
     7
  5
A25
 10
-0.597921
 20
-0.157469
 30
0.0
 11
-0.596671
 21
-0.15748
 31
0.0
  0
LINE
  8
0
  6
CONTINUOUS
 62
     7
  5
A26
 10
-0.823974
 20
-0.143415
 30
0.0
 11
-0.821099
 21
-0.144235
 31
0.0
  0
LINE
  8
0
  6
CONTINUOUS
 62
     7
  5
A27
 10
-0.821099
 20
-0.144235
 30
0.0
 11
-0.818251
 21
-0.145027
 31
0.0
  0
LINE
  8
0
  6
CONTINUOUS
 62
     7
  5
A28
 10
-0.818251
 20
-0.145027
 30
0.0
 11
-0.81543
 21
-0.145792
 31
0.0
  0
LINE
  8
0
  6
CONTINUOUS
 62
     7
  5
A29
 10
-0.81543
 20
-0.145792
 30
0.0
 11
-0.812635
 21
-0.14653
 31
0.0
  0
LINE
  8
0
  6
CONTINUOUS
 62
     7
  5
A2A
 10
-0.812635
 20
-0.14653
 30
0.0
 11
-0.809864
 21
-0.147242
 31
0.0
  0
LINE
  8
0
  6
CONTINUOUS
 62
     7
  5
A2B
 10
-0.809864
 20
-0.147242
 30
0.0
 11
-0.807117
 21
-0.147927
 31
0.0
  0
LINE
  8
0
  6
CONTINUOUS
 62
     7
  5
A2C
 10
-0.807117
 20
-0.147927
 30
0.0
 11
-0.804392
 21
-0.148586
 31
0.0
  0
LINE
  8
0
  6
CONTINUOUS
 62
     7
  5
A2D
 10
-0.804392
 20
-0.148586
 30
0.0
 11
-0.801687
 21
-0.14922
 31
0.0
  0
LINE
  8
0
  6
CONTINUOUS
 62
     7
  5
A2E
 10
-0.801687
 20
-0.14922
 30
0.0
 11
-0.799003
 21
-0.149829
 31
0.0
  0
LINE
  8
0
  6
CONTINUOUS
 62
     7
  5
A2F
 10
-0.799003
 20
-0.149829
 30
0.0
 11
-0.796338
 21
-0.150413
 31
0.0
  0
LINE
  8
0
  6
CONTINUOUS
 62
     7
  5
A30
 10
-0.796338
 20
-0.150413
 30
0.0
 11
-0.793691
 21
-0.150973
 31
0.0
  0
LINE
  8
0
  6
CONTINUOUS
 62
     7
  5
A31
 10
-0.793691
 20
-0.150973
 30
0.0
 11
-0.79106
 21
-0.151508
 31
0.0
  0
LINE
  8
0
  6
CONTINUOUS
 62
     7
  5
A32
 10
-0.79106
 20
-0.151508
 30
0.0
 11
-0.788446
 21
-0.15202
 31
0.0
  0
LINE
  8
0
  6
CONTINUOUS
 62
     7
  5
A33
 10
-0.788446
 20
-0.15202
 30
0.0
 11
-0.785846
 21
-0.152507
 31
0.0
  0
LINE
  8
0
  6
CONTINUOUS
 62
     7
  5
A34
 10
-0.785846
 20
-0.152507
 30
0.0
 11
-0.78326
 21
-0.152971
 31
0.0
  0
LINE
  8
0
  6
CONTINUOUS
 62
     7
  5
A35
 10
-0.78326
 20
-0.152971
 30
0.0
 11
-0.780688
 21
-0.153412
 31
0.0
  0
LINE
  8
0
  6
CONTINUOUS
 62
     7
  5
A36
 10
-0.780688
 20
-0.153412
 30
0.0
 11
-0.778127
 21
-0.153829
 31
0.0
  0
LINE
  8
0
  6
CONTINUOUS
 62
     7
  5
A37
 10
-0.778127
 20
-0.153829
 30
0.0
 11
-0.775578
 21
-0.154224
 31
0.0
  0
LINE
  8
0
  6
CONTINUOUS
 62
     7
  5
A38
 10
-0.775578
 20
-0.154224
 30
0.0
 11
-0.773039
 21
-0.154595
 31
0.0
  0
LINE
  8
0
  6
CONTINUOUS
 62
     7
  5
A39
 10
-0.773039
 20
-0.154595
 30
0.0
 11
-0.770509
 21
-0.154944
 31
0.0
  0
LINE
  8
0
  6
CONTINUOUS
 62
     7
  5
A3A
 10
-0.770509
 20
-0.154944
 30
0.0
 11
-0.767987
 21
-0.15527
 31
0.0
  0
LINE
  8
0
  6
CONTINUOUS
 62
     7
  5
A3B
 10
-0.767987
 20
-0.15527
 30
0.0
 11
-0.765473
 21
-0.155574
 31
0.0
  0
LINE
  8
0
  6
CONTINUOUS
 62
     7
  5
A3C
 10
-0.765473
 20
-0.155574
 30
0.0
 11
-0.762965
 21
-0.155855
 31
0.0
  0
LINE
  8
0
  6
CONTINUOUS
 62
     7
  5
A3D
 10
-0.762965
 20
-0.155855
 30
0.0
 11
-0.760463
 21
-0.156113
 31
0.0
  0
LINE
  8
0
  6
CONTINUOUS
 62
     7
  5
A3E
 10
-0.760463
 20
-0.156113
 30
0.0
 11
-0.757966
 21
-0.15635
 31
0.0
  0
LINE
  8
0
  6
CONTINUOUS
 62
     7
  5
A3F
 10
-0.757966
 20
-0.15635
 30
0.0
 11
-0.755473
 21
-0.156564
 31
0.0
  0
LINE
  8
0
  6
CONTINUOUS
 62
     7
  5
A40
 10
-0.755473
 20
-0.156564
 30
0.0
 11
-0.752982
 21
-0.156755
 31
0.0
  0
LINE
  8
0
  6
CONTINUOUS
 62
     7
  5
A41
 10
-0.752982
 20
-0.156755
 30
0.0
 11
-0.750493
 21
-0.156924
 31
0.0
  0
LINE
  8
0
  6
CONTINUOUS
 62
     7
  5
A42
 10
-0.750493
 20
-0.156924
 30
0.0
 11
-0.748006
 21
-0.157071
 31
0.0
  0
LINE
  8
0
  6
CONTINUOUS
 62
     7
  5
A43
 10
-0.748006
 20
-0.157071
 30
0.0
 11
-0.745519
 21
-0.157196
 31
0.0
  0
LINE
  8
0
  6
CONTINUOUS
 62
     7
  5
A44
 10
-0.745519
 20
-0.157196
 30
0.0
 11
-0.743031
 21
-0.157298
 31
0.0
  0
LINE
  8
0
  6
CONTINUOUS
 62
     7
  5
A45
 10
-0.743031
 20
-0.157298
 30
0.0
 11
-0.740541
 21
-0.157378
 31
0.0
  0
LINE
  8
0
  6
CONTINUOUS
 62
     7
  5
A46
 10
-0.740541
 20
-0.157378
 30
0.0
 11
-0.738049
 21
-0.157435
 31
0.0
  0
LINE
  8
0
  6
CONTINUOUS
 62
     7
  5
A47
 10
-0.738049
 20
-0.157435
 30
0.0
 11
-0.735553
 21
-0.157469
 31
0.0
  0
LINE
  8
0
  6
CONTINUOUS
 62
     7
  5
A48
 10
-0.735553
 20
-0.157469
 30
0.0
 11
-0.733053
 21
-0.15748
 31
0.0
  0
LINE
  8
0
  6
CONTINUOUS
 62
     7
  5
A49
 10
-0.869435
 20
-0.15748
 30
0.0
 11
-0.868185
 21
-0.157469
 31
0.0
  0
LINE
  8
0
  6
CONTINUOUS
 62
     7
  5
A4A
 10
-0.868185
 20
-0.157469
 30
0.0
 11
-0.866937
 21
-0.157435
 31
0.0
  0
LINE
  8
0
  6
CONTINUOUS
 62
     7
  5
A4B
 10
-0.866937
 20
-0.157435
 30
0.0
 11
-0.865691
 21
-0.157378
 31
0.0
  0
LINE
  8
0
  6
CONTINUOUS
 62
     7
  5
A4C
 10
-0.865691
 20
-0.157378
 30
0.0
 11
-0.864446
 21
-0.157298
 31
0.0
  0
LINE
  8
0
  6
CONTINUOUS
 62
     7
  5
A4D
 10
-0.864446
 20
-0.157298
 30
0.0
 11
-0.863202
 21
-0.157196
 31
0.0
  0
LINE
  8
0
  6
CONTINUOUS
 62
     7
  5
A4E
 10
-0.863202
 20
-0.157196
 30
0.0
 11
-0.861958
 21
-0.157071
 31
0.0
  0
LINE
  8
0
  6
CONTINUOUS
 62
     7
  5
A4F
 10
-0.861958
 20
-0.157071
 30
0.0
 11
-0.860715
 21
-0.156924
 31
0.0
  0
LINE
  8
0
  6
CONTINUOUS
 62
     7
  5
A50
 10
-0.860715
 20
-0.156924
 30
0.0
 11
-0.85947
 21
-0.156755
 31
0.0
  0
LINE
  8
0
  6
CONTINUOUS
 62
     7
  5
A51
 10
-0.85947
 20
-0.156755
 30
0.0
 11
-0.858225
 21
-0.156564
 31
0.0
  0
LINE
  8
0
  6
CONTINUOUS
 62
     7
  5
A52
 10
-0.858225
 20
-0.156564
 30
0.0
 11
-0.856978
 21
-0.15635
 31
0.0
  0
LINE
  8
0
  6
CONTINUOUS
 62
     7
  5
A53
 10
-0.856978
 20
-0.15635
 30
0.0
 11
-0.85573
 21
-0.156113
 31
0.0
  0
LINE
  8
0
  6
CONTINUOUS
 62
     7
  5
A54
 10
-0.85573
 20
-0.156113
 30
0.0
 11
-0.854479
 21
-0.155855
 31
0.0
  0
LINE
  8
0
  6
CONTINUOUS
 62
     7
  5
A55
 10
-0.854479
 20
-0.155855
 30
0.0
 11
-0.853225
 21
-0.155574
 31
0.0
  0
LINE
  8
0
  6
CONTINUOUS
 62
     7
  5
A56
 10
-0.853225
 20
-0.155574
 30
0.0
 11
-0.851968
 21
-0.15527
 31
0.0
  0
LINE
  8
0
  6
CONTINUOUS
 62
     7
  5
A57
 10
-0.851968
 20
-0.15527
 30
0.0
 11
-0.850707
 21
-0.154944
 31
0.0
  0
LINE
  8
0
  6
CONTINUOUS
 62
     7
  5
A58
 10
-0.850707
 20
-0.154944
 30
0.0
 11
-0.849442
 21
-0.154595
 31
0.0
  0
LINE
  8
0
  6
CONTINUOUS
 62
     7
  5
A59
 10
-0.849442
 20
-0.154595
 30
0.0
 11
-0.848172
 21
-0.154224
 31
0.0
  0
LINE
  8
0
  6
CONTINUOUS
 62
     7
  5
A5A
 10
-0.848172
 20
-0.154224
 30
0.0
 11
-0.846898
 21
-0.153829
 31
0.0
  0
LINE
  8
0
  6
CONTINUOUS
 62
     7
  5
A5B
 10
-0.846898
 20
-0.153829
 30
0.0
 11
-0.845618
 21
-0.153412
 31
0.0
  0
LINE
  8
0
  6
CONTINUOUS
 62
     7
  5
A5C
 10
-0.845618
 20
-0.153412
 30
0.0
 11
-0.844331
 21
-0.152971
 31
0.0
  0
LINE
  8
0
  6
CONTINUOUS
 62
     7
  5
A5D
 10
-0.844331
 20
-0.152971
 30
0.0
 11
-0.843038
 21
-0.152507
 31
0.0
  0
LINE
  8
0
  6
CONTINUOUS
 62
     7
  5
A5E
 10
-0.843038
 20
-0.152507
 30
0.0
 11
-0.841739
 21
-0.15202
 31
0.0
  0
LINE
  8
0
  6
CONTINUOUS
 62
     7
  5
A5F
 10
-0.841739
 20
-0.15202
 30
0.0
 11
-0.840431
 21
-0.151508
 31
0.0
  0
LINE
  8
0
  6
CONTINUOUS
 62
     7
  5
A60
 10
-0.840431
 20
-0.151508
 30
0.0
 11
-0.839116
 21
-0.150973
 31
0.0
  0
LINE
  8
0
  6
CONTINUOUS
 62
     7
  5
A61
 10
-0.839116
 20
-0.150973
 30
0.0
 11
-0.837793
 21
-0.150413
 31
0.0
  0
LINE
  8
0
  6
CONTINUOUS
 62
     7
  5
A62
 10
-0.837793
 20
-0.150413
 30
0.0
 11
-0.83646
 21
-0.149829
 31
0.0
  0
LINE
  8
0
  6
CONTINUOUS
 62
     7
  5
A63
 10
-0.83646
 20
-0.149829
 30
0.0
 11
-0.835118
 21
-0.14922
 31
0.0
  0
LINE
  8
0
  6
CONTINUOUS
 62
     7
  5
A64
 10
-0.835118
 20
-0.14922
 30
0.0
 11
-0.833766
 21
-0.148586
 31
0.0
  0
LINE
  8
0
  6
CONTINUOUS
 62
     7
  5
A65
 10
-0.833766
 20
-0.148586
 30
0.0
 11
-0.832403
 21
-0.147927
 31
0.0
  0
LINE
  8
0
  6
CONTINUOUS
 62
     7
  5
A66
 10
-0.832403
 20
-0.147927
 30
0.0
 11
-0.831029
 21
-0.147242
 31
0.0
  0
LINE
  8
0
  6
CONTINUOUS
 62
     7
  5
A67
 10
-0.831029
 20
-0.147242
 30
0.0
 11
-0.829644
 21
-0.14653
 31
0.0
  0
LINE
  8
0
  6
CONTINUOUS
 62
     7
  5
A68
 10
-0.829644
 20
-0.14653
 30
0.0
 11
-0.828246
 21
-0.145792
 31
0.0
  0
LINE
  8
0
  6
CONTINUOUS
 62
     7
  5
A69
 10
-0.828246
 20
-0.145792
 30
0.0
 11
-0.826836
 21
-0.145027
 31
0.0
  0
LINE
  8
0
  6
CONTINUOUS
 62
     7
  5
A6A
 10
-0.826836
 20
-0.145027
 30
0.0
 11
-0.825412
 21
-0.144235
 31
0.0
  0
LINE
  8
0
  6
CONTINUOUS
 62
     7
  5
A6B
 10
-0.825412
 20
-0.144235
 30
0.0
 11
-0.823974
 21
-0.143415
 31
0.0
  0
LINE
  8
0
  6
CONTINUOUS
 62
     7
  5
A6C
 10
-0.642132
 20
-0.143415
 30
0.0
 11
-0.642132
 21
-0.014066
 31
0.0
  0
LINE
  8
0
  6
CONTINUOUS
 62
     7
  5
A6D
 10
-0.642132
 20
-0.014066
 30
0.0
 11
-0.645007
 21
-0.013245
 31
0.0
  0
LINE
  8
0
  6
CONTINUOUS
 62
     7
  5
A6E
 10
-0.645007
 20
-0.013245
 30
0.0
 11
-0.647855
 21
-0.012453
 31
0.0
  0
LINE
  8
0
  6
CONTINUOUS
 62
     7
  5
A6F
 10
-0.647855
 20
-0.012453
 30
0.0
 11
-0.650676
 21
-0.011688
 31
0.0
  0
LINE
  8
0
  6
CONTINUOUS
 62
     7
  5
A70
 10
-0.650676
 20
-0.011688
 30
0.0
 11
-0.653471
 21
-0.01095
 31
0.0
  0
LINE
  8
0
  6
CONTINUOUS
 62
     7
  5
A71
 10
-0.653471
 20
-0.01095
 30
0.0
 11
-0.656242
 21
-0.010239
 31
0.0
  0
LINE
  8
0
  6
CONTINUOUS
 62
     7
  5
A72
 10
-0.656242
 20
-0.010239
 30
0.0
 11
-0.658989
 21
-0.009553
 31
0.0
  0
LINE
  8
0
  6
CONTINUOUS
 62
     7
  5
A73
 10
-0.658989
 20
-0.009553
 30
0.0
 11
-0.661714
 21
-0.008894
 31
0.0
  0
LINE
  8
0
  6
CONTINUOUS
 62
     7
  5
A74
 10
-0.661714
 20
-0.008894
 30
0.0
 11
-0.664419
 21
-0.00826
 31
0.0
  0
LINE
  8
0
  6
CONTINUOUS
 62
     7
  5
A75
 10
-0.664419
 20
-0.00826
 30
0.0
 11
-0.667103
 21
-0.007651
 31
0.0
  0
LINE
  8
0
  6
CONTINUOUS
 62
     7
  5
A76
 10
-0.667103
 20
-0.007651
 30
0.0
 11
-0.669768
 21
-0.007067
 31
0.0
  0
LINE
  8
0
  6
CONTINUOUS
 62
     7
  5
A77
 10
-0.669768
 20
-0.007067
 30
0.0
 11
-0.672415
 21
-0.006507
 31
0.0
  0
LINE
  8
0
  6
CONTINUOUS
 62
     7
  5
A78
 10
-0.672415
 20
-0.006507
 30
0.0
 11
-0.675046
 21
-0.005972
 31
0.0
  0
LINE
  8
0
  6
CONTINUOUS
 62
     7
  5
A79
 10
-0.675046
 20
-0.005972
 30
0.0
 11
-0.67766
 21
-0.005461
 31
0.0
  0
LINE
  8
0
  6
CONTINUOUS
 62
     7
  5
A7A
 10
-0.67766
 20
-0.005461
 30
0.0
 11
-0.68026
 21
-0.004973
 31
0.0
  0
LINE
  8
0
  6
CONTINUOUS
 62
     7
  5
A7B
 10
-0.68026
 20
-0.004973
 30
0.0
 11
-0.682846
 21
-0.004509
 31
0.0
  0
LINE
  8
0
  6
CONTINUOUS
 62
     7
  5
A7C
 10
-0.682846
 20
-0.004509
 30
0.0
 11
-0.685418
 21
-0.004068
 31
0.0
  0
LINE
  8
0
  6
CONTINUOUS
 62
     7
  5
A7D
 10
-0.685418
 20
-0.004068
 30
0.0
 11
-0.687979
 21
-0.003651
 31
0.0
  0
LINE
  8
0
  6
CONTINUOUS
 62
     7
  5
A7E
 10
-0.687979
 20
-0.003651
 30
0.0
 11
-0.690528
 21
-0.003257
 31
0.0
  0
LINE
  8
0
  6
CONTINUOUS
 62
     7
  5
A7F
 10
-0.690528
 20
-0.003257
 30
0.0
 11
-0.693067
 21
-0.002885
 31
0.0
  0
LINE
  8
0
  6
CONTINUOUS
 62
     7
  5
A80
 10
-0.693067
 20
-0.002885
 30
0.0
 11
-0.695597
 21
-0.002536
 31
0.0
  0
LINE
  8
0
  6
CONTINUOUS
 62
     7
  5
A81
 10
-0.695597
 20
-0.002536
 30
0.0
 11
-0.698119
 21
-0.00221
 31
0.0
  0
LINE
  8
0
  6
CONTINUOUS
 62
     7
  5
A82
 10
-0.698119
 20
-0.00221
 30
0.0
 11
-0.700633
 21
-0.001907
 31
0.0
  0
LINE
  8
0
  6
CONTINUOUS
 62
     7
  5
A83
 10
-0.700633
 20
-0.001907
 30
0.0
 11
-0.703141
 21
-0.001626
 31
0.0
  0
LINE
  8
0
  6
CONTINUOUS
 62
     7
  5
A84
 10
-0.703141
 20
-0.001626
 30
0.0
 11
-0.705643
 21
-0.001367
 31
0.0
  0
LINE
  8
0
  6
CONTINUOUS
 62
     7
  5
A85
 10
-0.705643
 20
-0.001367
 30
0.0
 11
-0.70814
 21
-0.001131
 31
0.0
  0
LINE
  8
0
  6
CONTINUOUS
 62
     7
  5
A86
 10
-0.70814
 20
-0.001131
 30
0.0
 11
-0.710633
 21
-0.000917
 31
0.0
  0
LINE
  8
0
  6
CONTINUOUS
 62
     7
  5
A87
 10
-0.710633
 20
-0.000917
 30
0.0
 11
-0.713124
 21
-0.000725
 31
0.0
  0
LINE
  8
0
  6
CONTINUOUS
 62
     7
  5
A88
 10
-0.713124
 20
-0.000725
 30
0.0
 11
-0.715613
 21
-0.000556
 31
0.0
  0
LINE
  8
0
  6
CONTINUOUS
 62
     7
  5
A89
 10
-0.715613
 20
-0.000556
 30
0.0
 11
-0.7181
 21
-0.000409
 31
0.0
  0
LINE
  8
0
  6
CONTINUOUS
 62
     7
  5
A8A
 10
-0.7181
 20
-0.000409
 30
0.0
 11
-0.720587
 21
-0.000284
 31
0.0
  0
LINE
  8
0
  6
CONTINUOUS
 62
     7
  5
A8B
 10
-0.720587
 20
-0.000284
 30
0.0
 11
-0.723075
 21
-0.000182
 31
0.0
  0
LINE
  8
0
  6
CONTINUOUS
 62
     7
  5
A8C
 10
-0.723075
 20
-0.000182
 30
0.0
 11
-0.725565
 21
-0.000103
 31
0.0
  0
LINE
  8
0
  6
CONTINUOUS
 62
     7
  5
A8D
 10
-0.725565
 20
-0.000103
 30
0.0
 11
-0.728057
 21
-0.000046
 31
0.0
  0
LINE
  8
0
  6
CONTINUOUS
 62
     7
  5
A8E
 10
-0.728057
 20
-0.000046
 30
0.0
 11
-0.730553
 21
-0.000011
 31
0.0
  0
LINE
  8
0
  6
CONTINUOUS
 62
     7
  5
A8F
 10
-0.730553
 20
-0.000011
 30
0.0
 11
-0.733053
 21
0.0
 31
0.0
  0
LINE
  8
0
  6
CONTINUOUS
 62
     7
  5
A90
 10
-0.733053
 20
0.0
 30
0.0
 11
-0.735553
 21
-0.000011
 31
0.0
  0
LINE
  8
0
  6
CONTINUOUS
 62
     7
  5
A91
 10
-0.735553
 20
-0.000011
 30
0.0
 11
-0.738049
 21
-0.000046
 31
0.0
  0
LINE
  8
0
  6
CONTINUOUS
 62
     7
  5
A92
 10
-0.738049
 20
-0.000046
 30
0.0
 11
-0.740541
 21
-0.000103
 31
0.0
  0
LINE
  8
0
  6
CONTINUOUS
 62
     7
  5
A93
 10
-0.740541
 20
-0.000103
 30
0.0
 11
-0.743031
 21
-0.000182
 31
0.0
  0
LINE
  8
0
  6
CONTINUOUS
 62
     7
  5
A94
 10
-0.743031
 20
-0.000182
 30
0.0
 11
-0.745519
 21
-0.000284
 31
0.0
  0
LINE
  8
0
  6
CONTINUOUS
 62
     7
  5
A95
 10
-0.745519
 20
-0.000284
 30
0.0
 11
-0.748006
 21
-0.000409
 31
0.0
  0
LINE
  8
0
  6
CONTINUOUS
 62
     7
  5
A96
 10
-0.748006
 20
-0.000409
 30
0.0
 11
-0.750493
 21
-0.000556
 31
0.0
  0
LINE
  8
0
  6
CONTINUOUS
 62
     7
  5
A97
 10
-0.750493
 20
-0.000556
 30
0.0
 11
-0.752982
 21
-0.000725
 31
0.0
  0
LINE
  8
0
  6
CONTINUOUS
 62
     7
  5
A98
 10
-0.752982
 20
-0.000725
 30
0.0
 11
-0.755473
 21
-0.000917
 31
0.0
  0
LINE
  8
0
  6
CONTINUOUS
 62
     7
  5
A99
 10
-0.755473
 20
-0.000917
 30
0.0
 11
-0.757966
 21
-0.001131
 31
0.0
  0
LINE
  8
0
  6
CONTINUOUS
 62
     7
  5
A9A
 10
-0.757966
 20
-0.001131
 30
0.0
 11
-0.760463
 21
-0.001367
 31
0.0
  0
LINE
  8
0
  6
CONTINUOUS
 62
     7
  5
A9B
 10
-0.760463
 20
-0.001367
 30
0.0
 11
-0.762965
 21
-0.001626
 31
0.0
  0
LINE
  8
0
  6
CONTINUOUS
 62
     7
  5
A9C
 10
-0.762965
 20
-0.001626
 30
0.0
 11
-0.765473
 21
-0.001907
 31
0.0
  0
LINE
  8
0
  6
CONTINUOUS
 62
     7
  5
A9D
 10
-0.765473
 20
-0.001907
 30
0.0
 11
-0.767987
 21
-0.00221
 31
0.0
  0
LINE
  8
0
  6
CONTINUOUS
 62
     7
  5
A9E
 10
-0.767987
 20
-0.00221
 30
0.0
 11
-0.770509
 21
-0.002536
 31
0.0
  0
LINE
  8
0
  6
CONTINUOUS
 62
     7
  5
A9F
 10
-0.770509
 20
-0.002536
 30
0.0
 11
-0.773039
 21
-0.002885
 31
0.0
  0
LINE
  8
0
  6
CONTINUOUS
 62
     7
  5
AA0
 10
-0.773039
 20
-0.002885
 30
0.0
 11
-0.775578
 21
-0.003257
 31
0.0
  0
LINE
  8
0
  6
CONTINUOUS
 62
     7
  5
AA1
 10
-0.775578
 20
-0.003257
 30
0.0
 11
-0.778127
 21
-0.003651
 31
0.0
  0
LINE
  8
0
  6
CONTINUOUS
 62
     7
  5
AA2
 10
-0.778127
 20
-0.003651
 30
0.0
 11
-0.780688
 21
-0.004068
 31
0.0
  0
LINE
  8
0
  6
CONTINUOUS
 62
     7
  5
AA3
 10
-0.780688
 20
-0.004068
 30
0.0
 11
-0.78326
 21
-0.004509
 31
0.0
  0
LINE
  8
0
  6
CONTINUOUS
 62
     7
  5
AA4
 10
-0.78326
 20
-0.004509
 30
0.0
 11
-0.785846
 21
-0.004973
 31
0.0
  0
LINE
  8
0
  6
CONTINUOUS
 62
     7
  5
AA5
 10
-0.785846
 20
-0.004973
 30
0.0
 11
-0.788446
 21
-0.005461
 31
0.0
  0
LINE
  8
0
  6
CONTINUOUS
 62
     7
  5
AA6
 10
-0.788446
 20
-0.005461
 30
0.0
 11
-0.79106
 21
-0.005972
 31
0.0
  0
LINE
  8
0
  6
CONTINUOUS
 62
     7
  5
AA7
 10
-0.79106
 20
-0.005972
 30
0.0
 11
-0.793691
 21
-0.006507
 31
0.0
  0
LINE
  8
0
  6
CONTINUOUS
 62
     7
  5
AA8
 10
-0.793691
 20
-0.006507
 30
0.0
 11
-0.796338
 21
-0.007067
 31
0.0
  0
LINE
  8
0
  6
CONTINUOUS
 62
     7
  5
AA9
 10
-0.796338
 20
-0.007067
 30
0.0
 11
-0.799003
 21
-0.007651
 31
0.0
  0
LINE
  8
0
  6
CONTINUOUS
 62
     7
  5
AAA
 10
-0.799003
 20
-0.007651
 30
0.0
 11
-0.801687
 21
-0.00826
 31
0.0
  0
LINE
  8
0
  6
CONTINUOUS
 62
     7
  5
AAB
 10
-0.801687
 20
-0.00826
 30
0.0
 11
-0.804392
 21
-0.008894
 31
0.0
  0
LINE
  8
0
  6
CONTINUOUS
 62
     7
  5
AAC
 10
-0.804392
 20
-0.008894
 30
0.0
 11
-0.807117
 21
-0.009553
 31
0.0
  0
LINE
  8
0
  6
CONTINUOUS
 62
     7
  5
AAD
 10
-0.807117
 20
-0.009553
 30
0.0
 11
-0.809864
 21
-0.010239
 31
0.0
  0
LINE
  8
0
  6
CONTINUOUS
 62
     7
  5
AAE
 10
-0.809864
 20
-0.010239
 30
0.0
 11
-0.812635
 21
-0.01095
 31
0.0
  0
LINE
  8
0
  6
CONTINUOUS
 62
     7
  5
AAF
 10
-0.812635
 20
-0.01095
 30
0.0
 11
-0.81543
 21
-0.011688
 31
0.0
  0
LINE
  8
0
  6
CONTINUOUS
 62
     7
  5
AB0
 10
-0.81543
 20
-0.011688
 30
0.0
 11
-0.818251
 21
-0.012453
 31
0.0
  0
LINE
  8
0
  6
CONTINUOUS
 62
     7
  5
AB1
 10
-0.818251
 20
-0.012453
 30
0.0
 11
-0.821099
 21
-0.013245
 31
0.0
  0
LINE
  8
0
  6
CONTINUOUS
 62
     7
  5
AB2
 10
-0.821099
 20
-0.013245
 30
0.0
 11
-0.823974
 21
-0.014066
 31
0.0
  0
LINE
  8
0
  6
CONTINUOUS
 62
     7
  5
AB3
 10
-0.823974
 20
-0.143415
 30
0.0
 11
-0.823974
 21
-0.014066
 31
0.0
  0
LINE
  8
0
  6
CONTINUOUS
 62
     7
  5
AB4
 10
-0.55121
 20
-0.143415
 30
0.0
 11
-0.55121
 21
-0.014066
 31
0.0
  0
LINE
  8
0
  6
CONTINUOUS
 62
     7
  5
AB5
 10
-0.55121
 20
-0.014066
 30
0.0
 11
-0.552648
 21
-0.013245
 31
0.0
  0
LINE
  8
0
  6
CONTINUOUS
 62
     7
  5
AB6
 10
-0.552648
 20
-0.013245
 30
0.0
 11
-0.554072
 21
-0.012453
 31
0.0
  0
LINE
  8
0
  6
CONTINUOUS
 62
     7
  5
AB7
 10
-0.554072
 20
-0.012453
 30
0.0
 11
-0.555482
 21
-0.011688
 31
0.0
  0
LINE
  8
0
  6
CONTINUOUS
 62
     7
  5
AB8
 10
-0.555482
 20
-0.011688
 30
0.0
 11
-0.55688
 21
-0.01095
 31
0.0
  0
LINE
  8
0
  6
CONTINUOUS
 62
     7
  5
AB9
 10
-0.55688
 20
-0.01095
 30
0.0
 11
-0.558265
 21
-0.010239
 31
0.0
  0
LINE
  8
0
  6
CONTINUOUS
 62
     7
  5
ABA
 10
-0.558265
 20
-0.010239
 30
0.0
 11
-0.559639
 21
-0.009553
 31
0.0
  0
LINE
  8
0
  6
CONTINUOUS
 62
     7
  5
ABB
 10
-0.559639
 20
-0.009553
 30
0.0
 11
-0.561002
 21
-0.008894
 31
0.0
  0
LINE
  8
0
  6
CONTINUOUS
 62
     7
  5
ABC
 10
-0.561002
 20
-0.008894
 30
0.0
 11
-0.562354
 21
-0.00826
 31
0.0
  0
LINE
  8
0
  6
CONTINUOUS
 62
     7
  5
ABD
 10
-0.562354
 20
-0.00826
 30
0.0
 11
-0.563696
 21
-0.007651
 31
0.0
  0
LINE
  8
0
  6
CONTINUOUS
 62
     7
  5
ABE
 10
-0.563696
 20
-0.007651
 30
0.0
 11
-0.565029
 21
-0.007067
 31
0.0
  0
LINE
  8
0
  6
CONTINUOUS
 62
     7
  5
ABF
 10
-0.565029
 20
-0.007067
 30
0.0
 11
-0.566352
 21
-0.006507
 31
0.0
  0
LINE
  8
0
  6
CONTINUOUS
 62
     7
  5
AC0
 10
-0.566352
 20
-0.006507
 30
0.0
 11
-0.567667
 21
-0.005972
 31
0.0
  0
LINE
  8
0
  6
CONTINUOUS
 62
     7
  5
AC1
 10
-0.567667
 20
-0.005972
 30
0.0
 11
-0.568975
 21
-0.005461
 31
0.0
  0
LINE
  8
0
  6
CONTINUOUS
 62
     7
  5
AC2
 10
-0.568975
 20
-0.005461
 30
0.0
 11
-0.570275
 21
-0.004973
 31
0.0
  0
LINE
  8
0
  6
CONTINUOUS
 62
     7
  5
AC3
 10
-0.570275
 20
-0.004973
 30
0.0
 11
-0.571567
 21
-0.004509
 31
0.0
  0
LINE
  8
0
  6
CONTINUOUS
 62
     7
  5
AC4
 10
-0.571567
 20
-0.004509
 30
0.0
 11
-0.572854
 21
-0.004068
 31
0.0
  0
LINE
  8
0
  6
CONTINUOUS
 62
     7
  5
AC5
 10
-0.572854
 20
-0.004068
 30
0.0
 11
-0.574134
 21
-0.003651
 31
0.0
  0
LINE
  8
0
  6
CONTINUOUS
 62
     7
  5
AC6
 10
-0.574134
 20
-0.003651
 30
0.0
 11
-0.575409
 21
-0.003257
 31
0.0
  0
LINE
  8
0
  6
CONTINUOUS
 62
     7
  5
AC7
 10
-0.575409
 20
-0.003257
 30
0.0
 11
-0.576678
 21
-0.002885
 31
0.0
  0
LINE
  8
0
  6
CONTINUOUS
 62
     7
  5
AC8
 10
-0.576678
 20
-0.002885
 30
0.0
 11
-0.577943
 21
-0.002536
 31
0.0
  0
LINE
  8
0
  6
CONTINUOUS
 62
     7
  5
AC9
 10
-0.577943
 20
-0.002536
 30
0.0
 11
-0.579204
 21
-0.00221
 31
0.0
  0
LINE
  8
0
  6
CONTINUOUS
 62
     7
  5
ACA
 10
-0.579204
 20
-0.00221
 30
0.0
 11
-0.580461
 21
-0.001907
 31
0.0
  0
LINE
  8
0
  6
CONTINUOUS
 62
     7
  5
ACB
 10
-0.580461
 20
-0.001907
 30
0.0
 11
-0.581715
 21
-0.001626
 31
0.0
  0
LINE
  8
0
  6
CONTINUOUS
 62
     7
  5
ACC
 10
-0.581715
 20
-0.001626
 30
0.0
 11
-0.582966
 21
-0.001367
 31
0.0
  0
LINE
  8
0
  6
CONTINUOUS
 62
     7
  5
ACD
 10
-0.582966
 20
-0.001367
 30
0.0
 11
-0.584215
 21
-0.001131
 31
0.0
  0
LINE
  8
0
  6
CONTINUOUS
 62
     7
  5
ACE
 10
-0.584215
 20
-0.001131
 30
0.0
 11
-0.585461
 21
-0.000917
 31
0.0
  0
LINE
  8
0
  6
CONTINUOUS
 62
     7
  5
ACF
 10
-0.585461
 20
-0.000917
 30
0.0
 11
-0.586707
 21
-0.000725
 31
0.0
  0
LINE
  8
0
  6
CONTINUOUS
 62
     7
  5
AD0
 10
-0.586707
 20
-0.000725
 30
0.0
 11
-0.587951
 21
-0.000556
 31
0.0
  0
LINE
  8
0
  6
CONTINUOUS
 62
     7
  5
AD1
 10
-0.587951
 20
-0.000556
 30
0.0
 11
-0.589195
 21
-0.000409
 31
0.0
  0
LINE
  8
0
  6
CONTINUOUS
 62
     7
  5
AD2
 10
-0.589195
 20
-0.000409
 30
0.0
 11
-0.590438
 21
-0.000284
 31
0.0
  0
LINE
  8
0
  6
CONTINUOUS
 62
     7
  5
AD3
 10
-0.590438
 20
-0.000284
 30
0.0
 11
-0.591682
 21
-0.000182
 31
0.0
  0
LINE
  8
0
  6
CONTINUOUS
 62
     7
  5
AD4
 10
-0.591682
 20
-0.000182
 30
0.0
 11
-0.592927
 21
-0.000103
 31
0.0
  0
LINE
  8
0
  6
CONTINUOUS
 62
     7
  5
AD5
 10
-0.592927
 20
-0.000103
 30
0.0
 11
-0.594173
 21
-0.000046
 31
0.0
  0
LINE
  8
0
  6
CONTINUOUS
 62
     7
  5
AD6
 10
-0.594173
 20
-0.000046
 30
0.0
 11
-0.595421
 21
-0.000011
 31
0.0
  0
LINE
  8
0
  6
CONTINUOUS
 62
     7
  5
AD7
 10
-0.595421
 20
-0.000011
 30
0.0
 11
-0.596671
 21
0.0
 31
0.0
  0
LINE
  8
0
  6
CONTINUOUS
 62
     7
  5
AD8
 10
-0.596671
 20
0.0
 30
0.0
 11
-0.597921
 21
-0.000011
 31
0.0
  0
LINE
  8
0
  6
CONTINUOUS
 62
     7
  5
AD9
 10
-0.597921
 20
-0.000011
 30
0.0
 11
-0.599169
 21
-0.000046
 31
0.0
  0
LINE
  8
0
  6
CONTINUOUS
 62
     7
  5
ADA
 10
-0.599169
 20
-0.000046
 30
0.0
 11
-0.600415
 21
-0.000103
 31
0.0
  0
LINE
  8
0
  6
CONTINUOUS
 62
     7
  5
ADB
 10
-0.600415
 20
-0.000103
 30
0.0
 11
-0.60166
 21
-0.000182
 31
0.0
  0
LINE
  8
0
  6
CONTINUOUS
 62
     7
  5
ADC
 10
-0.60166
 20
-0.000182
 30
0.0
 11
-0.602904
 21
-0.000284
 31
0.0
  0
LINE
  8
0
  6
CONTINUOUS
 62
     7
  5
ADD
 10
-0.602904
 20
-0.000284
 30
0.0
 11
-0.604148
 21
-0.000409
 31
0.0
  0
LINE
  8
0
  6
CONTINUOUS
 62
     7
  5
ADE
 10
-0.604148
 20
-0.000409
 30
0.0
 11
-0.605391
 21
-0.000556
 31
0.0
  0
LINE
  8
0
  6
CONTINUOUS
 62
     7
  5
ADF
 10
-0.605391
 20
-0.000556
 30
0.0
 11
-0.606636
 21
-0.000725
 31
0.0
  0
LINE
  8
0
  6
CONTINUOUS
 62
     7
  5
AE0
 10
-0.606636
 20
-0.000725
 30
0.0
 11
-0.607881
 21
-0.000917
 31
0.0
  0
LINE
  8
0
  6
CONTINUOUS
 62
     7
  5
AE1
 10
-0.607881
 20
-0.000917
 30
0.0
 11
-0.609128
 21
-0.001131
 31
0.0
  0
LINE
  8
0
  6
CONTINUOUS
 62
     7
  5
AE2
 10
-0.609128
 20
-0.001131
 30
0.0
 11
-0.610376
 21
-0.001367
 31
0.0
  0
LINE
  8
0
  6
CONTINUOUS
 62
     7
  5
AE3
 10
-0.610376
 20
-0.001367
 30
0.0
 11
-0.611627
 21
-0.001626
 31
0.0
  0
LINE
  8
0
  6
CONTINUOUS
 62
     7
  5
AE4
 10
-0.611627
 20
-0.001626
 30
0.0
 11
-0.612881
 21
-0.001907
 31
0.0
  0
LINE
  8
0
  6
CONTINUOUS
 62
     7
  5
AE5
 10
-0.612881
 20
-0.001907
 30
0.0
 11
-0.614138
 21
-0.00221
 31
0.0
  0
LINE
  8
0
  6
CONTINUOUS
 62
     7
  5
AE6
 10
-0.614138
 20
-0.00221
 30
0.0
 11
-0.615399
 21
-0.002536
 31
0.0
  0
LINE
  8
0
  6
CONTINUOUS
 62
     7
  5
AE7
 10
-0.615399
 20
-0.002536
 30
0.0
 11
-0.616664
 21
-0.002885
 31
0.0
  0
LINE
  8
0
  6
CONTINUOUS
 62
     7
  5
AE8
 10
-0.616664
 20
-0.002885
 30
0.0
 11
-0.617934
 21
-0.003257
 31
0.0
  0
LINE
  8
0
  6
CONTINUOUS
 62
     7
  5
AE9
 10
-0.617934
 20
-0.003257
 30
0.0
 11
-0.619208
 21
-0.003651
 31
0.0
  0
LINE
  8
0
  6
CONTINUOUS
 62
     7
  5
AEA
 10
-0.619208
 20
-0.003651
 30
0.0
 11
-0.620488
 21
-0.004068
 31
0.0
  0
LINE
  8
0
  6
CONTINUOUS
 62
     7
  5
AEB
 10
-0.620488
 20
-0.004068
 30
0.0
 11
-0.621775
 21
-0.004509
 31
0.0
  0
LINE
  8
0
  6
CONTINUOUS
 62
     7
  5
AEC
 10
-0.621775
 20
-0.004509
 30
0.0
 11
-0.623068
 21
-0.004973
 31
0.0
  0
LINE
  8
0
  6
CONTINUOUS
 62
     7
  5
AED
 10
-0.623068
 20
-0.004973
 30
0.0
 11
-0.624367
 21
-0.005461
 31
0.0
  0
LINE
  8
0
  6
CONTINUOUS
 62
     7
  5
AEE
 10
-0.624367
 20
-0.005461
 30
0.0
 11
-0.625675
 21
-0.005972
 31
0.0
  0
LINE
  8
0
  6
CONTINUOUS
 62
     7
  5
AEF
 10
-0.625675
 20
-0.005972
 30
0.0
 11
-0.62699
 21
-0.006507
 31
0.0
  0
LINE
  8
0
  6
CONTINUOUS
 62
     7
  5
AF0
 10
-0.62699
 20
-0.006507
 30
0.0
 11
-0.628313
 21
-0.007067
 31
0.0
  0
LINE
  8
0
  6
CONTINUOUS
 62
     7
  5
AF1
 10
-0.628313
 20
-0.007067
 30
0.0
 11
-0.629646
 21
-0.007651
 31
0.0
  0
LINE
  8
0
  6
CONTINUOUS
 62
     7
  5
AF2
 10
-0.629646
 20
-0.007651
 30
0.0
 11
-0.630988
 21
-0.00826
 31
0.0
  0
LINE
  8
0
  6
CONTINUOUS
 62
     7
  5
AF3
 10
-0.630988
 20
-0.00826
 30
0.0
 11
-0.63234
 21
-0.008894
 31
0.0
  0
LINE
  8
0
  6
CONTINUOUS
 62
     7
  5
AF4
 10
-0.63234
 20
-0.008894
 30
0.0
 11
-0.633703
 21
-0.009553
 31
0.0
  0
LINE
  8
0
  6
CONTINUOUS
 62
     7
  5
AF5
 10
-0.633703
 20
-0.009553
 30
0.0
 11
-0.635077
 21
-0.010239
 31
0.0
  0
LINE
  8
0
  6
CONTINUOUS
 62
     7
  5
AF6
 10
-0.635077
 20
-0.010239
 30
0.0
 11
-0.636462
 21
-0.01095
 31
0.0
  0
LINE
  8
0
  6
CONTINUOUS
 62
     7
  5
AF7
 10
-0.636462
 20
-0.01095
 30
0.0
 11
-0.63786
 21
-0.011688
 31
0.0
  0
LINE
  8
0
  6
CONTINUOUS
 62
     7
  5
AF8
 10
-0.63786
 20
-0.011688
 30
0.0
 11
-0.63927
 21
-0.012453
 31
0.0
  0
LINE
  8
0
  6
CONTINUOUS
 62
     7
  5
AF9
 10
-0.63927
 20
-0.012453
 30
0.0
 11
-0.640694
 21
-0.013245
 31
0.0
  0
LINE
  8
0
  6
CONTINUOUS
 62
     7
  5
AFA
 10
-0.640694
 20
-0.013245
 30
0.0
 11
-0.642132
 21
-0.014066
 31
0.0
  0
LINE
  8
0
  6
CONTINUOUS
 62
     7
  5
AFB
 10
-0.869435
 20
0.0
 30
0.0
 11
-0.870685
 21
-0.000011
 31
0.0
  0
LINE
  8
0
  6
CONTINUOUS
 62
     7
  5
AFC
 10
-0.870685
 20
-0.000011
 30
0.0
 11
-0.871933
 21
-0.000046
 31
0.0
  0
LINE
  8
0
  6
CONTINUOUS
 62
     7
  5
AFD
 10
-0.871933
 20
-0.000046
 30
0.0
 11
-0.873179
 21
-0.000103
 31
0.0
  0
LINE
  8
0
  6
CONTINUOUS
 62
     7
  5
AFE
 10
-0.873179
 20
-0.000103
 30
0.0
 11
-0.874424
 21
-0.000182
 31
0.0
  0
LINE
  8
0
  6
CONTINUOUS
 62
     7
  5
AFF
 10
-0.874424
 20
-0.000182
 30
0.0
 11
-0.875668
 21
-0.000284
 31
0.0
  0
LINE
  8
0
  6
CONTINUOUS
 62
     7
  5
B00
 10
-0.875668
 20
-0.000284
 30
0.0
 11
-0.876911
 21
-0.000409
 31
0.0
  0
LINE
  8
0
  6
CONTINUOUS
 62
     7
  5
B01
 10
-0.876911
 20
-0.000409
 30
0.0
 11
-0.878155
 21
-0.000556
 31
0.0
  0
LINE
  8
0
  6
CONTINUOUS
 62
     7
  5
B02
 10
-0.878155
 20
-0.000556
 30
0.0
 11
-0.879399
 21
-0.000725
 31
0.0
  0
LINE
  8
0
  6
CONTINUOUS
 62
     7
  5
B03
 10
-0.879399
 20
-0.000725
 30
0.0
 11
-0.880645
 21
-0.000917
 31
0.0
  0
LINE
  8
0
  6
CONTINUOUS
 62
     7
  5
B04
 10
-0.880645
 20
-0.000917
 30
0.0
 11
-0.881891
 21
-0.001131
 31
0.0
  0
LINE
  8
0
  6
CONTINUOUS
 62
     7
  5
B05
 10
-0.881891
 20
-0.001131
 30
0.0
 11
-0.88314
 21
-0.001367
 31
0.0
  0
LINE
  8
0
  6
CONTINUOUS
 62
     7
  5
B06
 10
-0.88314
 20
-0.001367
 30
0.0
 11
-0.884391
 21
-0.001626
 31
0.0
  0
LINE
  8
0
  6
CONTINUOUS
 62
     7
  5
B07
 10
-0.884391
 20
-0.001626
 30
0.0
 11
-0.885645
 21
-0.001907
 31
0.0
  0
LINE
  8
0
  6
CONTINUOUS
 62
     7
  5
B08
 10
-0.885645
 20
-0.001907
 30
0.0
 11
-0.886902
 21
-0.00221
 31
0.0
  0
LINE
  8
0
  6
CONTINUOUS
 62
     7
  5
B09
 10
-0.886902
 20
-0.00221
 30
0.0
 11
-0.888163
 21
-0.002536
 31
0.0
  0
LINE
  8
0
  6
CONTINUOUS
 62
     7
  5
B0A
 10
-0.888163
 20
-0.002536
 30
0.0
 11
-0.889428
 21
-0.002885
 31
0.0
  0
LINE
  8
0
  6
CONTINUOUS
 62
     7
  5
B0B
 10
-0.889428
 20
-0.002885
 30
0.0
 11
-0.890697
 21
-0.003257
 31
0.0
  0
LINE
  8
0
  6
CONTINUOUS
 62
     7
  5
B0C
 10
-0.890697
 20
-0.003257
 30
0.0
 11
-0.891972
 21
-0.003651
 31
0.0
  0
LINE
  8
0
  6
CONTINUOUS
 62
     7
  5
B0D
 10
-0.891972
 20
-0.003651
 30
0.0
 11
-0.893252
 21
-0.004068
 31
0.0
  0
LINE
  8
0
  6
CONTINUOUS
 62
     7
  5
B0E
 10
-0.893252
 20
-0.004068
 30
0.0
 11
-0.894539
 21
-0.004509
 31
0.0
  0
LINE
  8
0
  6
CONTINUOUS
 62
     7
  5
B0F
 10
-0.894539
 20
-0.004509
 30
0.0
 11
-0.895831
 21
-0.004973
 31
0.0
  0
LINE
  8
0
  6
CONTINUOUS
 62
     7
  5
B10
 10
-0.895831
 20
-0.004973
 30
0.0
 11
-0.897131
 21
-0.005461
 31
0.0
  0
LINE
  8
0
  6
CONTINUOUS
 62
     7
  5
B11
 10
-0.897131
 20
-0.005461
 30
0.0
 11
-0.898439
 21
-0.005972
 31
0.0
  0
LINE
  8
0
  6
CONTINUOUS
 62
     7
  5
B12
 10
-0.898439
 20
-0.005972
 30
0.0
 11
-0.899754
 21
-0.006507
 31
0.0
  0
LINE
  8
0
  6
CONTINUOUS
 62
     7
  5
B13
 10
-0.899754
 20
-0.006507
 30
0.0
 11
-0.901077
 21
-0.007067
 31
0.0
  0
LINE
  8
0
  6
CONTINUOUS
 62
     7
  5
B14
 10
-0.901077
 20
-0.007067
 30
0.0
 11
-0.90241
 21
-0.007651
 31
0.0
  0
LINE
  8
0
  6
CONTINUOUS
 62
     7
  5
B15
 10
-0.90241
 20
-0.007651
 30
0.0
 11
-0.903752
 21
-0.00826
 31
0.0
  0
LINE
  8
0
  6
CONTINUOUS
 62
     7
  5
B16
 10
-0.903752
 20
-0.00826
 30
0.0
 11
-0.905104
 21
-0.008894
 31
0.0
  0
LINE
  8
0
  6
CONTINUOUS
 62
     7
  5
B17
 10
-0.905104
 20
-0.008894
 30
0.0
 11
-0.906467
 21
-0.009553
 31
0.0
  0
LINE
  8
0
  6
CONTINUOUS
 62
     7
  5
B18
 10
-0.906467
 20
-0.009553
 30
0.0
 11
-0.907841
 21
-0.010239
 31
0.0
  0
LINE
  8
0
  6
CONTINUOUS
 62
     7
  5
B19
 10
-0.907841
 20
-0.010239
 30
0.0
 11
-0.909226
 21
-0.01095
 31
0.0
  0
LINE
  8
0
  6
CONTINUOUS
 62
     7
  5
B1A
 10
-0.909226
 20
-0.01095
 30
0.0
 11
-0.910624
 21
-0.011688
 31
0.0
  0
LINE
  8
0
  6
CONTINUOUS
 62
     7
  5
B1B
 10
-0.910624
 20
-0.011688
 30
0.0
 11
-0.912034
 21
-0.012453
 31
0.0
  0
LINE
  8
0
  6
CONTINUOUS
 62
     7
  5
B1C
 10
-0.912034
 20
-0.012453
 30
0.0
 11
-0.913458
 21
-0.013245
 31
0.0
  0
LINE
  8
0
  6
CONTINUOUS
 62
     7
  5
B1D
 10
-0.913458
 20
-0.013245
 30
0.0
 11
-0.914896
 21
-0.014066
 31
0.0
  0
LINE
  8
0
  6
CONTINUOUS
 62
     7
  5
B1E
 10
-0.823974
 20
-0.014066
 30
0.0
 11
-0.825412
 21
-0.013245
 31
0.0
  0
LINE
  8
0
  6
CONTINUOUS
 62
     7
  5
B1F
 10
-0.825412
 20
-0.013245
 30
0.0
 11
-0.826836
 21
-0.012453
 31
0.0
  0
LINE
  8
0
  6
CONTINUOUS
 62
     7
  5
B20
 10
-0.826836
 20
-0.012453
 30
0.0
 11
-0.828246
 21
-0.011688
 31
0.0
  0
LINE
  8
0
  6
CONTINUOUS
 62
     7
  5
B21
 10
-0.828246
 20
-0.011688
 30
0.0
 11
-0.829644
 21
-0.01095
 31
0.0
  0
LINE
  8
0
  6
CONTINUOUS
 62
     7
  5
B22
 10
-0.829644
 20
-0.01095
 30
0.0
 11
-0.831029
 21
-0.010239
 31
0.0
  0
LINE
  8
0
  6
CONTINUOUS
 62
     7
  5
B23
 10
-0.831029
 20
-0.010239
 30
0.0
 11
-0.832403
 21
-0.009553
 31
0.0
  0
LINE
  8
0
  6
CONTINUOUS
 62
     7
  5
B24
 10
-0.832403
 20
-0.009553
 30
0.0
 11
-0.833766
 21
-0.008894
 31
0.0
  0
LINE
  8
0
  6
CONTINUOUS
 62
     7
  5
B25
 10
-0.833766
 20
-0.008894
 30
0.0
 11
-0.835118
 21
-0.00826
 31
0.0
  0
LINE
  8
0
  6
CONTINUOUS
 62
     7
  5
B26
 10
-0.835118
 20
-0.00826
 30
0.0
 11
-0.83646
 21
-0.007651
 31
0.0
  0
LINE
  8
0
  6
CONTINUOUS
 62
     7
  5
B27
 10
-0.83646
 20
-0.007651
 30
0.0
 11
-0.837793
 21
-0.007067
 31
0.0
  0
LINE
  8
0
  6
CONTINUOUS
 62
     7
  5
B28
 10
-0.837793
 20
-0.007067
 30
0.0
 11
-0.839116
 21
-0.006507
 31
0.0
  0
LINE
  8
0
  6
CONTINUOUS
 62
     7
  5
B29
 10
-0.839116
 20
-0.006507
 30
0.0
 11
-0.840431
 21
-0.005972
 31
0.0
  0
LINE
  8
0
  6
CONTINUOUS
 62
     7
  5
B2A
 10
-0.840431
 20
-0.005972
 30
0.0
 11
-0.841739
 21
-0.005461
 31
0.0
  0
LINE
  8
0
  6
CONTINUOUS
 62
     7
  5
B2B
 10
-0.841739
 20
-0.005461
 30
0.0
 11
-0.843038
 21
-0.004973
 31
0.0
  0
LINE
  8
0
  6
CONTINUOUS
 62
     7
  5
B2C
 10
-0.843038
 20
-0.004973
 30
0.0
 11
-0.844331
 21
-0.004509
 31
0.0
  0
LINE
  8
0
  6
CONTINUOUS
 62
     7
  5
B2D
 10
-0.844331
 20
-0.004509
 30
0.0
 11
-0.845618
 21
-0.004068
 31
0.0
  0
LINE
  8
0
  6
CONTINUOUS
 62
     7
  5
B2E
 10
-0.845618
 20
-0.004068
 30
0.0
 11
-0.846898
 21
-0.003651
 31
0.0
  0
LINE
  8
0
  6
CONTINUOUS
 62
     7
  5
B2F
 10
-0.846898
 20
-0.003651
 30
0.0
 11
-0.848172
 21
-0.003257
 31
0.0
  0
LINE
  8
0
  6
CONTINUOUS
 62
     7
  5
B30
 10
-0.848172
 20
-0.003257
 30
0.0
 11
-0.849442
 21
-0.002885
 31
0.0
  0
LINE
  8
0
  6
CONTINUOUS
 62
     7
  5
B31
 10
-0.849442
 20
-0.002885
 30
0.0
 11
-0.850707
 21
-0.002536
 31
0.0
  0
LINE
  8
0
  6
CONTINUOUS
 62
     7
  5
B32
 10
-0.850707
 20
-0.002536
 30
0.0
 11
-0.851968
 21
-0.00221
 31
0.0
  0
LINE
  8
0
  6
CONTINUOUS
 62
     7
  5
B33
 10
-0.851968
 20
-0.00221
 30
0.0
 11
-0.853225
 21
-0.001907
 31
0.0
  0
LINE
  8
0
  6
CONTINUOUS
 62
     7
  5
B34
 10
-0.853225
 20
-0.001907
 30
0.0
 11
-0.854479
 21
-0.001626
 31
0.0
  0
LINE
  8
0
  6
CONTINUOUS
 62
     7
  5
B35
 10
-0.854479
 20
-0.001626
 30
0.0
 11
-0.85573
 21
-0.001367
 31
0.0
  0
LINE
  8
0
  6
CONTINUOUS
 62
     7
  5
B36
 10
-0.85573
 20
-0.001367
 30
0.0
 11
-0.856978
 21
-0.001131
 31
0.0
  0
LINE
  8
0
  6
CONTINUOUS
 62
     7
  5
B37
 10
-0.856978
 20
-0.001131
 30
0.0
 11
-0.858225
 21
-0.000917
 31
0.0
  0
LINE
  8
0
  6
CONTINUOUS
 62
     7
  5
B38
 10
-0.858225
 20
-0.000917
 30
0.0
 11
-0.85947
 21
-0.000725
 31
0.0
  0
LINE
  8
0
  6
CONTINUOUS
 62
     7
  5
B39
 10
-0.85947
 20
-0.000725
 30
0.0
 11
-0.860715
 21
-0.000556
 31
0.0
  0
LINE
  8
0
  6
CONTINUOUS
 62
     7
  5
B3A
 10
-0.860715
 20
-0.000556
 30
0.0
 11
-0.861958
 21
-0.000409
 31
0.0
  0
LINE
  8
0
  6
CONTINUOUS
 62
     7
  5
B3B
 10
-0.861958
 20
-0.000409
 30
0.0
 11
-0.863202
 21
-0.000284
 31
0.0
  0
LINE
  8
0
  6
CONTINUOUS
 62
     7
  5
B3C
 10
-0.863202
 20
-0.000284
 30
0.0
 11
-0.864446
 21
-0.000182
 31
0.0
  0
LINE
  8
0
  6
CONTINUOUS
 62
     7
  5
B3D
 10
-0.864446
 20
-0.000182
 30
0.0
 11
-0.865691
 21
-0.000103
 31
0.0
  0
LINE
  8
0
  6
CONTINUOUS
 62
     7
  5
B3E
 10
-0.865691
 20
-0.000103
 30
0.0
 11
-0.866937
 21
-0.000046
 31
0.0
  0
LINE
  8
0
  6
CONTINUOUS
 62
     7
  5
B3F
 10
-0.866937
 20
-0.000046
 30
0.0
 11
-0.868185
 21
-0.000011
 31
0.0
  0
LINE
  8
0
  6
CONTINUOUS
 62
     7
  5
B40
 10
-0.868185
 20
-0.000011
 30
0.0
 11
-0.869435
 21
0.0
 31
0.0
  0
LINE
  8
0
  6
CONTINUOUS
 62
     7
  5
B41
 10
-0.914896
 20
-0.143415
 30
0.0
 11
-0.914896
 21
-0.014066
 31
0.0
  0
LINE
  8
0
  6
CONTINUOUS
 62
     7
  5
B42
 10
-0.812167
 20
-0.708661
 30
0.0
 11
-0.653939
 21
-0.708661
 31
0.0
  0
LINE
  8
0
  6
CONTINUOUS
 62
     7
  5
B43
 10
-0.831478
 20
-0.68935
 30
0.0
 11
-0.634628
 21
-0.68935
 31
0.0
  0
LINE
  8
0
  6
CONTINUOUS
 62
     7
  5
B44
 10
0.653939
 20
-0.708661
 30
0.0
 11
0.812167
 21
-0.708661
 31
0.0
  0
LINE
  8
0
  6
CONTINUOUS
 62
     7
  5
B45
 10
0.634628
 20
-0.68935
 30
0.0
 11
0.831478
 21
-0.68935
 31
0.0
  0
LINE
  8
0
  6
CONTINUOUS
 62
     7
  5
B46
 10
-0.079114
 20
-0.708661
 30
0.0
 11
0.079114
 21
-0.708661
 31
0.0
  0
LINE
  8
0
  6
CONTINUOUS
 62
     7
  5
B47
 10
-0.098425
 20
-0.68935
 30
0.0
 11
0.098425
 21
-0.68935
 31
0.0
  0
LINE
  8
0
  6
CONTINUOUS
 62
     7
  5
B48
 10
1.115118
 20
1.122047
 30
0.0
 11
-1.115118
 21
1.122047
 31
0.0
  0
LINE
  8
0
  6
CONTINUOUS
 62
     7
  5
B49
 10
0.590551
 20
0.649606
 30
0.0
 11
0.590551
 21
0.237008
 31
0.0
  0
LINE
  8
0
  6
CONTINUOUS
 62
     7
  5
B4A
 10
-0.590551
 20
0.649606
 30
0.0
 11
0.590551
 21
0.649606
 31
0.0
  0
LINE
  8
0
  6
CONTINUOUS
 62
     7
  5
B4B
 10
-0.590551
 20
0.237008
 30
0.0
 11
-0.590551
 21
0.649606
 31
0.0
  0
LINE
  8
0
  6
CONTINUOUS
 62
     7
  5
B4C
 10
-0.451969
 20
0.098425
 30
0.0
 11
-0.457834
 21
0.098549
 31
0.0
  0
LINE
  8
0
  6
CONTINUOUS
 62
     7
  5
B4D
 10
-0.457834
 20
0.098549
 30
0.0
 11
-0.463757
 21
0.098927
 31
0.0
  0
LINE
  8
0
  6
CONTINUOUS
 62
     7
  5
B4E
 10
-0.463757
 20
0.098927
 30
0.0
 11
-0.469715
 21
0.099566
 31
0.0
  0
LINE
  8
0
  6
CONTINUOUS
 62
     7
  5
B4F
 10
-0.469715
 20
0.099566
 30
0.0
 11
-0.475688
 21
0.10047
 31
0.0
  0
LINE
  8
0
  6
CONTINUOUS
 62
     7
  5
B50
 10
-0.475688
 20
0.10047
 30
0.0
 11
-0.481654
 21
0.101642
 31
0.0
  0
LINE
  8
0
  6
CONTINUOUS
 62
     7
  5
B51
 10
-0.481654
 20
0.101642
 30
0.0
 11
-0.487594
 21
0.103083
 31
0.0
  0
LINE
  8
0
  6
CONTINUOUS
 62
     7
  5
B52
 10
-0.487594
 20
0.103083
 30
0.0
 11
-0.493486
 21
0.10479
 31
0.0
  0
LINE
  8
0
  6
CONTINUOUS
 62
     7
  5
B53
 10
-0.493486
 20
0.10479
 30
0.0
 11
-0.499312
 21
0.106763
 31
0.0
  0
LINE
  8
0
  6
CONTINUOUS
 62
     7
  5
B54
 10
-0.499312
 20
0.106763
 30
0.0
 11
-0.505054
 21
0.108996
 31
0.0
  0
LINE
  8
0
  6
CONTINUOUS
 62
     7
  5
B55
 10
-0.505054
 20
0.108996
 30
0.0
 11
-0.510695
 21
0.111483
 31
0.0
  0
LINE
  8
0
  6
CONTINUOUS
 62
     7
  5
B56
 10
-0.510695
 20
0.111483
 30
0.0
 11
-0.516219
 21
0.11422
 31
0.0
  0
LINE
  8
0
  6
CONTINUOUS
 62
     7
  5
B57
 10
-0.516219
 20
0.11422
 30
0.0
 11
-0.521612
 21
0.117196
 31
0.0
  0
LINE
  8
0
  6
CONTINUOUS
 62
     7
  5
B58
 10
-0.521612
 20
0.117196
 30
0.0
 11
-0.526856
 21
0.120402
 31
0.0
  0
LINE
  8
0
  6
CONTINUOUS
 62
     7
  5
B59
 10
-0.526856
 20
0.120402
 30
0.0
 11
-0.531938
 21
0.123826
 31
0.0
  0
LINE
  8
0
  6
CONTINUOUS
 62
     7
  5
B5A
 10
-0.531938
 20
0.123826
 30
0.0
 11
-0.536842
 21
0.127456
 31
0.0
  0
LINE
  8
0
  6
CONTINUOUS
 62
     7
  5
B5B
 10
-0.536842
 20
0.127456
 30
0.0
 11
-0.541555
 21
0.131275
 31
0.0
  0
LINE
  8
0
  6
CONTINUOUS
 62
     7
  5
B5C
 10
-0.541555
 20
0.131275
 30
0.0
 11
-0.546064
 21
0.135267
 31
0.0
  0
LINE
  8
0
  6
CONTINUOUS
 62
     7
  5
B5D
 10
-0.546064
 20
0.135267
 30
0.0
 11
-0.55036
 21
0.139416
 31
0.0
  0
LINE
  8
0
  6
CONTINUOUS
 62
     7
  5
B5E
 10
-0.55036
 20
0.139416
 30
0.0
 11
-0.554459
 21
0.14373
 31
0.0
  0
LINE
  8
0
  6
CONTINUOUS
 62
     7
  5
B5F
 10
-0.554459
 20
0.14373
 30
0.0
 11
-0.558437
 21
0.148297
 31
0.0
  0
LINE
  8
0
  6
CONTINUOUS
 62
     7
  5
B60
 10
-0.558437
 20
0.148297
 30
0.0
 11
-0.562274
 21
0.153115
 31
0.0
  0
LINE
  8
0
  6
CONTINUOUS
 62
     7
  5
B61
 10
-0.562274
 20
0.153115
 30
0.0
 11
-0.565944
 21
0.158174
 31
0.0
  0
LINE
  8
0
  6
CONTINUOUS
 62
     7
  5
B62
 10
-0.565944
 20
0.158174
 30
0.0
 11
-0.569422
 21
0.163456
 31
0.0
  0
LINE
  8
0
  6
CONTINUOUS
 62
     7
  5
B63
 10
-0.569422
 20
0.163456
 30
0.0
 11
-0.572686
 21
0.168947
 31
0.0
  0
LINE
  8
0
  6
CONTINUOUS
 62
     7
  5
B64
 10
-0.572686
 20
0.168947
 30
0.0
 11
-0.575716
 21
0.174625
 31
0.0
  0
LINE
  8
0
  6
CONTINUOUS
 62
     7
  5
B65
 10
-0.575716
 20
0.174625
 30
0.0
 11
-0.578495
 21
0.180473
 31
0.0
  0
LINE
  8
0
  6
CONTINUOUS
 62
     7
  5
B66
 10
-0.578495
 20
0.180473
 30
0.0
 11
-0.581007
 21
0.186469
 31
0.0
  0
LINE
  8
0
  6
CONTINUOUS
 62
     7
  5
B67
 10
-0.581007
 20
0.186469
 30
0.0
 11
-0.583242
 21
0.192595
 31
0.0
  0
LINE
  8
0
  6
CONTINUOUS
 62
     7
  5
B68
 10
-0.583242
 20
0.192595
 30
0.0
 11
-0.585188
 21
0.198828
 31
0.0
  0
LINE
  8
0
  6
CONTINUOUS
 62
     7
  5
B69
 10
-0.585188
 20
0.198828
 30
0.0
 11
-0.586839
 21
0.205145
 31
0.0
  0
LINE
  8
0
  6
CONTINUOUS
 62
     7
  5
B6A
 10
-0.586839
 20
0.205145
 30
0.0
 11
-0.588187
 21
0.211519
 31
0.0
  0
LINE
  8
0
  6
CONTINUOUS
 62
     7
  5
B6B
 10
-0.588187
 20
0.211519
 30
0.0
 11
-0.58923
 21
0.217921
 31
0.0
  0
LINE
  8
0
  6
CONTINUOUS
 62
     7
  5
B6C
 10
-0.58923
 20
0.217921
 30
0.0
 11
-0.589969
 21
0.224322
 31
0.0
  0
LINE
  8
0
  6
CONTINUOUS
 62
     7
  5
B6D
 10
-0.589969
 20
0.224322
 30
0.0
 11
-0.590407
 21
0.230694
 31
0.0
  0
LINE
  8
0
  6
CONTINUOUS
 62
     7
  5
B6E
 10
-0.590407
 20
0.230694
 30
0.0
 11
-0.590551
 21
0.237008
 31
0.0
  0
LINE
  8
0
  6
CONTINUOUS
 62
     7
  5
B6F
 10
0.451969
 20
0.098425
 30
0.0
 11
-0.451969
 21
0.098425
 31
0.0
  0
LINE
  8
0
  6
CONTINUOUS
 62
     7
  5
B70
 10
0.590551
 20
0.237008
 30
0.0
 11
0.590407
 21
0.230694
 31
0.0
  0
LINE
  8
0
  6
CONTINUOUS
 62
     7
  5
B71
 10
0.590407
 20
0.230694
 30
0.0
 11
0.589969
 21
0.224322
 31
0.0
  0
LINE
  8
0
  6
CONTINUOUS
 62
     7
  5
B72
 10
0.589969
 20
0.224322
 30
0.0
 11
0.58923
 21
0.217921
 31
0.0
  0
LINE
  8
0
  6
CONTINUOUS
 62
     7
  5
B73
 10
0.58923
 20
0.217921
 30
0.0
 11
0.588187
 21
0.211519
 31
0.0
  0
LINE
  8
0
  6
CONTINUOUS
 62
     7
  5
B74
 10
0.588187
 20
0.211519
 30
0.0
 11
0.586839
 21
0.205145
 31
0.0
  0
LINE
  8
0
  6
CONTINUOUS
 62
     7
  5
B75
 10
0.586839
 20
0.205145
 30
0.0
 11
0.585188
 21
0.198828
 31
0.0
  0
LINE
  8
0
  6
CONTINUOUS
 62
     7
  5
B76
 10
0.585188
 20
0.198828
 30
0.0
 11
0.583242
 21
0.192595
 31
0.0
  0
LINE
  8
0
  6
CONTINUOUS
 62
     7
  5
B77
 10
0.583242
 20
0.192595
 30
0.0
 11
0.581007
 21
0.186469
 31
0.0
  0
LINE
  8
0
  6
CONTINUOUS
 62
     7
  5
B78
 10
0.581007
 20
0.186469
 30
0.0
 11
0.578495
 21
0.180473
 31
0.0
  0
LINE
  8
0
  6
CONTINUOUS
 62
     7
  5
B79
 10
0.578495
 20
0.180473
 30
0.0
 11
0.575716
 21
0.174625
 31
0.0
  0
LINE
  8
0
  6
CONTINUOUS
 62
     7
  5
B7A
 10
0.575716
 20
0.174625
 30
0.0
 11
0.572686
 21
0.168947
 31
0.0
  0
LINE
  8
0
  6
CONTINUOUS
 62
     7
  5
B7B
 10
0.572686
 20
0.168947
 30
0.0
 11
0.569422
 21
0.163456
 31
0.0
  0
LINE
  8
0
  6
CONTINUOUS
 62
     7
  5
B7C
 10
0.569422
 20
0.163456
 30
0.0
 11
0.565944
 21
0.158174
 31
0.0
  0
LINE
  8
0
  6
CONTINUOUS
 62
     7
  5
B7D
 10
0.565944
 20
0.158174
 30
0.0
 11
0.562274
 21
0.153115
 31
0.0
  0
LINE
  8
0
  6
CONTINUOUS
 62
     7
  5
B7E
 10
0.562274
 20
0.153115
 30
0.0
 11
0.558437
 21
0.148297
 31
0.0
  0
LINE
  8
0
  6
CONTINUOUS
 62
     7
  5
B7F
 10
0.558437
 20
0.148297
 30
0.0
 11
0.554459
 21
0.14373
 31
0.0
  0
LINE
  8
0
  6
CONTINUOUS
 62
     7
  5
B80
 10
0.554459
 20
0.14373
 30
0.0
 11
0.55036
 21
0.139416
 31
0.0
  0
LINE
  8
0
  6
CONTINUOUS
 62
     7
  5
B81
 10
0.55036
 20
0.139416
 30
0.0
 11
0.546064
 21
0.135267
 31
0.0
  0
LINE
  8
0
  6
CONTINUOUS
 62
     7
  5
B82
 10
0.546064
 20
0.135267
 30
0.0
 11
0.541555
 21
0.131275
 31
0.0
  0
LINE
  8
0
  6
CONTINUOUS
 62
     7
  5
B83
 10
0.541555
 20
0.131275
 30
0.0
 11
0.536842
 21
0.127456
 31
0.0
  0
LINE
  8
0
  6
CONTINUOUS
 62
     7
  5
B84
 10
0.536842
 20
0.127456
 30
0.0
 11
0.531938
 21
0.123826
 31
0.0
  0
LINE
  8
0
  6
CONTINUOUS
 62
     7
  5
B85
 10
0.531938
 20
0.123826
 30
0.0
 11
0.526856
 21
0.120402
 31
0.0
  0
LINE
  8
0
  6
CONTINUOUS
 62
     7
  5
B86
 10
0.526856
 20
0.120402
 30
0.0
 11
0.521612
 21
0.117196
 31
0.0
  0
LINE
  8
0
  6
CONTINUOUS
 62
     7
  5
B87
 10
0.521612
 20
0.117196
 30
0.0
 11
0.516219
 21
0.11422
 31
0.0
  0
LINE
  8
0
  6
CONTINUOUS
 62
     7
  5
B88
 10
0.516219
 20
0.11422
 30
0.0
 11
0.510695
 21
0.111483
 31
0.0
  0
LINE
  8
0
  6
CONTINUOUS
 62
     7
  5
B89
 10
0.510695
 20
0.111483
 30
0.0
 11
0.505054
 21
0.108996
 31
0.0
  0
LINE
  8
0
  6
CONTINUOUS
 62
     7
  5
B8A
 10
0.505054
 20
0.108996
 30
0.0
 11
0.499312
 21
0.106763
 31
0.0
  0
LINE
  8
0
  6
CONTINUOUS
 62
     7
  5
B8B
 10
0.499312
 20
0.106763
 30
0.0
 11
0.493486
 21
0.10479
 31
0.0
  0
LINE
  8
0
  6
CONTINUOUS
 62
     7
  5
B8C
 10
0.493486
 20
0.10479
 30
0.0
 11
0.487594
 21
0.103083
 31
0.0
  0
LINE
  8
0
  6
CONTINUOUS
 62
     7
  5
B8D
 10
0.487594
 20
0.103083
 30
0.0
 11
0.481654
 21
0.101642
 31
0.0
  0
LINE
  8
0
  6
CONTINUOUS
 62
     7
  5
B8E
 10
0.481654
 20
0.101642
 30
0.0
 11
0.475688
 21
0.10047
 31
0.0
  0
LINE
  8
0
  6
CONTINUOUS
 62
     7
  5
B8F
 10
0.475688
 20
0.10047
 30
0.0
 11
0.469715
 21
0.099566
 31
0.0
  0
LINE
  8
0
  6
CONTINUOUS
 62
     7
  5
B90
 10
0.469715
 20
0.099566
 30
0.0
 11
0.463757
 21
0.098927
 31
0.0
  0
LINE
  8
0
  6
CONTINUOUS
 62
     7
  5
B91
 10
0.463757
 20
0.098927
 30
0.0
 11
0.457834
 21
0.098549
 31
0.0
  0
LINE
  8
0
  6
CONTINUOUS
 62
     7
  5
B92
 10
0.457834
 20
0.098549
 30
0.0
 11
0.451969
 21
0.098425
 31
0.0
  0
LINE
  8
0
  6
CONTINUOUS
 62
     7
  5
B93
 10
-1.208661
 20
0.649606
 30
0.0
 11
-0.590551
 21
0.649606
 31
0.0
  0
LINE
  8
0
  6
CONTINUOUS
 62
     7
  5
B94
 10
0.590551
 20
0.649606
 30
0.0
 11
1.208661
 21
0.649606
 31
0.0
  0
LINE
  8
0
  6
CONTINUOUS
 62
     7
  5
B95
 10
-1.149606
 20
0.0
 30
0.0
 11
1.149606
 21
0.0
 31
0.0
  0
LINE
  8
0
  6
CONTINUOUS
 62
     7
  5
B96
 10
-1.208661
 20
0.059055
 30
0.0
 11
1.208661
 21
0.059055
 31
0.0
  0
LINE
  8
0
  6
CONTINUOUS
 62
     7
  5
B97
 10
1.059362
 20
1.578346
 30
0.0
 11
-1.059362
 21
1.578346
 31
0.0
  0
LINE
  8
0
  6
CONTINUOUS
 62
     7
  5
B98
 10
1.105413
 20
1.476378
 30
0.0
 11
1.113969
 21
1.476378
 31
0.0
  0
LINE
  8
0
  6
CONTINUOUS
 62
     7
  5
B99
 10
1.105413
 20
1.358268
 30
0.0
 11
1.105413
 21
1.476378
 31
0.0
  0
LINE
  8
0
  6
CONTINUOUS
 62
     7
  5
B9A
 10
1.113969
 20
1.358268
 30
0.0
 11
1.105413
 21
1.358268
 31
0.0
  0
LINE
  8
0
  6
CONTINUOUS
 62
     7
  5
B9B
 10
-0.433372
 20
1.476378
 30
0.0
 11
-0.433372
 21
1.358268
 31
0.0
  0
LINE
  8
0
  6
CONTINUOUS
 62
     7
  5
B9C
 10
-0.672041
 20
1.476378
 30
0.0
 11
-0.433372
 21
1.476378
 31
0.0
  0
LINE
  8
0
  6
CONTINUOUS
 62
     7
  5
B9D
 10
-0.672041
 20
1.358268
 30
0.0
 11
-0.672041
 21
1.476378
 31
0.0
  0
LINE
  8
0
  6
CONTINUOUS
 62
     7
  5
B9E
 10
-0.433372
 20
1.358268
 30
0.0
 11
-0.672041
 21
1.358268
 31
0.0
  0
LINE
  8
0
  6
CONTINUOUS
 62
     7
  5
B9F
 10
-0.422365
 20
1.358268
 30
0.0
 11
-0.433372
 21
1.358268
 31
0.0
  0
LINE
  8
0
  6
CONTINUOUS
 62
     7
  5
BA0
 10
-0.422365
 20
1.476378
 30
0.0
 11
-0.422365
 21
1.358268
 31
0.0
  0
LINE
  8
0
  6
CONTINUOUS
 62
     7
  5
BA1
 10
-0.422365
 20
1.476378
 30
0.0
 11
-0.433372
 21
1.476378
 31
0.0
  0
LINE
  8
0
  6
CONTINUOUS
 62
     7
  5
BA2
 10
1.083398
 20
1.358268
 30
0.0
 11
1.105413
 21
1.358268
 31
0.0
  0
LINE
  8
0
  6
CONTINUOUS
 62
     7
  5
BA3
 10
1.083398
 20
1.476378
 30
0.0
 11
1.105413
 21
1.476378
 31
0.0
  0
LINE
  8
0
  6
CONTINUOUS
 62
     7
  5
BA4
 10
1.083398
 20
1.358268
 30
0.0
 11
1.083398
 21
1.476378
 31
0.0
  0
LINE
  8
0
  6
CONTINUOUS
 62
     7
  5
BA5
 10
-0.672041
 20
1.476378
 30
0.0
 11
-1.092126
 21
1.476378
 31
0.0
  0
LINE
  8
0
  6
CONTINUOUS
 62
     7
  5
BA6
 10
1.083398
 20
1.476378
 30
0.0
 11
-0.422365
 21
1.476378
 31
0.0
  0
LINE
  8
0
  6
CONTINUOUS
 62
     7
  5
BA7
 10
0.15748
 20
-0.15748
 30
0.0
 11
0.181843
 21
-0.143415
 31
0.0
  0
LINE
  8
0
  6
CONTINUOUS
 62
     7
  5
BA8
 10
-0.181843
 20
-0.143415
 30
0.0
 11
-0.15748
 21
-0.15748
 31
0.0
  0
LINE
  8
0
  6
CONTINUOUS
 62
     7
  5
BA9
 10
0.181843
 20
-0.014066
 30
0.0
 11
0.15748
 21
0.0
 31
0.0
  0
LINE
  8
0
  6
CONTINUOUS
 62
     7
  5
BAA
 10
-0.15748
 20
0.0
 30
0.0
 11
-0.181843
 21
-0.014066
 31
0.0
  0
LINE
  8
0
  6
CONTINUOUS
 62
     7
  5
BAB
 10
0.890533
 20
-0.15748
 30
0.0
 11
0.914896
 21
-0.143415
 31
0.0
  0
LINE
  8
0
  6
CONTINUOUS
 62
     7
  5
BAC
 10
0.55121
 20
-0.143415
 30
0.0
 11
0.575573
 21
-0.15748
 31
0.0
  0
LINE
  8
0
  6
CONTINUOUS
 62
     7
  5
BAD
 10
0.914896
 20
-0.014066
 30
0.0
 11
0.890533
 21
0.0
 31
0.0
  0
LINE
  8
0
  6
CONTINUOUS
 62
     7
  5
BAE
 10
0.575573
 20
0.0
 30
0.0
 11
0.55121
 21
-0.014066
 31
0.0
  0
LINE
  8
0
  6
CONTINUOUS
 62
     7
  5
BAF
 10
-0.575573
 20
-0.15748
 30
0.0
 11
-0.55121
 21
-0.143415
 31
0.0
  0
LINE
  8
0
  6
CONTINUOUS
 62
     7
  5
BB0
 10
-0.914896
 20
-0.143415
 30
0.0
 11
-0.890533
 21
-0.15748
 31
0.0
  0
LINE
  8
0
  6
CONTINUOUS
 62
     7
  5
BB1
 10
-0.55121
 20
-0.014066
 30
0.0
 11
-0.575573
 21
0.0
 31
0.0
  0
LINE
  8
0
  6
CONTINUOUS
 62
     7
  5
BB2
 10
-0.890533
 20
0.0
 30
0.0
 11
-0.914896
 21
-0.014066
 31
0.0
  0
LINE
  8
0
  6
CONTINUOUS
 62
     7
  5
BB3
 10
-0.831478
 20
-0.68935
 30
0.0
 11
-0.812167
 21
-0.708661
 31
0.0
  0
LINE
  8
0
  6
CONTINUOUS
 62
     7
  5
BB4
 10
-0.653939
 20
-0.708661
 30
0.0
 11
-0.634628
 21
-0.68935
 31
0.0
  0
LINE
  8
0
  6
CONTINUOUS
 62
     7
  5
BB5
 10
-0.831478
 20
-0.15748
 30
0.0
 11
-0.831478
 21
-0.68935
 31
0.0
  0
LINE
  8
0
  6
CONTINUOUS
 62
     7
  5
BB6
 10
-0.634628
 20
-0.68935
 30
0.0
 11
-0.634628
 21
-0.15748
 31
0.0
  0
LINE
  8
0
  6
CONTINUOUS
 62
     7
  5
BB7
 10
0.634628
 20
-0.68935
 30
0.0
 11
0.653939
 21
-0.708661
 31
0.0
  0
LINE
  8
0
  6
CONTINUOUS
 62
     7
  5
BB8
 10
0.812167
 20
-0.708661
 30
0.0
 11
0.831478
 21
-0.68935
 31
0.0
  0
LINE
  8
0
  6
CONTINUOUS
 62
     7
  5
BB9
 10
0.634628
 20
-0.15748
 30
0.0
 11
0.634628
 21
-0.68935
 31
0.0
  0
LINE
  8
0
  6
CONTINUOUS
 62
     7
  5
BBA
 10
0.831478
 20
-0.68935
 30
0.0
 11
0.831478
 21
-0.15748
 31
0.0
  0
LINE
  8
0
  6
CONTINUOUS
 62
     7
  5
BBB
 10
-0.098425
 20
-0.68935
 30
0.0
 11
-0.079114
 21
-0.708661
 31
0.0
  0
LINE
  8
0
  6
CONTINUOUS
 62
     7
  5
BBC
 10
0.079114
 20
-0.708661
 30
0.0
 11
0.098425
 21
-0.68935
 31
0.0
  0
LINE
  8
0
  6
CONTINUOUS
 62
     7
  5
BBD
 10
-0.098425
 20
-0.15748
 30
0.0
 11
-0.098425
 21
-0.68935
 31
0.0
  0
LINE
  8
0
  6
CONTINUOUS
 62
     7
  5
BBE
 10
0.098425
 20
-0.68935
 30
0.0
 11
0.098425
 21
-0.15748
 31
0.0
  0
LINE
  8
0
  6
CONTINUOUS
 62
     7
  5
BBF
 10
1.115118
 20
0.649606
 30
0.0
 11
1.115118
 21
1.122047
 31
0.0
  0
LINE
  8
0
  6
CONTINUOUS
 62
     7
  5
BC0
 10
-1.115118
 20
1.122047
 30
0.0
 11
-1.115118
 21
0.649606
 31
0.0
  0
LINE
  8
0
  6
CONTINUOUS
 62
     7
  5
BC1
 10
-1.208661
 20
0.059055
 30
0.0
 11
-1.149606
 21
0.0
 31
0.0
  0
LINE
  8
0
  6
CONTINUOUS
 62
     7
  5
BC2
 10
1.149606
 20
0.0
 30
0.0
 11
1.208661
 21
0.059055
 31
0.0
  0
LINE
  8
0
  6
CONTINUOUS
 62
     7
  5
BC3
 10
-1.208661
 20
0.649606
 30
0.0
 11
-1.208661
 21
0.059055
 31
0.0
  0
LINE
  8
0
  6
CONTINUOUS
 62
     7
  5
BC4
 10
1.208661
 20
0.059055
 30
0.0
 11
1.208661
 21
0.649606
 31
0.0
  0
LINE
  8
0
  6
CONTINUOUS
 62
     7
  5
BC5
 10
1.059362
 20
1.476378
 30
0.0
 11
1.059362
 21
1.578346
 31
0.0
  0
LINE
  8
0
  6
CONTINUOUS
 62
     7
  5
BC6
 10
-1.059362
 20
1.578346
 30
0.0
 11
-1.059362
 21
1.476378
 31
0.0
  0
LINE
  8
0
  6
CONTINUOUS
 62
     7
  5
BC7
 10
1.113969
 20
1.358268
 30
0.0
 11
1.113969
 21
1.476378
 31
0.0
  0
LINE
  8
0
  6
CONTINUOUS
 62
     7
  5
BC8
 10
1.092126
 20
1.122047
 30
0.0
 11
1.092126
 21
1.358268
 31
0.0
  0
LINE
  8
0
  6
CONTINUOUS
 62
     7
  5
BC9
 10
-1.092126
 20
1.476378
 30
0.0
 11
-1.092126
 21
1.122047
 31
0.0
  0
LINE
  8
0
  6
CONTINUOUS
 62
     3
  5
BCA
 10
0.0
 20
-0.779528
 30
0.0
 11
0.0
 21
1.588543
 31
0.0
  0
LINE
  8
0
  6
CONTINUOUS
 62
     3
  5
BCB
 10
0.733053
 20
-0.779528
 30
0.0
 11
0.733053
 21
0.070866
 31
0.0
  0
LINE
  8
0
  6
CONTINUOUS
 62
     3
  5
BCC
 10
-0.733053
 20
-0.779528
 30
0.0
 11
-0.733053
 21
0.070866
 31
0.0
  0
INSERT
  8
0
  5
BCD
  2
B11100269503042020_0000000
 10
0.0
 20
0.0
 30
0.0
  0
INSERT
  8
0
  5
BCE
  2
B11100269503042020_0000001
 10
0.0
 20
0.0
 30
0.0
  0
INSERT
  8
0
  5
BCF
  2
B11100269503042020_0000002
 10
0.0
 20
0.0
 30
0.0
  0
ENDSEC
  0
EOF
