999
DXF file: C:\Users\sesa63760\Dev\_Creo\CAD\MCADID0005248_3D-CAD\drw0001_2.dxf
999
Pro/ENGINEER 2019471 by Parametric Technology Corporation
  0
SECTION
  2
HEADER
  9
$ACADVER
  1
AC1024
  9
$DWGCODEPAGE
  3
ANSI_1252
  9
$EXTMAX
 10
80.9724321035
 20
114.518153975
 30
0.0
  9
$EXTMIN
 10
0.0
 20
0.0
 30
0.0
  9
$LIMMIN
 10
0.0
 20
0.0
  9
$LIMMAX
 10
80.9724321035
 20
114.518153975
  9
$VIEWCTR
 10
40.4862160518
 20
57.2590769875
  9
$VIEWSIZE
 40
114.518153975
  9
$CLAYER
  8
0
  9
$LTSCALE
 40
7.4648870739
  9
$CELTYPE
  6
BYLAYER
  9
$DIMSCALE
 40
1.0
  9
$DIMASZ
 40
0.963957525
  9
$DIMEXO
 40
1.0
  9
$DIMDLI
 40
5.157558342
  9
$DIMEXE
 40
1.0
  9
$DIMCEN
 40
1.2215269757
  9
$DIMLFAC
 40
1.0
  9
$DIMBLK
  1
_FILLED
  9
$DIMALT
 70
0
  9
$DIMALTF
 40
0.0393700787
  9
$DIMTXT
 40
1.3495405351
  9
$DIMTOL
 70
1
  9
$DIMLIM
 70
0
  9
$DIMTFAC
 40
1.0
  9
$DIMTP
 40
0.01
  9
$DIMTM
 40
0.01
  9
$DIMGAP
 40
0.625
  9
$DIMDSEP
 70
46
  9
$AUNITS
 70
0
  9
$PDMODE
 70
3
  9
$PDSIZE
 40
0.3125
  9
$HANDSEED
  5
2D9
  9
$TILEMODE
 70
1
  9
$MEASUREMENT
 70
1
  9
$INSUNITS
 70
4
  0
ENDSEC
  0
SECTION
  2
CLASSES
  0
CLASS
  1
ACDBDICTIONARYWDFLT
  2
AcDbDictionaryWithDefault
  3
AutoCAD 2000
 90
0
 91
1
280
0
281
0
  0
CLASS
  1
ACDBPLACEHOLDER
  2
AcDbPlaceHolder
  3
AutoCAD 2000
 90
0
 91
1
280
0
281
0
  0
CLASS
  1
LAYOUT
  2
AcDbLayout
  3
AutoCAD 2000
 90
0
 91
0
280
0
281
0
  0
ENDSEC
  0
SECTION
  2
TABLES
  0
TABLE
  2
VPORT
  5
8
100
AcDbSymbolTable
 70
2
  0
VPORT
  5
1F4
100
AcDbSymbolTableRecord
100
AcDbViewportTableRecord
  2
*ACTIVE
 70
0
 10
0.0
 20
0.0
 11
1.0
 21
1.0
 12
40.4862160518
 22
57.2590769875
 13
0.0
 23
0.0
 14
1.0
 24
1.0
 15
0.0
 25
0.0
 16
0.0
 26
0.0
 36
1.0
 17
0.0
 27
0.0
 37
0.0
 40
114.518153975
 41
0.7070707071
 42
50.0
 43
0.0
 44
0.0
 50
0.0
 51
0.0
 71
0
 72
100
 73
1
 74
1
 75
0
 76
0
 77
0
 78
0
  0
ENDTAB
  0
TABLE
  2
LTYPE
  5
5
100
AcDbSymbolTable
 70
6
  0
LTYPE
  5
14
100
AcDbSymbolTableRecord
100
AcDbLinetypeTableRecord
  2
BYBLOCK
 70
0
  3

 72
65
 73
0
 40
0.0
  0
LTYPE
  5
15
100
AcDbSymbolTableRecord
100
AcDbLinetypeTableRecord
  2
BYLAYER
 70
0
  3

 72
65
 73
0
 40
0.0
  0
LTYPE
  5
16
100
AcDbSymbolTableRecord
100
AcDbLinetypeTableRecord
  2
CONTINUOUS
 70
64
  3
Solid line
 72
65
 73
0
 40
0.0
  0
LTYPE
  5
1F5
100
AcDbSymbolTableRecord
100
AcDbLinetypeTableRecord
  2
CENTER
 70
64
  3
____ _ ____ _ ____ _ ____ _ ____ _ ____ _ ____
 72
65
 73
4
 40
0.6
 49
0.375
 74
0
 49
-0.075
 74
0
 49
0.075
 74
0
 49
-0.075
 74
0
  0
LTYPE
  5
1F6
100
AcDbSymbolTableRecord
100
AcDbLinetypeTableRecord
  2
HIDDEN
 70
64
  3
- - - - - - - - - - - - - - - - - - - -
 72
65
 73
2
 40
0.2
 49
0.1
 74
0
 49
-0.1
 74
0
  0
LTYPE
  5
1F7
100
AcDbSymbolTableRecord
100
AcDbLinetypeTableRecord
  2
PHANTOM
 70
64
  3
_____ _ _ _____ _ _ _____ _ _ _____
 72
65
 73
6
 40
0.8
 49
0.45
 74
0
 49
-0.05
 74
0
 49
0.1
 74
0
 49
-0.05
 74
0
 49
0.1
 74
0
 49
-0.05
 74
0
  0
LTYPE
  5
1F8
100
AcDbSymbolTableRecord
100
AcDbLinetypeTableRecord
  2
DOT
 70
64
  3
. . . . . . . . . . . . . . . . . . . .
 72
65
 73
2
 40
0.2
 49
0.1
 74
0
 49
-0.1
 74
0
  0
LTYPE
  5
1F9
100
AcDbSymbolTableRecord
100
AcDbLinetypeTableRecord
  2
DASHED
 70
64
  3
- - - - - - - - - - - - - - - - - - - -
 72
65
 73
2
 40
0.2
 49
0.1
 74
0
 49
-0.1
 74
0
  0
ENDTAB
  0
TABLE
  2
LAYER
  5
2
100
AcDbSymbolTable
 70
36
  0
LAYER
  5
10
100
AcDbSymbolTableRecord
100
AcDbLayerTableRecord
  2
0
 70
0
 62
7
  6
CONTINUOUS
370
-3
390
F
  0
LAYER
  5
1FA
100
AcDbSymbolTableRecord
100
AcDbLayerTableRecord
  2
DEFAULT_1
 70
0
 62
7
  6
CENTER
370
-3
390
F
  0
LAYER
  5
1FB
100
AcDbSymbolTableRecord
100
AcDbLayerTableRecord
  2
DEFAULT_2
 70
0
 62
7
  6
HIDDEN
370
-3
390
F
  0
LAYER
  5
1FC
100
AcDbSymbolTableRecord
100
AcDbLayerTableRecord
  2
DEFAULT_3
 70
0
 62
7
  6
PHANTOM
370
-3
390
F
  0
LAYER
  5
1FD
100
AcDbSymbolTableRecord
100
AcDbLayerTableRecord
  2
00_COMPONENTS
 70
0
 62
7
  6
CONTINUOUS
370
-3
390
F
  0
LAYER
  5
1FE
100
AcDbSymbolTableRecord
100
AcDbLayerTableRecord
  2
00_COMPONENTS_1
 70
0
 62
7
  6
CONTINUOUS
370
-3
390
F
  0
LAYER
  5
1FF
100
AcDbSymbolTableRecord
100
AcDbLayerTableRecord
  2
00_COMPONENTS_2
 70
0
 62
7
  6
CONTINUOUS
370
-3
390
F
  0
LAYER
  5
200
100
AcDbSymbolTableRecord
100
AcDbLayerTableRecord
  2
00_COMPONENTS_3
 70
0
 62
7
  6
CONTINUOUS
370
-3
390
F
  0
LAYER
  5
201
100
AcDbSymbolTableRecord
100
AcDbLayerTableRecord
  2
00_COMPONENTS_4
 70
0
 62
7
  6
CONTINUOUS
370
-3
390
F
  0
LAYER
  5
202
100
AcDbSymbolTableRecord
100
AcDbLayerTableRecord
  2
00_COMPONENTS_6
 70
0
 62
7
  6
CONTINUOUS
370
-3
390
F
  0
LAYER
  5
203
100
AcDbSymbolTableRecord
100
AcDbLayerTableRecord
  2
01_1_DEFAULT_DATUMS
 70
0
 62
7
  6
CONTINUOUS
370
-3
390
F
  0
LAYER
  5
204
100
AcDbSymbolTableRecord
100
AcDbLayerTableRecord
  2
01_PLANES
 70
0
 62
7
  6
CONTINUOUS
370
-3
390
F
  0
LAYER
  5
205
100
AcDbSymbolTableRecord
100
AcDbLayerTableRecord
  2
02_COORD_SYS
 70
0
 62
7
  6
CONTINUOUS
370
-3
390
F
  0
LAYER
  5
206
100
AcDbSymbolTableRecord
100
AcDbLayerTableRecord
  2
03_AXES
 70
0
 62
7
  6
CONTINUOUS
370
-3
390
F
  0
LAYER
  5
207
100
AcDbSymbolTableRecord
100
AcDbLayerTableRecord
  2
03_AXES_2
 70
0
 62
7
  6
CONTINUOUS
370
-3
390
F
  0
LAYER
  5
208
100
AcDbSymbolTableRecord
100
AcDbLayerTableRecord
  2
04_POINTS
 70
0
 62
7
  6
CONTINUOUS
370
-3
390
F
  0
LAYER
  5
209
100
AcDbSymbolTableRecord
100
AcDbLayerTableRecord
  2
05_CURVES
 70
0
 62
7
  6
CONTINUOUS
370
-3
390
F
  0
LAYER
  5
20A
100
AcDbSymbolTableRecord
100
AcDbLayerTableRecord
  2
06_SURFS
 70
0
 62
7
  6
CONTINUOUS
370
-3
390
F
  0
LAYER
  5
20B
100
AcDbSymbolTableRecord
100
AcDbLayerTableRecord
  2
07_COSMETICS
 70
0
 62
7
  6
CONTINUOUS
370
-3
390
F
  0
LAYER
  5
20C
100
AcDbSymbolTableRecord
100
AcDbLayerTableRecord
  2
10_NOTES
 70
0
 62
7
  6
CONTINUOUS
370
-3
390
F
  0
LAYER
  5
20D
100
AcDbSymbolTableRecord
100
AcDbLayerTableRecord
  2
11_NOTES_PUB
 70
0
 62
7
  6
CONTINUOUS
370
-3
390
F
  0
LAYER
  5
20E
100
AcDbSymbolTableRecord
100
AcDbLayerTableRecord
  2
13_REF_GTOL
 70
0
 62
7
  6
CONTINUOUS
370
-3
390
F
  0
LAYER
  5
20F
100
AcDbSymbolTableRecord
100
AcDbLayerTableRecord
  2
16_MISC
 70
0
 62
7
  6
CONTINUOUS
370
-3
390
F
  0
LAYER
  5
210
100
AcDbSymbolTableRecord
100
AcDbLayerTableRecord
  2
17_NO_PRINT
 70
0
 62
7
  6
CONTINUOUS
370
-3
390
F
  0
LAYER
  5
211
100
AcDbSymbolTableRecord
100
AcDbLayerTableRecord
  2
18_DATUM_CAMS_JOINTS
 70
0
 62
7
  6
CONTINUOUS
370
-3
390
F
  0
LAYER
  5
212
100
AcDbSymbolTableRecord
100
AcDbLayerTableRecord
  2
19_DATUM_FUNCTIONAL
 70
0
 62
7
  6
CONTINUOUS
370
-3
390
F
  0
LAYER
  5
213
100
AcDbSymbolTableRecord
100
AcDbLayerTableRecord
  2
20_DATUM_KINEMATIC_SCHEME
 70
0
 62
7
  6
CONTINUOUS
370
-3
390
F
  0
LAYER
  5
214
100
AcDbSymbolTableRecord
100
AcDbLayerTableRecord
  2
INTFCLR_97743
 70
0
 62
7
  6
CONTINUOUS
370
-3
390
F
  0
LAYER
  5
215
100
AcDbSymbolTableRecord
100
AcDbLayerTableRecord
  2
INTF_BLANK
 70
0
 62
7
  6
CONTINUOUS
370
-3
390
F
  0
LAYER
  5
216
100
AcDbSymbolTableRecord
100
AcDbLayerTableRecord
  2
SHELL29
 70
0
 62
7
  6
CONTINUOUS
370
-3
390
F
  0
LAYER
  5
217
100
AcDbSymbolTableRecord
100
AcDbLayerTableRecord
  2
SHELL30
 70
0
 62
7
  6
CONTINUOUS
370
-3
390
F
  0
LAYER
  5
218
100
AcDbSymbolTableRecord
100
AcDbLayerTableRecord
  2
SHELL6
 70
0
 62
7
  6
CONTINUOUS
370
-3
390
F
  0
LAYER
  5
219
100
AcDbSymbolTableRecord
100
AcDbLayerTableRecord
  2
SHELL980
 70
0
 62
7
  6
CONTINUOUS
370
-3
390
F
  0
LAYER
  5
21A
100
AcDbSymbolTableRecord
100
AcDbLayerTableRecord
  2
_BLACK_HOLE
 70
0
 62
7
  6
CONTINUOUS
370
-3
390
F
  0
LAYER
  5
21B
100
AcDbSymbolTableRecord
100
AcDbLayerTableRecord
  2
black
 70
0
 62
7
  6
CONTINUOUS
370
-3
390
F
  0
ENDTAB
  0
TABLE
  2
STYLE
  5
3
100
AcDbSymbolTable
 70
1
  0
STYLE
  5
11
100
AcDbSymbolTableRecord
100
AcDbTextStyleTableRecord
  2
STANDARD
 70
0
 40
0.0
 41
1.0
 50
0.0
 71
0
 42
0.2
  3
ARIAL.TTF
  4

  0
STYLE
  5
21C
100
AcDbSymbolTableRecord
100
AcDbTextStyleTableRecord
  2
TEXTSTYLE_1
 70
0
 40
0.0
 41
0.8
 50
0.0
 71
0
 42
0.2
  3
gdt
  4

  0
ENDTAB
  0
TABLE
  2
VIEW
  5
6
100
AcDbSymbolTable
 70
0
  0
ENDTAB
  0
TABLE
  2
UCS
  5
7
100
AcDbSymbolTable
 70
0
  0
ENDTAB
  0
TABLE
  2
APPID
  5
9
100
AcDbSymbolTable
 70
1
  0
APPID
  5
21D
100
AcDbSymbolTableRecord
100
AcDbRegAppTableRecord
  2
ACAD
 70
0
  0
ENDTAB
  0
TABLE
  2
BLOCK_RECORD
  5
1
100
AcDbSymbolTable
 70
0
  0
BLOCK_RECORD
  5
21E
100
AcDbSymbolTableRecord
100
AcDbBlockTableRecord
  2
*Model_Space
  0
BLOCK_RECORD
  5
21F
100
AcDbSymbolTableRecord
100
AcDbBlockTableRecord
  2
*Paper_Space
  0
BLOCK_RECORD
  5
220
100
AcDbSymbolTableRecord
100
AcDbBlockTableRecord
  2
_FILLED
  0
ENDTAB
  0
TABLE
  2
DIMSTYLE
  5
A
100
AcDbSymbolTable
 70
1
100
AcDbDimStyleTable
 71
0
  0
DIMSTYLE
105
221
100
AcDbSymbolTableRecord
100
AcDbDimStyleTableRecord
  2
STANDARD
 70
0
  3

  4

 40
1.0
 41
0.963957525
 42
1.0
 43
0.38
 44
1.0
 45
0.0
 46
0.0
 47
0.01
 48
0.01
140
1.3495405351
141
0.09
142
0.0
143
25.4
144
1.0
145
0.0
146
1.0
147
0.625
 71
1
 72
0
 73
0
 74
0
 75
0
 76
0
 77
1
 78
8
 79
2
170
0
171
1
172
0
173
0
174
0
175
0
176
0
177
0
178
0
270
2
179
2
271
2
272
2
273
2
274
2
275
0
280
0
281
0
282
0
283
1
284
8
285
0
286
0
287
3
288
0
340
11
278
46
341
220
342
220
343
220
344
220
  0
ENDTAB
  0
ENDSEC
  0
SECTION
  2
BLOCKS
  0
BLOCK
  5
20
100
AcDbEntity
  8
0
100
AcDbBlockBegin
  2
*Model_Space
 70
0
 10
0.0
 20
0.0
 30
0.0
  3
*Model_Space
  1

  0
ENDBLK
  5
21
100
AcDbEntity
  8
0
100
AcDbBlockEnd
  0
BLOCK
  5
1C
100
AcDbEntity
  8
0
100
AcDbBlockBegin
  2
*Paper_Space
 70
0
 10
0.0
 20
0.0
 30
0.0
  3
*Paper_Space
  1

  0
ENDBLK
  5
1D
100
AcDbEntity
  8
0
100
AcDbBlockEnd
  0
BLOCK
  5
222
100
AcDbEntity
  8
0
100
AcDbBlockBegin
  2
_FILLED
 70
64
 10
0.0
 20
0.0
  3
_FILLED
  1

  0
SOLID
  5
223
100
AcDbEntity
  8
0
  6
BYBLOCK
 62
0
100
AcDbTrace
 10
0.0
 20
0.0
 11
-1.0
 21
0.25
 12
-1.0
 22
-0.25
 13
-1.0
 23
-0.25
  0
ENDBLK
  5
224
100
AcDbEntity
  8
0
  6
BYBLOCK
 62
0
100
AcDbBlockEnd
  0
ENDSEC
  0
SECTION
  2
ENTITIES
  0
LINE
  5
225
100
AcDbEntity
  8
00_COMPONENTS_4
100
AcDbLine
 62
7
  6
BYLAYER
 10
61.0112924482
 20
8.3616333767
 11
62.9770424159
 21
8.637901518
  0
LINE
  5
226
100
AcDbEntity
  8
00_COMPONENTS_4
100
AcDbLine
 62
7
  6
BYLAYER
 10
49.4259701336
 20
7.6526298377
 11
54.2521424159
 21
8.3309041187
  0
LINE
  5
227
100
AcDbEntity
  8
00_COMPONENTS_4
100
AcDbLine
 62
7
  6
BYLAYER
 10
35.6904081976
 20
7.652630776
 11
49.4259637751
 21
7.6526299836
  0
LINE
  5
228
100
AcDbEntity
  8
00_COMPONENTS_4
100
AcDbLine
 62
7
  6
BYLAYER
 10
54.2521424159
 20
8.3309041187
 11
30.8642424806
 21
8.3309041187
  0
LINE
  5
229
100
AcDbEntity
  8
00_COMPONENTS_4
100
AcDbLine
 62
7
  6
BYLAYER
 10
61.0112924482
 20
8.3616333767
 11
24.1050924482
 21
8.3616333767
  0
LINE
  5
22A
100
AcDbEntity
  8
00_COMPONENTS_4
100
AcDbLine
 62
7
  6
BYLAYER
 10
62.9770424159
 20
8.637901518
 11
22.1393424806
 21
8.637901518
  0
LINE
  5
22B
100
AcDbEntity
  8
00_COMPONENTS_4
100
AcDbLine
 62
7
  6
BYLAYER
 10
24.1050924482
 20
8.3616333767
 11
22.1393424806
 21
8.637901518
  0
LINE
  5
22C
100
AcDbEntity
  8
00_COMPONENTS_4
100
AcDbLine
 62
7
  6
BYLAYER
 10
35.6904080862
 20
7.652630776
 11
30.8642424806
 21
8.3309041187
  0
LINE
  5
22D
100
AcDbEntity
  8
00_COMPONENTS_4
100
AcDbLine
 62
7
  6
BYLAYER
 10
21.9206924482
 20
8.8894296074
 11
63.1956924482
 21
8.8894296074
  0
LINE
  5
22E
100
AcDbEntity
  8
00_COMPONENTS_4
100
AcDbLine
 62
7
  6
BYLAYER
 10
63.1956924482
 20
11.843630776
 11
21.9206924482
 21
11.843630776
  0
LINE
  5
22F
100
AcDbEntity
  8
00_COMPONENTS_4
100
AcDbLine
 62
7
  6
BYLAYER
 10
62.9415207421
 20
12.097630776
 11
22.1748641544
 21
12.097630776
  0
LINE
  5
230
100
AcDbEntity
  8
00_COMPONENTS
100
AcDbLine
 62
7
  6
BYLAYER
 10
26.5581924442
 20
21.353030776
 11
58.5581924522
 21
21.353030776
  0
LINE
  5
231
100
AcDbEntity
  8
00_COMPONENTS
100
AcDbLine
 62
7
  6
BYLAYER
 10
26.1644924442
 20
26.902133577
 11
25.0956924482
 21
27.5192055424
  0
LINE
  5
232
100
AcDbEntity
  8
00_COMPONENTS
100
AcDbLine
 62
7
  6
BYLAYER
 10
58.5581924522
 20
26.2202251741
 11
26.5581924442
 21
26.2202251741
  0
LINE
  5
233
100
AcDbEntity
  8
00_COMPONENTS
100
AcDbLine
 62
7
  6
BYLAYER
 10
26.1644924442
 20
26.902133577
 11
58.9518924522
 21
26.902133577
  0
LINE
  5
234
100
AcDbEntity
  8
0
100
AcDbLine
 62
7
  6
BYLAYER
 10
14.0085924482
 20
51.162630776
 11
14.0085924482
 21
80.017030776
  0
LINE
  5
235
100
AcDbEntity
  8
0
100
AcDbLine
 62
7
  6
BYLAYER
 10
18.7075924482
 20
80.017030776
 11
18.7075924482
 21
51.162630776
  0
LINE
  5
236
100
AcDbEntity
  8
00_COMPONENTS
100
AcDbLine
 62
7
  6
BYLAYER
 10
24.1431924482
 20
33.812230776
 11
60.9731924482
 21
33.812230776
  0
LINE
  5
237
100
AcDbEntity
  8
00_COMPONENTS_4
100
AcDbLine
 62
7
  6
BYLAYER
 10
21.9206924482
 20
8.8894296074
 11
21.9206924482
 21
11.843630776
  0
LINE
  5
238
100
AcDbEntity
  8
0
100
AcDbLine
 62
7
  6
BYLAYER
 10
22.3144556937
 20
51.162630776
 11
22.3144556937
 21
47.860630776
  0
LINE
  5
239
100
AcDbEntity
  8
0
100
AcDbLine
 62
7
  6
BYLAYER
 10
22.7144424482
 20
43.007030776
 11
22.7144424482
 21
44.594530776
  0
LINE
  5
23A
100
AcDbEntity
  8
00_COMPONENTS
100
AcDbLine
 62
7
  6
BYLAYER
 10
23.5081924482
 20
35.082230776
 11
61.6081924482
 21
35.082230776
  0
LINE
  5
23B
100
AcDbEntity
  8
00_COMPONENTS
100
AcDbLine
 62
7
  6
BYLAYER
 10
61.6081924482
 20
36.606230776
 11
23.5081924482
 21
36.606230776
  0
LINE
  5
23C
100
AcDbEntity
  8
0
100
AcDbLine
 62
7
  6
BYLAYER
 10
23.0581924482
 20
47.860630776
 11
23.0581924482
 21
46.594530776
  0
LINE
  5
23D
100
AcDbEntity
  8
0
100
AcDbLine
 62
7
  6
BYLAYER
 10
23.1017924482
 20
51.162630776
 11
23.1017924535
 21
47.860630776
  0
LINE
  5
23E
100
AcDbEntity
  8
00_COMPONENTS
100
AcDbLine
 62
7
  6
BYLAYER
 10
23.5081924482
 20
35.082230776
 11
23.5081924482
 21
36.606230776
  0
LINE
  5
23F
100
AcDbEntity
  8
00_COMPONENTS
100
AcDbLine
 62
7
  6
BYLAYER
 10
24.1431924482
 20
33.812230776
 11
24.1431924482
 21
35.082230776
  0
LINE
  5
240
100
AcDbEntity
  8
0
100
AcDbLine
 62
7
  6
BYLAYER
 10
24.5581924482
 20
46.594530776
 11
24.5581924482
 21
44.594530776
  0
LINE
  5
241
100
AcDbEntity
  8
0
100
AcDbLine
 62
7
  6
BYLAYER
 10
24.7781924482
 20
47.860630776
 11
24.7781924482
 21
51.162630776
  0
LINE
  5
242
100
AcDbEntity
  8
00_COMPONENTS
100
AcDbLine
 62
7
  6
BYLAYER
 10
25.0956924482
 20
27.5192055424
 11
25.0956924482
 21
33.812230776
  0
LINE
  5
243
100
AcDbEntity
  8
0
100
AcDbLine
 62
7
  6
BYLAYER
 10
25.5655292027
 20
51.162630776
 11
25.5655292027
 21
47.860630776
  0
LINE
  5
244
100
AcDbEntity
  8
00_COMPONENTS
100
AcDbLine
 62
7
  6
BYLAYER
 10
26.5581924442
 20
21.353030776
 11
26.5581924442
 21
26.2202251741
  0
LINE
  5
245
100
AcDbEntity
  8
0
100
AcDbLine
 62
7
  6
BYLAYER
 10
27.5721924482
 20
36.606230776
 11
27.5721924482
 21
43.007030776
  0
LINE
  5
246
100
AcDbEntity
  8
0
100
AcDbLine
 62
7
  6
BYLAYER
 10
28.8167924482
 20
51.162630776
 11
28.8167924482
 21
49.359230776
  0
LINE
  5
247
100
AcDbEntity
  8
00_COMPONENTS_4
100
AcDbLine
 62
7
  6
BYLAYER
 10
29.9470924482
 20
12.097630776
 11
29.9470924482
 21
21.353030776
  0
LINE
  5
248
100
AcDbEntity
  8
0
100
AcDbLine
 62
7
  6
BYLAYER
 10
22.7144424482
 20
43.007030776
 11
62.4019424482
 21
43.007030776
  0
LINE
  5
249
100
AcDbEntity
  8
0
100
AcDbLine
 62
7
  6
BYLAYER
 10
62.4019424482
 20
44.594530776
 11
22.7144424482
 21
44.594530776
  0
LINE
  5
24A
100
AcDbEntity
  8
0
100
AcDbLine
 62
7
  6
BYLAYER
 10
64.9101924482
 20
45.320630776
 11
63.0813924482
 21
45.320630776
  0
LINE
  5
24B
100
AcDbEntity
  8
0
100
AcDbLine
 62
7
  6
BYLAYER
 10
30.3015924482
 20
47.860630776
 11
30.3015924482
 21
50.146630776
  0
LINE
  5
24C
100
AcDbEntity
  8
0
100
AcDbLine
 62
7
  6
BYLAYER
 10
23.0584449553
 20
46.594530776
 11
62.0579399412
 21
46.594530776
  0
LINE
  5
24D
100
AcDbEntity
  8
0
100
AcDbLine
 62
7
  6
BYLAYER
 10
22.3144649179
 20
47.860630776
 11
62.0579399412
 21
47.860630776
  0
LINE
  5
24E
100
AcDbEntity
  8
0
100
AcDbLine
 62
7
  6
BYLAYER
 10
37.7323539727
 20
49.130630776
 11
47.3840309237
 21
49.130630776
  0
LINE
  5
24F
100
AcDbEntity
  8
0
100
AcDbLine
 62
7
  6
BYLAYER
 10
25.5655292027
 20
49.359230776
 11
28.8167924482
 21
49.359230776
  0
LINE
  5
250
100
AcDbEntity
  8
0
100
AcDbLine
 62
7
  6
BYLAYER
 10
56.2995924482
 20
49.359230776
 11
62.8018039859
 21
49.359230776
  0
LINE
  5
251
100
AcDbEntity
  8
0
100
AcDbLine
 62
7
  6
BYLAYER
 10
41.5731439012
 20
49.638630776
 11
37.0196680184
 21
49.638630776
  0
LINE
  5
252
100
AcDbEntity
  8
0
100
AcDbLine
 62
7
  6
BYLAYER
 10
35.3191924482
 20
51.162630776
 11
35.3191924482
 21
50.146630776
  0
LINE
  5
253
100
AcDbEntity
  8
00_COMPONENTS
100
AcDbLine
 62
7
  6
BYLAYER
 10
35.3249881153
 20
33.812230776
 11
35.3249881153
 21
28.3498819818
  0
LINE
  5
254
100
AcDbEntity
  8
0
100
AcDbLine
 62
7
  6
BYLAYER
 10
35.9541924482
 20
47.860630776
 11
35.9541924482
 21
51.162630776
  0
LINE
  5
255
100
AcDbEntity
  8
0
100
AcDbLine
 62
7
  6
BYLAYER
 10
37.0196680184
 20
51.162630776
 11
37.0196680184
 21
49.638630776
  0
LINE
  5
256
100
AcDbEntity
  8
0
100
AcDbLine
 62
7
  6
BYLAYER
 10
37.5289924457
 20
49.638630776
 11
37.5289924457
 21
47.860630776
  0
LINE
  5
257
100
AcDbEntity
  8
0
100
AcDbLine
 62
7
  6
BYLAYER
 10
37.7321924482
 20
49.638630776
 11
37.7321924482
 21
49.130630776
  0
LINE
  5
258
100
AcDbEntity
  8
0
100
AcDbLine
 62
7
  6
BYLAYER
 10
60.0340872706
 20
101.5209213898
 11
59.924784645
 21
101.3085726301
  0
LINE
  5
259
100
AcDbEntity
  8
0
100
AcDbLine
 62
7
  6
BYLAYER
 10
56.2995924482
 20
50.146630776
 11
49.7971924482
 21
50.146630776
  0
LINE
  5
25A
100
AcDbEntity
  8
0
100
AcDbLine
 62
7
  6
BYLAYER
 10
35.3191924482
 20
50.146630776
 11
28.8167924482
 21
50.146630776
  0
LINE
  5
25B
100
AcDbEntity
  8
0
100
AcDbLine
 62
7
  6
BYLAYER
 10
14.0085924482
 20
51.162630776
 11
64.9101924482
 21
51.162630776
  0
LINE
  5
25C
100
AcDbEntity
  8
0
100
AcDbLine
 62
7
  6
BYLAYER
 10
64.9101924482
 20
52.686630776
 11
54.1405924482
 21
52.686630776
  0
LINE
  5
25D
100
AcDbEntity
  8
0
100
AcDbLine
 62
7
  6
BYLAYER
 10
68.0851924482
 20
52.7120307786
 11
56.6805924482
 21
52.7120307786
  0
LINE
  5
25E
100
AcDbEntity
  8
0
100
AcDbLine
 62
7
  6
BYLAYER
 10
39.2561924482
 20
80.017030776
 11
39.2561924482
 21
104.655030776
  0
LINE
  5
25F
100
AcDbEntity
  8
0
100
AcDbLine
 62
7
  6
BYLAYER
 10
56.6805924482
 20
55.7600307786
 11
68.0851924482
 21
55.7600307786
  0
LINE
  5
260
100
AcDbEntity
  8
0
100
AcDbLine
 62
7
  6
BYLAYER
 10
41.5731439012
 20
49.638630776
 11
41.5731439012
 21
51.162630776
  0
LINE
  5
261
100
AcDbEntity
  8
0
100
AcDbLine
 62
7
  6
BYLAYER
 10
42.5581924482
 20
49.130630776
 11
42.5581924482
 21
47.860630776
  0
LINE
  5
262
100
AcDbEntity
  8
0
100
AcDbLine
 62
7
  6
BYLAYER
 10
60.0864506029
 20
101.8612283327
 11
59.9825924482
 21
101.5986693985
  0
LINE
  5
263
100
AcDbEntity
  8
0
100
AcDbLine
 62
7
  6
BYLAYER
 10
60.0340872706
 20
92.6663888544
 11
59.924784645
 21
92.4540400947
  0
LINE
  5
264
100
AcDbEntity
  8
0
100
AcDbLine
 62
7
  6
BYLAYER
 10
64.7137700841
 20
99.5811860676
 11
65.4501450525
 21
101.0117858381
  0
LINE
  5
265
100
AcDbEntity
  8
0
100
AcDbLine
 62
7
  6
BYLAYER
 10
68.0851924482
 20
61.2210307764
 11
56.6805924482
 21
61.2210307764
  0
LINE
  5
266
100
AcDbEntity
  8
0
100
AcDbLine
 62
7
  6
BYLAYER
 10
47.3841924482
 20
51.162630776
 11
47.3841924482
 21
49.130630776
  0
LINE
  5
267
100
AcDbEntity
  8
0
100
AcDbLine
 62
7
  6
BYLAYER
 10
47.6381924482
 20
47.860630776
 11
47.6381924482
 21
51.162630776
  0
LINE
  5
268
100
AcDbEntity
  8
0
100
AcDbLine
 62
7
  6
BYLAYER
 10
60.0864506029
 20
93.0066957974
 11
59.9825924482
 21
92.7441368631
  0
LINE
  5
269
100
AcDbEntity
  8
0
100
AcDbLine
 62
7
  6
BYLAYER
 10
64.7137700841
 20
90.7266535322
 11
65.4501450525
 21
92.1572533028
  0
LINE
  5
26A
100
AcDbEntity
  8
0
100
AcDbLine
 62
7
  6
BYLAYER
 10
56.6805924482
 20
62.0357941723
 11
68.0851924482
 21
62.0357941723
  0
LINE
  5
26B
100
AcDbEntity
  8
0
100
AcDbLine
 62
7
  6
BYLAYER
 10
56.6805924482
 20
63.4855575683
 11
68.0851924482
 21
63.4855575683
  0
LINE
  5
26C
100
AcDbEntity
  8
0
100
AcDbLine
 62
7
  6
BYLAYER
 10
68.0851924482
 20
63.9208387202
 11
56.6805924482
 21
63.9208387202
  0
LINE
  5
26D
100
AcDbEntity
  8
00_COMPONENTS
100
AcDbLine
 62
7
  6
BYLAYER
 10
49.7913967812
 20
33.812230776
 11
49.7913967812
 21
28.3498819818
  0
LINE
  5
26E
100
AcDbEntity
  8
0
100
AcDbLine
 62
7
  6
BYLAYER
 10
49.7971924482
 20
51.162630776
 11
49.7971924482
 21
50.146630776
  0
LINE
  5
26F
100
AcDbEntity
  8
0
100
AcDbLine
 62
7
  6
BYLAYER
 10
52.4895924482
 20
80.017030776
 11
52.4895924482
 21
104.655030776
  0
LINE
  5
270
100
AcDbEntity
  8
0
100
AcDbLine
 62
7
  6
BYLAYER
 10
52.5149924482
 20
80.017030776
 11
52.5149924482
 21
104.655030776
  0
LINE
  5
271
100
AcDbEntity
  8
0
100
AcDbLine
 62
7
  6
BYLAYER
 10
56.6805924482
 20
65.655690983
 11
60.6041648245
 21
65.655690983
  0
LINE
  5
272
100
AcDbEntity
  8
0
100
AcDbLine
 62
7
  6
BYLAYER
 10
62.409020072
 20
65.655690983
 11
68.0851924482
 21
65.655690983
  0
LINE
  5
273
100
AcDbEntity
  8
0
100
AcDbLine
 62
7
  6
BYLAYER
 10
68.0851924482
 20
66.5320739273
 11
64.4468618099
 21
66.5320739273
  0
LINE
  5
274
100
AcDbEntity
  8
0
100
AcDbLine
 62
7
  6
BYLAYER
 10
58.5663230865
 20
66.5320739273
 11
56.6805924482
 21
66.5320739273
  0
LINE
  5
275
100
AcDbEntity
  8
0
100
AcDbLine
 62
7
  6
BYLAYER
 10
56.6805924482
 20
68.1195739273
 11
58.8262134624
 21
68.1195739273
  0
LINE
  5
276
100
AcDbEntity
  8
0
100
AcDbLine
 62
7
  6
BYLAYER
 10
64.186971434
 20
68.1195739273
 11
68.0851924482
 21
68.1195739273
  0
LINE
  5
277
100
AcDbEntity
  8
0
100
AcDbLine
 62
7
  6
BYLAYER
 10
54.1405924482
 20
52.686630776
 11
54.1405924482
 21
80.017030776
  0
LINE
  5
278
100
AcDbEntity
  8
0
100
AcDbLine
 62
7
  6
BYLAYER
 10
55.0549924482
 20
104.655030776
 11
55.0549924482
 21
89.6705793262
  0
LINE
  5
279
100
AcDbEntity
  8
0
100
AcDbLine
 62
7
  6
BYLAYER
 10
55.0549924482
 20
87.5659273162
 11
55.0549924482
 21
80.017030776
  0
LINE
  5
27A
100
AcDbEntity
  8
00_COMPONENTS_4
100
AcDbLine
 62
7
  6
BYLAYER
 10
55.1692924482
 20
12.097630776
 11
55.1692924482
 21
21.353030776
  0
LINE
  5
27B
100
AcDbEntity
  8
0
100
AcDbLine
 62
7
  6
BYLAYER
 10
56.2995924482
 20
49.359230776
 11
56.2995924482
 21
51.162630776
  0
LINE
  5
27C
100
AcDbEntity
  8
0
100
AcDbLine
 62
7
  6
BYLAYER
 10
56.4265924482
 20
80.017030776
 11
56.4265924482
 21
52.686630776
  0
LINE
  5
27D
100
AcDbEntity
  8
0
100
AcDbLine
 62
7
  6
BYLAYER
 10
68.0851924482
 20
69.0846909828
 11
56.6805924482
 21
69.0846909828
  0
LINE
  5
27E
100
AcDbEntity
  8
0
100
AcDbLine
 62
7
  6
BYLAYER
 10
56.6805924482
 20
69.25483872
 11
68.0851924482
 21
69.25483872
  0
LINE
  5
27F
100
AcDbEntity
  8
0
100
AcDbLine
 62
7
  6
BYLAYER
 10
56.6805924482
 20
52.7120307786
 11
56.6805924482
 21
69.2548334529
  0
LINE
  5
280
100
AcDbEntity
  8
0
100
AcDbLine
 62
7
  6
BYLAYER
 10
57.5441924482
 20
43.007030776
 11
57.5441924482
 21
36.606230776
  0
LINE
  5
281
100
AcDbEntity
  8
0
100
AcDbLine
 62
7
  6
BYLAYER
 10
58.0267924482
 20
52.686630776
 11
58.0267924482
 21
52.7120307786
  0
LINE
  5
282
100
AcDbEntity
  8
0
100
AcDbLine
 62
7
  6
BYLAYER
 10
58.0267924482
 20
69.25483872
 11
58.0267924482
 21
80.017030776
  0
LINE
  5
283
100
AcDbEntity
  8
00_COMPONENTS
100
AcDbLine
 62
7
  6
BYLAYER
 10
58.5581924522
 20
26.2202251741
 11
58.5581924522
 21
21.353030776
  0
LINE
  5
284
100
AcDbEntity
  8
0
100
AcDbLine
 62
7
  6
BYLAYER
 10
58.8262134624
 20
66.3598909573
 11
58.8262134624
 21
68.1195739273
  0
LINE
  5
285
100
AcDbEntity
  8
0
100
AcDbLine
 62
7
  6
BYLAYER
 10
59.9825924482
 20
89.3167533212
 11
59.9825924482
 21
91.8522598438
  0
LINE
  5
286
100
AcDbEntity
  8
0
100
AcDbLine
 62
7
  6
BYLAYER
 10
59.9825924482
 20
92.7441368631
 11
59.9825924482
 21
96.1058269488
  0
LINE
  5
287
100
AcDbEntity
  8
0
100
AcDbLine
 62
7
  6
BYLAYER
 10
59.9825924482
 20
98.5843776382
 11
59.9825924482
 21
100.7067923791
  0
LINE
  5
288
100
AcDbEntity
  8
0
100
AcDbLine
 62
7
  6
BYLAYER
 10
59.9825924482
 20
101.5986693985
 11
59.9825924482
 21
104.655030776
  0
LINE
  5
289
100
AcDbEntity
  8
00_COMPONENTS
100
AcDbLine
 62
7
  6
BYLAYER
 10
60.0206924482
 20
33.812230776
 11
60.0206924482
 21
27.5192055424
  0
LINE
  5
28A
100
AcDbEntity
  8
0
100
AcDbLine
 62
7
  6
BYLAYER
 10
60.5581924482
 20
46.594530776
 11
60.5581924482
 21
44.594530776
  0
LINE
  5
28B
100
AcDbEntity
  8
00_COMPONENTS
100
AcDbLine
 62
7
  6
BYLAYER
 10
60.9731924482
 20
35.082230776
 11
60.9731924482
 21
33.812230776
  0
LINE
  5
28C
100
AcDbEntity
  8
00_COMPONENTS
100
AcDbLine
 62
7
  6
BYLAYER
 10
61.6081924482
 20
36.606230776
 11
61.6081924482
 21
35.082230776
  0
LINE
  5
28D
100
AcDbEntity
  8
0
100
AcDbLine
 62
7
  6
BYLAYER
 10
62.0581924482
 20
47.860630776
 11
62.0581924482
 21
46.594530776
  0
LINE
  5
28E
100
AcDbEntity
  8
0
100
AcDbLine
 62
7
  6
BYLAYER
 10
62.3701924482
 20
51.162630776
 11
62.3701924482
 21
52.686630776
  0
LINE
  5
28F
100
AcDbEntity
  8
0
100
AcDbLine
 62
7
  6
BYLAYER
 10
62.4019424482
 20
44.594530776
 11
62.4019424482
 21
43.007030776
  0
LINE
  5
290
100
AcDbEntity
  8
0
100
AcDbLine
 62
7
  6
BYLAYER
 10
62.7765924482
 20
104.655030776
 11
62.7765924482
 21
106.458430776
  0
LINE
  5
291
100
AcDbEntity
  8
0
100
AcDbLine
 62
7
  6
BYLAYER
 10
62.8019924482
 20
51.162630776
 11
62.8019924482
 21
49.359230776
  0
LINE
  5
292
100
AcDbEntity
  8
0
100
AcDbLine
 62
7
  6
BYLAYER
 10
63.0813924482
 20
51.162630776
 11
63.0813924482
 21
45.320630776
  0
LINE
  5
293
100
AcDbEntity
  8
00_COMPONENTS_4
100
AcDbLine
 62
7
  6
BYLAYER
 10
63.1956924482
 20
8.8894296074
 11
63.1956924482
 21
11.843630776
  0
LINE
  5
294
100
AcDbEntity
  8
0
100
AcDbLine
 62
7
  6
BYLAYER
 10
63.3099924482
 20
52.686630776
 11
63.3099924482
 21
52.7120307786
  0
LINE
  5
295
100
AcDbEntity
  8
0
100
AcDbLine
 62
7
  6
BYLAYER
 10
63.3099924482
 20
69.25483872
 11
63.3099924482
 21
80.017030776
  0
LINE
  5
296
100
AcDbEntity
  8
0
100
AcDbLine
 62
7
  6
BYLAYER
 10
63.30978874
 20
80.017030776
 11
14.0085924482
 21
80.017030776
  0
LINE
  5
297
100
AcDbEntity
  8
0
100
AcDbLine
 62
7
  6
BYLAYER
 10
52.4895924482
 20
80.042430776
 11
52.5149924482
 21
80.042430776
  0
LINE
  5
298
100
AcDbEntity
  8
0
100
AcDbLine
 62
7
  6
BYLAYER
 10
64.186971434
 20
68.1195739273
 11
64.186971434
 21
66.3598909573
  0
LINE
  5
299
100
AcDbEntity
  8
0
100
AcDbLine
 62
7
  6
BYLAYER
 10
64.9101924482
 20
52.686630776
 11
64.9101924482
 21
45.320630776
  0
LINE
  5
29A
100
AcDbEntity
  8
0
100
AcDbLine
 62
7
  6
BYLAYER
 10
66.2309924482
 20
104.655030776
 11
66.2309924482
 21
106.458430776
  0
LINE
  5
29B
100
AcDbEntity
  8
0
100
AcDbLine
 62
7
  6
BYLAYER
 10
66.4849924482
 20
99.5811860676
 11
66.4849924482
 21
98.2130192626
  0
LINE
  5
29C
100
AcDbEntity
  8
0
100
AcDbLine
 62
7
  6
BYLAYER
 10
66.4849924482
 20
90.7266535322
 11
66.4849924482
 21
89.3584867272
  0
LINE
  5
29D
100
AcDbEntity
  8
0
100
AcDbLine
 62
7
  6
BYLAYER
 10
67.7549924482
 20
80.1428515204
 11
67.7549924482
 21
104.655030776
  0
LINE
  5
29E
100
AcDbEntity
  8
0
100
AcDbLine
 62
7
  6
BYLAYER
 10
55.0549924482
 20
80.1428515204
 11
67.7549924482
 21
80.1428515204
  0
LINE
  5
29F
100
AcDbEntity
  8
0
100
AcDbLine
 62
7
  6
BYLAYER
 10
68.0851924482
 20
52.7120307786
 11
68.0851924482
 21
69.2548334696
  0
LINE
  5
2A0
100
AcDbEntity
  8
0
100
AcDbLine
 62
7
  6
BYLAYER
 10
55.0549924482
 20
87.5659273162
 11
52.5149924482
 21
87.5659273162
  0
LINE
  5
2A1
100
AcDbEntity
  8
0
100
AcDbLine
 62
7
  6
BYLAYER
 10
52.5149924482
 20
87.9197533212
 11
62.6966280487
 21
87.9197533212
  0
LINE
  5
2A2
100
AcDbEntity
  8
0
100
AcDbLine
 62
7
  6
BYLAYER
 10
52.5149924482
 20
89.3167533212
 11
59.9825924482
 21
89.3167533212
  0
LINE
  5
2A3
100
AcDbEntity
  8
0
100
AcDbLine
 62
7
  6
BYLAYER
 10
52.5149924482
 20
89.6705793263
 11
55.0549924482
 21
89.6705793263
  0
LINE
  5
2A4
100
AcDbEntity
  8
0
100
AcDbLine
 62
7
  6
BYLAYER
 10
64.7137700841
 20
90.7266535322
 11
66.4849924482
 21
90.7266535322
  0
LINE
  5
2A5
100
AcDbEntity
  8
00_COMPONENTS
100
AcDbLine
 62
7
  6
BYLAYER
 10
60.0206924482
 20
27.5192055424
 11
58.9518924522
 21
26.902133577
  0
LINE
  5
2A6
100
AcDbEntity
  8
0
100
AcDbLine
 62
7
  6
BYLAYER
 10
67.7549924482
 20
86.6179032157
 11
62.6966280487
 21
87.9197533212
  0
LINE
  5
2A7
100
AcDbEntity
  8
0
100
AcDbLine
 62
7
  6
BYLAYER
 10
67.7549924482
 20
89.0316321348
 11
65.4501450525
 21
89.6248210766
  0
LINE
  5
2A8
100
AcDbEntity
  8
0
100
AcDbLine
 62
7
  6
BYLAYER
 10
62.6966280487
 20
87.9197533212
 11
59.9825924482
 21
89.3167533212
  0
LINE
  5
2A9
100
AcDbEntity
  8
0
100
AcDbLine
 62
7
  6
BYLAYER
 10
55.0549924482
 20
96.1058269488
 11
59.9825924482
 21
96.1058269488
  0
LINE
  5
2AA
100
AcDbEntity
  8
0
100
AcDbLine
 62
7
  6
BYLAYER
 10
55.0549924482
 20
98.5843776382
 11
59.9825924482
 21
98.5843776382
  0
LINE
  5
2AB
100
AcDbEntity
  8
0
100
AcDbLine
 62
7
  6
BYLAYER
 10
65.4501450525
 20
92.1572533028
 11
67.7549924482
 21
91.5640643609
  0
LINE
  5
2AC
100
AcDbEntity
  8
0
100
AcDbLine
 62
7
  6
BYLAYER
 10
64.7137700841
 20
99.5811860676
 11
66.4849924482
 21
99.5811860676
  0
LINE
  5
2AD
100
AcDbEntity
  8
0
100
AcDbLine
 62
7
  6
BYLAYER
 10
67.7549924482
 20
94.1054768432
 11
59.9825924482
 21
96.1058269488
  0
LINE
  5
2AE
100
AcDbEntity
  8
0
100
AcDbLine
 62
7
  6
BYLAYER
 10
67.7549924482
 20
96.5840275326
 11
59.9825924482
 21
98.5843776382
  0
LINE
  5
2AF
100
AcDbEntity
  8
0
100
AcDbLine
 62
7
  6
BYLAYER
 10
52.5149924482
 20
104.629630776
 11
52.4895924482
 21
104.629630776
  0
LINE
  5
2B0
100
AcDbEntity
  8
0
100
AcDbLine
 62
7
  6
BYLAYER
 10
39.2561924482
 20
104.655030776
 11
67.7549924482
 21
104.655030776
  0
LINE
  5
2B1
100
AcDbEntity
  8
0
100
AcDbLine
 62
7
  6
BYLAYER
 10
67.7549924482
 20
97.8861646702
 11
65.4501450525
 21
98.479353612
  0
LINE
  5
2B2
100
AcDbEntity
  8
0
100
AcDbLine
 62
7
  6
BYLAYER
 10
65.4501450525
 20
101.0117858381
 11
67.7549924482
 21
100.4185968963
  0
LINE
  5
2B3
100
AcDbEntity
  8
0
100
AcDbLine
 62
7
  6
BYLAYER
 10
66.2309924482
 20
106.458430776
 11
62.7765924482
 21
106.458430776
  0
ARC
  5
2B4
100
AcDbEntity
  8
00_COMPONENTS
100
AcDbCircle
 62
7
  6
BYLAYER
 10
59.3455924522
 20
26.2202251741
 40
0.7874
100
AcDbArc
 50
120.0
 51
180.0
  0
ARC
  5
2B5
100
AcDbEntity
  8
00_COMPONENTS
100
AcDbCircle
 62
7
  6
BYLAYER
 10
25.7707924442
 20
26.2202251741
 40
0.7874
100
AcDbArc
 50
0.0
 51
60.0
  0
ARC
  5
2B6
100
AcDbEntity
  8
00_COMPONENTS_4
100
AcDbCircle
 62
7
  6
BYLAYER
 10
54.2167924482
 20
8.5824322081
 40
0.254
100
AcDbArc
 50
278.0
 51
292.8417127544
  0
ARC
  5
2B7
100
AcDbEntity
  8
00_COMPONENTS_4
100
AcDbCircle
 62
7
  6
BYLAYER
 10
30.8995924482
 20
8.5824322081
 40
0.254
100
AcDbArc
 50
247.1582872456
 51
262.0
  0
ARC
  5
2B8
100
AcDbEntity
  8
00_COMPONENTS_4
100
AcDbCircle
 62
7
  6
BYLAYER
 10
22.1746924482
 20
8.8894296074
 40
0.254
100
AcDbArc
 50
180.0
 51
262.0
  0
ARC
  5
2B9
100
AcDbEntity
  8
00_COMPONENTS_4
100
AcDbCircle
 62
7
  6
BYLAYER
 10
62.9416924482
 20
8.8894296074
 40
0.254
100
AcDbArc
 50
278.0
 51
360.0
  0
ARC
  5
2BA
100
AcDbEntity
  8
00_COMPONENTS_4
100
AcDbCircle
 62
7
  6
BYLAYER
 10
62.9416924482
 20
11.843630776
 40
0.254
100
AcDbArc
 50
0.0
 51
90.0
  0
ARC
  5
2BB
100
AcDbEntity
  8
00_COMPONENTS_4
100
AcDbCircle
 62
7
  6
BYLAYER
 10
22.1746924482
 20
11.843630776
 40
0.254
100
AcDbArc
 50
90.0
 51
180.0
  0
SPLINE
  5
2BC
100
AcDbEntity
  8
0
100
AcDbSpline
 62
7
  6
BYLAYER
 70
0
 71
3
 72
14
 73
10
 74
0
 42
0.0000001
 43
0.0000001
 44
0.0000000001
 40
0.0
 40
0.0
 40
0.0
 40
0.0
 40
0.2805815934
 40
0.4161582185
 40
0.5462378553
 40
0.6696948191
 40
0.78608161
 40
0.8957563072
 40
1.0
 40
1.0
 40
1.0
 40
1.0
 10
62.2939924482
 20
99.5722058115
 30
0.0
 10
62.5802480174
 20
99.5722058115
 30
0.0
 10
63.0075636788
 20
99.521611336
 30
0.0
 10
63.5394618518
 20
99.351421205
 30
0.0
 10
63.8988769708
 20
99.1795074088
 30
0.0
 10
64.2123911423
 20
98.9666194289
 30
0.0
 10
64.4710294149
 20
98.7183265852
 30
0.0
 10
64.6668447855
 20
98.4414151603
 30
0.0
 10
64.7528171322
 20
98.2384385519
 30
0.0
 10
64.7823863761
 20
98.136280096
 30
0.0
  0
SPLINE
  5
2BD
100
AcDbEntity
  8
0
100
AcDbSpline
 62
7
  6
BYLAYER
 70
0
 71
3
 72
9
 73
5
 74
0
 42
0.0000001
 43
0.0000001
 44
0.0000000001
 40
0.0
 40
0.0
 40
0.0
 40
0.0
 40
0.24161918
 40
1.0
 40
1.0
 40
1.0
 40
1.0
 10
60.8860066839
 20
99.2710061582
 30
0.0
 10
60.991399864
 20
99.3206352557
 30
0.0
 10
61.4401734621
 20
99.4988043897
 30
0.0
 10
61.9283486805
 20
99.5722058115
 30
0.0
 10
62.2939924482
 20
99.5722058115
 30
0.0
  0
SPLINE
  5
2BE
100
AcDbEntity
  8
0
100
AcDbSpline
 62
7
  6
BYLAYER
 70
0
 71
3
 72
14
 73
10
 74
0
 42
0.0000001
 43
0.0000001
 44
0.0000000001
 40
0.0
 40
0.0
 40
0.0
 40
0.0
 40
0.2805815934
 40
0.4161582185
 40
0.5462378553
 40
0.6696948191
 40
0.78608161
 40
0.8957563072
 40
1.0
 40
1.0
 40
1.0
 40
1.0
 10
62.2939924482
 20
90.7176732761
 30
0.0
 10
62.5802480174
 20
90.7176732761
 30
0.0
 10
63.0075636788
 20
90.6670788006
 30
0.0
 10
63.5394618518
 20
90.4968886696
 30
0.0
 10
63.8988769708
 20
90.3249748734
 30
0.0
 10
64.2123911423
 20
90.1120868935
 30
0.0
 10
64.4710294149
 20
89.8637940498
 30
0.0
 10
64.6668447855
 20
89.5868826249
 30
0.0
 10
64.7528171322
 20
89.3839060165
 30
0.0
 10
64.7823863761
 20
89.2817475606
 30
0.0
  0
SPLINE
  5
2BF
100
AcDbEntity
  8
0
100
AcDbSpline
 62
7
  6
BYLAYER
 70
0
 71
3
 72
9
 73
5
 74
0
 42
0.0000001
 43
0.0000001
 44
0.0000000001
 40
0.0
 40
0.0
 40
0.0
 40
0.0
 40
0.24161918
 40
1.0
 40
1.0
 40
1.0
 40
1.0
 10
60.8860066839
 20
90.4164736228
 30
0.0
 10
60.991399864
 20
90.4661027203
 30
0.0
 10
61.4401734621
 20
90.6442718543
 30
0.0
 10
61.9283486805
 20
90.7176732761
 30
0.0
 10
62.2939924482
 20
90.7176732761
 30
0.0
  0
SPLINE
  5
2C0
100
AcDbEntity
  8
0
100
AcDbSpline
 62
7
  6
BYLAYER
 70
0
 71
3
 72
13
 73
9
 74
0
 42
0.0000001
 43
0.0000001
 44
0.0000000001
 40
0.0
 40
0.0
 40
0.0
 40
0.0
 40
0.2826505823
 40
0.5450026185
 40
0.6674178343
 40
0.7837247994
 40
0.8943579211
 40
1.0
 40
1.0
 40
1.0
 40
1.0
 10
62.9431893527
 20
98.1187696378
 30
0.0
 10
63.1827188338
 20
98.0571229363
 30
0.0
 10
63.6556304205
 20
97.9764480778
 30
0.0
 10
64.2442399878
 20
97.9901348088
 30
0.0
 10
64.6750336446
 20
98.0770187133
 30
0.0
 10
64.9654453497
 20
98.1755256492
 30
0.0
 10
65.2259424291
 20
98.307534578
 30
0.0
 10
65.3801849853
 20
98.4189280034
 30
0.0
 10
65.4501450525
 20
98.479353612
 30
0.0
  0
SPLINE
  5
2C1
100
AcDbEntity
  8
0
100
AcDbSpline
 62
7
  6
BYLAYER
 70
0
 71
3
 72
13
 73
9
 74
0
 42
0.0000001
 43
0.0000001
 44
0.0000000001
 40
0.0
 40
0.0
 40
0.0
 40
0.0
 40
0.2196670475
 40
0.3409552445
 40
0.4682876182
 40
0.5999787813
 40
0.7340116522
 40
1.0
 40
1.0
 40
1.0
 40
1.0
 10
59.9825924482
 20
100.7067923791
 30
0.0
 10
60.0550908538
 20
100.4155932165
 30
0.0
 10
60.262223757
 20
99.9853693953
 30
0.0
 10
60.655446209
 20
99.4800560501
 30
0.0
 10
61.0266092887
 20
99.1141194739
 30
0.0
 10
61.4529875342
 20
98.7856413566
 30
0.0
 10
62.0764065793
 20
98.4109185192
 30
0.0
 10
62.5912889094
 20
98.2093367842
 30
0.0
 10
62.9431893527
 20
98.1187696378
 30
0.0
  0
SPLINE
  5
2C2
100
AcDbEntity
  8
0
100
AcDbSpline
 62
7
  6
BYLAYER
 70
0
 71
3
 72
13
 73
9
 74
0
 42
0.0000001
 43
0.0000001
 44
0.0000000001
 40
0.0
 40
0.0
 40
0.0
 40
0.0
 40
0.2826505823
 40
0.5450026185
 40
0.6674178343
 40
0.7837247994
 40
0.8943579211
 40
1.0
 40
1.0
 40
1.0
 40
1.0
 10
62.9431893527
 20
89.2642371024
 30
0.0
 10
63.1827188338
 20
89.2025904009
 30
0.0
 10
63.6556304205
 20
89.1219155424
 30
0.0
 10
64.2442399878
 20
89.1356022735
 30
0.0
 10
64.6750336446
 20
89.222486178
 30
0.0
 10
64.9654453497
 20
89.3209931138
 30
0.0
 10
65.2259424291
 20
89.4530020426
 30
0.0
 10
65.3801849853
 20
89.564395468
 30
0.0
 10
65.4501450525
 20
89.6248210766
 30
0.0
  0
SPLINE
  5
2C3
100
AcDbEntity
  8
0
100
AcDbSpline
 62
7
  6
BYLAYER
 70
0
 71
3
 72
13
 73
9
 74
0
 42
0.0000001
 43
0.0000001
 44
0.0000000001
 40
0.0
 40
0.0
 40
0.0
 40
0.0
 40
0.2196670475
 40
0.3409552445
 40
0.4682876182
 40
0.5999787813
 40
0.7340116522
 40
1.0
 40
1.0
 40
1.0
 40
1.0
 10
59.9825924482
 20
91.8522598438
 30
0.0
 10
60.0550908538
 20
91.5610606811
 30
0.0
 10
60.262223757
 20
91.1308368599
 30
0.0
 10
60.655446209
 20
90.6255235147
 30
0.0
 10
61.0266092887
 20
90.2595869385
 30
0.0
 10
61.4529875342
 20
89.9311088212
 30
0.0
 10
62.0764065793
 20
89.5563859839
 30
0.0
 10
62.5912889094
 20
89.3548042489
 30
0.0
 10
62.9431893527
 20
89.2642371024
 30
0.0
  0
SPLINE
  5
2C4
100
AcDbEntity
  8
0
100
AcDbSpline
 62
7
  6
BYLAYER
 70
0
 71
3
 72
14
 73
10
 74
0
 42
0.0000001
 43
0.0000001
 44
0.0000000001
 40
0.0
 40
0.0
 40
0.0
 40
0.0
 40
0.2918771273
 40
0.4278593018
 40
0.5558925859
 40
0.6758946094
 40
0.788645981
 40
0.8958219613
 40
1.0
 40
1.0
 40
1.0
 40
1.0
 10
62.9431893527
 20
93.8082466997
 30
0.0
 10
62.6426717399
 20
93.8855896618
 30
0.0
 10
62.1871752212
 20
93.9537033275
 30
0.0
 10
61.5953619011
 20
93.9263159626
 30
0.0
 10
61.1927773055
 20
93.8491558542
 30
0.0
 10
60.8309597539
 20
93.7161654225
 30
0.0
 10
60.5186175828
 20
93.5296470312
 30
0.0
 10
60.2640382097
 20
93.2935166986
 30
0.0
 10
60.137037408
 20
93.1052259959
 30
0.0
 10
60.0863600229
 20
93.0067424156
 30
0.0
  0
SPLINE
  5
2C5
100
AcDbEntity
  8
0
100
AcDbSpline
 62
7
  6
BYLAYER
 70
0
 71
3
 72
11
 73
7
 74
0
 42
0.0000001
 43
0.0000001
 44
0.0000000001
 40
0.0
 40
0.0
 40
0.0
 40
0.0
 40
0.2380504118
 40
0.489313856
 40
0.7461184123
 40
1.0
 40
1.0
 40
1.0
 40
1.0
 10
65.4501450525
 20
92.1572533027
 30
0.0
 10
65.3077841678
 20
92.3534902863
 30
0.0
 10
64.9722064485
 20
92.7266941458
 30
0.0
 10
64.3705147513
 20
93.1962202061
 30
0.0
 10
63.6867800964
 20
93.5699660994
 30
0.0
 10
63.1935890526
 20
93.7438023754
 30
0.0
 10
62.9431893527
 20
93.8082466997
 30
0.0
  0
SPLINE
  5
2C6
100
AcDbEntity
  8
0
100
AcDbSpline
 62
7
  6
BYLAYER
 70
0
 71
3
 72
14
 73
10
 74
0
 42
0.0000001
 43
0.0000001
 44
0.0000000001
 40
0.0
 40
0.0
 40
0.0
 40
0.0
 40
0.2918771273
 40
0.4278593018
 40
0.5558925859
 40
0.6758946094
 40
0.788645981
 40
0.8958219613
 40
1.0
 40
1.0
 40
1.0
 40
1.0
 10
62.9431893527
 20
102.6627792351
 30
0.0
 10
62.64267174
 20
102.7401221971
 30
0.0
 10
62.1871752212
 20
102.8082358628
 30
0.0
 10
61.5953619011
 20
102.780848498
 30
0.0
 10
61.1927773055
 20
102.7036883896
 30
0.0
 10
60.8309597539
 20
102.5706979579
 30
0.0
 10
60.5186175828
 20
102.3841795665
 30
0.0
 10
60.2640382097
 20
102.1480492339
 30
0.0
 10
60.137037408
 20
101.9597585313
 30
0.0
 10
60.0863600229
 20
101.861274951
 30
0.0
  0
SPLINE
  5
2C7
100
AcDbEntity
  8
0
100
AcDbSpline
 62
7
  6
BYLAYER
 70
0
 71
3
 72
11
 73
7
 74
0
 42
0.0000001
 43
0.0000001
 44
0.0000000001
 40
0.0
 40
0.0
 40
0.0
 40
0.0
 40
0.2380504118
 40
0.489313856
 40
0.7461184123
 40
1.0
 40
1.0
 40
1.0
 40
1.0
 10
65.4501450525
 20
101.0117858381
 30
0.0
 10
65.3077841678
 20
101.2080228217
 30
0.0
 10
64.9722064485
 20
101.5812266812
 30
0.0
 10
64.3705147513
 20
102.0507527415
 30
0.0
 10
63.6867800964
 20
102.4244986348
 30
0.0
 10
63.1935890526
 20
102.5983349108
 30
0.0
 10
62.9431893527
 20
102.6627792351
 30
0.0
  0
SPLINE
  5
2C8
100
AcDbEntity
  8
00_COMPONENTS
100
AcDbSpline
 62
7
  6
BYLAYER
 70
0
 71
3
 72
15
 73
11
 74
0
 42
0.0000001
 43
0.0000001
 44
0.0000000001
 40
0.0
 40
0.0
 40
0.0
 40
0.0
 40
0.1262643924
 40
0.2515123322
 40
0.3759716731
 40
0.5
 40
0.6240283269
 40
0.7484876678
 40
0.8737356076
 40
1.0
 40
1.0
 40
1.0
 40
1.0
 10
25.0956924482
 20
28.3498819818
 30
0.0
 10
25.5135422744
 20
28.2193207445
 30
0.0
 10
26.3539017847
 20
27.9838716983
 30
0.0
 10
27.6315439345
 20
27.7196622281
 30
0.0
 10
28.9184097216
 20
27.5561789067
 30
0.0
 10
30.2103402817
 20
27.5007692074
 30
0.0
 10
31.5022708419
 20
27.5561789067
 30
0.0
 10
32.789136629
 20
27.7196622281
 30
0.0
 10
34.0667787788
 20
27.9838716983
 30
0.0
 10
34.9071382891
 20
28.2193207445
 30
0.0
 10
35.3249881153
 20
28.3498819818
 30
0.0
  0
SPLINE
  5
2C9
100
AcDbEntity
  8
00_COMPONENTS
100
AcDbSpline
 62
7
  6
BYLAYER
 70
0
 71
3
 72
15
 73
11
 74
0
 42
0.0000001
 43
0.0000001
 44
0.0000000001
 40
0.0
 40
0.0
 40
0.0
 40
0.0
 40
0.12500029
 40
0.2500023334
 40
0.3750011493
 40
0.5
 40
0.6249988507
 40
0.7499976666
 40
0.87499971
 40
1.0
 40
1.0
 40
1.0
 40
1.0
 10
35.3249881153
 20
28.3498819818
 30
0.0
 10
35.9185460003
 20
28.2187398884
 30
0.0
 10
37.1116864228
 20
27.9826187015
 30
0.0
 10
38.9169900992
 20
27.719004593
 30
0.0
 10
40.7343277365
 20
27.5560252262
 30
0.0
 10
42.5581924482
 20
27.5008139897
 30
0.0
 10
44.38205716
 20
27.5560252262
 30
0.0
 10
46.1993947972
 20
27.719004593
 30
0.0
 10
48.0046984736
 20
27.9826187015
 30
0.0
 10
49.1978388962
 20
28.2187398884
 30
0.0
 10
49.7913967812
 20
28.3498819818
 30
0.0
  0
SPLINE
  5
2CA
100
AcDbEntity
  8
00_COMPONENTS
100
AcDbSpline
 62
7
  6
BYLAYER
 70
0
 71
3
 72
15
 73
11
 74
0
 42
0.0000001
 43
0.0000001
 44
0.0000000001
 40
0.0
 40
0.0
 40
0.0
 40
0.0
 40
0.1262643924
 40
0.2515123322
 40
0.3759716731
 40
0.5
 40
0.6240283269
 40
0.7484876678
 40
0.8737356076
 40
1.0
 40
1.0
 40
1.0
 40
1.0
 10
49.7913967812
 20
28.3498819818
 30
0.0
 10
50.2092466074
 20
28.2193207445
 30
0.0
 10
51.0496061176
 20
27.9838716983
 30
0.0
 10
52.3272482675
 20
27.7196622281
 30
0.0
 10
53.6141140545
 20
27.5561789067
 30
0.0
 10
54.9060446147
 20
27.5007692074
 30
0.0
 10
56.1979751749
 20
27.5561789067
 30
0.0
 10
57.4848409619
 20
27.7196622281
 30
0.0
 10
58.7624831117
 20
27.9838716983
 30
0.0
 10
59.602842622
 20
28.2193207445
 30
0.0
 10
60.0206924482
 20
28.3498819818
 30
0.0
  0
SPLINE
  5
2CB
100
AcDbEntity
  8
0
100
AcDbSpline
 62
7
  6
BYLAYER
 70
0
 71
3
 72
9
 73
5
 74
0
 42
0.0000001
 43
0.0000001
 44
0.0000000001
 40
0.0
 40
0.0
 40
0.0
 40
0.0
 40
0.2468220982
 40
1.0
 40
1.0
 40
1.0
 40
1.0
 10
62.4090200734
 20
65.6556909832
 30
0.0
 10
62.3352909351
 20
65.6449947817
 30
0.0
 10
62.03600614
 20
65.6059737266
 30
0.0
 10
61.7339322401
 20
65.5859295366
 30
0.0
 10
61.5065924482
 20
65.5859295366
 30
0.0
  0
SPLINE
  5
2CC
100
AcDbEntity
  8
0
100
AcDbSpline
 62
7
  6
BYLAYER
 70
0
 71
3
 72
9
 73
5
 74
0
 42
0.0000001
 43
0.0000001
 44
0.0000000001
 40
0.0
 40
0.0
 40
0.0
 40
0.0
 40
0.2523130281
 40
1.0
 40
1.0
 40
1.0
 40
1.0
 10
61.5065924482
 20
65.5859295366
 30
0.0
 10
61.4304284079
 20
65.5859295366
 30
0.0
 10
61.1285685086
 20
65.5927592815
 30
0.0
 10
60.827525821
 20
65.6232870476
 30
0.0
 10
60.604164823
 20
65.6556909832
 30
0.0
  0
SPLINE
  5
2CD
100
AcDbEntity
  8
0
100
AcDbSpline
 62
7
  6
BYLAYER
 70
0
 71
3
 72
11
 73
7
 74
0
 42
0.0000001
 43
0.0000001
 44
0.0000000001
 40
0.0
 40
0.0
 40
0.0
 40
0.0
 40
0.2897042487
 40
0.5568703207
 40
0.7946958813
 40
1.0
 40
1.0
 40
1.0
 40
1.0
 10
62.409020072
 20
65.655690983
 30
0.0
 10
62.6244891126
 20
65.6869499986
 30
0.0
 10
63.0358731481
 20
65.7697206687
 30
0.0
 10
63.603666736
 20
65.9611123253
 30
0.0
 10
64.0797069613
 20
66.2075694822
 30
0.0
 10
64.3421897331
 20
66.4187136648
 30
0.0
 10
64.4468618099
 20
66.5320739273
 30
0.0
  0
SPLINE
  5
2CE
100
AcDbEntity
  8
0
100
AcDbSpline
 62
7
  6
BYLAYER
 70
0
 71
3
 72
11
 73
7
 74
0
 42
0.0000001
 43
0.0000001
 44
0.0000000001
 40
0.0
 40
0.0
 40
0.0
 40
0.0
 40
0.2053041187
 40
0.4431296793
 40
0.7102957513
 40
1.0
 40
1.0
 40
1.0
 40
1.0
 10
58.5663230865
 20
66.5320739273
 30
0.0
 10
58.6709951634
 20
66.4187136648
 30
0.0
 10
58.9334779352
 20
66.2075694822
 30
0.0
 10
59.4095181604
 20
65.9611123253
 30
0.0
 10
59.9773117483
 20
65.7697206687
 30
0.0
 10
60.3886957838
 20
65.6869499986
 30
0.0
 10
60.6041648245
 20
65.655690983
 30
0.0
  0
SPLINE
  5
2CF
100
AcDbEntity
  8
0
100
AcDbSpline
 62
7
  6
BYLAYER
 70
0
 71
3
 72
12
 73
8
 74
0
 42
0.0000001
 43
0.0000001
 44
0.0000000001
 40
0.0
 40
0.0
 40
0.0
 40
0.0
 40
0.2783505186
 40
0.544473749
 40
0.7875607277
 40
0.897994421
 40
1.0
 40
1.0
 40
1.0
 40
1.0
 10
61.5065924482
 20
68.8300540524
 30
0.0
 10
61.2455812145
 20
68.8300540524
 30
0.0
 10
60.7343932048
 20
68.7994643445
 30
0.0
 10
60.0066537959
 20
68.6634258095
 30
0.0
 10
59.4535443207
 20
68.4761584278
 30
0.0
 10
59.0713083777
 20
68.2842070146
 30
0.0
 10
58.9031989232
 20
68.1763402818
 30
0.0
 10
58.8262134624
 20
68.1195739273
 30
0.0
  0
SPLINE
  5
2D0
100
AcDbEntity
  8
0
100
AcDbSpline
 62
7
  6
BYLAYER
 70
0
 71
3
 72
12
 73
8
 74
0
 42
0.0000001
 43
0.0000001
 44
0.0000000001
 40
0.0
 40
0.0
 40
0.0
 40
0.0
 40
0.102005579
 40
0.2124392723
 40
0.455526251
 40
0.7216494814
 40
1.0
 40
1.0
 40
1.0
 40
1.0
 10
64.186971434
 20
68.1195739273
 30
0.0
 10
64.1099859732
 20
68.1763402818
 30
0.0
 10
63.9418765188
 20
68.2842070146
 30
0.0
 10
63.5596405757
 20
68.4761584278
 30
0.0
 10
63.0065311005
 20
68.6634258095
 30
0.0
 10
62.2787916917
 20
68.7994643445
 30
0.0
 10
61.767603682
 20
68.8300540524
 30
0.0
 10
61.5065924482
 20
68.8300540524
 30
0.0
  0
ELLIPSE
  5
2D1
100
AcDbEntity
  8
0
100
AcDbEllipse
 62
7
  6
BYLAYER
 10
63.3353924482
 20
101.1527308888
 30
0.0
 11
3.4193096007
 21
0.0
 31
0.0
 40
0.6644630244
 41
2.9440347355
 42
3.3391505717
  0
ELLIPSE
  5
2D2
100
AcDbEntity
  8
0
100
AcDbEllipse
 62
7
  6
BYLAYER
 10
62.8731502507
 20
100.2547052767
 30
0.0
 11
3.4193096007
 21
0.0
 31
0.0
 40
0.6644630244
 41
2.5504474514
 42
2.6099721559
  0
ELLIPSE
  5
2D3
100
AcDbEntity
  8
0
100
AcDbEllipse
 62
7
  6
BYLAYER
 10
61.8747071041
 20
98.3149699546
 30
0.0
 11
3.4193096007
 21
0.0
 31
0.0
 40
0.6644630244
 41
0.5911452022
 42
2.1032571002
  0
ELLIPSE
  5
2D4
100
AcDbEntity
  8
0
100
AcDbEllipse
 62
7
  6
BYLAYER
 10
63.3353924482
 20
92.2981983534
 30
0.0
 11
3.4193096007
 21
-0.0
 31
0.0
 40
0.6644630244
 41
2.9440347355
 42
3.3391505717
  0
ELLIPSE
  5
2D5
100
AcDbEntity
  8
0
100
AcDbEllipse
 62
7
  6
BYLAYER
 10
62.8731502507
 20
91.4001727413
 30
0.0
 11
3.4193096007
 21
0.0
 31
0.0
 40
0.6644630244
 41
2.5504474514
 42
2.6099721559
  0
ELLIPSE
  5
2D6
100
AcDbEntity
  8
0
100
AcDbEllipse
 62
7
  6
BYLAYER
 10
61.8747071041
 20
89.4604374192
 30
0.0
 11
3.4193096007
 21
-0.0
 31
0.0
 40
0.6644630244
 41
0.5911452022
 42
2.1032571002
  0
ENDSEC
  0
SECTION
  2
OBJECTS
  0
DICTIONARY
  5
C
100
AcDbDictionary
280
0
281
1
  3
ACAD_GROUP
350
D
  3
ACAD_MLINESTYLE
350
17
  3
ACAD_LAYOUT
350
1A
  3
ACAD_PLOTSETTINGS
350
19
  3
ACAD_PLOTSTYLENAME
350
E
  0
DICTIONARY
  5
D
102
{ACAD_REACTORS
330
C
102
}
100
AcDbDictionary
280
0
281
1
  0
ACDBDICTIONARYWDFLT
  5
E
102
{ACAD_REACTORS
330
C
102
}
100
AcDbDictionary
281
1
  3
Normal
350
F
100
AcDbDictionaryWithDefault
340
F
  0
DICTIONARY
  5
17
102
{ACAD_REACTORS
330
C
102
}
100
AcDbDictionary
280
0
281
1
  3
Standard
350
18
  0
DICTIONARY
  5
19
102
{ACAD_REACTORS
330
C
102
}
100
AcDbDictionary
281
1
  0
DICTIONARY
  5
1A
102
{ACAD_REACTORS
330
C
102
}
100
AcDbDictionary
281
1
  3
Model
350
2D7
  3
Layout1
350
2D8
  0
ACDBPLACEHOLDER
  5
F
102
{ACAD_REACTORS
330
E
102
}
  0
MLINESTYLE
  5
18
102
{ACAD_REACTORS
330
17
102
}
100
AcDbMlineStyle
  2
STANDARD
 70
0
  3

 62
256
 51
90.0
 52
90.0
 71
2
 49
0.5
 62
256
  6
BYLAYER
 49
-0.5
 62
256
  6
BYLAYER
  0
LAYOUT
  5
2D7
102
{ACAD_REACTORS
330
1A
102
}
100
AcDbPlotSettings
  1

  2
none_device
  4

  6

 40
0.0
 41
0.0
 42
0.0
 43
0.0
 44
210.0
 45
297.0
 46
0.0
 47
0.0
 48
0.0
 49
0.0
140
0.0
141
0.0
142
1.0
143
1.0
 70
1024
 72
1
 73
0
 74
0
  7

 75
0
147
1.0
148
0.0
149
0.0
100
AcDbLayout
  1
Model
 70
0
 71
0
 10
0.0
 20
0.0
 11
210.0
 21
297.0
 12
0.0
 22
0.0
 32
0.0
 14
0.0
 24
0.0
 34
0.0
 15
0.0
 25
0.0
 35
0.0
146
0.0
 13
0.0
 23
0.0
 33
0.0
 16
1.0
 26
0.0
 36
0.0
 17
0.0
 27
1.0
 37
0.0
 76
0
330
21E
345
0
346
0
  0
LAYOUT
  5
2D8
102
{ACAD_REACTORS
330
1A
102
}
100
AcDbPlotSettings
  1

  2
none_device
  4

  6

 40
0.0
 41
0.0
 42
0.0
 43
0.0
 44
210.0
 45
297.0
 46
0.0
 47
0.0
 48
0.0
 49
0.0
140
0.0
141
0.0
142
1.0
143
1.0
 70
0
 72
1
 73
0
 74
0
  7

 75
0
147
1.0
148
0.0
149
0.0
100
AcDbLayout
  1
Layout1
 70
0
 71
1
 10
0.0
 20
0.0
 11
210.0
 21
297.0
 12
0.0
 22
0.0
 32
0.0
 14
0.0
 24
0.0
 34
0.0
 15
0.0
 25
0.0
 35
0.0
146
0.0
 13
0.0
 23
0.0
 33
0.0
 16
1.0
 26
0.0
 36
0.0
 17
0.0
 27
1.0
 37
0.0
 76
0
330
21F
345
0
346
0
  0
ENDSEC
  0
EOF
