999
DXF file: C:\Users\sesa63760\Dev\_Creo\CAD\MCADUE0001697_3D-CAD\drw0001_5.dxf
999
Pro/ENGINEER 2019471 by Parametric Technology Corporation
  0
SECTION
  2
HEADER
  9
$ACADVER
  1
AC1024
  9
$DWGCODEPAGE
  3
ANSI_1252
  9
$EXTMAX
 10
1318.719851577
 20
1865.0466472303
 30
0.0
  9
$EXTMIN
 10
0.0
 20
0.0
 30
0.0
  9
$LIMMIN
 10
0.0
 20
0.0
  9
$LIMMAX
 10
1318.719851577
 20
1865.0466472303
  9
$VIEWCTR
 10
659.3599257885
 20
932.5233236152
  9
$VIEWSIZE
 40
1865.0466472303
  9
$CLAYER
  8
0
  9
$LTSCALE
 40
121.5734110787
  9
$CELTYPE
  6
BYLAYER
  9
$DIMSCALE
 40
1.0
  9
$DIMASZ
 40
15.6990458521
  9
$DIMEXO
 40
1.0
  9
$DIMDLI
 40
83.9961749271
  9
$DIMEXE
 40
1.0
  9
$DIMCEN
 40
19.8938309038
  9
$DIMLFAC
 40
1.0
  9
$DIMBLK
  1
_FILLED
  9
$DIMALT
 70
0
  9
$DIMALTF
 40
0.0393700787
  9
$DIMTXT
 40
21.9786641929
  9
$DIMTOL
 70
1
  9
$DIMLIM
 70
0
  9
$DIMTFAC
 40
1.0
  9
$DIMTP
 40
0.01
  9
$DIMTM
 40
0.01
  9
$DIMGAP
 40
0.625
  9
$DIMDSEP
 70
46
  9
$AUNITS
 70
0
  9
$PDMODE
 70
3
  9
$PDSIZE
 40
0.3125
  9
$HANDSEED
  5
569
  9
$TILEMODE
 70
1
  9
$MEASUREMENT
 70
1
  9
$INSUNITS
 70
4
  0
ENDSEC
  0
SECTION
  2
CLASSES
  0
CLASS
  1
ACDBDICTIONARYWDFLT
  2
AcDbDictionaryWithDefault
  3
AutoCAD 2000
 90
0
 91
1
280
0
281
0
  0
CLASS
  1
ACDBPLACEHOLDER
  2
AcDbPlaceHolder
  3
AutoCAD 2000
 90
0
 91
1
280
0
281
0
  0
CLASS
  1
LAYOUT
  2
AcDbLayout
  3
AutoCAD 2000
 90
0
 91
0
280
0
281
0
  0
ENDSEC
  0
SECTION
  2
TABLES
  0
TABLE
  2
VPORT
  5
8
100
AcDbSymbolTable
 70
2
  0
VPORT
  5
1F4
100
AcDbSymbolTableRecord
100
AcDbViewportTableRecord
  2
*ACTIVE
 70
0
 10
0.0
 20
0.0
 11
1.0
 21
1.0
 12
659.3599257885
 22
932.5233236152
 13
0.0
 23
0.0
 14
1.0
 24
1.0
 15
0.0
 25
0.0
 16
0.0
 26
0.0
 36
1.0
 17
0.0
 27
0.0
 37
0.0
 40
1865.0466472303
 41
0.7070707071
 42
50.0
 43
0.0
 44
0.0
 50
0.0
 51
0.0
 71
0
 72
100
 73
1
 74
1
 75
0
 76
0
 77
0
 78
0
  0
ENDTAB
  0
TABLE
  2
LTYPE
  5
5
100
AcDbSymbolTable
 70
6
  0
LTYPE
  5
14
100
AcDbSymbolTableRecord
100
AcDbLinetypeTableRecord
  2
BYBLOCK
 70
0
  3

 72
65
 73
0
 40
0.0
  0
LTYPE
  5
15
100
AcDbSymbolTableRecord
100
AcDbLinetypeTableRecord
  2
BYLAYER
 70
0
  3

 72
65
 73
0
 40
0.0
  0
LTYPE
  5
16
100
AcDbSymbolTableRecord
100
AcDbLinetypeTableRecord
  2
CONTINUOUS
 70
64
  3
Solid line
 72
65
 73
0
 40
0.0
  0
LTYPE
  5
1F5
100
AcDbSymbolTableRecord
100
AcDbLinetypeTableRecord
  2
CENTER
 70
64
  3
____ _ ____ _ ____ _ ____ _ ____ _ ____ _ ____
 72
65
 73
4
 40
0.6
 49
0.375
 74
0
 49
-0.075
 74
0
 49
0.075
 74
0
 49
-0.075
 74
0
  0
LTYPE
  5
1F6
100
AcDbSymbolTableRecord
100
AcDbLinetypeTableRecord
  2
HIDDEN
 70
64
  3
- - - - - - - - - - - - - - - - - - - -
 72
65
 73
2
 40
0.2
 49
0.1
 74
0
 49
-0.1
 74
0
  0
LTYPE
  5
1F7
100
AcDbSymbolTableRecord
100
AcDbLinetypeTableRecord
  2
PHANTOM
 70
64
  3
_____ _ _ _____ _ _ _____ _ _ _____
 72
65
 73
6
 40
0.8
 49
0.45
 74
0
 49
-0.05
 74
0
 49
0.1
 74
0
 49
-0.05
 74
0
 49
0.1
 74
0
 49
-0.05
 74
0
  0
LTYPE
  5
1F8
100
AcDbSymbolTableRecord
100
AcDbLinetypeTableRecord
  2
DOT
 70
64
  3
. . . . . . . . . . . . . . . . . . . .
 72
65
 73
2
 40
0.2
 49
0.1
 74
0
 49
-0.1
 74
0
  0
LTYPE
  5
1F9
100
AcDbSymbolTableRecord
100
AcDbLinetypeTableRecord
  2
DASHED
 70
64
  3
- - - - - - - - - - - - - - - - - - - -
 72
65
 73
2
 40
0.2
 49
0.1
 74
0
 49
-0.1
 74
0
  0
ENDTAB
  0
TABLE
  2
LAYER
  5
2
100
AcDbSymbolTable
 70
36
  0
LAYER
  5
10
100
AcDbSymbolTableRecord
100
AcDbLayerTableRecord
  2
0
 70
0
 62
7
  6
CONTINUOUS
370
-3
390
F
  0
LAYER
  5
1FA
100
AcDbSymbolTableRecord
100
AcDbLayerTableRecord
  2
DEFAULT_1
 70
0
 62
7
  6
CENTER
370
-3
390
F
  0
LAYER
  5
1FB
100
AcDbSymbolTableRecord
100
AcDbLayerTableRecord
  2
DEFAULT_2
 70
0
 62
8
  6
HIDDEN
370
-3
390
F
  0
LAYER
  5
1FC
100
AcDbSymbolTableRecord
100
AcDbLayerTableRecord
  2
DEFAULT_3
 70
0
 62
7
  6
PHANTOM
370
-3
390
F
  0
LAYER
  5
1FD
100
AcDbSymbolTableRecord
100
AcDbLayerTableRecord
  2
00_COMPONENTS
 70
0
 62
7
  6
CONTINUOUS
370
-3
390
F
  0
LAYER
  5
1FE
100
AcDbSymbolTableRecord
100
AcDbLayerTableRecord
  2
01_1_DEFAULT_DATUMS
 70
0
 62
7
  6
CONTINUOUS
370
-3
390
F
  0
LAYER
  5
1FF
100
AcDbSymbolTableRecord
100
AcDbLayerTableRecord
  2
01_PLANES
 70
0
 62
7
  6
CONTINUOUS
370
-3
390
F
  0
LAYER
  5
200
100
AcDbSymbolTableRecord
100
AcDbLayerTableRecord
  2
02_COORD_SYS
 70
0
 62
7
  6
CONTINUOUS
370
-3
390
F
  0
LAYER
  5
201
100
AcDbSymbolTableRecord
100
AcDbLayerTableRecord
  2
03_AXES
 70
0
 62
7
  6
CONTINUOUS
370
-3
390
F
  0
LAYER
  5
202
100
AcDbSymbolTableRecord
100
AcDbLayerTableRecord
  2
04_POINTS
 70
0
 62
7
  6
CONTINUOUS
370
-3
390
F
  0
LAYER
  5
203
100
AcDbSymbolTableRecord
100
AcDbLayerTableRecord
  2
05_CURVES
 70
0
 62
7
  6
CONTINUOUS
370
-3
390
F
  0
LAYER
  5
204
100
AcDbSymbolTableRecord
100
AcDbLayerTableRecord
  2
06_SURFS
 70
0
 62
7
  6
CONTINUOUS
370
-3
390
F
  0
LAYER
  5
205
100
AcDbSymbolTableRecord
100
AcDbLayerTableRecord
  2
07_COSMETICS
 70
0
 62
7
  6
CONTINUOUS
370
-3
390
F
  0
LAYER
  5
206
100
AcDbSymbolTableRecord
100
AcDbLayerTableRecord
  2
10_NOTES
 70
0
 62
7
  6
CONTINUOUS
370
-3
390
F
  0
LAYER
  5
207
100
AcDbSymbolTableRecord
100
AcDbLayerTableRecord
  2
11_NOTES_PUB
 70
0
 62
7
  6
CONTINUOUS
370
-3
390
F
  0
LAYER
  5
208
100
AcDbSymbolTableRecord
100
AcDbLayerTableRecord
  2
13_REF_GTOL
 70
0
 62
7
  6
CONTINUOUS
370
-3
390
F
  0
LAYER
  5
209
100
AcDbSymbolTableRecord
100
AcDbLayerTableRecord
  2
16_MISC
 70
0
 62
7
  6
CONTINUOUS
370
-3
390
F
  0
LAYER
  5
20A
100
AcDbSymbolTableRecord
100
AcDbLayerTableRecord
  2
17_NO_PRINT
 70
0
 62
7
  6
CONTINUOUS
370
-3
390
F
  0
LAYER
  5
20B
100
AcDbSymbolTableRecord
100
AcDbLayerTableRecord
  2
18_DATUM_CAMS_JOINTS
 70
0
 62
7
  6
CONTINUOUS
370
-3
390
F
  0
LAYER
  5
20C
100
AcDbSymbolTableRecord
100
AcDbLayerTableRecord
  2
19_DATUM_FUNCTIONAL
 70
0
 62
7
  6
CONTINUOUS
370
-3
390
F
  0
LAYER
  5
20D
100
AcDbSymbolTableRecord
100
AcDbLayerTableRecord
  2
20_DATUM_KINEMATIC_SCHEME
 70
0
 62
7
  6
CONTINUOUS
370
-3
390
F
  0
LAYER
  5
20E
100
AcDbSymbolTableRecord
100
AcDbLayerTableRecord
  2
INTFCLR_296986
 70
0
 62
7
  6
CONTINUOUS
370
-3
390
F
  0
LAYER
  5
20F
100
AcDbSymbolTableRecord
100
AcDbLayerTableRecord
  2
INTFCLR_308710
 70
0
 62
7
  6
CONTINUOUS
370
-3
390
F
  0
ENDTAB
  0
TABLE
  2
STYLE
  5
3
100
AcDbSymbolTable
 70
1
  0
STYLE
  5
11
100
AcDbSymbolTableRecord
100
AcDbTextStyleTableRecord
  2
STANDARD
 70
0
 40
0.0
 41
0.8
 50
0.0
 71
0
 42
0.2
  3
txt
  4

  0
STYLE
  5
210
100
AcDbSymbolTableRecord
100
AcDbTextStyleTableRecord
  2
TEXTSTYLE_1
 70
0
 40
0.0
 41
0.8
 50
0.0
 71
0
 42
0.2
  3
gdt
  4

  0
ENDTAB
  0
TABLE
  2
VIEW
  5
6
100
AcDbSymbolTable
 70
0
  0
ENDTAB
  0
TABLE
  2
UCS
  5
7
100
AcDbSymbolTable
 70
0
  0
ENDTAB
  0
TABLE
  2
APPID
  5
9
100
AcDbSymbolTable
 70
1
  0
APPID
  5
211
100
AcDbSymbolTableRecord
100
AcDbRegAppTableRecord
  2
ACAD
 70
0
  0
ENDTAB
  0
TABLE
  2
BLOCK_RECORD
  5
1
100
AcDbSymbolTable
 70
0
  0
BLOCK_RECORD
  5
212
100
AcDbSymbolTableRecord
100
AcDbBlockTableRecord
  2
*Model_Space
  0
BLOCK_RECORD
  5
213
100
AcDbSymbolTableRecord
100
AcDbBlockTableRecord
  2
*Paper_Space
  0
BLOCK_RECORD
  5
214
100
AcDbSymbolTableRecord
100
AcDbBlockTableRecord
  2
_FILLED
  0
ENDTAB
  0
TABLE
  2
DIMSTYLE
  5
A
100
AcDbSymbolTable
 70
1
100
AcDbDimStyleTable
 71
0
  0
DIMSTYLE
105
215
100
AcDbSymbolTableRecord
100
AcDbDimStyleTableRecord
  2
STANDARD
 70
0
  3

  4

 40
1.0
 41
15.6990458521
 42
1.0
 43
0.38
 44
1.0
 45
0.0
 46
0.0
 47
0.01
 48
0.01
140
21.9786641929
141
0.09
142
0.0
143
25.4
144
1.0
145
0.0
146
1.0
147
0.625
 71
1
 72
0
 73
0
 74
0
 75
0
 76
0
 77
1
 78
8
 79
2
170
0
171
1
172
0
173
0
174
0
175
0
176
0
177
0
178
0
270
2
179
2
271
2
272
2
273
2
274
2
275
0
280
0
281
0
282
0
283
1
284
8
285
0
286
0
287
3
288
0
340
11
278
46
341
214
342
214
343
214
344
214
  0
ENDTAB
  0
ENDSEC
  0
SECTION
  2
BLOCKS
  0
BLOCK
  5
20
100
AcDbEntity
  8
0
100
AcDbBlockBegin
  2
*Model_Space
 70
0
 10
0.0
 20
0.0
 30
0.0
  3
*Model_Space
  1

  0
ENDBLK
  5
21
100
AcDbEntity
  8
0
100
AcDbBlockEnd
  0
BLOCK
  5
1C
100
AcDbEntity
  8
0
100
AcDbBlockBegin
  2
*Paper_Space
 70
0
 10
0.0
 20
0.0
 30
0.0
  3
*Paper_Space
  1

  0
ENDBLK
  5
1D
100
AcDbEntity
  8
0
100
AcDbBlockEnd
  0
BLOCK
  5
216
100
AcDbEntity
  8
0
100
AcDbBlockBegin
  2
_FILLED
 70
64
 10
0.0
 20
0.0
  3
_FILLED
  1

  0
SOLID
  5
217
100
AcDbEntity
  8
0
  6
BYBLOCK
 62
0
100
AcDbTrace
 10
0.0
 20
0.0
 11
-1.0
 21
0.25
 12
-1.0
 22
-0.25
 13
-1.0
 23
-0.25
  0
ENDBLK
  5
218
100
AcDbEntity
  8
0
  6
BYBLOCK
 62
0
100
AcDbBlockEnd
  0
ENDSEC
  0
SECTION
  2
ENTITIES
  0
LINE
  5
219
100
AcDbEntity
  8
0
100
AcDbLine
 62
7
  6
CONTINUOUS
 10
677.5594498218
 20
151.806122449
 11
665.6594498218
 21
151.806122449
  0
LINE
  5
21A
100
AcDbEntity
  8
0
100
AcDbLine
 62
7
  6
CONTINUOUS
 10
677.5594498227
 20
153.606122449
 11
665.6594498218
 21
153.606122449
  0
LINE
  5
21B
100
AcDbEntity
  8
0
100
AcDbLine
 62
7
  6
CONTINUOUS
 10
667.1594498218
 20
183.906122449
 11
653.8517023318
 21
183.906122449
  0
LINE
  5
21C
100
AcDbEntity
  8
0
100
AcDbLine
 62
7
  6
CONTINUOUS
 10
656.6594498218
 20
185.906122449
 11
667.1594498218
 21
185.906122449
  0
LINE
  5
21D
100
AcDbEntity
  8
0
100
AcDbLine
 62
7
  6
CONTINUOUS
 10
644.1332137807
 20
188.406122449
 11
652.4169231167
 21
188.406122449
  0
LINE
  5
21E
100
AcDbEntity
  8
0
100
AcDbLine
 62
7
  6
CONTINUOUS
 10
667.1594498218
 20
199.306122449
 11
661.3594498218
 21
199.306122449
  0
LINE
  5
21F
100
AcDbEntity
  8
0
100
AcDbLine
 62
7
  6
CONTINUOUS
 10
658.7594498218
 20
200.806122449
 11
660.7594498218
 21
200.806122449
  0
LINE
  5
220
100
AcDbEntity
  8
0
100
AcDbLine
 62
7
  6
CONTINUOUS
 10
661.2594498219
 20
203.806122449
 11
660.8197517364
 21
203.806122449
  0
LINE
  5
221
100
AcDbEntity
  8
0
100
AcDbLine
 62
7
  6
CONTINUOUS
 10
656.1594498218
 20
203.806122449
 11
660.7594498218
 21
203.806122449
  0
LINE
  5
222
100
AcDbEntity
  8
0
100
AcDbLine
 62
7
  6
CONTINUOUS
 10
660.7594498218
 20
207.4116737244
 11
661.3594498218
 21
207.4116737244
  0
LINE
  5
223
100
AcDbEntity
  8
0
100
AcDbLine
 62
7
  6
CONTINUOUS
 10
661.3594498218
 20
207.9047346301
 11
660.7594498218
 21
207.9047346301
  0
LINE
  5
224
100
AcDbEntity
  8
0
100
AcDbLine
 62
7
  6
CONTINUOUS
 10
654.44364931
 20
208.056122449
 11
654.5953392606
 21
208.056122449
  0
LINE
  5
225
100
AcDbEntity
  8
0
100
AcDbLine
 62
7
  6
CONTINUOUS
 10
661.3594498218
 20
208.8818163584
 11
660.7594498218
 21
208.8818163584
  0
LINE
  5
226
100
AcDbEntity
  8
0
100
AcDbLine
 62
7
  6
CONTINUOUS
 10
654.5953392606
 20
211.556122449
 11
654.44364931
 21
211.556122449
  0
LINE
  5
227
100
AcDbEntity
  8
0
100
AcDbLine
 62
7
  6
CONTINUOUS
 10
661.3594498218
 20
212.6318163584
 11
660.7594498218
 21
212.6318163584
  0
LINE
  5
228
100
AcDbEntity
  8
0
100
AcDbLine
 62
7
  6
CONTINUOUS
 10
660.7594498218
 20
212.806122449
 11
661.3594498218
 21
212.806122449
  0
LINE
  5
229
100
AcDbEntity
  8
0
100
AcDbLine
 62
7
  6
CONTINUOUS
 10
656.1594498218
 20
215.806122449
 11
660.7594498218
 21
215.806122449
  0
LINE
  5
22A
100
AcDbEntity
  8
0
100
AcDbLine
 62
7
  6
CONTINUOUS
 10
660.7594498218
 20
218.806122449
 11
658.7594498218
 21
218.806122449
  0
LINE
  5
22B
100
AcDbEntity
  8
0
100
AcDbLine
 62
7
  6
CONTINUOUS
 10
661.3594498218
 20
223.906122449
 11
656.6594498218
 21
223.906122449
  0
LINE
  5
22C
100
AcDbEntity
  8
0
100
AcDbLine
 62
7
  6
CONTINUOUS
 10
658.3594498218
 20
227.906122449
 11
651.2678873196
 21
227.906122449
  0
LINE
  5
22D
100
AcDbEntity
  8
0
100
AcDbLine
 62
7
  6
CONTINUOUS
 10
658.7594498218
 20
229.806122449
 11
661.3594498218
 21
229.806122449
  0
LINE
  5
22E
100
AcDbEntity
  8
0
100
AcDbLine
 62
7
  6
CONTINUOUS
 10
657.6854573674
 20
233.056122449
 11
657.837147318
 21
233.056122449
  0
LINE
  5
22F
100
AcDbEntity
  8
0
100
AcDbLine
 62
7
  6
CONTINUOUS
 10
657.837147318
 20
236.556122449
 11
657.6854573674
 21
236.556122449
  0
LINE
  5
230
100
AcDbEntity
  8
0
100
AcDbLine
 62
7
  6
CONTINUOUS
 10
661.3594498218
 20
239.806122449
 11
658.7594498218
 21
239.806122449
  0
LINE
  5
231
100
AcDbEntity
  8
0
100
AcDbLine
 62
7
  6
CONTINUOUS
 10
678.8659550771
 20
1715.4442839966
 11
680.1724603324
 21
1716.6824455442
  0
LINE
  5
232
100
AcDbEntity
  8
0
100
AcDbLine
 62
7
  6
CONTINUOUS
 10
667.1594498218
 20
1614.6981806681
 11
665.1647334129
 21
1613.1374935722
  0
LINE
  5
233
100
AcDbEntity
  8
0
100
AcDbLine
 62
7
  6
CONTINUOUS
 10
666.0890506037
 20
1611.956122449
 11
667.1594498218
 21
1612.7936140542
  0
LINE
  5
234
100
AcDbEntity
  8
0
100
AcDbLine
 62
7
  6
CONTINUOUS
 10
665.1647334129
 20
256.4747513258
 11
667.1594498218
 21
254.9140642298
  0
LINE
  5
235
100
AcDbEntity
  8
0
100
AcDbLine
 62
7
  6
CONTINUOUS
 10
667.1594498218
 20
256.8186308438
 11
666.0890506037
 21
257.656122449
  0
LINE
  5
236
100
AcDbEntity
  8
0
100
AcDbLine
 62
7
  6
CONTINUOUS
 10
680.1724603324
 20
152.9297993538
 11
678.8659550771
 21
154.1679609014
  0
LINE
  5
237
100
AcDbEntity
  8
0
100
AcDbLine
 62
7
  6
CONTINUOUS
 10
658.8594498218
 20
224.406122449
 11
658.3594498218
 21
224.906122449
  0
LINE
  5
238
100
AcDbEntity
  8
0
100
AcDbLine
 62
7
  6
CONTINUOUS
 10
658.8594498218
 20
225.406122449
 11
658.3594498218
 21
225.906122449
  0
LINE
  5
239
100
AcDbEntity
  8
0
100
AcDbLine
 62
7
  6
CONTINUOUS
 10
658.8594498218
 20
226.406122449
 11
658.3594498218
 21
226.906122449
  0
LINE
  5
23A
100
AcDbEntity
  8
0
100
AcDbLine
 62
7
  6
CONTINUOUS
 10
658.8594498218
 20
227.406122449
 11
658.3594498218
 21
227.906122449
  0
LINE
  5
23B
100
AcDbEntity
  8
0
100
AcDbLine
 62
7
  6
CONTINUOUS
 10
666.0890506037
 20
1630.156122449
 11
665.1647334129
 21
1628.9747513258
  0
LINE
  5
23C
100
AcDbEntity
  8
0
100
AcDbLine
 62
7
  6
CONTINUOUS
 10
665.1647334129
 20
240.6374935722
 11
666.0890506037
 21
239.456122449
  0
LINE
  5
23D
100
AcDbEntity
  8
0
100
AcDbLine
 62
7
  6
CONTINUOUS
 10
657.9010480446
 20
1637.806122449
 11
658.7594498218
 21
1639.806122449
  0
LINE
  5
23E
100
AcDbEntity
  8
0
100
AcDbLine
 62
7
  6
CONTINUOUS
 10
658.7594498218
 20
229.806122449
 11
657.9010480446
 21
231.806122449
  0
LINE
  5
23F
100
AcDbEntity
  8
0
100
AcDbLine
 62
7
  6
CONTINUOUS
 10
654.6592399872
 20
1662.806122449
 11
654.6528607958
 21
1662.7812377957
  0
LINE
  5
240
100
AcDbEntity
  8
0
100
AcDbLine
 62
7
  6
CONTINUOUS
 10
654.5953392606
 20
1662.556122449
 11
654.6592399872
 21
1662.806122449
  0
LINE
  5
241
100
AcDbEntity
  8
0
100
AcDbLine
 62
7
  6
CONTINUOUS
 10
654.6592399872
 20
1662.806122449
 11
654.6506035173
 21
1662.7724221021
  0
LINE
  5
242
100
AcDbEntity
  8
0
100
AcDbLine
 62
7
  6
CONTINUOUS
 10
667.1594498218
 20
1216.6981806681
 11
665.1647334129
 21
1215.1374935722
  0
LINE
  5
243
100
AcDbEntity
  8
0
100
AcDbLine
 62
7
  6
CONTINUOUS
 10
666.0890506037
 20
1213.956122449
 11
667.1594498218
 21
1214.7936140542
  0
LINE
  5
244
100
AcDbEntity
  8
0
100
AcDbLine
 62
7
  6
CONTINUOUS
 10
658.7594498218
 20
729.806122449
 11
661.3594498218
 21
729.806122449
  0
LINE
  5
245
100
AcDbEntity
  8
0
100
AcDbLine
 62
7
  6
CONTINUOUS
 10
665.1647334129
 20
654.4747513258
 11
667.1594498218
 21
652.9140642298
  0
LINE
  5
246
100
AcDbEntity
  8
0
100
AcDbLine
 62
7
  6
CONTINUOUS
 10
667.1594498218
 20
654.8186308438
 11
666.0890506037
 21
655.656122449
  0
LINE
  5
247
100
AcDbEntity
  8
0
100
AcDbLine
 62
7
  6
CONTINUOUS
 10
654.6592399872
 20
206.806122449
 11
654.6506035172
 21
206.8398227966
  0
LINE
  5
248
100
AcDbEntity
  8
0
100
AcDbLine
 62
7
  6
CONTINUOUS
 10
654.6528607956
 20
206.8310071034
 11
654.5953392606
 21
207.056122449
  0
LINE
  5
249
100
AcDbEntity
  8
0
100
AcDbLine
 62
7
  6
CONTINUOUS
 10
654.6328691026
 20
206.909095605
 11
654.5953392606
 21
207.056122449
  0
LINE
  5
24A
100
AcDbEntity
  8
0
100
AcDbLine
 62
7
  6
CONTINUOUS
 10
657.8894140086
 20
1637.7607280121
 11
657.9010480446
 21
1637.806122449
  0
LINE
  5
24B
100
AcDbEntity
  8
0
100
AcDbLine
 62
7
  6
CONTINUOUS
 10
657.837147318
 20
1637.556122449
 11
657.9010480446
 21
1637.806122449
  0
LINE
  5
24C
100
AcDbEntity
  8
0
100
AcDbLine
 62
7
  6
CONTINUOUS
 10
666.0890506037
 20
1232.156122449
 11
665.1647334129
 21
1230.9747513258
  0
LINE
  5
24D
100
AcDbEntity
  8
0
100
AcDbLine
 62
7
  6
CONTINUOUS
 10
657.6854573674
 20
733.056122449
 11
657.837147318
 21
733.056122449
  0
LINE
  5
24E
100
AcDbEntity
  8
0
100
AcDbLine
 62
7
  6
CONTINUOUS
 10
657.837147318
 20
736.556122449
 11
657.6854573674
 21
736.556122449
  0
LINE
  5
24F
100
AcDbEntity
  8
0
100
AcDbLine
 62
7
  6
CONTINUOUS
 10
661.3594498218
 20
739.806122449
 11
658.7594498218
 21
739.806122449
  0
LINE
  5
250
100
AcDbEntity
  8
0
100
AcDbLine
 62
7
  6
CONTINUOUS
 10
665.1647334129
 20
638.6374935722
 11
666.0890506037
 21
637.456122449
  0
LINE
  5
251
100
AcDbEntity
  8
0
100
AcDbLine
 62
7
  6
CONTINUOUS
 10
657.9010480446
 20
231.806122449
 11
657.837147318
 21
232.056122449
  0
LINE
  5
252
100
AcDbEntity
  8
0
100
AcDbLine
 62
7
  6
CONTINUOUS
 10
657.8754047622
 20
231.9062505951
 11
657.837147318
 21
232.056122449
  0
LINE
  5
253
100
AcDbEntity
  8
0
100
AcDbLine
 62
7
  6
CONTINUOUS
 10
657.9010480446
 20
1137.806122449
 11
658.7594498218
 21
1139.806122449
  0
LINE
  5
254
100
AcDbEntity
  8
0
100
AcDbLine
 62
7
  6
CONTINUOUS
 10
697.6594498218
 20
813.056122449
 11
683.1802461486
 21
813.056122449
  0
LINE
  5
255
100
AcDbEntity
  8
0
100
AcDbLine
 62
7
  6
CONTINUOUS
 10
694.6802461486
 20
828.956122449
 11
697.6594498218
 21
828.956122449
  0
LINE
  5
256
100
AcDbEntity
  8
0
100
AcDbLine
 62
7
  6
CONTINUOUS
 10
701.1802461486
 20
831.456122449
 11
694.6802461486
 21
831.456122449
  0
LINE
  5
257
100
AcDbEntity
  8
0
100
AcDbLine
 62
7
  6
CONTINUOUS
 10
658.7594498218
 20
729.806122449
 11
657.9010480446
 21
731.806122449
  0
LINE
  5
258
100
AcDbEntity
  8
0
100
AcDbLine
 62
7
  6
CONTINUOUS
 10
657.8894140086
 20
1137.760728012
 11
657.9010480446
 21
1137.806122449
  0
LINE
  5
259
100
AcDbEntity
  8
0
100
AcDbLine
 62
7
  6
CONTINUOUS
 10
657.837147318
 20
1137.556122449
 11
657.9010480446
 21
1137.806122449
  0
LWPOLYLINE
  5
25A
100
AcDbEntity
  8
0
100
AcDbPolyline
 62
7
  6
CONTINUOUS
 90
3
 70
0
 10
706.0160647519
 20
1030.2114101175
 10
705.9562241353
 20
1030.1519002998
 10
705.8779244823
 20
1030.0254364127
  0
LWPOLYLINE
  5
25B
100
AcDbEntity
  8
0
100
AcDbPolyline
 62
7
  6
CONTINUOUS
 90
6
 70
0
 10
695.0697405835
 20
1019.948244648
 10
695.0331935482
 20
1019.9136446425
 10
694.9518979759
 20
1019.8057744191
 10
694.9204740377
 20
1019.7295957797
 10
694.9020568706
 20
1019.5961967628
 10
694.9042753104
 20
1019.5350786645
  0
LINE
  5
25C
100
AcDbEntity
  8
0
100
AcDbLine
 62
7
  6
CONTINUOUS
 10
705.4875070807
 20
1028.6950112744
 11
705.7069311435
 21
1028.8852252792
  0
LWPOLYLINE
  5
25D
100
AcDbEntity
  8
0
100
AcDbPolyline
 62
7
  6
CONTINUOUS
 90
3
 70
0
 10
705.3865766965
 20
1028.8111725231
 10
702.1634204191
 20
1026.0307083955
 10
698.5881095406
 20
1022.9585265248
  0
LINE
  5
25E
100
AcDbEntity
  8
0
100
AcDbLine
 62
7
  6
CONTINUOUS
 10
705.4346134271
 20
1028.8498292875
 11
705.2994698983
 21
1028.7332377905
  0
LINE
  5
25F
100
AcDbEntity
  8
0
100
AcDbLine
 62
7
  6
CONTINUOUS
 10
698.5881095406
 20
1022.9585265248
 11
695.0782053518
 21
1019.9553691999
  0
LINE
  5
260
100
AcDbEntity
  8
0
100
AcDbLine
 62
7
  6
CONTINUOUS
 10
707.3429653261
 20
1031.3248145631
 11
706.0161277707
 21
1030.2114656598
  0
LINE
  5
261
100
AcDbEntity
  8
0
100
AcDbLine
 62
7
  6
CONTINUOUS
 10
705.4346307126
 20
1028.8498124518
 11
705.3866333287
 21
1028.8112214594
  0
LINE
  5
262
100
AcDbEntity
  8
0
100
AcDbLine
 62
7
  6
CONTINUOUS
 10
695.0670603058
 20
1019.9456514546
 11
695.0831518691
 21
1019.9560205133
  0
LINE
  5
263
100
AcDbEntity
  8
0
100
AcDbLine
 62
7
  6
CONTINUOUS
 10
687.1512562203
 20
1005.0862761386
 11
686.6802461486
 21
1004.9148424925
  0
LINE
  5
264
100
AcDbEntity
  8
0
100
AcDbLine
 62
7
  6
CONTINUOUS
 10
697.5167292253
 20
885.6888114964
 11
697.5214218579
 21
885.689921076
  0
LINE
  5
265
100
AcDbEntity
  8
0
100
AcDbLine
 62
7
  6
CONTINUOUS
 10
697.2263923222
 20
885.8088083309
 11
697.2311259966
 21
885.80991003
  0
LINE
  5
266
100
AcDbEntity
  8
0
100
AcDbLine
 62
7
  6
CONTINUOUS
 10
694.6802461486
 20
868.656122449
 11
701.1802461486
 21
868.656122449
  0
LINE
  5
267
100
AcDbEntity
  8
0
100
AcDbLine
 62
7
  6
CONTINUOUS
 10
697.6594498218
 20
871.156122449
 11
694.6802461486
 21
871.156122449
  0
LINE
  5
268
100
AcDbEntity
  8
0
100
AcDbLine
 62
7
  6
CONTINUOUS
 10
702.8515256277
 20
884.2021653958
 11
702.5304153775
 21
884.2204508556
  0
LINE
  5
269
100
AcDbEntity
  8
0
100
AcDbLine
 62
7
  6
CONTINUOUS
 10
697.442393924
 20
886.298735598
 11
696.9643306675
 21
886.327045364
  0
LWPOLYLINE
  5
26A
100
AcDbEntity
  8
0
100
AcDbPolyline
 62
7
  6
CONTINUOUS
 90
4
 70
0
 10
717.4910579243
 20
876.717977926
 10
717.7498018482
 20
876.6864228383
 10
718.1080249004
 20
876.92485921
 10
718.178341458
 20
877.1589087972
  0
LINE
  5
26B
100
AcDbEntity
  8
0
100
AcDbLine
 62
7
  6
CONTINUOUS
 10
715.3386535349
 20
878.2418335018
 11
715.3462392368
 21
878.2408255623
  0
LINE
  5
26C
100
AcDbEntity
  8
0
100
AcDbLine
 62
7
  6
CONTINUOUS
 10
697.2311255297
 20
885.8099105939
 11
697.2198817267
 21
885.8115641644
  0
LINE
  5
26D
100
AcDbEntity
  8
0
100
AcDbLine
 62
7
  6
CONTINUOUS
 10
657.9010480446
 20
731.806122449
 11
657.837147318
 21
732.056122449
  0
LINE
  5
26E
100
AcDbEntity
  8
0
100
AcDbLine
 62
7
  6
CONTINUOUS
 10
657.8754047622
 20
731.906250595
 11
657.837147318
 21
732.056122449
  0
LINE
  5
26F
100
AcDbEntity
  8
0
100
AcDbLine
 62
7
  6
CONTINUOUS
 10
651.6594498218
 20
218.906122449
 11
651.6594498218
 21
190.906122449
  0
LINE
  5
270
100
AcDbEntity
  8
0
100
AcDbLine
 62
7
  6
CONTINUOUS
 10
655.8594498218
 20
227.906122449
 11
655.8594498218
 21
223.7649140723
  0
LINE
  5
271
100
AcDbEntity
  8
0
100
AcDbLine
 62
7
  6
CONTINUOUS
 10
656.1594498218
 20
203.806122449
 11
656.1594498218
 21
215.806122449
  0
LINE
  5
272
100
AcDbEntity
  8
0
100
AcDbLine
 62
7
  6
CONTINUOUS
 10
656.1594498218
 20
1653.806122449
 11
656.1594498218
 21
1665.806122449
  0
LINE
  5
273
100
AcDbEntity
  8
0
100
AcDbLine
 62
7
  6
CONTINUOUS
 10
658.7594498218
 20
200.806122449
 11
658.7594498218
 21
218.806122449
  0
LINE
  5
274
100
AcDbEntity
  8
0
100
AcDbLine
 62
7
  6
CONTINUOUS
 10
658.7594498218
 20
229.806122449
 11
658.7594498218
 21
239.806122449
  0
LINE
  5
275
100
AcDbEntity
  8
0
100
AcDbLine
 62
7
  6
CONTINUOUS
 10
658.7594498218
 20
729.806122449
 11
658.7594498218
 21
739.806122449
  0
LINE
  5
276
100
AcDbEntity
  8
0
100
AcDbLine
 62
7
  6
CONTINUOUS
 10
658.7594498218
 20
1129.806122449
 11
658.7594498218
 21
1139.806122449
  0
LINE
  5
277
100
AcDbEntity
  8
0
100
AcDbLine
 62
7
  6
CONTINUOUS
 10
658.7594498218
 20
1629.806122449
 11
658.7594498218
 21
1639.806122449
  0
LINE
  5
278
100
AcDbEntity
  8
0
100
AcDbLine
 62
7
  6
CONTINUOUS
 10
658.7594498218
 20
1650.806122449
 11
658.7594498218
 21
1668.806122449
  0
LINE
  5
279
100
AcDbEntity
  8
0
100
AcDbLine
 62
7
  6
CONTINUOUS
 10
660.7594498218
 20
1668.806122449
 11
660.7594498218
 21
1650.806122449
  0
LINE
  5
27A
100
AcDbEntity
  8
0
100
AcDbLine
 62
7
  6
CONTINUOUS
 10
660.7594498218
 20
218.806122449
 11
660.7594498218
 21
200.806122449
  0
LINE
  5
27B
100
AcDbEntity
  8
0
100
AcDbLine
 62
7
  6
CONTINUOUS
 10
661.3594498218
 20
1670.306122449
 11
661.3594498218
 21
199.306122449
  0
LINE
  5
27C
100
AcDbEntity
  8
0
100
AcDbLine
 62
7
  6
CONTINUOUS
 10
663.8594498218
 20
199.306122449
 11
663.8594498218
 21
1670.306122449
  0
LINE
  5
27D
100
AcDbEntity
  8
0
100
AcDbLine
 62
7
  6
CONTINUOUS
 10
665.6594498218
 20
1717.806122449
 11
665.6594498218
 21
1716.006122449
  0
LINE
  5
27E
100
AcDbEntity
  8
0
100
AcDbLine
 62
7
  6
CONTINUOUS
 10
665.6594498218
 20
151.806122449
 11
665.6594498218
 21
153.606122449
  0
LINE
  5
27F
100
AcDbEntity
  8
0
100
AcDbLine
 62
7
  6
CONTINUOUS
 10
666.7594498218
 20
1559.8061224562
 11
666.7594498218
 21
1572.8061224417
  0
LINE
  5
280
100
AcDbEntity
  8
0
100
AcDbLine
 62
7
  6
CONTINUOUS
 10
667.1594498218
 20
153.606122449
 11
667.1594498218
 21
1716.006122449
  0
LINE
  5
281
100
AcDbEntity
  8
0
100
AcDbLine
 62
7
  6
CONTINUOUS
 10
677.5594498227
 20
1716.006122449
 11
677.5594498227
 21
153.606122449
  0
LINE
  5
282
100
AcDbEntity
  8
0
100
AcDbLine
 62
7
  6
CONTINUOUS
 10
681.1594498218
 20
155.406122449
 11
681.1594498218
 21
1714.206122449
  0
LINE
  5
283
100
AcDbEntity
  8
0
100
AcDbLine
 62
7
  6
CONTINUOUS
 10
684.1802461486
 20
1004.0701417097
 11
684.1802461486
 21
906.101944783
  0
LINE
  5
284
100
AcDbEntity
  8
0
100
AcDbLine
 62
7
  6
CONTINUOUS
 10
706.7570499635
 20
1029.936760565
 11
707.3429815339
 21
1031.3248236354
  0
LINE
  5
285
100
AcDbEntity
  8
0
100
AcDbLine
 62
7
  6
CONTINUOUS
 10
706.7571034793
 20
1029.9368040289
 11
707.3429653261
 21
1031.3248145631
  0
LINE
  5
286
100
AcDbEntity
  8
0
100
AcDbLine
 62
7
  6
CONTINUOUS
 10
705.8363777171
 20
1029.7900179166
 11
705.4346134271
 21
1028.8498292875
  0
LINE
  5
287
100
AcDbEntity
  8
0
100
AcDbLine
 62
7
  6
CONTINUOUS
 10
706.0161277704
 20
1030.2114656594
 11
705.4346134271
 21
1028.8498292875
  0
LINE
  5
288
100
AcDbEntity
  8
0
100
AcDbLine
 62
7
  6
CONTINUOUS
 10
705.8779244823
 20
1030.0254364127
 11
705.3621228704
 21
1028.8217342384
  0
LINE
  5
289
100
AcDbEntity
  8
0
100
AcDbLine
 62
7
  6
CONTINUOUS
 10
705.3621228704
 20
1028.8217342384
 11
705.3405705649
 21
1028.7714852142
  0
LINE
  5
28A
100
AcDbEntity
  8
0
100
AcDbLine
 62
7
  6
CONTINUOUS
 10
698.2655081843
 20
1030.0052239134
 11
702.3290889272
 21
1037.6477077606
  0
LINE
  5
28B
100
AcDbEntity
  8
0
100
AcDbLine
 62
7
  6
CONTINUOUS
 10
698.4697829529
 20
934.0591108643
 11
698.4671225959
 21
934.0590993745
  0
LINE
  5
28C
100
AcDbEntity
  8
0
100
AcDbLine
 62
7
  6
CONTINUOUS
 10
704.4008160785
 20
934.0561225114
 11
716.0070237552
 21
934.056122449
  0
LINE
  5
28D
100
AcDbEntity
  8
0
100
AcDbLine
 62
7
  6
CONTINUOUS
 10
704.0889876573
 20
934.0574801605
 11
704.4008161123
 21
934.0561225134
  0
LINE
  5
28E
100
AcDbEntity
  8
0
100
AcDbLine
 62
7
  6
CONTINUOUS
 10
686.9889723518
 20
906.0560462966
 11
686.6802461486
 21
906.0614351325
  0
LINE
  5
28F
100
AcDbEntity
  8
0
100
AcDbLine
 62
7
  6
CONTINUOUS
 10
716.6417355953
 20
877.061126026
 11
717.4910581159
 21
876.7179774535
  0
LINE
  5
290
100
AcDbEntity
  8
0
100
AcDbLine
 62
7
  6
CONTINUOUS
 10
697.5166962142
 20
885.6888248925
 11
697.2263923222
 21
885.8088083309
  0
LINE
  5
291
100
AcDbEntity
  8
0
100
AcDbLine
 62
7
  6
CONTINUOUS
 10
697.5214218579
 20
885.689921076
 11
697.2311259966
 21
885.80991003
  0
LINE
  5
292
100
AcDbEntity
  8
0
100
AcDbLine
 62
7
  6
CONTINUOUS
 10
697.5167816852
 20
885.6888612515
 11
703.4056137723
 21
883.2452747397
  0
LINE
  5
293
100
AcDbEntity
  8
0
100
AcDbLine
 62
7
  6
CONTINUOUS
 10
703.3954428528
 20
883.2495265739
 11
709.5004308171
 21
880.6973799874
  0
LINE
  5
294
100
AcDbEntity
  8
0
100
AcDbLine
 62
7
  6
CONTINUOUS
 10
709.4896565661
 20
880.7019116189
 11
715.3386535349
 21
878.2418335018
  0
LINE
  5
295
100
AcDbEntity
  8
0
100
AcDbLine
 62
7
  6
CONTINUOUS
 10
715.6168201794
 20
878.2452502445
 11
715.3824219607
 21
878.344844191
  0
LWPOLYLINE
  5
296
100
AcDbEntity
  8
0
100
AcDbPolyline
 62
7
  6
CONTINUOUS
 90
3
 70
0
 10
715.3385047592
 20
878.2417990452
 10
715.499747243
 20
878.1716914227
 10
715.6856046619
 20
878.0840171429
  0
LINE
  5
297
100
AcDbEntity
  8
0
100
AcDbLine
 62
7
  6
CONTINUOUS
 10
715.9227362046
 20
877.8449335054
 11
714.5616141671
 21
878.5686549304
  0
LINE
  5
298
100
AcDbEntity
  8
0
100
AcDbLine
 62
7
  6
CONTINUOUS
 10
715.6856046619
 20
878.0840171429
 11
715.7838394674
 21
878.0311840764
  0
LINE
  5
299
100
AcDbEntity
  8
0
100
AcDbLine
 62
7
  6
CONTINUOUS
 10
715.7838394674
 20
878.0311840764
 11
715.7888850751
 21
878.0280313014
  0
LWPOLYLINE
  5
29A
100
AcDbEntity
  8
0
100
AcDbPolyline
 62
7
  6
CONTINUOUS
 90
3
 70
0
 10
716.4424909088
 20
877.2080718081
 10
716.5603470197
 20
877.1032240381
 10
716.6417510681
 20
877.0611655758
  0
LINE
  5
29B
100
AcDbEntity
  8
0
100
AcDbLine
 62
7
  6
CONTINUOUS
 10
715.9127024158
 20
877.9540371316
 11
716.3180967471
 21
877.4589284595
  0
LINE
  5
29C
100
AcDbEntity
  8
0
100
AcDbLine
 62
7
  6
CONTINUOUS
 10
716.3180967471
 20
877.4589284595
 11
716.6447297293
 21
877.0599692163
  0
LINE
  5
29D
100
AcDbEntity
  8
0
100
AcDbLine
 62
7
  6
CONTINUOUS
 10
715.7604565903
 20
878.0437599562
 11
716.4424909088
 21
877.2080718081
  0
LINE
  5
29E
100
AcDbEntity
  8
0
100
AcDbLine
 62
7
  6
CONTINUOUS
 10
715.9168351375
 20
877.9524071923
 11
716.32001565
 21
877.4578454007
  0
LINE
  5
29F
100
AcDbEntity
  8
0
100
AcDbLine
 62
7
  6
CONTINUOUS
 10
716.32001565
 20
877.4578454007
 11
716.6417355953
 21
877.061126026
  0
LINE
  5
2A0
100
AcDbEntity
  8
0
100
AcDbLine
 62
7
  6
CONTINUOUS
 10
717.472240767
 20
878.07994599
 11
718.1783658987
 21
877.15947944
  0
LINE
  5
2A1
100
AcDbEntity
  8
0
100
AcDbLine
 62
7
  6
CONTINUOUS
 10
717.1792297583
 20
877.1280416494
 11
716.7878992718
 21
877.6401550311
  0
LINE
  5
2A2
100
AcDbEntity
  8
0
100
AcDbLine
 62
7
  6
CONTINUOUS
 10
717.4917303738
 20
876.7177060612
 11
716.7888593736
 21
877.6397820622
  0
LINE
  5
2A3
100
AcDbEntity
  8
0
100
AcDbLine
 62
7
  6
CONTINUOUS
 10
717.4724986229
 20
878.0849102472
 11
718.1783128586
 21
877.1582824666
  0
LINE
  5
2A4
100
AcDbEntity
  8
0
100
AcDbLine
 62
7
  6
CONTINUOUS
 10
717.4910581201
 20
876.7179774518
 11
717.413235377
 21
876.820490091
  0
LINE
  5
2A5
100
AcDbEntity
  8
0
100
AcDbLine
 62
7
  6
CONTINUOUS
 10
714.4705437473
 20
985.9339404635
 11
714.4908752308
 21
985.7490474941
  0
LINE
  5
2A6
100
AcDbEntity
  8
0
100
AcDbLine
 62
7
  6
CONTINUOUS
 10
714.8963340318
 20
983.4579965595
 11
714.7950045728
 21
984.3994018183
  0
LINE
  5
2A7
100
AcDbEntity
  8
0
100
AcDbLine
 62
7
  6
CONTINUOUS
 10
717.8831006313
 20
946.1397450863
 11
717.885398091
 21
946.1170808065
  0
LINE
  5
2A8
100
AcDbEntity
  8
0
100
AcDbLine
 62
7
  6
CONTINUOUS
 10
715.357731215
 20
978.7939338495
 11
715.2396974088
 21
979.9580746735
  0
LINE
  5
2A9
100
AcDbEntity
  8
0
100
AcDbLine
 62
7
  6
CONTINUOUS
 10
715.3382448005
 20
978.9880791521
 11
715.2400686035
 21
979.9581125015
  0
LINE
  5
2AA
100
AcDbEntity
  8
0
100
AcDbLine
 62
7
  6
CONTINUOUS
 10
715.2127277286
 20
979.9554472064
 11
715.3109727832
 21
978.9853141785
  0
LINE
  5
2AB
100
AcDbEntity
  8
0
100
AcDbLine
 62
7
  6
CONTINUOUS
 10
715.6825337693
 20
975.7022651255
 11
715.6073740031
 21
976.4765087925
  0
LINE
  5
2AC
100
AcDbEntity
  8
0
100
AcDbLine
 62
7
  6
CONTINUOUS
 10
716.1100791008
 20
971.0629982649
 11
715.8829980764
 21
973.575143743
  0
LINE
  5
2AD
100
AcDbEntity
  8
0
100
AcDbLine
 62
7
  6
CONTINUOUS
 10
717.5089681626
 20
948.9702119481
 11
717.4613155228
 21
949.5490455921
  0
LINE
  5
2AE
100
AcDbEntity
  8
0
100
AcDbLine
 62
7
  6
CONTINUOUS
 10
717.5089914508
 20
948.9702138102
 11
717.4879962264
 21
949.2264993798
  0
LINE
  5
2AF
100
AcDbEntity
  8
0
100
AcDbLine
 62
7
  6
CONTINUOUS
 10
716.7581438968
 20
963.3199478657
 11
716.5724456286
 21
965.6431807551
  0
LINE
  5
2B0
100
AcDbEntity
  8
0
100
AcDbLine
 62
7
  6
CONTINUOUS
 10
716.7359170911
 20
960.9826070955
 11
716.5586248269
 21
963.3059961333
  0
LWPOLYLINE
  5
2B1
100
AcDbEntity
  8
0
100
AcDbPolyline
 62
7
  6
CONTINUOUS
 90
4
 70
0
 10
694.9047293492
 20
1019.5305788323
 10
696.7971407162
 20
994.4325921316
 10
697.9936105435
 20
969.1014186978
 10
698.4713867813
 20
944.0535886919
  0
LINE
  5
2B2
100
AcDbEntity
  8
0
100
AcDbLine
 62
7
  6
CONTINUOUS
 10
716.9732170149
 20
960.4152534203
 11
717.0169948862
 21
959.8343704906
  0
LINE
  5
2B3
100
AcDbEntity
  8
0
100
AcDbLine
 62
7
  6
CONTINUOUS
 10
716.9785507791
 20
960.4156263934
 11
716.9354319782
 21
960.9965585355
  0
LINE
  5
2B4
100
AcDbEntity
  8
0
100
AcDbLine
 62
7
  6
CONTINUOUS
 10
717.0741804696
 20
959.0618998406
 11
717.1026967408
 21
958.6724669621
  0
LINE
  5
2B5
100
AcDbEntity
  8
0
100
AcDbLine
 62
7
  6
CONTINUOUS
 10
717.0019863717
 20
960.0786076861
 11
717.0188753499
 21
959.8413207747
  0
LINE
  5
2B6
100
AcDbEntity
  8
0
100
AcDbLine
 62
7
  6
CONTINUOUS
 10
717.4452132477
 20
953.6354332385
 11
717.4202220554
 21
954.0228628482
  0
LINE
  5
2B7
100
AcDbEntity
  8
0
100
AcDbLine
 62
7
  6
CONTINUOUS
 10
718.6050571227
 20
928.5250710718
 11
717.8871108395
 21
946.0752128015
  0
LWPOLYLINE
  5
2B8
100
AcDbEntity
  8
0
100
AcDbPolyline
 62
7
  6
CONTINUOUS
 90
6
 70
0
 10
696.9179738851
 20
886.2980812265
 10
696.9191378608
 20
886.1943559278
 10
696.9630193049
 20
886.0320005146
 10
697.0151691079
 20
885.9524551064
 10
697.142993355
 20
885.8487641659
 10
697.2210392261
 20
885.8108814261
  0
LWPOLYLINE
  5
2B9
100
AcDbEntity
  8
0
100
AcDbPolyline
 62
7
  6
CONTINUOUS
 90
4
 70
0
 10
698.4714164875
 20
944.0535887474
 10
698.4820758295
 20
940.7942930872
 10
698.4804852714
 20
937.2969171137
 10
698.4669893969
 20
934.0590991039
  0
LINE
  5
2BA
100
AcDbEntity
  8
0
100
AcDbLine
 62
7
  6
CONTINUOUS
 10
686.6802461486
 20
906.0614351325
 11
686.6802461486
 21
1004.9148424925
  0
LINE
  5
2BB
100
AcDbEntity
  8
0
100
AcDbLine
 62
7
  6
CONTINUOUS
 10
686.7294498216
 20
1006.056122449
 11
686.7294498216
 21
1004.9148424925
  0
LINE
  5
2BC
100
AcDbEntity
  8
0
100
AcDbLine
 62
7
  6
CONTINUOUS
 10
687.3094498218
 20
900.056122449
 11
687.3094498218
 21
890.056122449
  0
LINE
  5
2BD
100
AcDbEntity
  8
0
100
AcDbLine
 62
7
  6
CONTINUOUS
 10
692.0094498218
 20
890.056122449
 11
692.0094498218
 21
900.056122449
  0
LINE
  5
2BE
100
AcDbEntity
  8
0
100
AcDbLine
 62
7
  6
CONTINUOUS
 10
693.6802461486
 20
870.156122449
 11
693.6802461486
 21
869.656122449
  0
LINE
  5
2BF
100
AcDbEntity
  8
0
100
AcDbLine
 62
7
  6
CONTINUOUS
 10
693.6802461486
 20
830.456122449
 11
693.6802461486
 21
829.956122449
  0
LINE
  5
2C0
100
AcDbEntity
  8
0
100
AcDbLine
 62
7
  6
CONTINUOUS
 10
693.6802461486
 20
1062.056122449
 11
693.6802461486
 21
1064.056122449
  0
LINE
  5
2C1
100
AcDbEntity
  8
0
100
AcDbLine
 62
7
  6
CONTINUOUS
 10
694.6802461486
 20
1045.656122449
 11
694.6802461486
 21
1045.056122449
  0
LINE
  5
2C2
100
AcDbEntity
  8
0
100
AcDbLine
 62
7
  6
CONTINUOUS
 10
694.6802461486
 20
986.056122449
 11
694.6802461486
 21
982.656122449
  0
LINE
  5
2C3
100
AcDbEntity
  8
0
100
AcDbLine
 62
7
  6
CONTINUOUS
 10
695.1594498218
 20
1059.7740236651
 11
695.1594498218
 21
1046.5098034116
  0
LINE
  5
2C4
100
AcDbEntity
  8
0
100
AcDbLine
 62
7
  6
CONTINUOUS
 10
695.1594498218
 20
981.8024414863
 11
695.1594498218
 21
871.156122449
  0
LINE
  5
2C5
100
AcDbEntity
  8
0
100
AcDbLine
 62
7
  6
CONTINUOUS
 10
695.1594498218
 20
828.956122449
 11
695.1594498218
 21
813.056122449
  0
LINE
  5
2C6
100
AcDbEntity
  8
0
100
AcDbLine
 62
7
  6
CONTINUOUS
 10
696.1594498218
 20
1059.9207067986
 11
696.1594498218
 21
1065.056122449
  0
LINE
  5
2C7
100
AcDbEntity
  8
0
100
AcDbLine
 62
7
  6
CONTINUOUS
 10
697.6594498218
 20
813.056122449
 11
697.6594498218
 21
828.956122449
  0
LINE
  5
2C8
100
AcDbEntity
  8
0
100
AcDbLine
 62
7
  6
CONTINUOUS
 10
697.6594498218
 20
871.156122449
 11
697.6594498218
 21
885.629661491
  0
LINE
  5
2C9
100
AcDbEntity
  8
0
100
AcDbLine
 62
7
  6
CONTINUOUS
 10
697.6594498218
 20
901.2324535722
 11
697.6594498218
 21
976.1761338326
  0
LINE
  5
2CA
100
AcDbEntity
  8
0
100
AcDbLine
 62
7
  6
CONTINUOUS
 10
697.6594498218
 20
1046.656122449
 11
697.6594498218
 21
1065.056122449
  0
LINE
  5
2CB
100
AcDbEntity
  8
0
100
AcDbLine
 62
7
  6
CONTINUOUS
 10
697.6802461486
 20
1027.6578660995
 11
697.6802461486
 21
1022.1817370602
  0
LINE
  5
2CC
100
AcDbEntity
  8
0
100
AcDbLine
 62
7
  6
CONTINUOUS
 10
698.0294498216
 20
967.2225137341
 11
698.0294498216
 21
911.9231609299
  0
LINE
  5
2CD
100
AcDbEntity
  8
0
100
AcDbLine
 62
7
  6
CONTINUOUS
 10
702.6802461486
 20
1040.056122449
 11
702.6802461486
 21
1039.056122449
  0
LINE
  5
2CE
100
AcDbEntity
  8
0
100
AcDbLine
 62
7
  6
CONTINUOUS
 10
702.6802461486
 20
867.156122449
 11
702.6802461486
 21
832.956122449
  0
LINE
  5
2CF
100
AcDbEntity
  8
0
100
AcDbLine
 62
7
  6
CONTINUOUS
 10
718.1783658987
 20
877.15947944
 11
718.6050571227
 21
928.5250710718
  0
LWPOLYLINE
  5
2D0
100
AcDbEntity
  8
0
100
AcDbPolyline
 62
7
  6
CONTINUOUS
 90
3
 70
0
 10
698.4671225959
 20
934.0590993745
 10
698.2427091411
 20
918.6211635237
 10
697.7436061397
 20
902.9454443773
  0
LINE
  5
2D1
100
AcDbEntity
  8
0
100
AcDbLine
 62
7
  6
CONTINUOUS
 10
697.7444787127
 20
902.9669780309
 11
696.9871792913
 21
887.5484751569
  0
LINE
  5
2D2
100
AcDbEntity
  8
0
100
AcDbLine
 62
7
  6
CONTINUOUS
 10
696.9871258842
 20
887.5481721897
 11
696.9181364071
 21
886.2984564179
  0
LINE
  5
2D3
100
AcDbEntity
  8
0
100
AcDbLine
 62
7
  6
CONTINUOUS
 10
696.9924391433
 20
887.5936822031
 11
696.9210577911
 21
886.3003124505
  0
LINE
  5
2D4
100
AcDbEntity
  8
0
100
AcDbLine
 62
7
  6
CONTINUOUS
 10
696.9924391433
 20
887.5936822031
 11
696.9871415982
 21
887.5484528485
  0
LINE
  5
2D5
100
AcDbEntity
  8
0
100
AcDbLine
 62
7
  6
CONTINUOUS
 10
657.837147318
 20
737.556122449
 11
657.9010480446
 21
737.806122449
  0
LINE
  5
2D6
100
AcDbEntity
  8
0
100
AcDbLine
 62
7
  6
CONTINUOUS
 10
657.890035811
 20
737.7631555716
 11
657.9010480446
 21
737.806122449
  0
LINE
  5
2D7
100
AcDbEntity
  8
0
100
AcDbLine
 62
7
  6
CONTINUOUS
 10
697.1932493492
 20
885.8546535745
 11
697.1992831288
 21
885.858484275
  0
LINE
  5
2D8
100
AcDbEntity
  8
0
100
AcDbLine
 62
7
  6
CONTINUOUS
 10
696.9251175534
 20
886.2342536178
 11
696.951285533
 21
886.2507436268
  0
LINE
  5
2D9
100
AcDbEntity
  8
0
100
AcDbLine
 62
7
  6
CONTINUOUS
 10
696.9210577911
 20
886.3003124505
 11
696.9181559478
 21
886.2988103898
  0
LINE
  5
2DA
100
AcDbEntity
  8
0
100
AcDbLine
 62
7
  6
CONTINUOUS
 10
687.1512562203
 20
905.0862761386
 11
681.509236077
 21
903.0327487453
  0
LINE
  5
2DB
100
AcDbEntity
  8
0
100
AcDbLine
 62
7
  6
CONTINUOUS
 10
696.9182081167
 20
886.2993270144
 11
696.921056448
 21
886.300311863
  0
LINE
  5
2DC
100
AcDbEntity
  8
0
100
AcDbLine
 62
7
  6
CONTINUOUS
 10
717.7007311904
 20
945.8674577246
 11
717.7524240296
 21
945.8710724401
  0
LINE
  5
2DD
100
AcDbEntity
  8
0
100
AcDbLine
 62
7
  6
CONTINUOUS
 10
717.5702813563
 20
947.02622938
 11
717.7699281281
 21
947.0401900423
  0
LINE
  5
2DE
100
AcDbEntity
  8
0
100
AcDbLine
 62
7
  6
CONTINUOUS
 10
717.3863771458
 20
948.5705607827
 11
717.540502768
 21
948.5813382961
  0
LINE
  5
2DF
100
AcDbEntity
  8
0
100
AcDbLine
 62
7
  6
CONTINUOUS
 10
717.3253635746
 20
949.5395389058
 11
717.4613155228
 21
949.5490455921
  0
LINE
  5
2E0
100
AcDbEntity
  8
0
100
AcDbLine
 62
7
  6
CONTINUOUS
 10
717.499714043
 20
950.9142729273
 11
717.5995833188
 21
950.9212564673
  0
LINE
  5
2E1
100
AcDbEntity
  8
0
100
AcDbLine
 62
7
  6
CONTINUOUS
 10
717.1657563214
 20
953.0320581964
 11
717.3058007115
 21
953.0418510542
  0
LINE
  5
2E2
100
AcDbEntity
  8
0
100
AcDbLine
 62
7
  6
CONTINUOUS
 10
717.433848156
 20
953.6347523061
 11
717.424224939
 21
953.6340793852
  0
LINE
  5
2E3
100
AcDbEntity
  8
0
100
AcDbLine
 62
7
  6
CONTINUOUS
 10
717.3770744098
 20
954.0200796043
 11
717.3992791812
 21
954.0216323132
  0
LINE
  5
2E4
100
AcDbEntity
  8
0
100
AcDbLine
 62
7
  6
CONTINUOUS
 10
717.1139471347
 20
956.3374671456
 11
717.2371600042
 21
956.3460830288
  0
LINE
  5
2E5
100
AcDbEntity
  8
0
100
AcDbLine
 62
7
  6
CONTINUOUS
 10
716.9583082222
 20
958.4677216806
 11
717.0308842267
 21
958.4727966892
  0
LINE
  5
2E6
100
AcDbEntity
  8
0
100
AcDbLine
 62
7
  6
CONTINUOUS
 10
716.9256243866
 20
960.2172767669
 11
716.8459219436
 21
960.2117034291
  0
LINE
  5
2E7
100
AcDbEntity
  8
0
100
AcDbLine
 62
7
  6
CONTINUOUS
 10
716.9785502996
 20
960.4156263599
 11
716.9732170149
 21
960.4152534203
  0
LINE
  5
2E8
100
AcDbEntity
  8
0
100
AcDbLine
 62
7
  6
CONTINUOUS
 10
716.5672377902
 20
960.9708118897
 11
716.9353947009
 21
960.9965559288
  0
LINE
  5
2E9
100
AcDbEntity
  8
0
100
AcDbLine
 62
7
  6
CONTINUOUS
 10
716.3902397452
 20
963.2942215013
 11
716.7581451278
 21
963.3199479518
  0
LINE
  5
2EA
100
AcDbEntity
  8
0
100
AcDbLine
 62
7
  6
CONTINUOUS
 10
716.4941948182
 20
964.6640326611
 11
716.5634244276
 21
964.668873667
  0
LINE
  5
2EB
100
AcDbEntity
  8
0
100
AcDbLine
 62
7
  6
CONTINUOUS
 10
716.4101023751
 20
965.6313969523
 11
716.5708366809
 21
965.6426365899
  0
LINE
  5
2EC
100
AcDbEntity
  8
0
100
AcDbLine
 62
7
  6
CONTINUOUS
 10
716.3731767472
 20
967.9646027259
 11
716.313432818
 21
967.9604250234
  0
LINE
  5
2ED
100
AcDbEntity
  8
0
100
AcDbLine
 62
7
  6
CONTINUOUS
 10
716.1583986711
 20
968.7281785904
 11
716.3072366901
 21
968.7385863585
  0
LINE
  5
2EE
100
AcDbEntity
  8
0
100
AcDbLine
 62
7
  6
CONTINUOUS
 10
715.9555538639
 20
971.0497808203
 11
716.1110213558
 21
971.0606521664
  0
LINE
  5
2EF
100
AcDbEntity
  8
0
100
AcDbLine
 62
7
  6
CONTINUOUS
 10
715.8548048825
 20
972.2106303699
 11
715.9196528127
 21
972.2151649789
  0
LINE
  5
2F0
100
AcDbEntity
  8
0
100
AcDbLine
 62
7
  6
CONTINUOUS
 10
715.7929384172
 20
972.7902515476
 11
715.8667615131
 21
972.7954137613
  0
LINE
  5
2F1
100
AcDbEntity
  8
0
100
AcDbLine
 62
7
  6
CONTINUOUS
 10
715.7227934648
 20
973.5639411453
 11
715.8829885955
 21
973.5751430801
  0
LINE
  5
2F2
100
AcDbEntity
  8
0
100
AcDbLine
 62
7
  6
CONTINUOUS
 10
715.6825359384
 20
975.7022652771
 11
715.6091021536
 21
975.6971302867
  0
LINE
  5
2F3
100
AcDbEntity
  8
0
100
AcDbLine
 62
7
  6
CONTINUOUS
 10
715.5740481491
 20
976.4732736825
 11
715.5898532569
 21
976.4743788833
  0
LINE
  5
2F4
100
AcDbEntity
  8
0
100
AcDbLine
 62
7
  6
CONTINUOUS
 10
715.2233306136
 20
978.784535644
 11
715.357731215
 21
978.7939338495
  0
LINE
  5
2F5
100
AcDbEntity
  8
0
100
AcDbLine
 62
7
  6
CONTINUOUS
 10
715.2014057081
 20
978.9776525023
 11
715.3109727832
 21
978.9853141785
  0
LINE
  5
2F6
100
AcDbEntity
  8
0
100
AcDbLine
 62
7
  6
CONTINUOUS
 10
715.0786010302
 20
980.1369570786
 11
715.1476546639
 21
980.141785779
  0
LINE
  5
2F7
100
AcDbEntity
  8
0
100
AcDbLine
 62
7
  6
CONTINUOUS
 10
714.9569393706
 20
981.4909942683
 11
715.0539138197
 21
981.4977753824
  0
LINE
  5
2F8
100
AcDbEntity
  8
0
100
AcDbLine
 62
7
  6
CONTINUOUS
 10
714.8781696893
 20
983.6266226792
 11
714.8687645576
 21
983.6259650083
  0
LINE
  5
2F9
100
AcDbEntity
  8
0
100
AcDbLine
 62
7
  6
CONTINUOUS
 10
714.6396174668
 20
984.3885360934
 11
714.7949593076
 21
984.3993986531
  0
LINE
  5
2FA
100
AcDbEntity
  8
0
100
AcDbLine
 62
7
  6
CONTINUOUS
 10
714.4093082052
 20
984.761731295
 11
714.5562554937
 21
984.7720068505
  0
LINE
  5
2FB
100
AcDbEntity
  8
0
100
AcDbLine
 62
7
  6
CONTINUOUS
 10
714.5399642903
 20
986.7173568738
 11
714.3847258047
 21
986.7065015415
  0
LINE
  5
2FC
100
AcDbEntity
  8
0
100
AcDbLine
 62
7
  6
CONTINUOUS
 10
714.272023762
 20
986.6986206469
 11
714.2041103283
 21
986.693871677
  0
LINE
  5
2FD
100
AcDbEntity
  8
0
100
AcDbLine
 62
7
  6
CONTINUOUS
 10
714.4411670517
 20
987.2943929115
 11
714.4496561842
 21
987.2949865295
  0
LINE
  5
2FE
100
AcDbEntity
  8
0
100
AcDbLine
 62
7
  6
CONTINUOUS
 10
714.0531868697
 20
989.6030519036
 11
714.1850267343
 21
989.6122710451
  0
LINE
  5
2FF
100
AcDbEntity
  8
0
100
AcDbLine
 62
7
  6
CONTINUOUS
 10
713.8713416522
 20
991.1475252686
 11
713.9426127504
 21
991.1525090292
  0
LINE
  5
300
100
AcDbEntity
  8
0
100
AcDbLine
 62
7
  6
CONTINUOUS
 10
713.5272540149
 20
992.2913589217
 11
713.8846542066
 21
992.3163507777
  0
LINE
  5
301
100
AcDbEntity
  8
0
100
AcDbLine
 62
7
  6
CONTINUOUS
 10
713.6104840482
 20
994.632968142
 11
713.2461240223
 21
994.607489607
  0
LINE
  5
302
100
AcDbEntity
  8
0
100
AcDbLine
 62
7
  6
CONTINUOUS
 10
704.0906786103
 20
944.0547717757
 11
704.4008298228
 21
944.0561224403
  0
LINE
  5
303
100
AcDbEntity
  8
0
100
AcDbLine
 62
7
  6
CONTINUOUS
 10
704.4008233656
 20
944.0561224202
 11
715.5622558104
 21
944.056122449
  0
LINE
  5
304
100
AcDbEntity
  8
0
100
AcDbLine
 62
7
  6
CONTINUOUS
 10
696.0225468139
 20
981.656122449
 11
697.400612976
 21
981.656122449
  0
LINE
  5
305
100
AcDbEntity
  8
0
100
AcDbLine
 62
7
  6
CONTINUOUS
 10
698.4741008093
 20
944.053578697
 11
698.4714164875
 21
944.0535887474
  0
LINE
  5
306
100
AcDbEntity
  8
0
100
AcDbLine
 62
7
  6
CONTINUOUS
 10
694.587352719
 20
986.4770234706
 11
691.8518198673
 21
992.3725183623
  0
LINE
  5
307
100
AcDbEntity
  8
0
100
AcDbLine
 62
7
  6
CONTINUOUS
 10
657.9010480446
 20
1131.806122449
 11
657.837147318
 21
1132.056122449
  0
LINE
  5
308
100
AcDbEntity
  8
0
100
AcDbLine
 62
7
  6
CONTINUOUS
 10
657.8749788202
 20
1131.9079309159
 11
657.837147318
 21
1132.056122449
  0
LWPOLYLINE
  5
309
100
AcDbEntity
  8
0
100
AcDbPolyline
 62
7
  6
CONTINUOUS
 90
6
 70
0
 10
708.1562995236
 20
1031.0316430649
 10
708.153669931
 20
1031.0449312165
 10
707.9331315715
 20
1031.3635235985
 10
707.7416854427
 20
1031.4358741415
 10
707.3646398136
 20
1031.3419434344
 10
707.3429804016
 20
1031.3248226863
  0
LINE
  5
30A
100
AcDbEntity
  8
0
100
AcDbLine
 62
7
  6
CONTINUOUS
 10
708.6916517482
 20
1027.9632711545
 11
708.157088841
 21
1031.0277789519
  0
LINE
  5
30B
100
AcDbEntity
  8
0
100
AcDbLine
 62
7
  6
CONTINUOUS
 10
712.141381096
 20
1005.8198737539
 11
711.3388701165
 21
1011.4085743684
  0
LINE
  5
30C
100
AcDbEntity
  8
0
100
AcDbLine
 62
7
  6
CONTINUOUS
 10
712.6133777279
 20
1002.3739498724
 11
712.5906237352
 21
1002.5422540424
  0
LINE
  5
30D
100
AcDbEntity
  8
0
100
AcDbLine
 62
7
  6
CONTINUOUS
 10
712.5888877057
 20
1002.5550858026
 11
712.4601921956
 21
1003.5063779883
  0
LINE
  5
30E
100
AcDbEntity
  8
0
100
AcDbLine
 62
7
  6
CONTINUOUS
 10
711.7566589939
 20
1008.1287765095
 11
711.7053743096
 21
1008.5144690152
  0
LINE
  5
30F
100
AcDbEntity
  8
0
100
AcDbLine
 62
7
  6
CONTINUOUS
 10
711.8075952511
 20
1007.7430400222
 11
711.7566589939
 21
1008.1287765095
  0
LINE
  5
310
100
AcDbEntity
  8
0
100
AcDbLine
 62
7
  6
CONTINUOUS
 10
712.9969516254
 20
999.3267484132
 11
712.8509830653
 21
1000.4333584772
  0
LINE
  5
311
100
AcDbEntity
  8
0
100
AcDbLine
 62
7
  6
CONTINUOUS
 10
711.8581830435
 20
1007.3572598382
 11
711.8075952511
 21
1007.7430400222
  0
LINE
  5
312
100
AcDbEntity
  8
0
100
AcDbLine
 62
7
  6
CONTINUOUS
 10
713.0294396658
 20
999.0778741677
 11
712.8513838606
 21
1000.4334114831
  0
LINE
  5
313
100
AcDbEntity
  8
0
100
AcDbLine
 62
7
  6
CONTINUOUS
 10
713.2052191792
 20
997.7190077042
 11
713.0291950501
 21
999.0778423041
  0
LINE
  5
314
100
AcDbEntity
  8
0
100
AcDbLine
 62
7
  6
CONTINUOUS
 10
713.6105161129
 20
994.6329703842
 11
713.5142264644
 21
995.4065674305
  0
LINE
  5
315
100
AcDbEntity
  8
0
100
AcDbLine
 62
7
  6
CONTINUOUS
 10
717.8831006313
 20
946.1397450863
 11
717.8858740998
 21
946.1171142523
  0
LINE
  5
316
100
AcDbEntity
  8
0
100
AcDbLine
 62
7
  6
CONTINUOUS
 10
713.691569794
 20
992.306945714
 11
713.4107255245
 21
994.6189996653
  0
LINE
  5
317
100
AcDbEntity
  8
0
100
AcDbLine
 62
7
  6
CONTINUOUS
 10
713.8557678518
 20
991.9250429954
 11
713.811973622
 21
992.3112684562
  0
LINE
  5
318
100
AcDbEntity
  8
0
100
AcDbLine
 62
7
  6
CONTINUOUS
 10
714.5400107906
 20
986.7173601255
 11
714.4744898712
 21
987.2981521603
  0
LINE
  5
319
100
AcDbEntity
  8
0
100
AcDbLine
 62
7
  6
CONTINUOUS
 10
714.3847258988
 20
986.706501548
 11
714.4909530083
 21
985.7490560694
  0
LINE
  5
31A
100
AcDbEntity
  8
0
100
AcDbLine
 62
7
  6
CONTINUOUS
 10
657.9010480446
 20
737.806122449
 11
658.7594498218
 21
739.806122449
  0
LINE
  5
31B
100
AcDbEntity
  8
0
100
AcDbLine
 62
7
  6
CONTINUOUS
 10
695.0831518691
 20
1019.9560205133
 11
695.0769568172
 21
1019.9543833446
  0
LINE
  5
31C
100
AcDbEntity
  8
0
100
AcDbLine
 62
7
  6
CONTINUOUS
 10
700.1324743347
 20
1023.580639804
 11
700.4174113505
 21
1023.606739872
  0
LINE
  5
31D
100
AcDbEntity
  8
0
100
AcDbLine
 62
7
  6
CONTINUOUS
 10
694.962582665
 20
1019.5082247704
 11
695.4400958852
 21
1019.5509785462
  0
LINE
  5
31E
100
AcDbEntity
  8
0
100
AcDbLine
 62
7
  6
CONTINUOUS
 10
694.9047531175
 20
1019.5306462507
 11
694.9075335646
 21
1019.5308894486
  0
LINE
  5
31F
100
AcDbEntity
  8
0
100
AcDbLine
 62
7
  6
CONTINUOUS
 10
713.074765068
 20
997.7098854641
 11
713.2052191792
 21
997.7190077042
  0
LINE
  5
320
100
AcDbEntity
  8
0
100
AcDbLine
 62
7
  6
CONTINUOUS
 10
712.8849529645
 20
999.0591571105
 11
712.9552502806
 21
999.0640727777
  0
LINE
  5
321
100
AcDbEntity
  8
0
100
AcDbLine
 62
7
  6
CONTINUOUS
 10
712.7276309779
 20
1000.4106953098
 11
712.8244585709
 21
1000.4174661547
  0
LINE
  5
322
100
AcDbEntity
  8
0
100
AcDbLine
 62
7
  6
CONTINUOUS
 10
712.5906237352
 20
1002.5422540424
 11
712.5812567552
 21
1002.5415990394
  0
LINE
  5
323
100
AcDbEntity
  8
0
100
AcDbLine
 62
7
  6
CONTINUOUS
 10
712.5692014114
 20
1002.5407560476
 11
712.55697093
 21
1002.539900809
  0
LINE
  5
324
100
AcDbEntity
  8
0
100
AcDbLine
 62
7
  6
CONTINUOUS
 10
712.3055933074
 20
1003.4955673809
 11
712.4601369556
 21
1003.5063741256
  0
LINE
  5
325
100
AcDbEntity
  8
0
100
AcDbLine
 62
7
  6
CONTINUOUS
 10
711.9868695151
 20
1005.8090692516
 11
712.1293466629
 21
1005.8190322243
  0
LINE
  5
326
100
AcDbEntity
  8
0
100
AcDbLine
 62
7
  6
CONTINUOUS
 10
711.7692895694
 20
1007.3510438009
 11
711.8581830435
 21
1007.3572598382
  0
LINE
  5
327
100
AcDbEntity
  8
0
100
AcDbLine
 62
7
  6
CONTINUOUS
 10
711.6065972801
 20
1008.5075618525
 11
711.7053743096
 21
1008.5144690152
  0
LINE
  5
328
100
AcDbEntity
  8
0
100
AcDbLine
 62
7
  6
CONTINUOUS
 10
711.1845618599
 20
1011.397784084
 11
711.3388108825
 21
1011.4085702264
  0
LINE
  5
329
100
AcDbEntity
  8
0
100
AcDbLine
 62
7
  6
CONTINUOUS
 10
708.6915843765
 20
1027.9632664434
 11
708.5378861246
 21
1027.9525188147
  0
LINE
  5
32A
100
AcDbEntity
  8
0
100
AcDbLine
 62
7
  6
CONTINUOUS
 10
692.8507030649
 20
996.9255698344
 11
696.609167896
 21
996.9255698344
  0
LINE
  5
32B
100
AcDbEntity
  8
0
100
AcDbLine
 62
7
  6
CONTINUOUS
 10
694.0864510252
 20
997.7255698344
 11
696.5488471574
 21
997.7255698344
  0
LINE
  5
32C
100
AcDbEntity
  8
0
100
AcDbLine
 62
7
  6
CONTINUOUS
 10
696.1802461486
 20
998.056122449
 11
695.4802461486
 21
998.056122449
  0
LINE
  5
32D
100
AcDbEntity
  8
0
100
AcDbLine
 62
7
  6
CONTINUOUS
 10
686.9802461486
 20
1006.056122449
 11
681.6802461486
 21
1006.056122449
  0
LINE
  5
32E
100
AcDbEntity
  8
0
100
AcDbLine
 62
7
  6
CONTINUOUS
 10
695.6802461486
 20
1044.056122449
 11
698.6802461486
 21
1044.056122449
  0
LINE
  5
32F
100
AcDbEntity
  8
0
100
AcDbLine
 62
7
  6
CONTINUOUS
 10
694.9088138904
 20
1019.580233079
 11
694.9370046429
 21
1019.5718621166
  0
LINE
  5
330
100
AcDbEntity
  8
0
100
AcDbLine
 62
7
  6
CONTINUOUS
 10
695.0492013004
 20
1019.9201129159
 11
695.0779148719
 21
1019.9083801163
  0
LINE
  5
331
100
AcDbEntity
  8
0
100
AcDbLine
 62
7
  6
CONTINUOUS
 10
695.0779148719
 20
1019.9083801163
 11
695.0923403817
 21
1019.9023839821
  0
LINE
  5
332
100
AcDbEntity
  8
0
100
AcDbLine
 62
7
  6
CONTINUOUS
 10
694.9370046429
 20
1019.5718621166
 11
694.9518831888
 21
1019.562293405
  0
LINE
  5
333
100
AcDbEntity
  8
0
100
AcDbLine
 62
7
  6
CONTINUOUS
 10
694.9075335646
 20
1019.5308894486
 11
694.9044431483
 21
1019.5343648059
  0
LINE
  5
334
100
AcDbEntity
  8
0
100
AcDbLine
 62
7
  6
CONTINUOUS
 10
658.7594498218
 20
1129.806122449
 11
657.9010480446
 21
1131.806122449
  0
LINE
  5
335
100
AcDbEntity
  8
0
100
AcDbLine
 62
7
  6
CONTINUOUS
 10
657.837147318
 20
237.556122449
 11
657.9010480446
 21
237.806122449
  0
LINE
  5
336
100
AcDbEntity
  8
0
100
AcDbLine
 62
7
  6
CONTINUOUS
 10
657.8900358108
 20
237.7631555711
 11
657.9010480446
 21
237.806122449
  0
LINE
  5
337
100
AcDbEntity
  8
0
100
AcDbLine
 62
7
  6
CONTINUOUS
 10
654.6592399872
 20
212.806122449
 11
654.5953392606
 21
212.556122449
  0
LINE
  5
338
100
AcDbEntity
  8
0
100
AcDbLine
 62
7
  6
CONTINUOUS
 10
654.6515135873
 20
212.7759811247
 11
654.6592399872
 21
212.806122449
  0
LINE
  5
339
100
AcDbEntity
  8
0
100
AcDbLine
 62
7
  6
CONTINUOUS
 10
654.6592399872
 20
212.806122449
 11
654.6528607957
 21
212.7812377952
  0
LINE
  5
33A
100
AcDbEntity
  8
0
100
AcDbLine
 62
7
  6
CONTINUOUS
 10
666.0890506037
 20
655.656122449
 11
665.1647334129
 21
654.4747513258
  0
LINE
  5
33B
100
AcDbEntity
  8
0
100
AcDbLine
 62
7
  6
CONTINUOUS
 10
697.6594498218
 20
1046.656122449
 11
696.0225468139
 21
1046.656122449
  0
LINE
  5
33C
100
AcDbEntity
  8
0
100
AcDbLine
 62
7
  6
CONTINUOUS
 10
697.6594498218
 20
1059.9207067986
 11
696.1594498218
 21
1059.9207067986
  0
LINE
  5
33D
100
AcDbEntity
  8
0
100
AcDbLine
 62
7
  6
CONTINUOUS
 10
697.6594498218
 20
1062.056122449
 11
696.1594498218
 21
1062.056122449
  0
LINE
  5
33E
100
AcDbEntity
  8
0
100
AcDbLine
 62
7
  6
CONTINUOUS
 10
696.1594498218
 20
1063.056122449
 11
697.6594498218
 21
1063.056122449
  0
LINE
  5
33F
100
AcDbEntity
  8
0
100
AcDbLine
 62
7
  6
CONTINUOUS
 10
697.6594498218
 20
1065.056122449
 11
696.1594498218
 21
1065.056122449
  0
LINE
  5
340
100
AcDbEntity
  8
0
100
AcDbLine
 62
7
  6
CONTINUOUS
 10
683.1802461486
 20
1066.056122449
 11
691.6802461486
 21
1066.056122449
  0
LINE
  5
341
100
AcDbEntity
  8
0
100
AcDbLine
 62
7
  6
CONTINUOUS
 10
665.1647334129
 20
1215.1374935722
 11
666.0890506037
 21
1213.956122449
  0
LINE
  5
342
100
AcDbEntity
  8
0
100
AcDbLine
 62
7
  6
CONTINUOUS
 10
657.9010480446
 20
1631.806122449
 11
657.837147318
 21
1632.056122449
  0
LINE
  5
343
100
AcDbEntity
  8
0
100
AcDbLine
 62
7
  6
CONTINUOUS
 10
657.8749788201
 20
1631.9079309161
 11
657.837147318
 21
1632.056122449
  0
LINE
  5
344
100
AcDbEntity
  8
0
100
AcDbLine
 62
7
  6
CONTINUOUS
 10
654.6592399872
 20
1656.806122449
 11
654.5953392606
 21
1657.056122449
  0
LINE
  5
345
100
AcDbEntity
  8
0
100
AcDbLine
 62
7
  6
CONTINUOUS
 10
654.6322803421
 20
1656.9114184839
 11
654.5953392606
 21
1657.056122449
  0
LINE
  5
346
100
AcDbEntity
  8
0
100
AcDbLine
 62
7
  6
CONTINUOUS
 10
658.7594498218
 20
1129.806122449
 11
661.3594498218
 21
1129.806122449
  0
LINE
  5
347
100
AcDbEntity
  8
0
100
AcDbLine
 62
7
  6
CONTINUOUS
 10
657.6854573674
 20
1133.056122449
 11
657.837147318
 21
1133.056122449
  0
LINE
  5
348
100
AcDbEntity
  8
0
100
AcDbLine
 62
7
  6
CONTINUOUS
 10
657.837147318
 20
1136.556122449
 11
657.6854573674
 21
1136.556122449
  0
LINE
  5
349
100
AcDbEntity
  8
0
100
AcDbLine
 62
7
  6
CONTINUOUS
 10
661.3594498218
 20
1139.806122449
 11
658.7594498218
 21
1139.806122449
  0
LINE
  5
34A
100
AcDbEntity
  8
0
100
AcDbLine
 62
7
  6
CONTINUOUS
 10
657.9010480446
 20
237.806122449
 11
658.7594498218
 21
239.806122449
  0
LINE
  5
34B
100
AcDbEntity
  8
0
100
AcDbLine
 62
7
  6
CONTINUOUS
 10
667.1594498218
 20
640.1981806681
 11
665.1647334129
 21
638.6374935722
  0
LINE
  5
34C
100
AcDbEntity
  8
0
100
AcDbLine
 62
7
  6
CONTINUOUS
 10
666.0890506037
 20
637.456122449
 11
667.1594498218
 21
638.2936140542
  0
LINE
  5
34D
100
AcDbEntity
  8
0
100
AcDbLine
 62
7
  6
CONTINUOUS
 10
665.1647334129
 20
1230.9747513258
 11
667.1594498218
 21
1229.4140642298
  0
LINE
  5
34E
100
AcDbEntity
  8
0
100
AcDbLine
 62
7
  6
CONTINUOUS
 10
667.1594498218
 20
1231.3186308438
 11
666.0890506037
 21
1232.156122449
  0
LINE
  5
34F
100
AcDbEntity
  8
0
100
AcDbLine
 62
7
  6
CONTINUOUS
 10
658.7594498218
 20
1629.806122449
 11
657.9010480446
 21
1631.806122449
  0
LINE
  5
350
100
AcDbEntity
  8
0
100
AcDbLine
 62
7
  6
CONTINUOUS
 10
666.0890506037
 20
257.656122449
 11
665.1647334129
 21
256.4747513258
  0
LINE
  5
351
100
AcDbEntity
  8
0
100
AcDbLine
 62
7
  6
CONTINUOUS
 10
665.1647334129
 20
1613.1374935722
 11
666.0890506037
 21
1611.956122449
  0
LINE
  5
352
100
AcDbEntity
  8
0
100
AcDbLine
 62
7
  6
CONTINUOUS
 10
658.3594498218
 20
226.906122449
 11
658.8594498218
 21
227.406122449
  0
LINE
  5
353
100
AcDbEntity
  8
0
100
AcDbLine
 62
7
  6
CONTINUOUS
 10
658.3594498218
 20
225.906122449
 11
658.8594498218
 21
226.406122449
  0
LINE
  5
354
100
AcDbEntity
  8
0
100
AcDbLine
 62
7
  6
CONTINUOUS
 10
658.3594498218
 20
224.906122449
 11
658.8594498218
 21
225.406122449
  0
LINE
  5
355
100
AcDbEntity
  8
0
100
AcDbLine
 62
7
  6
CONTINUOUS
 10
658.3594498218
 20
223.906122449
 11
658.8594498218
 21
224.406122449
  0
LINE
  5
356
100
AcDbEntity
  8
0
100
AcDbLine
 62
7
  6
CONTINUOUS
 10
667.1594498218
 20
242.1981806681
 11
665.1647334129
 21
240.6374935722
  0
LINE
  5
357
100
AcDbEntity
  8
0
100
AcDbLine
 62
7
  6
CONTINUOUS
 10
666.0890506037
 20
239.456122449
 11
667.1594498218
 21
240.2936140542
  0
LINE
  5
358
100
AcDbEntity
  8
0
100
AcDbLine
 62
7
  6
CONTINUOUS
 10
665.1647334129
 20
1628.9747513258
 11
667.1594498218
 21
1627.4140642298
  0
LINE
  5
359
100
AcDbEntity
  8
0
100
AcDbLine
 62
7
  6
CONTINUOUS
 10
667.1594498218
 20
1629.3186308438
 11
666.0890506037
 21
1630.156122449
  0
LINE
  5
35A
100
AcDbEntity
  8
0
100
AcDbLine
 62
7
  6
CONTINUOUS
 10
658.7594498218
 20
1629.806122449
 11
661.3594498218
 21
1629.806122449
  0
LINE
  5
35B
100
AcDbEntity
  8
0
100
AcDbLine
 62
7
  6
CONTINUOUS
 10
657.6854573674
 20
1633.056122449
 11
657.837147318
 21
1633.056122449
  0
LINE
  5
35C
100
AcDbEntity
  8
0
100
AcDbLine
 62
7
  6
CONTINUOUS
 10
657.837147318
 20
1636.556122449
 11
657.6854573674
 21
1636.556122449
  0
LINE
  5
35D
100
AcDbEntity
  8
0
100
AcDbLine
 62
7
  6
CONTINUOUS
 10
661.3594498218
 20
1639.806122449
 11
658.7594498218
 21
1639.806122449
  0
LINE
  5
35E
100
AcDbEntity
  8
0
100
AcDbLine
 62
7
  6
CONTINUOUS
 10
658.7594498218
 20
1650.806122449
 11
660.7594498218
 21
1650.806122449
  0
LINE
  5
35F
100
AcDbEntity
  8
0
100
AcDbLine
 62
7
  6
CONTINUOUS
 10
661.2594498219
 20
1653.806122449
 11
660.8197517364
 21
1653.806122449
  0
LINE
  5
360
100
AcDbEntity
  8
0
100
AcDbLine
 62
7
  6
CONTINUOUS
 10
656.1594498218
 20
1653.806122449
 11
660.7594498218
 21
1653.806122449
  0
LINE
  5
361
100
AcDbEntity
  8
0
100
AcDbLine
 62
7
  6
CONTINUOUS
 10
660.7594498218
 20
1657.4116737244
 11
661.3594498218
 21
1657.4116737244
  0
LINE
  5
362
100
AcDbEntity
  8
0
100
AcDbLine
 62
7
  6
CONTINUOUS
 10
661.3594498218
 20
1657.9047346301
 11
660.7594498218
 21
1657.9047346301
  0
LINE
  5
363
100
AcDbEntity
  8
0
100
AcDbLine
 62
7
  6
CONTINUOUS
 10
654.44364931
 20
1658.056122449
 11
654.5953392606
 21
1658.056122449
  0
LINE
  5
364
100
AcDbEntity
  8
0
100
AcDbLine
 62
7
  6
CONTINUOUS
 10
661.3594498218
 20
1658.8818163584
 11
660.7594498218
 21
1658.8818163584
  0
LINE
  5
365
100
AcDbEntity
  8
0
100
AcDbLine
 62
7
  6
CONTINUOUS
 10
654.5953392606
 20
1661.556122449
 11
654.44364931
 21
1661.556122449
  0
LINE
  5
366
100
AcDbEntity
  8
0
100
AcDbLine
 62
7
  6
CONTINUOUS
 10
661.3594498218
 20
1662.6318163584
 11
660.7594498218
 21
1662.6318163584
  0
LINE
  5
367
100
AcDbEntity
  8
0
100
AcDbLine
 62
7
  6
CONTINUOUS
 10
660.7594498218
 20
1662.806122449
 11
661.3594498218
 21
1662.806122449
  0
LINE
  5
368
100
AcDbEntity
  8
0
100
AcDbLine
 62
7
  6
CONTINUOUS
 10
656.1594498218
 20
1665.806122449
 11
660.7594498218
 21
1665.806122449
  0
LINE
  5
369
100
AcDbEntity
  8
0
100
AcDbLine
 62
7
  6
CONTINUOUS
 10
660.7594498218
 20
1668.806122449
 11
658.7594498218
 21
1668.806122449
  0
LINE
  5
36A
100
AcDbEntity
  8
0
100
AcDbLine
 62
7
  6
CONTINUOUS
 10
661.3594498218
 20
1670.306122449
 11
667.1594498218
 21
1670.306122449
  0
LINE
  5
36B
100
AcDbEntity
  8
0
100
AcDbLine
 62
7
  6
CONTINUOUS
 10
677.5594498227
 20
1716.006122449
 11
665.6594498218
 21
1716.006122449
  0
LINE
  5
36C
100
AcDbEntity
  8
0
100
AcDbLine
 62
7
  6
CONTINUOUS
 10
677.5594498218
 20
1717.806122449
 11
665.6594498218
 21
1717.806122449
  0
ARC
  5
36D
100
AcDbEntity
  8
0
100
AcDbCircle
 62
7
  6
CONTINUOUS
 10
5.5876379786
 20
907.7924507746
 40
712.5459648047
100
AcDbArc
 50
2.118091019
 51
2.9252619761
  0
ARC
  5
36E
100
AcDbEntity
  8
0
100
AcDbCircle
 62
7
  6
CONTINUOUS
 10
7.6020407156
 20
907.7375657453
 40
708.8935733746
100
AcDbArc
 50
357.6522965153
 51
2.1276657295
  0
ARC
  5
36F
100
AcDbEntity
  8
0
100
AcDbCircle
 62
7
  6
CONTINUOUS
 10
14.7799392108
 20
908.616445607
 40
703.9496884935
100
AcDbArc
 50
4.8985717714
 51
5.0882512856
  0
ARC
  5
370
100
AcDbEntity
  8
0
100
AcDbCircle
 62
7
  6
CONTINUOUS
 10
15.3474788675
 20
908.6287398758
 40
703.5370295946
100
AcDbArc
 50
5.2967359476
 51
5.4707355271
  0
ARC
  5
371
100
AcDbEntity
  8
0
100
AcDbCircle
 62
7
  6
CONTINUOUS
 10
15.3775860524
 20
908.6356189652
 40
703.4873084257
100
AcDbArc
 50
5.9457242556
 51
6.1191731217
  0
ARC
  5
372
100
AcDbEntity
  8
0
100
AcDbCircle
 62
7
  6
CONTINUOUS
 10
15.4251085587
 20
908.6362112468
 40
703.4590468546
100
AcDbArc
 50
4.2686115514
 51
4.4583986515
  0
ARC
  5
373
100
AcDbEntity
  8
0
100
AcDbCircle
 62
7
  6
CONTINUOUS
 10
15.3825113506
 20
908.6424920285
 40
703.4543082145
100
AcDbArc
 50
5.8183776317
 51
5.9446632525
  0
ARC
  5
374
100
AcDbEntity
  8
0
100
AcDbCircle
 62
7
  6
CONTINUOUS
 10
15.4874799374
 20
908.6435402913
 40
703.3962461807
100
AcDbArc
 50
6.182739599
 51
6.3726901168
  0
ARC
  5
375
100
AcDbEntity
  8
0
100
AcDbCircle
 62
7
  6
CONTINUOUS
 10
15.581890953
 20
908.6549530116
 40
703.3011491451
100
AcDbArc
 50
6.8318402981
 51
7.0219143544
  0
ARC
  5
376
100
AcDbEntity
  8
0
100
AcDbCircle
 62
7
  6
CONTINUOUS
 10
15.6044814183
 20
908.659172716
 40
703.2591938044
100
AcDbArc
 50
5.8188491434
 51
5.9457304648
  0
ARC
  5
377
100
AcDbEntity
  8
0
100
AcDbCircle
 62
7
  6
CONTINUOUS
 10
15.0843455209
 20
908.2910242944
 40
703.0373340069
100
AcDbArc
 50
357.5370430231
 51
2.1060911833
  0
ARC
  5
378
100
AcDbEntity
  8
0
100
AcDbCircle
 62
7
  6
CONTINUOUS
 10
15.9099736833
 20
908.6938658631
 40
702.9708424496
100
AcDbArc
 50
8.4018469129
 51
9.7683152163
  0
ARC
  5
379
100
AcDbEntity
  8
0
100
AcDbCircle
 62
7
  6
CONTINUOUS
 10
15.7541148675
 20
908.7125635386
 40
702.9706822236
100
AcDbArc
 50
7.7489103813
 51
7.9392539646
  0
ARC
  5
37A
100
AcDbEntity
  8
0
100
AcDbCircle
 62
7
  6
CONTINUOUS
 10
15.5575757617
 20
908.736105327
 40
702.9530645962
100
AcDbArc
 50
4.2614357234
 51
4.4513592834
  0
ARC
  5
37B
100
AcDbEntity
  8
0
100
AcDbCircle
 62
7
  6
CONTINUOUS
 10
15.9356751715
 20
908.7010926354
 40
702.9443656072
100
AcDbArc
 50
7.7510201476
 51
7.9413713288
  0
ARC
  5
37C
100
AcDbEntity
  8
0
100
AcDbCircle
 62
7
  6
CONTINUOUS
 10
15.9163953476
 20
908.7312450776
 40
702.8074001262
100
AcDbArc
 50
8.3998603596
 51
9.7666425758
  0
ARC
  5
37D
100
AcDbEntity
  8
0
100
AcDbCircle
 62
7
  6
CONTINUOUS
 10
16.6050381055
 20
908.8678337124
 40
701.897470898
100
AcDbArc
 50
6.8259849942
 51
7.0164382054
  0
ARC
  5
37E
100
AcDbEntity
  8
0
100
AcDbCircle
 62
7
  6
CONTINUOUS
 10
21.9590662822
 20
908.9925405665
 40
696.9172313573
100
AcDbArc
 50
7.5393832506
 51
7.7141811391
  0
ARC
  5
37F
100
AcDbEntity
  8
0
100
AcDbCircle
 62
7
  6
CONTINUOUS
 10
36.8431640303
 20
908.8590503902
 40
679.6311060984
100
AcDbArc
 50
2.1247067831
 51
2.9685901777
  0
ARC
  5
380
100
AcDbEntity
  8
0
100
AcDbCircle
 62
7
  6
CONTINUOUS
 10
-366.6470902049
 20
939.0561224635
 40
1071.0590672219
100
AcDbArc
 50
359.7325266123
 51
0.2674733861
  0
ARC
  5
381
100
AcDbEntity
  8
0
100
AcDbCircle
 62
7
  6
CONTINUOUS
 10
-245.8154840877
 20
938.6497667478
 40
950.2283438195
100
AcDbArc
 50
356.7151817321
 51
359.7230166225
  0
ARC
  5
382
100
AcDbEntity
  8
0
100
AcDbCircle
 62
7
  6
CONTINUOUS
 10
-240.6932175557
 20
938.6913498278
 40
944.7947187963
100
AcDbArc
 50
356.6948594625
 51
359.7189839471
  0
ARC
  5
383
100
AcDbEntity
  8
0
100
AcDbCircle
 62
7
  6
CONTINUOUS
 10
-229.6143736691
 20
939.056122449
 40
933.7167393747
100
AcDbArc
 50
359.6932663225
 51
0.3067336737
  0
ARC
  5
384
100
AcDbEntity
  8
0
100
AcDbCircle
 62
7
  6
CONTINUOUS
 10
-202.159518145
 20
939.4374017712
 40
900.6453597333
100
AcDbArc
 50
356.7000727218
 51
359.6578506939
  0
ARC
  5
385
100
AcDbEntity
  8
0
100
AcDbCircle
 62
7
  6
CONTINUOUS
 10
-199.814524629
 20
939.4580441039
 40
898.3509963606
100
AcDbArc
 50
356.6099458264
 51
5.1117261894
  0
ARC
  5
386
100
AcDbEntity
  8
0
100
AcDbCircle
 62
7
  6
CONTINUOUS
 10
-199.814524629
 20
939.4580441039
 40
898.300269389
100
AcDbArc
 50
359.6556409092
 51
2.0540200529
  0
ARC
  5
387
100
AcDbEntity
  8
0
100
AcDbCircle
 62
7
  6
CONTINUOUS
 10
-199.814524629
 20
939.4580441039
 40
898.2990521164
100
AcDbArc
 50
2.8430232381
 51
5.1150734386
  0
ARC
  5
388
100
AcDbEntity
  8
0
100
AcDbCircle
 62
7
  6
CONTINUOUS
 10
-198.7602462578
 20
939.4325591288
 40
897.2468603422
100
AcDbArc
 50
2.0580593453
 51
2.8479876217
  0
ARC
  5
389
100
AcDbEntity
  8
0
100
AcDbCircle
 62
7
  6
CONTINUOUS
 10
102.2135044197
 20
919.7130317317
 40
615.965219051
100
AcDbArc
 50
3.5350130535
 51
3.769820018
  0
ARC
  5
38A
100
AcDbEntity
  8
0
100
AcDbCircle
 62
7
  6
CONTINUOUS
 10
171.6988289794
 20
933.304276634
 40
545.2493704981
100
AcDbArc
 50
6.0284792078
 51
6.2122430826
  0
ARC
  5
38B
100
AcDbEntity
  8
0
100
AcDbCircle
 62
7
  6
CONTINUOUS
 10
200.6292999014
 20
922.8919391166
 40
517.7096594703
100
AcDbArc
 50
4.7366835967
 51
4.9945890267
  0
ARC
  5
38C
100
AcDbEntity
  8
0
100
AcDbCircle
 62
7
  6
CONTINUOUS
 10
239.2955935508
 20
927.341407926
 40
478.6796101686
100
AcDbArc
 50
2.3568485002
 51
2.5431056992
  0
ARC
  5
38D
100
AcDbEntity
  8
0
100
AcDbCircle
 62
7
  6
CONTINUOUS
 10
241.3500905984
 20
927.4216170005
 40
476.823604701
100
AcDbArc
 50
2.3580603211
 51
2.5317234133
  0
ARC
  5
38E
100
AcDbEntity
  8
0
100
AcDbCircle
 62
7
  6
CONTINUOUS
 10
274.9312136998
 20
925.334279908
 40
443.4197000194
100
AcDbArc
 50
3.8814643611
 51
4.0081261843
  0
ARC
  5
38F
100
AcDbEntity
  8
0
100
AcDbCircle
 62
7
  6
CONTINUOUS
 10
289.8391697537
 20
933.571975575
 40
427.9168281413
100
AcDbArc
 50
3.3359715558
 51
3.5699731037
  0
ARC
  5
390
100
AcDbEntity
  8
0
100
AcDbCircle
 62
7
  6
CONTINUOUS
 10
426.2254480026
 20
938.0644237297
 40
291.6063532905
100
AcDbArc
 50
3.8741806539
 51
4.0525144752
  0
ARC
  5
391
100
AcDbEntity
  8
0
100
AcDbCircle
 62
7
  6
CONTINUOUS
 10
276.0556873868
 20
940.9704645578
 40
440.8337596104
100
AcDbArc
 50
7.2664494831
 51
7.3941899587
  0
ARC
  5
392
100
AcDbEntity
  8
0
100
AcDbCircle
 62
7
  6
CONTINUOUS
 10
286.7639406572
 20
941.6291714885
 40
430.1243287194
100
AcDbArc
 50
6.6297278744
 51
6.7676988391
  0
ARC
  5
393
100
AcDbEntity
  8
0
100
AcDbCircle
 62
7
  6
CONTINUOUS
 10
398.4252715798
 20
943.7552369177
 40
318.8570547122
100
AcDbArc
 50
4.7859884847
 51
4.9125573134
  0
ARC
  5
394
100
AcDbEntity
  8
0
100
AcDbCircle
 62
7
  6
CONTINUOUS
 10
442.0031806965
 20
952.8851349123
 40
274.5934498747
100
AcDbArc
 50
5.9842597729
 51
6.1025560589
  0
ARC
  5
395
100
AcDbEntity
  8
0
100
AcDbCircle
 62
7
  6
CONTINUOUS
 10
460.9105406336
 20
966.7317828158
 40
254.2028088344
100
AcDbArc
 50
7.3068488859
 51
7.440294532
  0
ARC
  5
396
100
AcDbEntity
  8
0
100
AcDbCircle
 62
7
  6
CONTINUOUS
 10
470.4216919677
 20
941.4924300223
 40
247.2576385334
100
AcDbArc
 50
2.1837835677
 51
2.6789397007
  0
ARC
  5
397
100
AcDbEntity
  8
0
100
AcDbCircle
 62
7
  6
CONTINUOUS
 10
469.9720587886
 20
955.4395951114
 40
246.5101906263
100
AcDbArc
 50
5.7034540848
 51
5.8881089783
  0
ARC
  5
398
100
AcDbEntity
  8
0
100
AcDbCircle
 62
7
  6
CONTINUOUS
 10
477.8087139942
 20
969.3198006661
 40
237.1117069781
100
AcDbArc
 50
7.5412301887
 51
7.6817173226
  0
ARC
  5
399
100
AcDbEntity
  8
0
100
AcDbCircle
 62
7
  6
CONTINUOUS
 10
-671.6602916563
 20
2617.4853581104
 40
2102.5676744793
100
AcDbArc
 50
310.7219131199
 51
310.9184228065
  0
ARC
  5
39A
100
AcDbEntity
  8
0
100
AcDbCircle
 62
7
  6
CONTINUOUS
 10
602.166912077
 20
227.906122449
 40
46.1925377448
100
AcDbArc
 50
319.545426482
 51
356.5036554115
  0
ARC
  5
39B
100
AcDbEntity
  8
0
100
AcDbCircle
 62
7
  6
CONTINUOUS
 10
656.6594498218
 20
190.906122449
 40
5.0
100
AcDbArc
 50
180.0
 51
270.0
  0
ARC
  5
39C
100
AcDbEntity
  8
0
100
AcDbCircle
 62
7
  6
CONTINUOUS
 10
653.8517023318
 20
188.906122449
 40
5.0
100
AcDbArc
 50
258.2057475675
 51
270.0
  0
ARC
  5
39D
100
AcDbEntity
  8
0
100
AcDbCircle
 62
7
  6
CONTINUOUS
 10
640.3594498218
 20
195.3389471666
 40
4.0
100
AcDbArc
 50
139.5454264811
 51
223.4903583466
  0
ARC
  5
39E
100
AcDbEntity
  8
0
100
AcDbCircle
 62
7
  6
CONTINUOUS
 10
677.5594498218
 20
155.406122449
 40
3.6
100
AcDbArc
 50
270.0
 51
360.0
  0
ARC
  5
39F
100
AcDbEntity
  8
0
100
AcDbCircle
 62
7
  6
CONTINUOUS
 10
644.1332137807
 20
187.906122449
 40
0.5
100
AcDbArc
 50
90.0
 51
239.4825176996
  0
ARC
  5
3A0
100
AcDbEntity
  8
0
100
AcDbCircle
 62
7
  6
CONTINUOUS
 10
658.8594498218
 20
212.8888759414
 40
29.5
100
AcDbArc
 50
223.490358347
 51
258.2057475674
  0
ARC
  5
3A1
100
AcDbEntity
  8
0
100
AcDbCircle
 62
7
  6
CONTINUOUS
 10
664.4080860728
 20
209.806122449
 40
10.2
100
AcDbArc
 50
143.9681209275
 51
162.8953648234
  0
ARC
  5
3A2
100
AcDbEntity
  8
0
100
AcDbCircle
 62
7
  6
CONTINUOUS
 10
664.4080860728
 20
209.806122449
 40
10.2
100
AcDbArc
 50
197.1046351766
 51
216.0318790725
  0
ARC
  5
3A3
100
AcDbEntity
  8
0
100
AcDbCircle
 62
7
  6
CONTINUOUS
 10
665.3318343155
 20
235.7149177869
 40
7.7339403173
100
AcDbArc
 50
192.3951340739
 51
194.2886831552
  0
ARC
  5
3A4
100
AcDbEntity
  8
0
100
AcDbCircle
 62
7
  6
CONTINUOUS
 10
662.090026258
 20
210.7149177869
 40
7.7339403173
100
AcDbArc
 50
192.3951340739
 51
194.2886831552
  0
ARC
  5
3A5
100
AcDbEntity
  8
0
100
AcDbCircle
 62
7
  6
CONTINUOUS
 10
665.3295739449
 20
233.897863186
 40
7.7316175652
100
AcDbArc
 50
165.7110323865
 51
167.6051503844
  0
ARC
  5
3A6
100
AcDbEntity
  8
0
100
AcDbCircle
 62
7
  6
CONTINUOUS
 10
662.087765888
 20
208.8978631859
 40
7.7316175657
100
AcDbArc
 50
165.7110323865
 51
167.6051503843
  0
ARC
  5
3A7
100
AcDbEntity
  8
0
100
AcDbCircle
 62
7
  6
CONTINUOUS
 10
665.2904790938
 20
235.657135016
 40
7.6914438066
100
AcDbArc
 50
165.7060852773
 51
167.6100974936
  0
ARC
  5
3A8
100
AcDbEntity
  8
0
100
AcDbCircle
 62
7
  6
CONTINUOUS
 10
662.0484828123
 20
210.6571796557
 40
7.6912503883
100
AcDbArc
 50
165.7060613342
 51
167.6101214367
  0
ARC
  5
3A9
100
AcDbEntity
  8
0
100
AcDbCircle
 62
7
  6
CONTINUOUS
 10
662.0456010111
 20
208.9543817873
 40
7.6882890598
100
AcDbArc
 50
192.3895118324
 51
194.2943053967
  0
ARC
  5
3AA
100
AcDbEntity
  8
0
100
AcDbCircle
 62
7
  6
CONTINUOUS
 10
665.2872731002
 20
233.9543495407
 40
7.6881493392
100
AcDbArc
 50
192.3894945224
 51
194.2943227067
  0
ARC
  5
3AB
100
AcDbEntity
  8
0
100
AcDbCircle
 62
7
  6
CONTINUOUS
 10
665.2609979249
 20
233.9483862819
 40
7.6612066177
100
AcDbArc
 50
190.4799345864
 51
192.3880968953
  0
ARC
  5
3AC
100
AcDbEntity
  8
0
100
AcDbCircle
 62
7
  6
CONTINUOUS
 10
662.0185062232
 20
208.9482480126
 40
7.6605092276
100
AcDbArc
 50
190.4798477217
 51
192.3881837601
  0
ARC
  5
3AD
100
AcDbEntity
  8
0
100
AcDbCircle
 62
7
  6
CONTINUOUS
 10
662.0040515339
 20
210.6669203935
 40
7.6457639057
100
AcDbArc
 50
167.6099758981
 51
169.5219926202
  0
ARC
  5
3AE
100
AcDbEntity
  8
0
100
AcDbCircle
 62
7
  6
CONTINUOUS
 10
665.2449178023
 20
235.6671108734
 40
7.6448031809
100
AcDbArc
 50
167.6098557451
 51
169.5221127732
  0
ARC
  5
3AF
100
AcDbEntity
  8
0
100
AcDbCircle
 62
7
  6
CONTINUOUS
 10
665.2435421071
 20
233.9173891123
 40
7.6433998258
100
AcDbArc
 50
167.6096801802
 51
169.5222883381
  0
ARC
  5
3B0
100
AcDbEntity
  8
0
100
AcDbCircle
 62
7
  6
CONTINUOUS
 10
662.0017340501
 20
208.9173891122
 40
7.6433998263
100
AcDbArc
 50
167.6096801803
 51
169.522288338
  0
ARC
  5
3B1
100
AcDbEntity
  8
0
100
AcDbCircle
 62
7
  6
CONTINUOUS
 10
665.243112664
 20
235.694381064
 40
7.6428912237
100
AcDbArc
 50
188.5649450104
 51
190.4747976503
  0
ARC
  5
3B2
100
AcDbEntity
  8
0
100
AcDbCircle
 62
7
  6
CONTINUOUS
 10
662.0013046053
 20
210.6943810638
 40
7.6428912224
100
AcDbArc
 50
188.5649450102
 51
190.4747976504
  0
ARC
  5
3B3
100
AcDbEntity
  8
0
100
AcDbCircle
 62
7
  6
CONTINUOUS
 10
665.2339178518
 20
235.6694057963
 40
7.6335693115
100
AcDbArc
 50
169.5240361109
 51
171.4362212285
  0
ARC
  5
3B4
100
AcDbEntity
  8
0
100
AcDbCircle
 62
7
  6
CONTINUOUS
 10
665.2323794476
 20
235.6925981013
 40
7.6320127313
100
AcDbArc
 50
190.4762847069
 51
192.3917467747
  0
ARC
  5
3B5
100
AcDbEntity
  8
0
100
AcDbCircle
 62
7
  6
CONTINUOUS
 10
661.9905713897
 20
210.6925981013
 40
7.6320127308
100
AcDbArc
 50
190.4762847069
 51
192.3917467748
  0
ARC
  5
3B6
100
AcDbEntity
  8
0
100
AcDbCircle
 62
7
  6
CONTINUOUS
 10
661.9885037596
 20
210.6700105253
 40
7.6299134313
100
AcDbArc
 50
169.5235779557
 51
171.4366793837
  0
ARC
  5
3B7
100
AcDbEntity
  8
0
100
AcDbCircle
 62
7
  6
CONTINUOUS
 10
665.2004055782
 20
233.9250257765
 40
7.5995938243
100
AcDbArc
 50
169.5197613105
 51
171.4404960289
  0
ARC
  5
3B8
100
AcDbEntity
  8
0
100
AcDbCircle
 62
7
  6
CONTINUOUS
 10
661.9585975215
 20
208.9250257764
 40
7.599593825
100
AcDbArc
 50
169.5197613106
 51
171.4404960287
  0
ARC
  5
3B9
100
AcDbEntity
  8
0
100
AcDbCircle
 62
7
  6
CONTINUOUS
 10
661.933699398
 20
208.9330437271
 40
7.574351582
100
AcDbArc
 50
188.5563031549
 51
190.4834395056
  0
ARC
  5
3BA
100
AcDbEntity
  8
0
100
AcDbCircle
 62
7
  6
CONTINUOUS
 10
665.1729403706
 20
233.9326132292
 40
7.5717490187
100
AcDbArc
 50
188.5559719258
 51
190.4837707348
  0
ARC
  5
3BB
100
AcDbEntity
  8
0
100
AcDbCircle
 62
7
  6
CONTINUOUS
 10
656.6594498218
 20
218.906122449
 40
5.0
100
AcDbArc
 50
90.0
 51
180.0
  0
ARC
  5
3BC
100
AcDbEntity
  8
0
100
AcDbCircle
 62
7
  6
CONTINUOUS
 10
651.2678873196
 20
224.906122449
 40
3.0
100
AcDbArc
 50
90.0
 51
176.5036554113
  0
ARC
  5
3BD
100
AcDbEntity
  8
0
100
AcDbCircle
 62
7
  6
CONTINUOUS
 10
658.3457417811
 20
232.9918513538
 40
0.6777872062
100
AcDbArc
 50
181.2039968458
 51
182.6386498375
  0
ARC
  5
3BE
100
AcDbEntity
  8
0
100
AcDbCircle
 62
7
  6
CONTINUOUS
 10
657.6854580271
 20
233.0478576231
 40
0.0082648261
100
AcDbArc
 50
89.9882253637
 51
93.6677602928
  0
ARC
  5
3BF
100
AcDbEntity
  8
0
100
AcDbCircle
 62
7
  6
CONTINUOUS
 10
665.3318343158
 20
735.714917787
 40
7.7339403177
100
AcDbArc
 50
192.395134074
 51
194.2886831552
  0
ARC
  5
3C0
100
AcDbEntity
  8
0
100
AcDbCircle
 62
7
  6
CONTINUOUS
 10
665.3295739452
 20
733.8978631859
 40
7.7316175655
100
AcDbArc
 50
165.7110323865
 51
167.6051503844
  0
ARC
  5
3C1
100
AcDbEntity
  8
0
100
AcDbCircle
 62
7
  6
CONTINUOUS
 10
665.2904790935
 20
735.6571350161
 40
7.6914438063
100
AcDbArc
 50
165.7060852773
 51
167.6100974936
  0
ARC
  5
3C2
100
AcDbEntity
  8
0
100
AcDbCircle
 62
7
  6
CONTINUOUS
 10
665.2872730997
 20
733.9543495406
 40
7.6881493387
100
AcDbArc
 50
192.3894945224
 51
194.2943227068
  0
ARC
  5
3C3
100
AcDbEntity
  8
0
100
AcDbCircle
 62
7
  6
CONTINUOUS
 10
665.260997926
 20
733.9483862821
 40
7.6612066188
100
AcDbArc
 50
190.4799345865
 51
192.3880968952
  0
ARC
  5
3C4
100
AcDbEntity
  8
0
100
AcDbCircle
 62
7
  6
CONTINUOUS
 10
665.2449178015
 20
735.6671108736
 40
7.6448031801
100
AcDbArc
 50
167.609855745
 51
169.5221127733
  0
ARC
  5
3C5
100
AcDbEntity
  8
0
100
AcDbCircle
 62
7
  6
CONTINUOUS
 10
665.2435421068
 20
733.9173891123
 40
7.6433998255
100
AcDbArc
 50
167.6096801802
 51
169.5222883381
  0
ARC
  5
3C6
100
AcDbEntity
  8
0
100
AcDbCircle
 62
7
  6
CONTINUOUS
 10
665.2431126635
 20
735.6943810639
 40
7.6428912232
100
AcDbArc
 50
188.5649450103
 51
190.4747976503
  0
ARC
  5
3C7
100
AcDbEntity
  8
0
100
AcDbCircle
 62
7
  6
CONTINUOUS
 10
665.233917853
 20
735.6694057961
 40
7.6335693127
100
AcDbArc
 50
169.524036111
 51
171.4362212284
  0
ARC
  5
3C8
100
AcDbEntity
  8
0
100
AcDbCircle
 62
7
  6
CONTINUOUS
 10
665.2323794477
 20
735.6925981014
 40
7.6320127313
100
AcDbArc
 50
190.4762847069
 51
192.3917467747
  0
ARC
  5
3C9
100
AcDbEntity
  8
0
100
AcDbCircle
 62
7
  6
CONTINUOUS
 10
665.2004055786
 20
733.9250257764
 40
7.5995938246
100
AcDbArc
 50
169.5197613106
 51
171.4404960288
  0
ARC
  5
3CA
100
AcDbEntity
  8
0
100
AcDbCircle
 62
7
  6
CONTINUOUS
 10
665.1729403702
 20
733.9326132291
 40
7.5717490183
100
AcDbArc
 50
188.5559719257
 51
190.4837707348
  0
ARC
  5
3CB
100
AcDbEntity
  8
0
100
AcDbCircle
 62
7
  6
CONTINUOUS
 10
689.6594498218
 20
900.056122449
 40
2.35
100
AcDbArc
 50
0.0
 51
180.0
  0
ARC
  5
3CC
100
AcDbEntity
  8
0
100
AcDbCircle
 62
7
  6
CONTINUOUS
 10
689.6594498218
 20
890.056122449
 40
2.35
100
AcDbArc
 50
180.0
 51
360.0
  0
ARC
  5
3CD
100
AcDbEntity
  8
0
100
AcDbCircle
 62
7
  6
CONTINUOUS
 10
683.1802461486
 20
815.056122449
 40
2.0
100
AcDbArc
 50
180.0
 51
270.0
  0
ARC
  5
3CE
100
AcDbEntity
  8
0
100
AcDbCircle
 62
7
  6
CONTINUOUS
 10
694.6802461486
 20
829.956122449
 40
1.0
100
AcDbArc
 50
180.0
 51
270.0
  0
ARC
  5
3CF
100
AcDbEntity
  8
0
100
AcDbCircle
 62
7
  6
CONTINUOUS
 10
694.6802461486
 20
830.456122449
 40
1.0
100
AcDbArc
 50
90.0
 51
180.0
  0
ARC
  5
3D0
100
AcDbEntity
  8
0
100
AcDbCircle
 62
7
  6
CONTINUOUS
 10
694.6802461486
 20
869.656122449
 40
1.0
100
AcDbArc
 50
180.0
 51
270.0
  0
ARC
  5
3D1
100
AcDbEntity
  8
0
100
AcDbCircle
 62
7
  6
CONTINUOUS
 10
694.6802461486
 20
870.156122449
 40
1.0
100
AcDbArc
 50
90.0
 51
180.0
  0
ARC
  5
3D2
100
AcDbEntity
  8
0
100
AcDbCircle
 62
7
  6
CONTINUOUS
 10
696.1902736083
 20
886.3850132375
 40
0.775744984
100
AcDbArc
 50
353.2331791751
 51
356.3607210038
  0
ARC
  5
3D3
100
AcDbEntity
  8
0
100
AcDbCircle
 62
7
  6
CONTINUOUS
 10
658.3457417812
 20
732.9918513538
 40
0.6777872063
100
AcDbArc
 50
181.2039968498
 51
182.6386498371
  0
ARC
  5
3D4
100
AcDbEntity
  8
0
100
AcDbCircle
 62
7
  6
CONTINUOUS
 10
681.6802461486
 20
902.5629024349
 40
0.5
100
AcDbArc
 50
109.9999999983
 51
180.0
  0
ARC
  5
3D5
100
AcDbEntity
  8
0
100
AcDbCircle
 62
7
  6
CONTINUOUS
 10
686.9802461486
 20
905.556122449
 40
0.5
100
AcDbArc
 50
290.0000000002
 51
88.9999999997
  0
ARC
  5
3D6
100
AcDbEntity
  8
0
100
AcDbCircle
 62
7
  6
CONTINUOUS
 10
657.6854580271
 20
733.0478576231
 40
0.0082648261
100
AcDbArc
 50
89.9882253558
 51
93.6677604921
  0
ARC
  5
3D7
100
AcDbEntity
  8
0
100
AcDbCircle
 62
7
  6
CONTINUOUS
 10
507.5056878288
 20
966.7305163323
 40
207.9613818832
100
AcDbArc
 50
6.5836295545
 51
6.7457500603
  0
ARC
  5
3D8
100
AcDbEntity
  8
0
100
AcDbCircle
 62
7
  6
CONTINUOUS
 10
574.8523753285
 20
974.8841260909
 40
140.1231735311
100
AcDbArc
 50
6.7230835088
 51
7.001801469
  0
ARC
  5
3D9
100
AcDbEntity
  8
0
100
AcDbCircle
 62
7
  6
CONTINUOUS
 10
577.3417595904
 20
981.6603194896
 40
136.8184403954
100
AcDbArc
 50
7.0913950009
 51
7.3071781728
  0
ARC
  5
3DA
100
AcDbEntity
  8
0
100
AcDbCircle
 62
7
  6
CONTINUOUS
 10
601.5996010971
 20
975.4110713737
 40
113.4960572869
100
AcDbArc
 50
6.5073600436
 51
6.6816338997
  0
ARC
  5
3DB
100
AcDbEntity
  8
0
100
AcDbCircle
 62
7
  6
CONTINUOUS
 10
604.9864165749
 20
968.9635671171
 40
110.8202087332
100
AcDbArc
 50
5.5610854872
 51
5.68311916
  0
ARC
  5
3DC
100
AcDbEntity
  8
0
100
AcDbCircle
 62
7
  6
CONTINUOUS
 10
609.3112959601
 20
978.4860272824
 40
105.4793160278
100
AcDbArc
 50
6.4511580716
 51
6.5805665301
  0
ARC
  5
3DD
100
AcDbEntity
  8
0
100
AcDbCircle
 62
7
  6
CONTINUOUS
 10
611.4828532024
 20
958.7488587991
 40
105.3014079439
100
AcDbArc
 50
6.7124930426
 51
7.3473014169
  0
ARC
  5
3DE
100
AcDbEntity
  8
0
100
AcDbCircle
 62
7
  6
CONTINUOUS
 10
610.5281329566
 20
982.8496556883
 40
103.7472230016
100
AcDbArc
 50
1.9089042515
 51
2.1235053603
  0
ARC
  5
3DF
100
AcDbEntity
  8
0
100
AcDbCircle
 62
7
  6
CONTINUOUS
 10
615.3401922919
 20
946.3992081748
 40
102.3592294801
100
AcDbArc
 50
3.5873914984
 51
3.739979997
  0
ARC
  5
3E0
100
AcDbEntity
  8
0
100
AcDbCircle
 62
7
  6
CONTINUOUS
 10
664.1708474744
 20
974.6898175787
 40
51.3593929379
100
AcDbArc
 50
5.1555777739
 51
5.5121786165
  0
ARC
  5
3E1
100
AcDbEntity
  8
0
100
AcDbCircle
 62
7
  6
CONTINUOUS
 10
674.9142524237
 20
950.3143755432
 40
42.6566656459
100
AcDbArc
 50
3.711913281
 51
4.025614915
  0
ARC
  5
3E2
100
AcDbEntity
  8
0
100
AcDbCircle
 62
7
  6
CONTINUOUS
 10
684.8133663901
 20
988.4099329266
 40
29.3334403755
100
AcDbArc
 50
6.9615050893
 51
7.4066618318
  0
ARC
  5
3E3
100
AcDbEntity
  8
0
100
AcDbCircle
 62
7
  6
CONTINUOUS
 10
695.7795353044
 20
983.2140050076
 40
18.8305580641
100
AcDbArc
 50
7.7911718473
 51
8.3484489203
  0
ARC
  5
3E4
100
AcDbEntity
  8
0
100
AcDbCircle
 62
7
  6
CONTINUOUS
 10
693.0294498216
 20
981.056122449
 40
5.0
100
AcDbArc
 50
28.9301129535
 51
68.4821321544
  0
ARC
  5
3E5
100
AcDbEntity
  8
0
100
AcDbCircle
 62
7
  6
CONTINUOUS
 10
695.4802461486
 20
994.056122449
 40
4.0
100
AcDbArc
 50
90.0
 51
204.891485828
  0
CIRCLE
  5
3E6
100
AcDbEntity
  8
0
100
AcDbCircle
 62
7
  6
CONTINUOUS
 10
692.3802461486
 20
1021.056122449
 40
2.5
  0
ARC
  5
3E7
100
AcDbEntity
  8
0
100
AcDbCircle
 62
7
  6
CONTINUOUS
 10
695.2294498216
 20
993.556122449
 40
2.0
100
AcDbArc
 50
35.5336279125
 51
329.7505681245
  0
ARC
  5
3E8
100
AcDbEntity
  8
0
100
AcDbCircle
 62
7
  6
CONTINUOUS
 10
696.1802461486
 20
999.556122449
 40
1.5
100
AcDbArc
 50
270.0
 51
281.5469138187
  0
ARC
  5
3E9
100
AcDbEntity
  8
0
100
AcDbCircle
 62
7
  6
CONTINUOUS
 10
695.6802461486
 20
982.656122449
 40
1.0
100
AcDbArc
 50
180.0
 51
238.6143173049
  0
ARC
  5
3EA
100
AcDbEntity
  8
0
100
AcDbCircle
 62
7
  6
CONTINUOUS
 10
693.6802461486
 20
986.056122449
 40
1.0
100
AcDbArc
 50
0.0
 51
24.8914858265
  0
ARC
  5
3EB
100
AcDbEntity
  8
0
100
AcDbCircle
 62
7
  6
CONTINUOUS
 10
686.9802461486
 20
1005.556122449
 40
0.5
100
AcDbArc
 50
290.0000000002
 51
90.0
  0
ARC
  5
3EC
100
AcDbEntity
  8
0
100
AcDbCircle
 62
7
  6
CONTINUOUS
 10
665.3318343158
 20
1135.714917787
 40
7.7339403177
100
AcDbArc
 50
192.395134074
 51
194.2886831552
  0
ARC
  5
3ED
100
AcDbEntity
  8
0
100
AcDbCircle
 62
7
  6
CONTINUOUS
 10
665.3295739445
 20
1133.8978631861
 40
7.7316175647
100
AcDbArc
 50
165.7110323864
 51
167.6051503845
  0
ARC
  5
3EE
100
AcDbEntity
  8
0
100
AcDbCircle
 62
7
  6
CONTINUOUS
 10
665.2904790933
 20
1135.6571350161
 40
7.6914438061
100
AcDbArc
 50
165.7060852772
 51
167.6100974936
  0
ARC
  5
3EF
100
AcDbEntity
  8
0
100
AcDbCircle
 62
7
  6
CONTINUOUS
 10
665.2872730995
 20
1133.9543495405
 40
7.6881493385
100
AcDbArc
 50
192.3894945224
 51
194.2943227068
  0
ARC
  5
3F0
100
AcDbEntity
  8
0
100
AcDbCircle
 62
7
  6
CONTINUOUS
 10
665.2609979257
 20
1133.9483862821
 40
7.6612066185
100
AcDbArc
 50
190.4799345865
 51
192.3880968952
  0
ARC
  5
3F1
100
AcDbEntity
  8
0
100
AcDbCircle
 62
7
  6
CONTINUOUS
 10
665.2449178022
 20
1135.6671108734
 40
7.6448031808
100
AcDbArc
 50
167.6098557451
 51
169.5221127732
  0
ARC
  5
3F2
100
AcDbEntity
  8
0
100
AcDbCircle
 62
7
  6
CONTINUOUS
 10
665.2435421066
 20
1133.9173891124
 40
7.6433998253
100
AcDbArc
 50
167.6096801802
 51
169.5222883382
  0
ARC
  5
3F3
100
AcDbEntity
  8
0
100
AcDbCircle
 62
7
  6
CONTINUOUS
 10
665.2431126637
 20
1135.6943810639
 40
7.6428912234
100
AcDbArc
 50
188.5649450103
 51
190.4747976503
  0
ARC
  5
3F4
100
AcDbEntity
  8
0
100
AcDbCircle
 62
7
  6
CONTINUOUS
 10
665.2339178532
 20
1135.669405796
 40
7.6335693129
100
AcDbArc
 50
169.5240361111
 51
171.4362212283
  0
ARC
  5
3F5
100
AcDbEntity
  8
0
100
AcDbCircle
 62
7
  6
CONTINUOUS
 10
665.2323794473
 20
1135.6925981013
 40
7.632012731
100
AcDbArc
 50
190.4762847069
 51
192.3917467748
  0
ARC
  5
3F6
100
AcDbEntity
  8
0
100
AcDbCircle
 62
7
  6
CONTINUOUS
 10
665.2004055787
 20
1133.9250257764
 40
7.5995938248
100
AcDbArc
 50
169.5197613106
 51
171.4404960288
  0
ARC
  5
3F7
100
AcDbEntity
  8
0
100
AcDbCircle
 62
7
  6
CONTINUOUS
 10
665.1729403713
 20
1133.9326132293
 40
7.5717490193
100
AcDbArc
 50
188.5559719259
 51
190.4837707347
  0
ARC
  5
3F8
100
AcDbEntity
  8
0
100
AcDbCircle
 62
7
  6
CONTINUOUS
 10
696.1802461486
 20
1062.056122449
 40
2.5
100
AcDbArc
 50
180.0
 51
245.9007487859
  0
ARC
  5
3F9
100
AcDbEntity
  8
0
100
AcDbCircle
 62
7
  6
CONTINUOUS
 10
691.6802461486
 20
1064.056122449
 40
2.0
100
AcDbArc
 50
0.0
 51
90.0
  0
ARC
  5
3FA
100
AcDbEntity
  8
0
100
AcDbCircle
 62
7
  6
CONTINUOUS
 10
683.1802461486
 20
1064.056122449
 40
2.0
100
AcDbArc
 50
90.0
 51
180.0
  0
ARC
  5
3FB
100
AcDbEntity
  8
0
100
AcDbCircle
 62
7
  6
CONTINUOUS
 10
695.6802461486
 20
1045.056122449
 40
1.0
100
AcDbArc
 50
180.0
 51
270.0
  0
ARC
  5
3FC
100
AcDbEntity
  8
0
100
AcDbCircle
 62
7
  6
CONTINUOUS
 10
695.6802461486
 20
1045.656122449
 40
1.0
100
AcDbArc
 50
121.3856826951
 51
180.0
  0
ARC
  5
3FD
100
AcDbEntity
  8
0
100
AcDbCircle
 62
7
  6
CONTINUOUS
 10
658.3457417802
 20
1132.9918513537
 40
0.6777872053
100
AcDbArc
 50
181.2039968444
 51
182.638649838
  0
ARC
  5
3FE
100
AcDbEntity
  8
0
100
AcDbCircle
 62
7
  6
CONTINUOUS
 10
657.6854580271
 20
1133.0478576227
 40
0.0082648264
100
AcDbArc
 50
89.988225426
 51
93.6677604039
  0
ARC
  5
3FF
100
AcDbEntity
  8
0
100
AcDbCircle
 62
7
  6
CONTINUOUS
 10
709.4545180548
 20
863.7671574005
 40
15.7349644267
100
AcDbArc
 50
65.9621313426
 51
66.9439769658
  0
ARC
  5
400
100
AcDbEntity
  8
0
100
AcDbCircle
 62
7
  6
CONTINUOUS
 10
711.6130188644
 20
869.4196091466
 40
9.5786399776
100
AcDbArc
 50
66.3513127913
 51
67.0614869475
  0
ARC
  5
401
100
AcDbEntity
  8
0
100
AcDbCircle
 62
7
  6
CONTINUOUS
 10
712.7076445414
 20
871.9062168037
 40
6.8617696327
100
AcDbArc
 50
64.9497363404
 51
66.3951881864
  0
ARC
  5
402
100
AcDbEntity
  8
0
100
AcDbCircle
 62
7
  6
CONTINUOUS
 10
713.6923450926
 20
874.0138601587
 40
4.5354430166
100
AcDbArc
 50
63.489006712
 51
64.945597784
  0
ARC
  5
403
100
AcDbEntity
  8
0
100
AcDbCircle
 62
7
  6
CONTINUOUS
 10
698.8344527731
 20
885.8628505837
 40
4.3468213787
100
AcDbArc
 50
335.5608519409
 51
337.5394610813
  0
ARC
  5
404
100
AcDbEntity
  8
0
100
AcDbCircle
 62
7
  6
CONTINUOUS
 10
714.2451689127
 20
875.1275581742
 40
3.292088952
100
AcDbArc
 50
62.8474053566
 51
63.4467644315
  0
ARC
  5
405
100
AcDbEntity
  8
0
100
AcDbCircle
 62
7
  6
CONTINUOUS
 10
701.1802461486
 20
832.956122449
 40
1.5
100
AcDbArc
 50
270.0
 51
360.0
  0
ARC
  5
406
100
AcDbEntity
  8
0
100
AcDbCircle
 62
7
  6
CONTINUOUS
 10
701.1802461486
 20
867.156122449
 40
1.5
100
AcDbArc
 50
0.0
 51
90.0
  0
ARC
  5
407
100
AcDbEntity
  8
0
100
AcDbCircle
 62
7
  6
CONTINUOUS
 10
716.0944260863
 20
878.4090962906
 40
0.4899223577
100
AcDbArc
 50
231.2044642249
 51
248.7507873725
  0
ARC
  5
408
100
AcDbEntity
  8
0
100
AcDbCircle
 62
7
  6
CONTINUOUS
 10
884.1684136361
 20
987.0338617427
 40
168.9846151952
100
AcDbArc
 50
184.5694468825
 51
184.7036620724
  0
ARC
  5
409
100
AcDbEntity
  8
0
100
AcDbCircle
 62
7
  6
CONTINUOUS
 10
885.1264918664
 20
971.9226138297
 40
168.6328286215
100
AcDbArc
 50
184.574655707
 51
184.8389084573
  0
ARC
  5
40A
100
AcDbEntity
  8
0
100
AcDbCircle
 62
7
  6
CONTINUOUS
 10
874.3282139754
 20
976.9920715288
 40
158.3264087606
100
AcDbArc
 50
184.1145139551
 51
184.255324032
  0
ARC
  5
40B
100
AcDbEntity
  8
0
100
AcDbCircle
 62
7
  6
CONTINUOUS
 10
852.0151240014
 20
958.0232338311
 40
134.9608474561
100
AcDbArc
 50
183.8514434762
 51
184.0170750543
  0
ARC
  5
40C
100
AcDbEntity
  8
0
100
AcDbCircle
 62
7
  6
CONTINUOUS
 10
803.68317519
 20
988.9271567682
 40
89.0408430113
100
AcDbArc
 50
185.790585964
 51
186.4236071193
  0
ARC
  5
40D
100
AcDbEntity
  8
0
100
AcDbCircle
 62
7
  6
CONTINUOUS
 10
805.6394167549
 20
954.6663347053
 40
88.3264636719
100
AcDbArc
 50
182.9425137427
 51
183.3213527362
  0
ARC
  5
40E
100
AcDbEntity
  8
0
100
AcDbCircle
 62
7
  6
CONTINUOUS
 10
781.6115626602
 20
986.470645693
 40
66.8329736115
100
AcDbArc
 50
186.4478234893
 51
186.6109983449
  0
ARC
  5
40F
100
AcDbEntity
  8
0
100
AcDbCircle
 62
7
  6
CONTINUOUS
 10
765.5240323266
 20
997.2264780277
 40
51.9378084104
100
AcDbArc
 50
186.7159313747
 51
187.1820731021
  0
ARC
  5
410
100
AcDbEntity
  8
0
100
AcDbCircle
 62
7
  6
CONTINUOUS
 10
761.6811764476
 20
984.8910428802
 40
46.7752508495
100
AcDbArc
 50
185.8274857385
 51
186.0644233196
  0
ARC
  5
411
100
AcDbEntity
  8
0
100
AcDbCircle
 62
7
  6
CONTINUOUS
 10
750.5297417757
 20
995.346912556
 40
36.8261777983
100
AcDbArc
 50
187.1973362489
 51
187.461322397
  0
ARC
  5
412
100
AcDbEntity
  8
0
100
AcDbCircle
 62
7
  6
CONTINUOUS
 10
748.1436152043
 20
983.4476584353
 40
33.1609610681
100
AcDbArc
 50
186.0555958226
 51
186.4711773718
  0
ARC
  5
413
100
AcDbEntity
  8
0
100
AcDbCircle
 62
7
  6
CONTINUOUS
 10
740.5542319161
 20
966.3764769517
 40
24.0408596409
100
AcDbArc
 50
186.4572346464
 51
187.3125656045
  0
ARC
  5
414
100
AcDbEntity
  8
0
100
AcDbCircle
 62
7
  6
CONTINUOUS
 10
706.4744875438
 20
953.6243276214
 40
10.9497417376
100
AcDbArc
 50
356.9885384082
 51
0.0510272294
  0
ARC
  5
415
100
AcDbEntity
  8
0
100
AcDbCircle
 62
7
  6
CONTINUOUS
 10
726.2081496218
 20
965.7252341412
 40
9.6912703392
100
AcDbArc
 50
181.947116993
 51
182.607537061
  0
ARC
  5
416
100
AcDbEntity
  8
0
100
AcDbCircle
 62
7
  6
CONTINUOUS
 10
696.8794547141
 20
1066.2535294521
 40
6.7018877397
100
AcDbArc
 50
262.8707343824
 51
264.1827690296
  0
ARC
  5
417
100
AcDbEntity
  8
0
100
AcDbCircle
 62
7
  6
CONTINUOUS
 10
702.6802461486
 20
1027.6578660995
 40
5.0
100
AcDbArc
 50
152.0
 51
180.0
  0
ARC
  5
418
100
AcDbEntity
  8
0
100
AcDbCircle
 62
7
  6
CONTINUOUS
 10
696.9883490754
 20
1020.70668117
 40
4.4909687878
100
AcDbArc
 50
40.222190131
 51
41.5434557307
  0
ARC
  5
419
100
AcDbEntity
  8
0
100
AcDbCircle
 62
7
  6
CONTINUOUS
 10
698.6802461486
 20
1040.056122449
 40
4.0
100
AcDbArc
 50
0.0
 51
90.0
  0
ARC
  5
41A
100
AcDbEntity
  8
0
100
AcDbCircle
 62
7
  6
CONTINUOUS
 10
698.8502461484
 20
1040.556122449
 40
3.5
100
AcDbArc
 50
58.5167991063
 51
90.0
  0
ARC
  5
41B
100
AcDbEntity
  8
0
100
AcDbCircle
 62
7
  6
CONTINUOUS
 10
699.6802461486
 20
1039.056122449
 40
3.0
100
AcDbArc
 50
331.9999999997
 51
360.0
  0
ARC
  5
41C
100
AcDbEntity
  8
0
100
AcDbCircle
 62
7
  6
CONTINUOUS
 10
709.3063725927
 20
1006.3651957874
 40
2.7375793093
100
AcDbArc
 50
348.2790482818
 51
352.4617133524
  0
ARC
  5
41D
100
AcDbEntity
  8
0
100
AcDbCircle
 62
7
  6
CONTINUOUS
 10
715.5977832644
 20
951.9592788024
 40
2.0224006655
100
AcDbArc
 50
34.4700744851
 51
38.8260026271
  0
ARC
  5
41E
100
AcDbEntity
  8
0
100
AcDbCircle
 62
7
  6
CONTINUOUS
 10
715.7614113303
 20
952.0732012754
 40
1.8230252205
100
AcDbArc
 50
32.0961700149
 51
34.4288814802
  0
CIRCLE
  5
41F
100
AcDbEntity
  8
0
100
AcDbCircle
 62
7
  6
CONTINUOUS
 10
699.2294498218
 20
1040.056122449
 40
1.5
  0
ARC
  5
420
100
AcDbEntity
  8
0
100
AcDbCircle
 62
7
  6
CONTINUOUS
 10
716.8619253135
 20
946.0022321733
 40
1.0303925616
100
AcDbArc
 50
7.6693946372
 51
14.9310717604
  0
ARC
  5
421
100
AcDbEntity
  8
0
100
AcDbCircle
 62
7
  6
CONTINUOUS
 10
716.8912648716
 20
946.0066309638
 40
1.0007267728
100
AcDbArc
 50
3.9355946217
 51
6.3385501812
  0
CIRCLE
  5
422
100
AcDbEntity
  8
0
100
AcDbCircle
 62
7
  6
CONTINUOUS
 10
712.7409923625
 20
978.006122449
 40
0.2
  0
ARC
  5
423
100
AcDbEntity
  8
0
100
AcDbCircle
 62
7
  6
CONTINUOUS
 10
1686.5579961891
 20
-167.6557650359
 40
1546.536300334
100
AcDbArc
 50
129.6687973969
 51
129.8562013073
  0
ARC
  5
424
100
AcDbEntity
  8
0
100
AcDbCircle
 62
7
  6
CONTINUOUS
 10
665.3318343154
 20
1635.7149177869
 40
7.7339403173
100
AcDbArc
 50
192.3951340739
 51
194.2886831552
  0
ARC
  5
425
100
AcDbEntity
  8
0
100
AcDbCircle
 62
7
  6
CONTINUOUS
 10
665.329573945
 20
1633.897863186
 40
7.7316175653
100
AcDbArc
 50
165.7110323865
 51
167.6051503844
  0
ARC
  5
426
100
AcDbEntity
  8
0
100
AcDbCircle
 62
7
  6
CONTINUOUS
 10
665.2904790939
 20
1635.657135016
 40
7.6914438067
100
AcDbArc
 50
165.7060852773
 51
167.6100974936
  0
ARC
  5
427
100
AcDbEntity
  8
0
100
AcDbCircle
 62
7
  6
CONTINUOUS
 10
665.2872731005
 20
1633.9543495408
 40
7.6881493396
100
AcDbArc
 50
192.3894945225
 51
194.2943227067
  0
ARC
  5
428
100
AcDbEntity
  8
0
100
AcDbCircle
 62
7
  6
CONTINUOUS
 10
665.260997925
 20
1633.9483862819
 40
7.6612066178
100
AcDbArc
 50
190.4799345864
 51
192.3880968953
  0
ARC
  5
429
100
AcDbEntity
  8
0
100
AcDbCircle
 62
7
  6
CONTINUOUS
 10
665.244917803
 20
1635.6671108733
 40
7.6448031817
100
AcDbArc
 50
167.6098557452
 51
169.5221127731
  0
ARC
  5
42A
100
AcDbEntity
  8
0
100
AcDbCircle
 62
7
  6
CONTINUOUS
 10
665.2435421068
 20
1633.9173891123
 40
7.6433998256
100
AcDbArc
 50
167.6096801802
 51
169.5222883381
  0
ARC
  5
42B
100
AcDbEntity
  8
0
100
AcDbCircle
 62
7
  6
CONTINUOUS
 10
665.2431126638
 20
1635.6943810639
 40
7.6428912235
100
AcDbArc
 50
188.5649450103
 51
190.4747976503
  0
ARC
  5
42C
100
AcDbEntity
  8
0
100
AcDbCircle
 62
7
  6
CONTINUOUS
 10
665.2339178518
 20
1635.6694057963
 40
7.6335693115
100
AcDbArc
 50
169.5240361109
 51
171.4362212285
  0
ARC
  5
42D
100
AcDbEntity
  8
0
100
AcDbCircle
 62
7
  6
CONTINUOUS
 10
665.2323794475
 20
1635.6925981013
 40
7.6320127312
100
AcDbArc
 50
190.4762847069
 51
192.3917467747
  0
ARC
  5
42E
100
AcDbEntity
  8
0
100
AcDbCircle
 62
7
  6
CONTINUOUS
 10
665.2004055785
 20
1633.9250257764
 40
7.5995938246
100
AcDbArc
 50
169.5197613106
 51
171.4404960288
  0
ARC
  5
42F
100
AcDbEntity
  8
0
100
AcDbCircle
 62
7
  6
CONTINUOUS
 10
665.1729403704
 20
1633.9326132291
 40
7.5717490184
100
AcDbArc
 50
188.5559719258
 51
190.4837707348
  0
ARC
  5
430
100
AcDbEntity
  8
0
100
AcDbCircle
 62
7
  6
CONTINUOUS
 10
658.3457417823
 20
1632.9918513538
 40
0.6777872074
100
AcDbArc
 50
181.203996857
 51
182.6386498357
  0
ARC
  5
431
100
AcDbEntity
  8
0
100
AcDbCircle
 62
7
  6
CONTINUOUS
 10
667.2594498218
 20
1559.806122449
 40
0.5
100
AcDbArc
 50
179.9999991686
 51
258.0
  0
ARC
  5
432
100
AcDbEntity
  8
0
100
AcDbCircle
 62
7
  6
CONTINUOUS
 10
667.2594498218
 20
1572.806122449
 40
0.5
100
AcDbArc
 50
102.0
 51
180.0000008314
  0
ARC
  5
433
100
AcDbEntity
  8
0
100
AcDbCircle
 62
7
  6
CONTINUOUS
 10
657.6854580271
 20
1633.0478576224
 40
0.0082648267
100
AcDbArc
 50
89.9882255065
 51
93.6677601496
  0
ARC
  5
434
100
AcDbEntity
  8
0
100
AcDbCircle
 62
7
  6
CONTINUOUS
 10
664.4080860728
 20
1659.806122449
 40
10.2
100
AcDbArc
 50
143.9681209275
 51
162.8953648234
  0
ARC
  5
435
100
AcDbEntity
  8
0
100
AcDbCircle
 62
7
  6
CONTINUOUS
 10
664.4080860728
 20
1659.806122449
 40
10.2
100
AcDbArc
 50
197.1046351766
 51
216.0318790725
  0
ARC
  5
436
100
AcDbEntity
  8
0
100
AcDbCircle
 62
7
  6
CONTINUOUS
 10
662.0900262579
 20
1660.7149177869
 40
7.7339403172
100
AcDbArc
 50
192.3951340739
 51
194.2886831552
  0
ARC
  5
437
100
AcDbEntity
  8
0
100
AcDbCircle
 62
7
  6
CONTINUOUS
 10
662.0877658879
 20
1658.8978631859
 40
7.7316175656
100
AcDbArc
 50
165.7110323865
 51
167.6051503843
  0
ARC
  5
438
100
AcDbEntity
  8
0
100
AcDbCircle
 62
7
  6
CONTINUOUS
 10
662.0484828121
 20
1660.6571796557
 40
7.691250388
100
AcDbArc
 50
165.7060613342
 51
167.6101214367
  0
ARC
  5
439
100
AcDbEntity
  8
0
100
AcDbCircle
 62
7
  6
CONTINUOUS
 10
662.0456010109
 20
1658.9543817872
 40
7.6882890596
100
AcDbArc
 50
192.3895118324
 51
194.2943053967
  0
ARC
  5
43A
100
AcDbEntity
  8
0
100
AcDbCircle
 62
7
  6
CONTINUOUS
 10
662.0185062228
 20
1658.9482480125
 40
7.6605092271
100
AcDbArc
 50
190.4798477216
 51
192.3881837602
  0
ARC
  5
43B
100
AcDbEntity
  8
0
100
AcDbCircle
 62
7
  6
CONTINUOUS
 10
662.0040515338
 20
1660.6669203935
 40
7.6457639056
100
AcDbArc
 50
167.6099758981
 51
169.5219926202
  0
ARC
  5
43C
100
AcDbEntity
  8
0
100
AcDbCircle
 62
7
  6
CONTINUOUS
 10
662.0017340502
 20
1658.9173891122
 40
7.6433998264
100
AcDbArc
 50
167.6096801803
 51
169.522288338
  0
ARC
  5
43D
100
AcDbEntity
  8
0
100
AcDbCircle
 62
7
  6
CONTINUOUS
 10
662.001304605
 20
1660.6943810637
 40
7.6428912221
100
AcDbArc
 50
188.5649450101
 51
190.4747976505
  0
ARC
  5
43E
100
AcDbEntity
  8
0
100
AcDbCircle
 62
7
  6
CONTINUOUS
 10
661.9905713895
 20
1660.6925981012
 40
7.6320127305
100
AcDbArc
 50
190.4762847069
 51
192.3917467748
  0
ARC
  5
43F
100
AcDbEntity
  8
0
100
AcDbCircle
 62
7
  6
CONTINUOUS
 10
661.9885037598
 20
1660.6700105253
 40
7.6299134315
100
AcDbArc
 50
169.5235779557
 51
171.4366793837
  0
ARC
  5
440
100
AcDbEntity
  8
0
100
AcDbCircle
 62
7
  6
CONTINUOUS
 10
661.9585975215
 20
1658.9250257764
 40
7.5995938251
100
AcDbArc
 50
169.5197613106
 51
171.4404960287
  0
ARC
  5
441
100
AcDbEntity
  8
0
100
AcDbCircle
 62
7
  6
CONTINUOUS
 10
661.9336993979
 20
1658.9330437271
 40
7.574351582
100
AcDbArc
 50
188.5563031549
 51
190.4834395056
  0
ARC
  5
442
100
AcDbEntity
  8
0
100
AcDbCircle
 62
7
  6
CONTINUOUS
 10
677.562854402
 20
1708.9240430556
 40
7.0820802117
100
AcDbArc
 50
84.3291079781
 51
90.0275438961
  0
ARC
  5
443
100
AcDbEntity
  8
0
100
AcDbCircle
 62
7
  6
CONTINUOUS
 10
677.6231233999
 20
1709.4831834572
 40
6.5197225765
100
AcDbArc
 50
78.4078962431
 51
84.3706141545
  0
ARC
  5
444
100
AcDbEntity
  8
0
100
AcDbCircle
 62
7
  6
CONTINUOUS
 10
677.5594498218
 20
1714.206122449
 40
3.6
100
AcDbArc
 50
0.0
 51
90.0
  0
ARC
  5
445
100
AcDbEntity
  8
0
100
AcDbCircle
 62
7
  6
CONTINUOUS
 10
1510.3585021392
 20
2917.2631290372
 40
2187.6126177618
100
AcDbArc
 50
248.1856936932
 51
248.3003374953
  0
SPLINE
  5
446
100
AcDbEntity
  8
0
100
AcDbSpline
 62
7
  6
CONTINUOUS
 70
0
 71
3
 72
9
 73
5
 74
0
 42
0.0000001
 43
0.0000001
 44
0.0000000001
 40
0.0
 40
0.0
 40
0.0
 40
0.0
 40
0.2840741337
 40
1.0
 40
1.0
 40
1.0
 40
1.0
 10
657.6854246413
 20
232.806122449
 30
0.0
 10
657.6832355141
 20
232.8206798105
 30
0.0
 10
657.675981576
 20
232.8719814396
 30
0.0
 10
657.6703611831
 20
232.9235865018
 30
0.0
 10
657.6686732041
 20
232.9606481657
 30
0.0
  0
SPLINE
  5
447
100
AcDbEntity
  8
0
100
AcDbSpline
 62
7
  6
CONTINUOUS
 70
0
 71
3
 72
9
 73
5
 74
0
 42
0.0000001
 43
0.0000001
 44
0.0000000001
 40
0.0
 40
0.0
 40
0.0
 40
0.0
 40
0.2753701142
 40
1.0
 40
1.0
 40
1.0
 40
1.0
 10
657.6681042167
 20
232.9776095788
 30
0.0
 10
657.6680385605
 20
232.9808160485
 30
0.0
 10
657.6678965809
 20
232.9924610411
 30
0.0
 10
657.6681424722
 20
233.0041180272
 30
0.0
 10
657.6687051176
 20
233.0125387685
 30
0.0
  0
SPLINE
  5
448
100
AcDbEntity
  8
0
100
AcDbSpline
 62
7
  6
CONTINUOUS
 70
0
 71
3
 72
9
 73
5
 74
0
 42
0.0000001
 43
0.0000001
 44
0.0000000001
 40
0.0
 40
0.0
 40
0.0
 40
0.0
 40
0.6763423085
 40
1.0
 40
1.0
 40
1.0
 40
1.0
 10
657.6687051176
 20
233.0125387685
 30
0.0
 10
657.6694306617
 20
233.0233975094
 30
0.0
 10
657.6696393305
 20
233.0382658394
 30
0.0
 10
657.6797321085
 20
233.0557713719
 30
0.0
 10
657.6849293197
 20
233.0561055209
 30
0.0
  0
SPLINE
  5
449
100
AcDbEntity
  8
0
100
AcDbSpline
 62
7
  6
CONTINUOUS
 70
0
 71
3
 72
10
 73
6
 74
0
 42
0.0000001
 43
0.0000001
 44
0.0000000001
 40
0.0
 40
0.0
 40
0.0
 40
0.0
 40
0.3635002156
 40
0.6416334938
 40
1.0
 40
1.0
 40
1.0
 40
1.0
 10
657.837147318
 20
233.056122449
 30
0.0
 10
657.8477865513
 20
233.056122449
 30
0.0
 10
657.8646057704
 20
233.0710095406
 30
0.0
 10
657.8763166667
 20
233.097153824
 30
0.0
 10
657.881890115
 20
233.1151688155
 30
0.0
 10
657.8844189046
 20
233.1253483946
 30
0.0
  0
SPLINE
  5
44A
100
AcDbEntity
  8
0
100
AcDbSpline
 62
7
  6
CONTINUOUS
 70
0
 71
3
 72
9
 73
5
 74
0
 42
0.0000001
 43
0.0000001
 44
0.0000000001
 40
0.0
 40
0.0
 40
0.0
 40
0.0
 40
0.2222938484
 40
1.0
 40
1.0
 40
1.0
 40
1.0
 10
657.8844189046
 20
233.1253483946
 30
0.0
 10
657.8857180183
 20
233.1305779441
 30
0.0
 10
657.8909743689
 20
233.1542492737
 30
0.0
 10
657.8942508172
 20
233.1783252791
 30
0.0
 10
657.8961459719
 20
233.1970817
 30
0.0
  0
SPLINE
  5
44B
100
AcDbEntity
  8
0
100
AcDbSpline
 62
7
  6
CONTINUOUS
 70
0
 71
3
 72
9
 73
5
 74
0
 42
0.0000001
 43
0.0000001
 44
0.0000000001
 40
0.0
 40
0.0
 40
0.0
 40
0.0
 40
0.229509752
 40
1.0
 40
1.0
 40
1.0
 40
1.0
 10
657.8961459719
 20
233.1970817
 30
0.0
 10
657.8969790963
 20
233.2053271646
 30
0.0
 10
657.9000145574
 20
233.2413134777
 30
0.0
 10
657.9010030019
 20
233.2774521223
 30
0.0
 10
657.90101377
 20
233.3052740201
 30
0.0
  0
SPLINE
  5
44C
100
AcDbEntity
  8
0
100
AcDbSpline
 62
7
  6
CONTINUOUS
 70
0
 71
3
 72
9
 73
5
 74
0
 42
0.0000001
 43
0.0000001
 44
0.0000000001
 40
0.0
 40
0.0
 40
0.0
 40
0.0
 40
0.2345056242
 40
1.0
 40
1.0
 40
1.0
 40
1.0
 10
657.90101377
 20
233.3052740201
 30
0.0
 10
657.9010213798
 20
233.3249356212
 30
0.0
 10
657.8993730672
 20
233.4087755299
 30
0.0
 10
657.8920348083
 20
233.4924606558
 30
0.0
 10
657.8838862414
 20
233.556122449
 30
0.0
  0
SPLINE
  5
44D
100
AcDbEntity
  8
0
100
AcDbSpline
 62
7
  6
CONTINUOUS
 70
0
 71
3
 72
9
 73
5
 74
0
 42
0.0000001
 43
0.0000001
 44
0.0000000001
 40
0.0
 40
0.0
 40
0.0
 40
0.0
 40
0.2606347155
 40
1.0
 40
1.0
 40
1.0
 40
1.0
 10
657.8838848894
 20
233.556122449
 30
0.0
 10
657.8810786194
 20
233.5780468178
 30
0.0
 10
657.8690443791
 20
233.6619919719
 30
0.0
 10
657.852606451
 20
233.7453590002
 30
0.0
 10
657.8371349479
 20
233.806122449
 30
0.0
  0
SPLINE
  5
44E
100
AcDbEntity
  8
0
100
AcDbSpline
 62
7
  6
CONTINUOUS
 70
0
 71
3
 72
9
 73
5
 74
0
 42
0.0000001
 43
0.0000001
 44
0.0000000001
 40
0.0
 40
0.0
 40
0.0
 40
0.0
 40
0.2349222261
 40
1.0
 40
1.0
 40
1.0
 40
1.0
 10
657.6854725767
 20
234.556122449
 30
0.0
 10
657.6825481578
 20
234.5755377086
 30
0.0
 10
657.6722451882
 20
234.6584946249
 30
0.0
 10
657.6680067229
 20
234.7421789759
 30
0.0
 10
657.6680067229
 20
234.806122449
 30
0.0
  0
SPLINE
  5
44F
100
AcDbEntity
  8
0
100
AcDbSpline
 62
7
  6
CONTINUOUS
 70
0
 71
3
 72
9
 73
5
 74
0
 42
0.0000001
 43
0.0000001
 44
0.0000000001
 40
0.0
 40
0.0
 40
0.0
 40
0.0
 40
0.261000511
 40
1.0
 40
1.0
 40
1.0
 40
1.0
 10
657.6680067229
 20
234.806122449
 30
0.0
 10
657.6680067229
 20
234.8279356733
 30
0.0
 10
657.6695793482
 20
234.9114908608
 30
0.0
 10
657.6762561972
 20
234.9950478089
 30
0.0
 10
657.6854461769
 20
235.056122449
 30
0.0
  0
SPLINE
  5
450
100
AcDbEntity
  8
0
100
AcDbSpline
 62
7
  6
CONTINUOUS
 70
0
 71
3
 72
10
 73
6
 74
0
 42
0.0000001
 43
0.0000001
 44
0.0000000001
 40
0.0
 40
0.0
 40
0.0
 40
0.0
 40
0.2847786874
 40
0.5876139026
 40
1.0
 40
1.0
 40
1.0
 40
1.0
 10
657.685459573
 20
236.556122449
 30
0.0
 10
657.675973796
 20
236.556122449
 30
0.0
 10
657.6693788246
 20
236.5839196892
 30
0.0
 10
657.6677571442
 20
236.6131950223
 30
0.0
 10
657.6680541675
 20
236.6382012392
 30
0.0
 10
657.6686819434
 20
236.6519231761
 30
0.0
  0
SPLINE
  5
451
100
AcDbEntity
  8
0
100
AcDbSpline
 62
7
  6
CONTINUOUS
 70
0
 71
3
 72
9
 73
5
 74
0
 42
0.0000001
 43
0.0000001
 44
0.0000000001
 40
0.0
 40
0.0
 40
0.0
 40
0.0
 40
0.2350643566
 40
1.0
 40
1.0
 40
1.0
 40
1.0
 10
657.6686819434
 20
236.6519231761
 30
0.0
 10
657.6688314695
 20
236.6551915211
 30
0.0
 10
657.6695580074
 20
236.6690914086
 30
0.0
 10
657.6706141936
 20
236.6829729618
 30
0.0
 10
657.6715555079
 20
236.6935780911
 30
0.0
  0
SPLINE
  5
452
100
AcDbEntity
  8
0
100
AcDbSpline
 62
7
  6
CONTINUOUS
 70
0
 71
3
 72
9
 73
5
 74
0
 42
0.0000001
 43
0.0000001
 44
0.0000000001
 40
0.0
 40
0.0
 40
0.0
 40
0.0
 40
0.2280201145
 40
1.0
 40
1.0
 40
1.0
 40
1.0
 10
657.6715555079
 20
236.6935780911
 30
0.0
 10
657.6723176289
 20
236.7021643758
 30
0.0
 10
657.676055242
 20
236.7397851404
 30
0.0
 10
657.6811242264
 20
236.7772640492
 30
0.0
 10
657.6854702899
 20
236.806122449
 30
0.0
  0
SPLINE
  5
453
100
AcDbEntity
  8
0
100
AcDbSpline
 62
7
  6
CONTINUOUS
 70
0
 71
3
 72
9
 73
5
 74
0
 42
0.0000001
 43
0.0000001
 44
0.0000000001
 40
0.0
 40
0.0
 40
0.0
 40
0.0
 40
0.2354333406
 40
1.0
 40
1.0
 40
1.0
 40
1.0
 10
657.8371349479
 20
235.806122449
 30
0.0
 10
657.8420615871
 20
235.8254715439
 30
0.0
 10
657.8615119635
 20
235.9080287611
 30
0.0
 10
657.8756525755
 20
235.9918063752
 30
0.0
 10
657.8838848894
 20
236.056122449
 30
0.0
  0
SPLINE
  5
454
100
AcDbEntity
  8
0
100
AcDbSpline
 62
7
  6
CONTINUOUS
 70
0
 71
3
 72
9
 73
5
 74
0
 42
0.0000001
 43
0.0000001
 44
0.0000000001
 40
0.0
 40
0.0
 40
0.0
 40
0.0
 40
0.2609224006
 40
1.0
 40
1.0
 40
1.0
 40
1.0
 10
657.8838862541
 20
236.056122449
 30
0.0
 10
657.8866636609
 20
236.0778213181
 30
0.0
 10
657.8960939785
 20
236.1611252881
 30
0.0
 10
657.9010382195
 20
236.2450068243
 30
0.0
 10
657.9010133622
 20
236.3069715494
 30
0.0
  0
SPLINE
  5
455
100
AcDbEntity
  8
0
100
AcDbSpline
 62
7
  6
CONTINUOUS
 70
0
 71
3
 72
9
 73
5
 74
0
 42
0.0000001
 43
0.0000001
 44
0.0000000001
 40
0.0
 40
0.0
 40
0.0
 40
0.0
 40
0.2695883427
 40
1.0
 40
1.0
 40
1.0
 40
1.0
 10
657.9010133622
 20
236.3069715494
 30
0.0
 10
657.9010094376
 20
236.3167549533
 30
0.0
 10
657.9006256538
 20
236.3530405784
 30
0.0
 10
657.898773805
 20
236.3893362369
 30
0.0
 10
657.8960910196
 20
236.4157068807
 30
0.0
  0
SPLINE
  5
456
100
AcDbEntity
  8
0
100
AcDbSpline
 62
7
  6
CONTINUOUS
 70
0
 71
3
 72
9
 73
5
 74
0
 42
0.0000001
 43
0.0000001
 44
0.0000000001
 40
0.0
 40
0.0
 40
0.0
 40
0.0
 40
0.277165879
 40
1.0
 40
1.0
 40
1.0
 40
1.0
 10
657.8960910196
 20
236.4157068807
 30
0.0
 10
657.8954161672
 20
236.4223403934
 30
0.0
 10
657.8926565737
 20
236.4462338802
 30
0.0
 10
657.8886120073
 20
236.470020292
 30
0.0
 10
657.8844194451
 20
236.4868964558
 30
0.0
  0
SPLINE
  5
457
100
AcDbEntity
  8
0
100
AcDbSpline
 62
7
  6
CONTINUOUS
 70
0
 71
3
 72
10
 73
6
 74
0
 42
0.0000001
 43
0.0000001
 44
0.0000000001
 40
0.0
 40
0.0
 40
0.0
 40
0.0
 40
0.3583728675
 40
0.6365048322
 40
1.0
 40
1.0
 40
1.0
 40
1.0
 10
657.8844194451
 20
236.4868964558
 30
0.0
 10
657.8818904853
 20
236.4970761827
 30
0.0
 10
657.8763163085
 20
236.5150911325
 30
0.0
 10
657.8646052192
 20
236.5412351912
 30
0.0
 10
657.8477864018
 20
236.556122449
 30
0.0
 10
657.837147318
 20
236.556122449
 30
0.0
  0
SPLINE
  5
458
100
AcDbEntity
  8
0
100
AcDbSpline
 62
7
  6
CONTINUOUS
 70
0
 71
3
 72
9
 73
5
 74
0
 42
0.0000001
 43
0.0000001
 44
0.0000000001
 40
0.0
 40
0.0
 40
0.0
 40
0.0
 40
0.2840741337
 40
1.0
 40
1.0
 40
1.0
 40
1.0
 10
657.6854246413
 20
732.806122449
 30
0.0
 10
657.6832355141
 20
732.8206798105
 30
0.0
 10
657.675981576
 20
732.8719814396
 30
0.0
 10
657.6703611831
 20
732.9235865018
 30
0.0
 10
657.6686732041
 20
732.9606481657
 30
0.0
  0
SPLINE
  5
459
100
AcDbEntity
  8
0
100
AcDbSpline
 62
7
  6
CONTINUOUS
 70
0
 71
3
 72
9
 73
5
 74
0
 42
0.0000001
 43
0.0000001
 44
0.0000000001
 40
0.0
 40
0.0
 40
0.0
 40
0.0
 40
0.2753701142
 40
1.0
 40
1.0
 40
1.0
 40
1.0
 10
657.6681042167
 20
732.9776095787
 30
0.0
 10
657.6680385605
 20
732.9808160485
 30
0.0
 10
657.6678965809
 20
732.992461041
 30
0.0
 10
657.6681424722
 20
733.0041180272
 30
0.0
 10
657.6687051176
 20
733.0125387685
 30
0.0
  0
SPLINE
  5
45A
100
AcDbEntity
  8
0
100
AcDbSpline
 62
7
  6
CONTINUOUS
 70
0
 71
3
 72
9
 73
5
 74
0
 42
0.0000001
 43
0.0000001
 44
0.0000000001
 40
0.0
 40
0.0
 40
0.0
 40
0.0
 40
0.6763423082
 40
1.0
 40
1.0
 40
1.0
 40
1.0
 10
657.6687051176
 20
733.0125387685
 30
0.0
 10
657.6694306617
 20
733.0233975094
 30
0.0
 10
657.6696393306
 20
733.0382658394
 30
0.0
 10
657.6797321085
 20
733.0557713719
 30
0.0
 10
657.6849293196
 20
733.0561055209
 30
0.0
  0
SPLINE
  5
45B
100
AcDbEntity
  8
0
100
AcDbSpline
 62
7
  6
CONTINUOUS
 70
0
 71
3
 72
10
 73
6
 74
0
 42
0.0000001
 43
0.0000001
 44
0.0000000001
 40
0.0
 40
0.0
 40
0.0
 40
0.0
 40
0.3635002156
 40
0.6416334938
 40
1.0
 40
1.0
 40
1.0
 40
1.0
 10
657.837147318
 20
733.056122449
 30
0.0
 10
657.8477865513
 20
733.056122449
 30
0.0
 10
657.8646057704
 20
733.0710095406
 30
0.0
 10
657.8763166667
 20
733.097153824
 30
0.0
 10
657.881890115
 20
733.1151688155
 30
0.0
 10
657.8844189046
 20
733.1253483946
 30
0.0
  0
SPLINE
  5
45C
100
AcDbEntity
  8
0
100
AcDbSpline
 62
7
  6
CONTINUOUS
 70
0
 71
3
 72
9
 73
5
 74
0
 42
0.0000001
 43
0.0000001
 44
0.0000000001
 40
0.0
 40
0.0
 40
0.0
 40
0.0
 40
0.2222938484
 40
1.0
 40
1.0
 40
1.0
 40
1.0
 10
657.8844189046
 20
733.1253483946
 30
0.0
 10
657.8857180183
 20
733.1305779441
 30
0.0
 10
657.8909743689
 20
733.1542492737
 30
0.0
 10
657.8942508172
 20
733.1783252791
 30
0.0
 10
657.8961459719
 20
733.1970817
 30
0.0
  0
SPLINE
  5
45D
100
AcDbEntity
  8
0
100
AcDbSpline
 62
7
  6
CONTINUOUS
 70
0
 71
3
 72
9
 73
5
 74
0
 42
0.0000001
 43
0.0000001
 44
0.0000000001
 40
0.0
 40
0.0
 40
0.0
 40
0.0
 40
0.2295097521
 40
1.0
 40
1.0
 40
1.0
 40
1.0
 10
657.8961459719
 20
733.1970817
 30
0.0
 10
657.8969790963
 20
733.2053271646
 30
0.0
 10
657.9000145574
 20
733.2413134777
 30
0.0
 10
657.9010030019
 20
733.2774521223
 30
0.0
 10
657.90101377
 20
733.3052740201
 30
0.0
  0
SPLINE
  5
45E
100
AcDbEntity
  8
0
100
AcDbSpline
 62
7
  6
CONTINUOUS
 70
0
 71
3
 72
9
 73
5
 74
0
 42
0.0000001
 43
0.0000001
 44
0.0000000001
 40
0.0
 40
0.0
 40
0.0
 40
0.0
 40
0.2345056242
 40
1.0
 40
1.0
 40
1.0
 40
1.0
 10
657.90101377
 20
733.3052740201
 30
0.0
 10
657.9010213798
 20
733.3249356212
 30
0.0
 10
657.8993730672
 20
733.4087755299
 30
0.0
 10
657.8920348083
 20
733.4924606558
 30
0.0
 10
657.8838862414
 20
733.556122449
 30
0.0
  0
SPLINE
  5
45F
100
AcDbEntity
  8
0
100
AcDbSpline
 62
7
  6
CONTINUOUS
 70
0
 71
3
 72
9
 73
5
 74
0
 42
0.0000001
 43
0.0000001
 44
0.0000000001
 40
0.0
 40
0.0
 40
0.0
 40
0.0
 40
0.2606347155
 40
1.0
 40
1.0
 40
1.0
 40
1.0
 10
657.8838848894
 20
733.556122449
 30
0.0
 10
657.8810786194
 20
733.5780468178
 30
0.0
 10
657.8690443791
 20
733.6619919719
 30
0.0
 10
657.852606451
 20
733.7453590002
 30
0.0
 10
657.8371349479
 20
733.806122449
 30
0.0
  0
SPLINE
  5
460
100
AcDbEntity
  8
0
100
AcDbSpline
 62
7
  6
CONTINUOUS
 70
0
 71
3
 72
9
 73
5
 74
0
 42
0.0000001
 43
0.0000001
 44
0.0000000001
 40
0.0
 40
0.0
 40
0.0
 40
0.0
 40
0.2349222261
 40
1.0
 40
1.0
 40
1.0
 40
1.0
 10
657.6854725767
 20
734.556122449
 30
0.0
 10
657.6825481578
 20
734.5755377086
 30
0.0
 10
657.6722451882
 20
734.6584946249
 30
0.0
 10
657.6680067229
 20
734.7421789759
 30
0.0
 10
657.6680067229
 20
734.806122449
 30
0.0
  0
SPLINE
  5
461
100
AcDbEntity
  8
0
100
AcDbSpline
 62
7
  6
CONTINUOUS
 70
0
 71
3
 72
9
 73
5
 74
0
 42
0.0000001
 43
0.0000001
 44
0.0000000001
 40
0.0
 40
0.0
 40
0.0
 40
0.0
 40
0.261000511
 40
1.0
 40
1.0
 40
1.0
 40
1.0
 10
657.6680067229
 20
734.806122449
 30
0.0
 10
657.6680067229
 20
734.8279356733
 30
0.0
 10
657.6695793482
 20
734.9114908608
 30
0.0
 10
657.6762561972
 20
734.9950478089
 30
0.0
 10
657.6854461769
 20
735.056122449
 30
0.0
  0
SPLINE
  5
462
100
AcDbEntity
  8
0
100
AcDbSpline
 62
7
  6
CONTINUOUS
 70
0
 71
3
 72
10
 73
6
 74
0
 42
0.0000001
 43
0.0000001
 44
0.0000000001
 40
0.0
 40
0.0
 40
0.0
 40
0.0
 40
0.2847786874
 40
0.5876139026
 40
1.0
 40
1.0
 40
1.0
 40
1.0
 10
657.685459573
 20
736.556122449
 30
0.0
 10
657.675973796
 20
736.556122449
 30
0.0
 10
657.6693788246
 20
736.5839196892
 30
0.0
 10
657.6677571442
 20
736.6131950223
 30
0.0
 10
657.6680541675
 20
736.6382012392
 30
0.0
 10
657.6686819434
 20
736.6519231761
 30
0.0
  0
SPLINE
  5
463
100
AcDbEntity
  8
0
100
AcDbSpline
 62
7
  6
CONTINUOUS
 70
0
 71
3
 72
9
 73
5
 74
0
 42
0.0000001
 43
0.0000001
 44
0.0000000001
 40
0.0
 40
0.0
 40
0.0
 40
0.0
 40
0.2350643567
 40
1.0
 40
1.0
 40
1.0
 40
1.0
 10
657.6686819434
 20
736.6519231761
 30
0.0
 10
657.6688314695
 20
736.6551915211
 30
0.0
 10
657.6695580074
 20
736.6690914086
 30
0.0
 10
657.6706141936
 20
736.6829729617
 30
0.0
 10
657.6715555079
 20
736.693578091
 30
0.0
  0
SPLINE
  5
464
100
AcDbEntity
  8
0
100
AcDbSpline
 62
7
  6
CONTINUOUS
 70
0
 71
3
 72
9
 73
5
 74
0
 42
0.0000001
 43
0.0000001
 44
0.0000000001
 40
0.0
 40
0.0
 40
0.0
 40
0.0
 40
0.2280201145
 40
1.0
 40
1.0
 40
1.0
 40
1.0
 10
657.6715555079
 20
736.693578091
 30
0.0
 10
657.6723176289
 20
736.7021643758
 30
0.0
 10
657.676055242
 20
736.7397851404
 30
0.0
 10
657.6811242264
 20
736.7772640492
 30
0.0
 10
657.6854702899
 20
736.806122449
 30
0.0
  0
SPLINE
  5
465
100
AcDbEntity
  8
0
100
AcDbSpline
 62
7
  6
CONTINUOUS
 70
0
 71
3
 72
9
 73
5
 74
0
 42
0.0000001
 43
0.0000001
 44
0.0000000001
 40
0.0
 40
0.0
 40
0.0
 40
0.0
 40
0.2354333406
 40
1.0
 40
1.0
 40
1.0
 40
1.0
 10
657.8371349479
 20
735.806122449
 30
0.0
 10
657.8420615871
 20
735.8254715439
 30
0.0
 10
657.8615119635
 20
735.9080287611
 30
0.0
 10
657.8756525755
 20
735.9918063752
 30
0.0
 10
657.8838848894
 20
736.056122449
 30
0.0
  0
SPLINE
  5
466
100
AcDbEntity
  8
0
100
AcDbSpline
 62
7
  6
CONTINUOUS
 70
0
 71
3
 72
9
 73
5
 74
0
 42
0.0000001
 43
0.0000001
 44
0.0000000001
 40
0.0
 40
0.0
 40
0.0
 40
0.0
 40
0.2609224006
 40
1.0
 40
1.0
 40
1.0
 40
1.0
 10
657.8838862541
 20
736.056122449
 30
0.0
 10
657.8866636609
 20
736.0778213181
 30
0.0
 10
657.8960939785
 20
736.1611252881
 30
0.0
 10
657.9010382195
 20
736.2450068243
 30
0.0
 10
657.9010133622
 20
736.3069715494
 30
0.0
  0
SPLINE
  5
467
100
AcDbEntity
  8
0
100
AcDbSpline
 62
7
  6
CONTINUOUS
 70
0
 71
3
 72
9
 73
5
 74
0
 42
0.0000001
 43
0.0000001
 44
0.0000000001
 40
0.0
 40
0.0
 40
0.0
 40
0.0
 40
0.2695883427
 40
1.0
 40
1.0
 40
1.0
 40
1.0
 10
657.9010133622
 20
736.3069715494
 30
0.0
 10
657.9010094376
 20
736.3167549533
 30
0.0
 10
657.9006256538
 20
736.3530405784
 30
0.0
 10
657.898773805
 20
736.3893362369
 30
0.0
 10
657.8960910196
 20
736.4157068807
 30
0.0
  0
SPLINE
  5
468
100
AcDbEntity
  8
0
100
AcDbSpline
 62
7
  6
CONTINUOUS
 70
0
 71
3
 72
9
 73
5
 74
0
 42
0.0000001
 43
0.0000001
 44
0.0000000001
 40
0.0
 40
0.0
 40
0.0
 40
0.0
 40
0.277165879
 40
1.0
 40
1.0
 40
1.0
 40
1.0
 10
657.8960910196
 20
736.4157068807
 30
0.0
 10
657.8954161672
 20
736.4223403934
 30
0.0
 10
657.8926565737
 20
736.4462338802
 30
0.0
 10
657.8886120073
 20
736.470020292
 30
0.0
 10
657.8844194451
 20
736.4868964558
 30
0.0
  0
SPLINE
  5
469
100
AcDbEntity
  8
0
100
AcDbSpline
 62
7
  6
CONTINUOUS
 70
0
 71
3
 72
10
 73
6
 74
0
 42
0.0000001
 43
0.0000001
 44
0.0000000001
 40
0.0
 40
0.0
 40
0.0
 40
0.0
 40
0.3583728675
 40
0.6365048322
 40
1.0
 40
1.0
 40
1.0
 40
1.0
 10
657.8844194451
 20
736.4868964558
 30
0.0
 10
657.8818904853
 20
736.4970761827
 30
0.0
 10
657.8763163085
 20
736.5150911325
 30
0.0
 10
657.8646052192
 20
736.5412351912
 30
0.0
 10
657.8477864018
 20
736.556122449
 30
0.0
 10
657.837147318
 20
736.556122449
 30
0.0
  0
SPLINE
  5
46A
100
AcDbEntity
  8
0
100
AcDbSpline
 62
7
  6
CONTINUOUS
 70
0
 71
3
 72
9
 73
5
 74
0
 42
0.0000001
 43
0.0000001
 44
0.0000000001
 40
0.0
 40
0.0
 40
0.0
 40
0.0
 40
0.2840741337
 40
1.0
 40
1.0
 40
1.0
 40
1.0
 10
657.6854246413
 20
1632.806122449
 30
0.0
 10
657.6832355141
 20
1632.8206798105
 30
0.0
 10
657.675981576
 20
1632.8719814396
 30
0.0
 10
657.6703611831
 20
1632.9235865018
 30
0.0
 10
657.6686732041
 20
1632.9606481657
 30
0.0
  0
SPLINE
  5
46B
100
AcDbEntity
  8
0
100
AcDbSpline
 62
7
  6
CONTINUOUS
 70
0
 71
3
 72
9
 73
5
 74
0
 42
0.0000001
 43
0.0000001
 44
0.0000000001
 40
0.0
 40
0.0
 40
0.0
 40
0.0
 40
0.2753701142
 40
1.0
 40
1.0
 40
1.0
 40
1.0
 10
657.6681042167
 20
1632.9776095786
 30
0.0
 10
657.6680385605
 20
1632.9808160484
 30
0.0
 10
657.6678965809
 20
1632.992461041
 30
0.0
 10
657.6681424722
 20
1633.0041180272
 30
0.0
 10
657.6687051176
 20
1633.0125387685
 30
0.0
  0
SPLINE
  5
46C
100
AcDbEntity
  8
0
100
AcDbSpline
 62
7
  6
CONTINUOUS
 70
0
 71
3
 72
9
 73
5
 74
0
 42
0.0000001
 43
0.0000001
 44
0.0000000001
 40
0.0
 40
0.0
 40
0.0
 40
0.0
 40
0.6763423085
 40
1.0
 40
1.0
 40
1.0
 40
1.0
 10
657.6687051176
 20
1633.0125387685
 30
0.0
 10
657.6694306617
 20
1633.0233975094
 30
0.0
 10
657.6696393305
 20
1633.0382658394
 30
0.0
 10
657.6797321085
 20
1633.0557713719
 30
0.0
 10
657.6849293197
 20
1633.0561055209
 30
0.0
  0
SPLINE
  5
46D
100
AcDbEntity
  8
0
100
AcDbSpline
 62
7
  6
CONTINUOUS
 70
0
 71
3
 72
10
 73
6
 74
0
 42
0.0000001
 43
0.0000001
 44
0.0000000001
 40
0.0
 40
0.0
 40
0.0
 40
0.0
 40
0.3635002156
 40
0.6416334938
 40
1.0
 40
1.0
 40
1.0
 40
1.0
 10
657.837147318
 20
1633.056122449
 30
0.0
 10
657.8477865513
 20
1633.056122449
 30
0.0
 10
657.8646057704
 20
1633.0710095406
 30
0.0
 10
657.8763166667
 20
1633.097153824
 30
0.0
 10
657.881890115
 20
1633.1151688155
 30
0.0
 10
657.8844189046
 20
1633.1253483946
 30
0.0
  0
SPLINE
  5
46E
100
AcDbEntity
  8
0
100
AcDbSpline
 62
7
  6
CONTINUOUS
 70
0
 71
3
 72
9
 73
5
 74
0
 42
0.0000001
 43
0.0000001
 44
0.0000000001
 40
0.0
 40
0.0
 40
0.0
 40
0.0
 40
0.2222938484
 40
1.0
 40
1.0
 40
1.0
 40
1.0
 10
657.8844189046
 20
1633.1253483946
 30
0.0
 10
657.8857180183
 20
1633.1305779441
 30
0.0
 10
657.8909743689
 20
1633.1542492737
 30
0.0
 10
657.8942508172
 20
1633.1783252791
 30
0.0
 10
657.8961459719
 20
1633.1970817
 30
0.0
  0
SPLINE
  5
46F
100
AcDbEntity
  8
0
100
AcDbSpline
 62
7
  6
CONTINUOUS
 70
0
 71
3
 72
9
 73
5
 74
0
 42
0.0000001
 43
0.0000001
 44
0.0000000001
 40
0.0
 40
0.0
 40
0.0
 40
0.0
 40
0.2295097521
 40
1.0
 40
1.0
 40
1.0
 40
1.0
 10
657.8961459719
 20
1633.1970817
 30
0.0
 10
657.8969790963
 20
1633.2053271646
 30
0.0
 10
657.9000145574
 20
1633.2413134777
 30
0.0
 10
657.9010030019
 20
1633.2774521223
 30
0.0
 10
657.90101377
 20
1633.3052740201
 30
0.0
  0
SPLINE
  5
470
100
AcDbEntity
  8
0
100
AcDbSpline
 62
7
  6
CONTINUOUS
 70
0
 71
3
 72
9
 73
5
 74
0
 42
0.0000001
 43
0.0000001
 44
0.0000000001
 40
0.0
 40
0.0
 40
0.0
 40
0.0
 40
0.2345056242
 40
1.0
 40
1.0
 40
1.0
 40
1.0
 10
657.90101377
 20
1633.3052740201
 30
0.0
 10
657.9010213798
 20
1633.3249356212
 30
0.0
 10
657.8993730672
 20
1633.4087755299
 30
0.0
 10
657.8920348083
 20
1633.4924606558
 30
0.0
 10
657.8838862414
 20
1633.556122449
 30
0.0
  0
SPLINE
  5
471
100
AcDbEntity
  8
0
100
AcDbSpline
 62
7
  6
CONTINUOUS
 70
0
 71
3
 72
9
 73
5
 74
0
 42
0.0000001
 43
0.0000001
 44
0.0000000001
 40
0.0
 40
0.0
 40
0.0
 40
0.0
 40
0.2606347155
 40
1.0
 40
1.0
 40
1.0
 40
1.0
 10
657.8838848894
 20
1633.556122449
 30
0.0
 10
657.8810786194
 20
1633.5780468178
 30
0.0
 10
657.8690443791
 20
1633.6619919719
 30
0.0
 10
657.852606451
 20
1633.7453590002
 30
0.0
 10
657.8371349479
 20
1633.806122449
 30
0.0
  0
SPLINE
  5
472
100
AcDbEntity
  8
0
100
AcDbSpline
 62
7
  6
CONTINUOUS
 70
0
 71
3
 72
9
 73
5
 74
0
 42
0.0000001
 43
0.0000001
 44
0.0000000001
 40
0.0
 40
0.0
 40
0.0
 40
0.0
 40
0.2349222261
 40
1.0
 40
1.0
 40
1.0
 40
1.0
 10
657.6854725767
 20
1634.556122449
 30
0.0
 10
657.6825481578
 20
1634.5755377086
 30
0.0
 10
657.6722451882
 20
1634.6584946249
 30
0.0
 10
657.6680067229
 20
1634.7421789759
 30
0.0
 10
657.6680067229
 20
1634.806122449
 30
0.0
  0
SPLINE
  5
473
100
AcDbEntity
  8
0
100
AcDbSpline
 62
7
  6
CONTINUOUS
 70
0
 71
3
 72
9
 73
5
 74
0
 42
0.0000001
 43
0.0000001
 44
0.0000000001
 40
0.0
 40
0.0
 40
0.0
 40
0.0
 40
0.261000511
 40
1.0
 40
1.0
 40
1.0
 40
1.0
 10
657.6680067229
 20
1634.806122449
 30
0.0
 10
657.6680067229
 20
1634.8279356733
 30
0.0
 10
657.6695793482
 20
1634.9114908608
 30
0.0
 10
657.6762561972
 20
1634.9950478089
 30
0.0
 10
657.6854461769
 20
1635.056122449
 30
0.0
  0
SPLINE
  5
474
100
AcDbEntity
  8
0
100
AcDbSpline
 62
7
  6
CONTINUOUS
 70
0
 71
3
 72
10
 73
6
 74
0
 42
0.0000001
 43
0.0000001
 44
0.0000000001
 40
0.0
 40
0.0
 40
0.0
 40
0.0
 40
0.2847786874
 40
0.5876139026
 40
1.0
 40
1.0
 40
1.0
 40
1.0
 10
657.685459573
 20
1636.556122449
 30
0.0
 10
657.675973796
 20
1636.556122449
 30
0.0
 10
657.6693788246
 20
1636.5839196892
 30
0.0
 10
657.6677571442
 20
1636.6131950223
 30
0.0
 10
657.6680541675
 20
1636.6382012392
 30
0.0
 10
657.6686819434
 20
1636.6519231761
 30
0.0
  0
SPLINE
  5
475
100
AcDbEntity
  8
0
100
AcDbSpline
 62
7
  6
CONTINUOUS
 70
0
 71
3
 72
9
 73
5
 74
0
 42
0.0000001
 43
0.0000001
 44
0.0000000001
 40
0.0
 40
0.0
 40
0.0
 40
0.0
 40
0.2350643566
 40
1.0
 40
1.0
 40
1.0
 40
1.0
 10
657.6686819434
 20
1636.6519231761
 30
0.0
 10
657.6688314695
 20
1636.6551915211
 30
0.0
 10
657.6695580074
 20
1636.6690914086
 30
0.0
 10
657.6706141936
 20
1636.6829729618
 30
0.0
 10
657.6715555079
 20
1636.6935780911
 30
0.0
  0
SPLINE
  5
476
100
AcDbEntity
  8
0
100
AcDbSpline
 62
7
  6
CONTINUOUS
 70
0
 71
3
 72
9
 73
5
 74
0
 42
0.0000001
 43
0.0000001
 44
0.0000000001
 40
0.0
 40
0.0
 40
0.0
 40
0.0
 40
0.2280201145
 40
1.0
 40
1.0
 40
1.0
 40
1.0
 10
657.6715555079
 20
1636.6935780911
 30
0.0
 10
657.6723176289
 20
1636.7021643758
 30
0.0
 10
657.676055242
 20
1636.7397851405
 30
0.0
 10
657.6811242264
 20
1636.7772640493
 30
0.0
 10
657.6854702899
 20
1636.806122449
 30
0.0
  0
SPLINE
  5
477
100
AcDbEntity
  8
0
100
AcDbSpline
 62
7
  6
CONTINUOUS
 70
0
 71
3
 72
9
 73
5
 74
0
 42
0.0000001
 43
0.0000001
 44
0.0000000001
 40
0.0
 40
0.0
 40
0.0
 40
0.0
 40
0.2354333406
 40
1.0
 40
1.0
 40
1.0
 40
1.0
 10
657.8371349479
 20
1635.806122449
 30
0.0
 10
657.8420615871
 20
1635.8254715439
 30
0.0
 10
657.8615119635
 20
1635.9080287611
 30
0.0
 10
657.8756525755
 20
1635.9918063752
 30
0.0
 10
657.8838848894
 20
1636.056122449
 30
0.0
  0
SPLINE
  5
478
100
AcDbEntity
  8
0
100
AcDbSpline
 62
7
  6
CONTINUOUS
 70
0
 71
3
 72
9
 73
5
 74
0
 42
0.0000001
 43
0.0000001
 44
0.0000000001
 40
0.0
 40
0.0
 40
0.0
 40
0.0
 40
0.2609224006
 40
1.0
 40
1.0
 40
1.0
 40
1.0
 10
657.8838862541
 20
1636.056122449
 30
0.0
 10
657.8866636609
 20
1636.0778213181
 30
0.0
 10
657.8960939785
 20
1636.1611252881
 30
0.0
 10
657.9010382195
 20
1636.2450068243
 30
0.0
 10
657.9010133622
 20
1636.3069715494
 30
0.0
  0
SPLINE
  5
479
100
AcDbEntity
  8
0
100
AcDbSpline
 62
7
  6
CONTINUOUS
 70
0
 71
3
 72
9
 73
5
 74
0
 42
0.0000001
 43
0.0000001
 44
0.0000000001
 40
0.0
 40
0.0
 40
0.0
 40
0.0
 40
0.2695883427
 40
1.0
 40
1.0
 40
1.0
 40
1.0
 10
657.9010133622
 20
1636.3069715494
 30
0.0
 10
657.9010094376
 20
1636.3167549533
 30
0.0
 10
657.9006256538
 20
1636.3530405784
 30
0.0
 10
657.898773805
 20
1636.3893362369
 30
0.0
 10
657.8960910196
 20
1636.4157068807
 30
0.0
  0
SPLINE
  5
47A
100
AcDbEntity
  8
0
100
AcDbSpline
 62
7
  6
CONTINUOUS
 70
0
 71
3
 72
9
 73
5
 74
0
 42
0.0000001
 43
0.0000001
 44
0.0000000001
 40
0.0
 40
0.0
 40
0.0
 40
0.0
 40
0.277165879
 40
1.0
 40
1.0
 40
1.0
 40
1.0
 10
657.8960910196
 20
1636.4157068807
 30
0.0
 10
657.8954161672
 20
1636.4223403934
 30
0.0
 10
657.8926565737
 20
1636.4462338802
 30
0.0
 10
657.8886120073
 20
1636.470020292
 30
0.0
 10
657.8844194451
 20
1636.4868964558
 30
0.0
  0
SPLINE
  5
47B
100
AcDbEntity
  8
0
100
AcDbSpline
 62
7
  6
CONTINUOUS
 70
0
 71
3
 72
10
 73
6
 74
0
 42
0.0000001
 43
0.0000001
 44
0.0000000001
 40
0.0
 40
0.0
 40
0.0
 40
0.0
 40
0.3583728675
 40
0.6365048322
 40
1.0
 40
1.0
 40
1.0
 40
1.0
 10
657.8844194451
 20
1636.4868964558
 30
0.0
 10
657.8818904853
 20
1636.4970761827
 30
0.0
 10
657.8763163085
 20
1636.5150911325
 30
0.0
 10
657.8646052192
 20
1636.5412351912
 30
0.0
 10
657.8477864018
 20
1636.556122449
 30
0.0
 10
657.837147318
 20
1636.556122449
 30
0.0
  0
SPLINE
  5
47C
100
AcDbEntity
  8
0
100
AcDbSpline
 62
7
  6
CONTINUOUS
 70
0
 71
3
 72
9
 73
5
 74
0
 42
0.0000001
 43
0.0000001
 44
0.0000000001
 40
0.0
 40
0.0
 40
0.0
 40
0.0
 40
0.2840741337
 40
1.0
 40
1.0
 40
1.0
 40
1.0
 10
657.6854246413
 20
1132.806122449
 30
0.0
 10
657.6832355141
 20
1132.8206798105
 30
0.0
 10
657.675981576
 20
1132.8719814396
 30
0.0
 10
657.6703611831
 20
1132.9235865018
 30
0.0
 10
657.6686732041
 20
1132.9606481657
 30
0.0
  0
SPLINE
  5
47D
100
AcDbEntity
  8
0
100
AcDbSpline
 62
7
  6
CONTINUOUS
 70
0
 71
3
 72
9
 73
5
 74
0
 42
0.0000001
 43
0.0000001
 44
0.0000000001
 40
0.0
 40
0.0
 40
0.0
 40
0.0
 40
0.2753701142
 40
1.0
 40
1.0
 40
1.0
 40
1.0
 10
657.6681042167
 20
1132.9776095788
 30
0.0
 10
657.6680385605
 20
1132.9808160485
 30
0.0
 10
657.6678965809
 20
1132.9924610411
 30
0.0
 10
657.6681424722
 20
1133.0041180272
 30
0.0
 10
657.6687051176
 20
1133.0125387685
 30
0.0
  0
SPLINE
  5
47E
100
AcDbEntity
  8
0
100
AcDbSpline
 62
7
  6
CONTINUOUS
 70
0
 71
3
 72
9
 73
5
 74
0
 42
0.0000001
 43
0.0000001
 44
0.0000000001
 40
0.0
 40
0.0
 40
0.0
 40
0.0
 40
0.6763423083
 40
1.0
 40
1.0
 40
1.0
 40
1.0
 10
657.6687051176
 20
1133.0125387685
 30
0.0
 10
657.6694306617
 20
1133.0233975094
 30
0.0
 10
657.6696393305
 20
1133.0382658394
 30
0.0
 10
657.6797321085
 20
1133.0557713719
 30
0.0
 10
657.6849293196
 20
1133.0561055209
 30
0.0
  0
SPLINE
  5
47F
100
AcDbEntity
  8
0
100
AcDbSpline
 62
7
  6
CONTINUOUS
 70
0
 71
3
 72
10
 73
6
 74
0
 42
0.0000001
 43
0.0000001
 44
0.0000000001
 40
0.0
 40
0.0
 40
0.0
 40
0.0
 40
0.3635002156
 40
0.6416334938
 40
1.0
 40
1.0
 40
1.0
 40
1.0
 10
657.837147318
 20
1133.056122449
 30
0.0
 10
657.8477865513
 20
1133.056122449
 30
0.0
 10
657.8646057704
 20
1133.0710095406
 30
0.0
 10
657.8763166667
 20
1133.097153824
 30
0.0
 10
657.881890115
 20
1133.1151688155
 30
0.0
 10
657.8844189046
 20
1133.1253483946
 30
0.0
  0
SPLINE
  5
480
100
AcDbEntity
  8
0
100
AcDbSpline
 62
7
  6
CONTINUOUS
 70
0
 71
3
 72
9
 73
5
 74
0
 42
0.0000001
 43
0.0000001
 44
0.0000000001
 40
0.0
 40
0.0
 40
0.0
 40
0.0
 40
0.2222938484
 40
1.0
 40
1.0
 40
1.0
 40
1.0
 10
657.8844189046
 20
1133.1253483946
 30
0.0
 10
657.8857180183
 20
1133.1305779441
 30
0.0
 10
657.8909743689
 20
1133.1542492737
 30
0.0
 10
657.8942508172
 20
1133.1783252791
 30
0.0
 10
657.8961459719
 20
1133.1970817
 30
0.0
  0
SPLINE
  5
481
100
AcDbEntity
  8
0
100
AcDbSpline
 62
7
  6
CONTINUOUS
 70
0
 71
3
 72
9
 73
5
 74
0
 42
0.0000001
 43
0.0000001
 44
0.0000000001
 40
0.0
 40
0.0
 40
0.0
 40
0.0
 40
0.2295097521
 40
1.0
 40
1.0
 40
1.0
 40
1.0
 10
657.8961459719
 20
1133.1970817
 30
0.0
 10
657.8969790963
 20
1133.2053271646
 30
0.0
 10
657.9000145574
 20
1133.2413134777
 30
0.0
 10
657.9010030019
 20
1133.2774521223
 30
0.0
 10
657.90101377
 20
1133.3052740201
 30
0.0
  0
SPLINE
  5
482
100
AcDbEntity
  8
0
100
AcDbSpline
 62
7
  6
CONTINUOUS
 70
0
 71
3
 72
9
 73
5
 74
0
 42
0.0000001
 43
0.0000001
 44
0.0000000001
 40
0.0
 40
0.0
 40
0.0
 40
0.0
 40
0.2345056242
 40
1.0
 40
1.0
 40
1.0
 40
1.0
 10
657.90101377
 20
1133.3052740201
 30
0.0
 10
657.9010213798
 20
1133.3249356212
 30
0.0
 10
657.8993730672
 20
1133.4087755299
 30
0.0
 10
657.8920348083
 20
1133.4924606558
 30
0.0
 10
657.8838862414
 20
1133.556122449
 30
0.0
  0
SPLINE
  5
483
100
AcDbEntity
  8
0
100
AcDbSpline
 62
7
  6
CONTINUOUS
 70
0
 71
3
 72
9
 73
5
 74
0
 42
0.0000001
 43
0.0000001
 44
0.0000000001
 40
0.0
 40
0.0
 40
0.0
 40
0.0
 40
0.2606347155
 40
1.0
 40
1.0
 40
1.0
 40
1.0
 10
657.8838848894
 20
1133.556122449
 30
0.0
 10
657.8810786194
 20
1133.5780468178
 30
0.0
 10
657.8690443791
 20
1133.6619919719
 30
0.0
 10
657.852606451
 20
1133.7453590002
 30
0.0
 10
657.8371349479
 20
1133.806122449
 30
0.0
  0
SPLINE
  5
484
100
AcDbEntity
  8
0
100
AcDbSpline
 62
7
  6
CONTINUOUS
 70
0
 71
3
 72
9
 73
5
 74
0
 42
0.0000001
 43
0.0000001
 44
0.0000000001
 40
0.0
 40
0.0
 40
0.0
 40
0.0
 40
0.2349222261
 40
1.0
 40
1.0
 40
1.0
 40
1.0
 10
657.6854725767
 20
1134.556122449
 30
0.0
 10
657.6825481578
 20
1134.5755377086
 30
0.0
 10
657.6722451882
 20
1134.6584946249
 30
0.0
 10
657.6680067229
 20
1134.7421789759
 30
0.0
 10
657.6680067229
 20
1134.806122449
 30
0.0
  0
SPLINE
  5
485
100
AcDbEntity
  8
0
100
AcDbSpline
 62
7
  6
CONTINUOUS
 70
0
 71
3
 72
9
 73
5
 74
0
 42
0.0000001
 43
0.0000001
 44
0.0000000001
 40
0.0
 40
0.0
 40
0.0
 40
0.0
 40
0.261000511
 40
1.0
 40
1.0
 40
1.0
 40
1.0
 10
657.6680067229
 20
1134.806122449
 30
0.0
 10
657.6680067229
 20
1134.8279356733
 30
0.0
 10
657.6695793482
 20
1134.9114908608
 30
0.0
 10
657.6762561972
 20
1134.9950478089
 30
0.0
 10
657.6854461769
 20
1135.056122449
 30
0.0
  0
SPLINE
  5
486
100
AcDbEntity
  8
0
100
AcDbSpline
 62
7
  6
CONTINUOUS
 70
0
 71
3
 72
10
 73
6
 74
0
 42
0.0000001
 43
0.0000001
 44
0.0000000001
 40
0.0
 40
0.0
 40
0.0
 40
0.0
 40
0.2847786874
 40
0.5876139026
 40
1.0
 40
1.0
 40
1.0
 40
1.0
 10
657.685459573
 20
1136.556122449
 30
0.0
 10
657.675973796
 20
1136.556122449
 30
0.0
 10
657.6693788246
 20
1136.5839196892
 30
0.0
 10
657.6677571442
 20
1136.6131950223
 30
0.0
 10
657.6680541675
 20
1136.6382012392
 30
0.0
 10
657.6686819434
 20
1136.6519231761
 30
0.0
  0
SPLINE
  5
487
100
AcDbEntity
  8
0
100
AcDbSpline
 62
7
  6
CONTINUOUS
 70
0
 71
3
 72
9
 73
5
 74
0
 42
0.0000001
 43
0.0000001
 44
0.0000000001
 40
0.0
 40
0.0
 40
0.0
 40
0.0
 40
0.2350643567
 40
1.0
 40
1.0
 40
1.0
 40
1.0
 10
657.6686819434
 20
1136.6519231761
 30
0.0
 10
657.6688314695
 20
1136.6551915211
 30
0.0
 10
657.6695580074
 20
1136.6690914085
 30
0.0
 10
657.6706141936
 20
1136.6829729616
 30
0.0
 10
657.6715555079
 20
1136.6935780909
 30
0.0
  0
SPLINE
  5
488
100
AcDbEntity
  8
0
100
AcDbSpline
 62
7
  6
CONTINUOUS
 70
0
 71
3
 72
9
 73
5
 74
0
 42
0.0000001
 43
0.0000001
 44
0.0000000001
 40
0.0
 40
0.0
 40
0.0
 40
0.0
 40
0.2280201144
 40
1.0
 40
1.0
 40
1.0
 40
1.0
 10
657.6715555079
 20
1136.6935780909
 30
0.0
 10
657.6723176289
 20
1136.7021643756
 30
0.0
 10
657.676055242
 20
1136.7397851403
 30
0.0
 10
657.6811242264
 20
1136.7772640492
 30
0.0
 10
657.6854702899
 20
1136.806122449
 30
0.0
  0
SPLINE
  5
489
100
AcDbEntity
  8
0
100
AcDbSpline
 62
7
  6
CONTINUOUS
 70
0
 71
3
 72
9
 73
5
 74
0
 42
0.0000001
 43
0.0000001
 44
0.0000000001
 40
0.0
 40
0.0
 40
0.0
 40
0.0
 40
0.2354333406
 40
1.0
 40
1.0
 40
1.0
 40
1.0
 10
657.8371349479
 20
1135.806122449
 30
0.0
 10
657.8420615871
 20
1135.8254715439
 30
0.0
 10
657.8615119635
 20
1135.9080287611
 30
0.0
 10
657.8756525755
 20
1135.9918063752
 30
0.0
 10
657.8838848894
 20
1136.056122449
 30
0.0
  0
SPLINE
  5
48A
100
AcDbEntity
  8
0
100
AcDbSpline
 62
7
  6
CONTINUOUS
 70
0
 71
3
 72
9
 73
5
 74
0
 42
0.0000001
 43
0.0000001
 44
0.0000000001
 40
0.0
 40
0.0
 40
0.0
 40
0.0
 40
0.2609224006
 40
1.0
 40
1.0
 40
1.0
 40
1.0
 10
657.8838862541
 20
1136.056122449
 30
0.0
 10
657.8866636609
 20
1136.0778213181
 30
0.0
 10
657.8960939785
 20
1136.1611252881
 30
0.0
 10
657.9010382195
 20
1136.2450068243
 30
0.0
 10
657.9010133622
 20
1136.3069715494
 30
0.0
  0
SPLINE
  5
48B
100
AcDbEntity
  8
0
100
AcDbSpline
 62
7
  6
CONTINUOUS
 70
0
 71
3
 72
9
 73
5
 74
0
 42
0.0000001
 43
0.0000001
 44
0.0000000001
 40
0.0
 40
0.0
 40
0.0
 40
0.0
 40
0.2695883427
 40
1.0
 40
1.0
 40
1.0
 40
1.0
 10
657.9010133622
 20
1136.3069715494
 30
0.0
 10
657.9010094376
 20
1136.3167549533
 30
0.0
 10
657.9006256538
 20
1136.3530405784
 30
0.0
 10
657.898773805
 20
1136.3893362369
 30
0.0
 10
657.8960910196
 20
1136.4157068807
 30
0.0
  0
SPLINE
  5
48C
100
AcDbEntity
  8
0
100
AcDbSpline
 62
7
  6
CONTINUOUS
 70
0
 71
3
 72
9
 73
5
 74
0
 42
0.0000001
 43
0.0000001
 44
0.0000000001
 40
0.0
 40
0.0
 40
0.0
 40
0.0
 40
0.277165879
 40
1.0
 40
1.0
 40
1.0
 40
1.0
 10
657.8960910196
 20
1136.4157068807
 30
0.0
 10
657.8954161672
 20
1136.4223403934
 30
0.0
 10
657.8926565737
 20
1136.4462338802
 30
0.0
 10
657.8886120073
 20
1136.470020292
 30
0.0
 10
657.8844194451
 20
1136.4868964558
 30
0.0
  0
SPLINE
  5
48D
100
AcDbEntity
  8
0
100
AcDbSpline
 62
7
  6
CONTINUOUS
 70
0
 71
3
 72
10
 73
6
 74
0
 42
0.0000001
 43
0.0000001
 44
0.0000000001
 40
0.0
 40
0.0
 40
0.0
 40
0.0
 40
0.3583728675
 40
0.6365048322
 40
1.0
 40
1.0
 40
1.0
 40
1.0
 10
657.8844194451
 20
1136.4868964558
 30
0.0
 10
657.8818904853
 20
1136.4970761827
 30
0.0
 10
657.8763163085
 20
1136.5150911325
 30
0.0
 10
657.8646052192
 20
1136.5412351912
 30
0.0
 10
657.8477864018
 20
1136.556122449
 30
0.0
 10
657.837147318
 20
1136.556122449
 30
0.0
  0
SPLINE
  5
48E
100
AcDbEntity
  8
0
100
AcDbSpline
 62
7
  6
CONTINUOUS
 70
0
 71
3
 72
9
 73
5
 74
0
 42
0.0000001
 43
0.0000001
 44
0.0000000001
 40
0.0
 40
0.0
 40
0.0
 40
0.0
 40
0.297009378
 40
1.0
 40
1.0
 40
1.0
 40
1.0
 10
654.4436107295
 20
1657.806122449
 30
0.0
 10
654.4409068853
 20
1657.8241014836
 30
0.0
 10
654.4325486142
 20
1657.884707377
 30
0.0
 10
654.4261212671
 20
1657.9458310006
 30
0.0
 10
654.4261709714
 20
1657.9888640283
 30
0.0
  0
SPLINE
  5
48F
100
AcDbEntity
  8
0
100
AcDbSpline
 62
7
  6
CONTINUOUS
 70
0
 71
3
 72
9
 73
5
 74
0
 42
0.0000001
 43
0.0000001
 44
0.0000000001
 40
0.0
 40
0.0
 40
0.0
 40
0.0
 40
0.6866009382
 40
1.0
 40
1.0
 40
1.0
 40
1.0
 10
654.4261709714
 20
1657.9888640283
 30
0.0
 10
654.4261895931
 20
1658.0049864091
 30
0.0
 10
654.4263342
 20
1658.0256913086
 30
0.0
 10
654.4345954136
 20
1658.0541249065
 30
0.0
 10
654.4417390789
 20
1658.0558923668
 30
0.0
  0
LINE
  5
490
100
AcDbEntity
  8
0
100
AcDbLine
 62
7
  6
CONTINUOUS
 10
654.4417390789
 20
1658.0558923668
 11
654.4436516662
 21
1658.056122449
  0
SPLINE
  5
491
100
AcDbEntity
  8
0
100
AcDbSpline
 62
7
  6
CONTINUOUS
 70
0
 71
3
 72
10
 73
6
 74
0
 42
0.0000001
 43
0.0000001
 44
0.0000000001
 40
0.0
 40
0.0
 40
0.0
 40
0.0
 40
0.3633934531
 40
0.6415680332
 40
1.0
 40
1.0
 40
1.0
 40
1.0
 10
654.5953392606
 20
1658.056122449
 30
0.0
 10
654.6059840477
 20
1658.056122449
 30
0.0
 10
654.6228076638
 20
1658.0710329839
 30
0.0
 10
654.6345229822
 20
1658.0971980657
 30
0.0
 10
654.6401003152
 20
1658.1152319649
 30
0.0
 10
654.6426298166
 20
1658.1254221615
 30
0.0
  0
SPLINE
  5
492
100
AcDbEntity
  8
0
100
AcDbSpline
 62
7
  6
CONTINUOUS
 70
0
 71
3
 72
9
 73
5
 74
0
 42
0.0000001
 43
0.0000001
 44
0.0000000001
 40
0.0
 40
0.0
 40
0.0
 40
0.0
 40
0.220479526
 40
1.0
 40
1.0
 40
1.0
 40
1.0
 10
654.6426298166
 20
1658.1254221615
 30
0.0
 10
654.644041853
 20
1658.131110606
 30
0.0
 10
654.6497450928
 20
1658.1570848512
 30
0.0
 10
654.6531249042
 20
1658.1835236773
 30
0.0
 10
654.6550203432
 20
1658.2041590549
 30
0.0
  0
SPLINE
  5
493
100
AcDbEntity
  8
0
100
AcDbSpline
 62
7
  6
CONTINUOUS
 70
0
 71
3
 72
9
 73
5
 74
0
 42
0.0000001
 43
0.0000001
 44
0.0000000001
 40
0.0
 40
0.0
 40
0.0
 40
0.0
 40
0.2314148174
 40
1.0
 40
1.0
 40
1.0
 40
1.0
 10
654.6550203432
 20
1658.2041590549
 30
0.0
 10
654.6557348171
 20
1658.2119374324
 30
0.0
 10
654.6583291693
 20
1658.2455947932
 30
0.0
 10
654.6592010706
 20
1658.2793707135
 30
0.0
 10
654.6592097883
 20
1658.3053133584
 30
0.0
  0
SPLINE
  5
494
100
AcDbEntity
  8
0
100
AcDbSpline
 62
7
  6
CONTINUOUS
 70
0
 71
3
 72
9
 73
5
 74
0
 42
0.0000001
 43
0.0000001
 44
0.0000000001
 40
0.0
 40
0.0
 40
0.0
 40
0.0
 40
0.2345094817
 40
1.0
 40
1.0
 40
1.0
 40
1.0
 10
654.6592097883
 20
1658.3053133584
 30
0.0
 10
654.6592163944
 20
1658.3249722174
 30
0.0
 10
654.6575573723
 20
1658.4087988177
 30
0.0
 10
654.6502254407
 20
1658.4924709036
 30
0.0
 10
654.6420781856
 20
1658.556122449
 30
0.0
  0
SPLINE
  5
495
100
AcDbEntity
  8
0
100
AcDbSpline
 62
7
  6
CONTINUOUS
 70
0
 71
3
 72
9
 73
5
 74
0
 42
0.0000001
 43
0.0000001
 44
0.0000000001
 40
0.0
 40
0.0
 40
0.0
 40
0.0
 40
0.2606347155
 40
1.0
 40
1.0
 40
1.0
 40
1.0
 10
654.642076832
 20
1658.556122449
 30
0.0
 10
654.6392705619
 20
1658.5780468178
 30
0.0
 10
654.6272363217
 20
1658.6619919719
 30
0.0
 10
654.6107983936
 20
1658.7453590002
 30
0.0
 10
654.5953268905
 20
1658.806122449
 30
0.0
  0
SPLINE
  5
496
100
AcDbEntity
  8
0
100
AcDbSpline
 62
7
  6
CONTINUOUS
 70
0
 71
3
 72
9
 73
5
 74
0
 42
0.0000001
 43
0.0000001
 44
0.0000000001
 40
0.0
 40
0.0
 40
0.0
 40
0.0
 40
0.2349222261
 40
1.0
 40
1.0
 40
1.0
 40
1.0
 10
654.4436645192
 20
1659.556122449
 30
0.0
 10
654.4407401003
 20
1659.5755377086
 30
0.0
 10
654.4304371308
 20
1659.6584946249
 30
0.0
 10
654.4261986655
 20
1659.7421789759
 30
0.0
 10
654.4261986655
 20
1659.806122449
 30
0.0
  0
SPLINE
  5
497
100
AcDbEntity
  8
0
100
AcDbSpline
 62
7
  6
CONTINUOUS
 70
0
 71
3
 72
9
 73
5
 74
0
 42
0.0000001
 43
0.0000001
 44
0.0000000001
 40
0.0
 40
0.0
 40
0.0
 40
0.0
 40
0.261000511
 40
1.0
 40
1.0
 40
1.0
 40
1.0
 10
654.4261986655
 20
1659.806122449
 30
0.0
 10
654.4261986655
 20
1659.8279356733
 30
0.0
 10
654.4277712908
 20
1659.9114908608
 30
0.0
 10
654.4344481398
 20
1659.9950478089
 30
0.0
 10
654.4436381195
 20
1660.056122449
 30
0.0
  0
SPLINE
  5
498
100
AcDbEntity
  8
0
100
AcDbSpline
 62
7
  6
CONTINUOUS
 70
0
 71
3
 72
10
 73
6
 74
0
 42
0.0000001
 43
0.0000001
 44
0.0000000001
 40
0.0
 40
0.0
 40
0.0
 40
0.0
 40
0.2973745772
 40
0.5949170808
 40
1.0
 40
1.0
 40
1.0
 40
1.0
 10
654.4436515136
 20
1661.556122449
 30
0.0
 10
654.4364884789
 20
1661.556122449
 30
0.0
 10
654.4291728883
 20
1661.5746407313
 30
0.0
 10
654.4269277701
 20
1661.5964248377
 30
0.0
 10
654.4261783631
 20
1661.6139777841
 30
0.0
 10
654.4261766246
 20
1661.6237352523
 30
0.0
  0
SPLINE
  5
499
100
AcDbEntity
  8
0
100
AcDbSpline
 62
7
  6
CONTINUOUS
 70
0
 71
3
 72
9
 73
5
 74
0
 42
0.0000001
 43
0.0000001
 44
0.0000000001
 40
0.0
 40
0.0
 40
0.0
 40
0.0
 40
0.2278746542
 40
1.0
 40
1.0
 40
1.0
 40
1.0
 10
654.4261766246
 20
1661.6237352523
 30
0.0
 10
654.4261760023
 20
1661.6272275854
 30
0.0
 10
654.4263424653
 20
1661.6425532833
 30
0.0
 10
654.4270956836
 20
1661.6578685212
 30
0.0
 10
654.4278830307
 20
1661.6696756415
 30
0.0
  0
SPLINE
  5
49A
100
AcDbEntity
  8
0
100
AcDbSpline
 62
7
  6
CONTINUOUS
 70
0
 71
3
 72
9
 73
5
 74
0
 42
0.0000001
 43
0.0000001
 44
0.0000000001
 40
0.0
 40
0.0
 40
0.0
 40
0.0
 40
0.220184963
 40
1.0
 40
1.0
 40
1.0
 40
1.0
 10
654.4278830307
 20
1661.6696756415
 30
0.0
 10
654.4285539125
 20
1661.6797362389
 30
0.0
 10
654.4323185674
 20
1661.7253799662
 30
0.0
 10
654.4383447067
 20
1661.7708104687
 30
0.0
 10
654.4436622204
 20
1661.806122449
 30
0.0
  0
SPLINE
  5
49B
100
AcDbEntity
  8
0
100
AcDbSpline
 62
7
  6
CONTINUOUS
 70
0
 71
3
 72
9
 73
5
 74
0
 42
0.0000001
 43
0.0000001
 44
0.0000000001
 40
0.0
 40
0.0
 40
0.0
 40
0.0
 40
0.2354333406
 40
1.0
 40
1.0
 40
1.0
 40
1.0
 10
654.5953268905
 20
1660.806122449
 30
0.0
 10
654.6002535296
 20
1660.8254715439
 30
0.0
 10
654.6197039061
 20
1660.9080287611
 30
0.0
 10
654.6338445181
 20
1660.9918063752
 30
0.0
 10
654.642076832
 20
1661.056122449
 30
0.0
  0
SPLINE
  5
49C
100
AcDbEntity
  8
0
100
AcDbSpline
 62
7
  6
CONTINUOUS
 70
0
 71
3
 72
9
 73
5
 74
0
 42
0.0000001
 43
0.0000001
 44
0.0000000001
 40
0.0
 40
0.0
 40
0.0
 40
0.0
 40
0.260917662
 40
1.0
 40
1.0
 40
1.0
 40
1.0
 10
654.6420781979
 20
1661.056122449
 30
0.0
 10
654.644855108
 20
1661.0778174374
 30
0.0
 10
654.6542778703
 20
1661.1611086871
 30
0.0
 10
654.6592300419
 20
1661.2449758823
 30
0.0
 10
654.6592087373
 20
1661.306931049
 30
0.0
  0
SPLINE
  5
49D
100
AcDbEntity
  8
0
100
AcDbSpline
 62
7
  6
CONTINUOUS
 70
0
 71
3
 72
9
 73
5
 74
0
 42
0.0000001
 43
0.0000001
 44
0.0000000001
 40
0.0
 40
0.0
 40
0.0
 40
0.0
 40
0.2678533561
 40
1.0
 40
1.0
 40
1.0
 40
1.0
 10
654.6592087373
 20
1661.306931049
 30
0.0
 10
654.6592056078
 20
1661.3160317358
 30
0.0
 10
654.65887237
 20
1661.3500048502
 30
0.0
 10
654.6572536047
 20
1661.383983206
 30
0.0
 10
654.6549586844
 20
1661.4087528126
 30
0.0
  0
SPLINE
  5
49E
100
AcDbEntity
  8
0
100
AcDbSpline
 62
7
  6
CONTINUOUS
 70
0
 71
3
 72
9
 73
5
 74
0
 42
0.0000001
 43
0.0000001
 44
0.0000000001
 40
0.0
 40
0.0
 40
0.0
 40
0.0
 40
0.2788809381
 40
1.0
 40
1.0
 40
1.0
 40
1.0
 10
654.6549586844
 20
1661.4087528126
 30
0.0
 10
654.6542805311
 20
1661.4160722792
 30
0.0
 10
654.6514755067
 20
1661.4422745949
 30
0.0
 10
654.6472099158
 20
1661.4683750953
 30
0.0
 10
654.6426305127
 20
1661.4868226392
 30
0.0
  0
SPLINE
  5
49F
100
AcDbEntity
  8
0
100
AcDbSpline
 62
7
  6
CONTINUOUS
 70
0
 71
3
 72
10
 73
6
 74
0
 42
0.0000001
 43
0.0000001
 44
0.0000000001
 40
0.0
 40
0.0
 40
0.0
 40
0.0
 40
0.3584404289
 40
0.6366137194
 40
1.0
 40
1.0
 40
1.0
 40
1.0
 10
654.6426305127
 20
1661.4868226392
 30
0.0
 10
654.6401008499
 20
1661.4970130645
 30
0.0
 10
654.6345226603
 20
1661.5150469812
 30
0.0
 10
654.6228070513
 20
1661.5412118389
 30
0.0
 10
654.6059838507
 20
1661.556122449
 30
0.0
 10
654.5953392606
 20
1661.556122449
 30
0.0
  0
SPLINE
  5
4A0
100
AcDbEntity
  8
0
100
AcDbSpline
 62
7
  6
CONTINUOUS
 70
0
 71
3
 72
9
 73
5
 74
0
 42
0.0000001
 43
0.0000001
 44
0.0000000001
 40
0.0
 40
0.0
 40
0.0
 40
0.0
 40
0.297009378
 40
1.0
 40
1.0
 40
1.0
 40
1.0
 10
654.4436107295
 20
207.806122449
 30
0.0
 10
654.4409068853
 20
207.8241014836
 30
0.0
 10
654.4325486142
 20
207.884707377
 30
0.0
 10
654.4261212671
 20
207.9458310006
 30
0.0
 10
654.4261709714
 20
207.9888640283
 30
0.0
  0
SPLINE
  5
4A1
100
AcDbEntity
  8
0
100
AcDbSpline
 62
7
  6
CONTINUOUS
 70
0
 71
3
 72
9
 73
5
 74
0
 42
0.0000001
 43
0.0000001
 44
0.0000000001
 40
0.0
 40
0.0
 40
0.0
 40
0.0
 40
0.6866009383
 40
1.0
 40
1.0
 40
1.0
 40
1.0
 10
654.4261709714
 20
207.9888640283
 30
0.0
 10
654.4261895931
 20
208.0049864092
 30
0.0
 10
654.4263342
 20
208.0256913086
 30
0.0
 10
654.4345954136
 20
208.0541249065
 30
0.0
 10
654.4417390789
 20
208.0558923668
 30
0.0
  0
LINE
  5
4A2
100
AcDbEntity
  8
0
100
AcDbLine
 62
7
  6
CONTINUOUS
 10
654.4417390789
 20
208.0558923668
 11
654.4436516662
 21
208.056122449
  0
SPLINE
  5
4A3
100
AcDbEntity
  8
0
100
AcDbSpline
 62
7
  6
CONTINUOUS
 70
0
 71
3
 72
10
 73
6
 74
0
 42
0.0000001
 43
0.0000001
 44
0.0000000001
 40
0.0
 40
0.0
 40
0.0
 40
0.0
 40
0.3633934531
 40
0.6415680332
 40
1.0
 40
1.0
 40
1.0
 40
1.0
 10
654.5953392606
 20
208.056122449
 30
0.0
 10
654.6059840477
 20
208.056122449
 30
0.0
 10
654.6228076638
 20
208.0710329839
 30
0.0
 10
654.6345229822
 20
208.0971980657
 30
0.0
 10
654.6401003152
 20
208.1152319649
 30
0.0
 10
654.6426298166
 20
208.1254221615
 30
0.0
  0
SPLINE
  5
4A4
100
AcDbEntity
  8
0
100
AcDbSpline
 62
7
  6
CONTINUOUS
 70
0
 71
3
 72
9
 73
5
 74
0
 42
0.0000001
 43
0.0000001
 44
0.0000000001
 40
0.0
 40
0.0
 40
0.0
 40
0.0
 40
0.220479526
 40
1.0
 40
1.0
 40
1.0
 40
1.0
 10
654.6426298166
 20
208.1254221615
 30
0.0
 10
654.644041853
 20
208.131110606
 30
0.0
 10
654.6497450927
 20
208.1570848512
 30
0.0
 10
654.6531249042
 20
208.1835236772
 30
0.0
 10
654.6550203432
 20
208.2041590549
 30
0.0
  0
SPLINE
  5
4A5
100
AcDbEntity
  8
0
100
AcDbSpline
 62
7
  6
CONTINUOUS
 70
0
 71
3
 72
9
 73
5
 74
0
 42
0.0000001
 43
0.0000001
 44
0.0000000001
 40
0.0
 40
0.0
 40
0.0
 40
0.0
 40
0.2314148174
 40
1.0
 40
1.0
 40
1.0
 40
1.0
 10
654.6550203432
 20
208.2041590549
 30
0.0
 10
654.6557348171
 20
208.2119374324
 30
0.0
 10
654.6583291693
 20
208.2455947932
 30
0.0
 10
654.6592010706
 20
208.2793707135
 30
0.0
 10
654.6592097883
 20
208.3053133584
 30
0.0
  0
SPLINE
  5
4A6
100
AcDbEntity
  8
0
100
AcDbSpline
 62
7
  6
CONTINUOUS
 70
0
 71
3
 72
9
 73
5
 74
0
 42
0.0000001
 43
0.0000001
 44
0.0000000001
 40
0.0
 40
0.0
 40
0.0
 40
0.0
 40
0.2345094817
 40
1.0
 40
1.0
 40
1.0
 40
1.0
 10
654.6592097883
 20
208.3053133584
 30
0.0
 10
654.6592163944
 20
208.3249722174
 30
0.0
 10
654.6575573723
 20
208.4087988177
 30
0.0
 10
654.6502254407
 20
208.4924709036
 30
0.0
 10
654.6420781856
 20
208.556122449
 30
0.0
  0
SPLINE
  5
4A7
100
AcDbEntity
  8
0
100
AcDbSpline
 62
7
  6
CONTINUOUS
 70
0
 71
3
 72
9
 73
5
 74
0
 42
0.0000001
 43
0.0000001
 44
0.0000000001
 40
0.0
 40
0.0
 40
0.0
 40
0.0
 40
0.2606347155
 40
1.0
 40
1.0
 40
1.0
 40
1.0
 10
654.642076832
 20
208.556122449
 30
0.0
 10
654.6392705619
 20
208.5780468178
 30
0.0
 10
654.6272363217
 20
208.6619919719
 30
0.0
 10
654.6107983936
 20
208.7453590002
 30
0.0
 10
654.5953268905
 20
208.806122449
 30
0.0
  0
SPLINE
  5
4A8
100
AcDbEntity
  8
0
100
AcDbSpline
 62
7
  6
CONTINUOUS
 70
0
 71
3
 72
9
 73
5
 74
0
 42
0.0000001
 43
0.0000001
 44
0.0000000001
 40
0.0
 40
0.0
 40
0.0
 40
0.0
 40
0.2349222261
 40
1.0
 40
1.0
 40
1.0
 40
1.0
 10
654.4436645192
 20
209.556122449
 30
0.0
 10
654.4407401003
 20
209.5755377086
 30
0.0
 10
654.4304371308
 20
209.6584946249
 30
0.0
 10
654.4261986655
 20
209.7421789759
 30
0.0
 10
654.4261986655
 20
209.806122449
 30
0.0
  0
SPLINE
  5
4A9
100
AcDbEntity
  8
0
100
AcDbSpline
 62
7
  6
CONTINUOUS
 70
0
 71
3
 72
9
 73
5
 74
0
 42
0.0000001
 43
0.0000001
 44
0.0000000001
 40
0.0
 40
0.0
 40
0.0
 40
0.0
 40
0.261000511
 40
1.0
 40
1.0
 40
1.0
 40
1.0
 10
654.4261986655
 20
209.806122449
 30
0.0
 10
654.4261986655
 20
209.8279356733
 30
0.0
 10
654.4277712908
 20
209.9114908608
 30
0.0
 10
654.4344481398
 20
209.9950478089
 30
0.0
 10
654.4436381195
 20
210.056122449
 30
0.0
  0
SPLINE
  5
4AA
100
AcDbEntity
  8
0
100
AcDbSpline
 62
7
  6
CONTINUOUS
 70
0
 71
3
 72
10
 73
6
 74
0
 42
0.0000001
 43
0.0000001
 44
0.0000000001
 40
0.0
 40
0.0
 40
0.0
 40
0.0
 40
0.2973745772
 40
0.5949170808
 40
1.0
 40
1.0
 40
1.0
 40
1.0
 10
654.4436515136
 20
211.556122449
 30
0.0
 10
654.4364884789
 20
211.556122449
 30
0.0
 10
654.4291728883
 20
211.5746407313
 30
0.0
 10
654.4269277701
 20
211.5964248377
 30
0.0
 10
654.4261783631
 20
211.6139777841
 30
0.0
 10
654.4261766246
 20
211.6237352523
 30
0.0
  0
SPLINE
  5
4AB
100
AcDbEntity
  8
0
100
AcDbSpline
 62
7
  6
CONTINUOUS
 70
0
 71
3
 72
9
 73
5
 74
0
 42
0.0000001
 43
0.0000001
 44
0.0000000001
 40
0.0
 40
0.0
 40
0.0
 40
0.0
 40
0.2278746542
 40
1.0
 40
1.0
 40
1.0
 40
1.0
 10
654.4261766246
 20
211.6237352523
 30
0.0
 10
654.4261760023
 20
211.6272275854
 30
0.0
 10
654.4263424653
 20
211.6425532833
 30
0.0
 10
654.4270956836
 20
211.6578685212
 30
0.0
 10
654.4278830307
 20
211.6696756415
 30
0.0
  0
SPLINE
  5
4AC
100
AcDbEntity
  8
0
100
AcDbSpline
 62
7
  6
CONTINUOUS
 70
0
 71
3
 72
9
 73
5
 74
0
 42
0.0000001
 43
0.0000001
 44
0.0000000001
 40
0.0
 40
0.0
 40
0.0
 40
0.0
 40
0.220184963
 40
1.0
 40
1.0
 40
1.0
 40
1.0
 10
654.4278830307
 20
211.6696756415
 30
0.0
 10
654.4285539125
 20
211.6797362389
 30
0.0
 10
654.4323185674
 20
211.7253799662
 30
0.0
 10
654.4383447067
 20
211.7708104687
 30
0.0
 10
654.4436622204
 20
211.806122449
 30
0.0
  0
SPLINE
  5
4AD
100
AcDbEntity
  8
0
100
AcDbSpline
 62
7
  6
CONTINUOUS
 70
0
 71
3
 72
9
 73
5
 74
0
 42
0.0000001
 43
0.0000001
 44
0.0000000001
 40
0.0
 40
0.0
 40
0.0
 40
0.0
 40
0.2354333406
 40
1.0
 40
1.0
 40
1.0
 40
1.0
 10
654.5953268905
 20
210.806122449
 30
0.0
 10
654.6002535296
 20
210.8254715439
 30
0.0
 10
654.6197039061
 20
210.9080287611
 30
0.0
 10
654.6338445181
 20
210.9918063752
 30
0.0
 10
654.642076832
 20
211.056122449
 30
0.0
  0
SPLINE
  5
4AE
100
AcDbEntity
  8
0
100
AcDbSpline
 62
7
  6
CONTINUOUS
 70
0
 71
3
 72
9
 73
5
 74
0
 42
0.0000001
 43
0.0000001
 44
0.0000000001
 40
0.0
 40
0.0
 40
0.0
 40
0.0
 40
0.260917662
 40
1.0
 40
1.0
 40
1.0
 40
1.0
 10
654.6420781979
 20
211.056122449
 30
0.0
 10
654.644855108
 20
211.0778174374
 30
0.0
 10
654.6542778703
 20
211.1611086871
 30
0.0
 10
654.6592300419
 20
211.2449758823
 30
0.0
 10
654.6592087373
 20
211.306931049
 30
0.0
  0
SPLINE
  5
4AF
100
AcDbEntity
  8
0
100
AcDbSpline
 62
7
  6
CONTINUOUS
 70
0
 71
3
 72
9
 73
5
 74
0
 42
0.0000001
 43
0.0000001
 44
0.0000000001
 40
0.0
 40
0.0
 40
0.0
 40
0.0
 40
0.2678533561
 40
1.0
 40
1.0
 40
1.0
 40
1.0
 10
654.6592087373
 20
211.306931049
 30
0.0
 10
654.6592056078
 20
211.3160317358
 30
0.0
 10
654.65887237
 20
211.3500048502
 30
0.0
 10
654.6572536047
 20
211.383983206
 30
0.0
 10
654.6549586844
 20
211.4087528126
 30
0.0
  0
SPLINE
  5
4B0
100
AcDbEntity
  8
0
100
AcDbSpline
 62
7
  6
CONTINUOUS
 70
0
 71
3
 72
9
 73
5
 74
0
 42
0.0000001
 43
0.0000001
 44
0.0000000001
 40
0.0
 40
0.0
 40
0.0
 40
0.0
 40
0.2788809381
 40
1.0
 40
1.0
 40
1.0
 40
1.0
 10
654.6549586844
 20
211.4087528126
 30
0.0
 10
654.6542805311
 20
211.4160722792
 30
0.0
 10
654.6514755067
 20
211.4422745948
 30
0.0
 10
654.6472099158
 20
211.4683750953
 30
0.0
 10
654.6426305127
 20
211.4868226392
 30
0.0
  0
SPLINE
  5
4B1
100
AcDbEntity
  8
0
100
AcDbSpline
 62
7
  6
CONTINUOUS
 70
0
 71
3
 72
10
 73
6
 74
0
 42
0.0000001
 43
0.0000001
 44
0.0000000001
 40
0.0
 40
0.0
 40
0.0
 40
0.0
 40
0.3584404289
 40
0.6366137195
 40
1.0
 40
1.0
 40
1.0
 40
1.0
 10
654.6426305127
 20
211.4868226392
 30
0.0
 10
654.6401008499
 20
211.4970130645
 30
0.0
 10
654.6345226603
 20
211.5150469812
 30
0.0
 10
654.6228070513
 20
211.5412118389
 30
0.0
 10
654.6059838507
 20
211.556122449
 30
0.0
 10
654.5953392606
 20
211.556122449
 30
0.0
  0
SPLINE
  5
4B2
100
AcDbEntity
  8
0
100
AcDbSpline
 62
7
  6
CONTINUOUS
 70
0
 71
3
 72
14
 73
10
 74
0
 42
0.0000001
 43
0.0000001
 44
0.0000000001
 40
0.0
 40
0.0
 40
0.0
 40
0.0
 40
0.0209617623
 40
0.0809590298
 40
0.1824465839
 40
0.3173089079
 40
0.4739799949
 40
0.643384609
 40
1.0
 40
1.0
 40
1.0
 40
1.0
 10
717.6997048359
 20
945.8694466039
 30
0.0
 10
717.6807002977
 20
945.8681176771
 30
0.0
 10
717.6534376596
 20
945.9667968146
 30
0.0
 10
717.6200083126
 20
946.1013463175
 30
0.0
 10
717.5800299033
 20
946.3835740177
 30
0.0
 10
717.5387103696
 20
946.7318810254
 30
0.0
 10
717.4975698919
 20
947.1510025563
 30
0.0
 10
717.4441141531
 20
947.7683094548
 30
0.0
 10
717.4085788761
 20
948.2454098496
 30
0.0
 10
717.385846004
 20
948.5687189319
 30
0.0
  0
SPLINE
  5
4B3
100
AcDbEntity
  8
0
100
AcDbSpline
 62
7
  6
CONTINUOUS
 70
0
 71
3
 72
13
 73
9
 74
0
 42
0.0000001
 43
0.0000001
 44
0.0000000001
 40
0.0
 40
0.0
 40
0.0
 40
0.0
 40
0.0268437671
 40
0.1030228552
 40
0.2154146472
 40
0.3512352315
 40
0.6620138425
 40
1.0
 40
1.0
 40
1.0
 40
1.0
 10
716.9783581222
 20
960.4155615591
 30
0.0
 10
716.9753430379
 20
960.4153507239
 30
0.0
 10
716.9835371983
 20
960.3971531509
 30
0.0
 10
716.9785262539
 20
960.3788914072
 30
0.0
 10
716.9843389489
 20
960.3395416457
 30
0.0
 10
716.9872274567
 20
960.2781171565
 30
0.0
 10
716.9943702641
 20
960.1891967411
 30
0.0
 10
716.999286557
 20
960.1165670073
 30
0.0
 10
717.0019863717
 20
960.0786076861
 30
0.0
  0
LINE
  5
4B4
100
AcDbEntity
  8
0
100
AcDbLine
 62
7
  6
CONTINUOUS
 10
717.0188753499
 20
959.8413207747
 11
717.0741737375
 21
959.0621673102
  0
SPLINE
  5
4B5
100
AcDbEntity
  8
0
100
AcDbSpline
 62
7
  6
CONTINUOUS
 70
0
 71
3
 72
14
 73
10
 74
0
 42
0.0000001
 43
0.0000001
 44
0.0000000001
 40
0.0
 40
0.0
 40
0.0
 40
0.0
 40
0.0150045867
 40
0.0619871946
 40
0.145983515
 40
0.2674963091
 40
0.4215593047
 40
0.599982194
 40
1.0
 40
1.0
 40
1.0
 40
1.0
 10
717.2371600042
 20
956.3460830288
 30
0.0
 10
717.2438433236
 20
956.346550372
 30
0.0
 10
717.2391189962
 20
956.3883152687
 30
0.0
 10
717.2462727908
 20
956.4391736375
 30
0.0
 10
717.2380792941
 20
956.560607869
 30
0.0
 10
717.2322794195
 20
956.716954913
 30
0.0
 10
717.2200004706
 20
956.9208724895
 30
0.0
 10
717.2002292619
 20
957.2466567899
 30
0.0
 10
717.1830791469
 20
957.5046519941
 30
0.0
 10
717.1711032314
 20
957.6828604341
 30
0.0
  0
LINE
  5
4B6
100
AcDbEntity
  8
0
100
AcDbLine
 62
7
  6
CONTINUOUS
 10
717.1711032314
 20
957.6828604341
 11
717.1654304568
 21
957.7670095728
  0
SPLINE
  5
4B7
100
AcDbEntity
  8
0
100
AcDbSpline
 62
7
  6
CONTINUOUS
 70
0
 71
3
 72
14
 73
10
 74
0
 42
0.0000001
 43
0.0000001
 44
0.0000000001
 40
0.0
 40
0.0
 40
0.0
 40
0.0
 40
0.0154533895
 40
0.0622147372
 40
0.1456707675
 40
0.2666392642
 40
0.4204691679
 40
0.5990431585
 40
1.0
 40
1.0
 40
1.0
 40
1.0
 10
713.4766495782
 20
995.4018902343
 30
0.0
 10
713.4646872255
 20
995.4010537451
 30
0.0
 10
713.4532331819
 20
995.469567575
 30
0.0
 10
713.4204770133
 20
995.5562802337
 30
0.0
 10
713.3842065823
 20
995.7611521394
 30
0.0
 10
713.3327857432
 20
996.0282183835
 30
0.0
 10
713.2750235479
 20
996.3776229734
 30
0.0
 10
713.1858825412
 20
996.9386463218
 30
0.0
 10
713.1203449744
 20
997.3839955095
 30
0.0
 10
713.0759723308
 20
997.6919507412
 30
0.0
  0
SPLINE
  5
4B8
100
AcDbEntity
  8
0
100
AcDbSpline
 62
7
  6
CONTINUOUS
 70
0
 71
3
 72
9
 73
5
 74
0
 42
0.0000001
 43
0.0000001
 44
0.0000000001
 40
0.0
 40
0.0
 40
0.0
 40
0.0
 40
0.2456123056
 40
1.0
 40
1.0
 40
1.0
 40
1.0
 10
713.0759723308
 20
997.6919507412
 30
0.0
 10
713.0598537375
 20
997.8038170791
 30
0.0
 10
712.9948423226
 20
998.2593646936
 30
0.0
 10
712.9318347621
 20
998.7151963253
 30
0.0
 10
712.8849529645
 20
999.0591571105
 30
0.0
  0
SPLINE
  5
4B9
100
AcDbEntity
  8
0
100
AcDbSpline
 62
7
  6
CONTINUOUS
 70
0
 71
3
 72
16
 73
12
 74
0
 42
0.0000001
 43
0.0000001
 44
0.0000000001
 40
0.0
 40
0.0
 40
0.0
 40
0.0
 40
0.0073542329
 40
0.0273304502
 40
0.0602462714
 40
0.1048533581
 40
0.2208811378
 40
0.3598414608
 40
0.5115484162
 40
0.6705307706
 40
1.0
 40
1.0
 40
1.0
 40
1.0
 10
712.0202921504
 20
1006.006056387
 30
0.0
 10
712.0155115501
 20
1006.0057220949
 30
0.0
 10
712.0086904523
 20
1006.029403483
 30
0.0
 10
711.9972299955
 20
1006.0604301909
 30
0.0
 10
711.9827092172
 20
1006.1259106775
 30
0.0
 10
711.9565645482
 20
1006.2472634248
 30
0.0
 10
711.9208044824
 20
1006.4405576481
 30
0.0
 10
711.8752201093
 20
1006.7010806917
 30
0.0
 10
711.8270443075
 20
1006.9902716263
 30
0.0
 10
711.7603561379
 20
1007.4019951377
 30
0.0
 10
711.7110018553
 20
1007.7164633008
 30
0.0
 10
711.6780574263
 20
1007.9286142191
 30
0.0
  0
LINE
  5
4BA
100
AcDbEntity
  8
0
100
AcDbLine
 62
7
  6
CONTINUOUS
 10
713.3886341124
 20
996.4155244717
 11
713.348968848
 21
996.7287787464
  0
SPLINE
  5
4BB
100
AcDbEntity
  8
0
100
AcDbSpline
 62
7
  6
CONTINUOUS
 70
0
 71
3
 72
9
 73
5
 74
0
 42
0.0000001
 43
0.0000001
 44
0.0000000001
 40
0.0
 40
0.0
 40
0.0
 40
0.0
 40
0.2276157903
 40
1.0
 40
1.0
 40
1.0
 40
1.0
 10
714.3247928441
 20
988.6166067757
 30
0.0
 10
714.3160148288
 20
988.6917532459
 30
0.0
 10
714.2772681699
 20
989.0218781416
 30
0.0
 10
714.2382169585
 20
989.3519671406
 30
0.0
 10
714.2081514411
 20
989.6069341073
 30
0.0
  0
SPLINE
  5
4BC
100
AcDbEntity
  8
0
100
AcDbSpline
 62
7
  6
CONTINUOUS
 70
0
 71
3
 72
9
 73
5
 74
0
 42
0.0000001
 43
0.0000001
 44
0.0000000001
 40
0.0
 40
0.0
 40
0.0
 40
0.0
 40
0.2327722399
 40
1.0
 40
1.0
 40
1.0
 40
1.0
 10
715.5073169573
 20
977.5072277561
 30
0.0
 10
715.4975187083
 20
977.6068262808
 30
0.0
 10
715.4550376606
 20
978.0346678967
 30
0.0
 10
715.4116316283
 20
978.4624169984
 30
0.0
 10
715.3781591705
 20
978.79058029
 30
0.0
  0
LINE
  5
4BD
100
AcDbEntity
  8
0
100
AcDbLine
 62
7
  6
CONTINUOUS
 10
715.3781591705
 20
978.79058029
 11
715.3578336176
 21
978.9895942073
  0
LINE
  5
4BE
100
AcDbEntity
  8
0
100
AcDbLine
 62
7
  6
CONTINUOUS
 10
715.3578336176
 20
978.9895942073
 11
715.2925787734
 21
979.6255197859
  0
LINE
  5
4BF
100
AcDbEntity
  8
0
100
AcDbLine
 62
7
  6
CONTINUOUS
 10
717.3547468809
 20
955.0379962669
 11
717.3338109641
 21
955.3504805175
  0
SPLINE
  5
4C0
100
AcDbEntity
  8
0
100
AcDbSpline
 62
7
  6
CONTINUOUS
 70
0
 71
3
 72
9
 73
5
 74
0
 42
0.0000001
 43
0.0000001
 44
0.0000000001
 40
0.0
 40
0.0
 40
0.0
 40
0.0
 40
0.2290448091
 40
1.0
 40
1.0
 40
1.0
 40
1.0
 10
717.4988511071
 20
952.8039165068
 30
0.0
 10
717.5078851425
 20
952.6603236641
 30
0.0
 10
717.5464883249
 20
952.0333507314
 30
0.0
 10
717.5836639732
 20
951.4062912302
 30
0.0
 10
717.6120816083
 20
950.922842643
 30
0.0
  0
LINE
  5
4C1
100
AcDbEntity
  8
0
100
AcDbLine
 62
7
  6
CONTINUOUS
 10
717.6797686363
 20
949.7602156202
 11
717.6910022281
 21
949.5651068512
  0
SPLINE
  5
4C2
100
AcDbEntity
  8
0
100
AcDbSpline
 62
7
  6
CONTINUOUS
 70
0
 71
3
 72
9
 73
5
 74
0
 42
0.0000001
 43
0.0000001
 44
0.0000000001
 40
0.0
 40
0.0
 40
0.0
 40
0.0
 40
0.2279759327
 40
1.0
 40
1.0
 40
1.0
 40
1.0
 10
717.8784669283
 20
946.2864682607
 30
0.0
 10
717.8690870976
 20
946.4614865795
 30
0.0
 10
717.8267049957
 20
947.2291252657
 30
0.0
 10
717.7820763846
 20
947.9966367804
 30
0.0
 10
717.7477262191
 20
948.5891794504
 30
0.0
  0
LINE
  5
4C3
100
AcDbEntity
  8
0
100
AcDbLine
 62
7
  6
CONTINUOUS
 10
717.7477262191
 20
948.5891794504
 11
717.7136624791
 21
949.1758478978
  0
LINE
  5
4C4
100
AcDbEntity
  8
0
100
AcDbLine
 62
7
  6
CONTINUOUS
 10
717.7136624791
 20
949.1758478978
 11
717.6910022281
 21
949.5651068512
  0
LINE
  5
4C5
100
AcDbEntity
  8
0
100
AcDbLine
 62
7
  6
CONTINUOUS
 10
716.3139805327
 20
968.7390579339
 11
716.3689909755
 21
968.0940771342
  0
SPLINE
  5
4C6
100
AcDbEntity
  8
0
100
AcDbSpline
 62
7
  6
CONTINUOUS
 70
0
 71
3
 72
8
 73
4
 74
0
 42
0.0000001
 43
0.0000001
 44
0.0000000001
 40
0.0
 40
0.0
 40
0.0
 40
0.0
 40
1.0
 40
1.0
 40
1.0
 40
1.0
 10
714.4909530083
 20
985.7490560694
 30
0.0
 10
714.5409491424
 20
985.2955978494
 30
0.0
 10
714.5905046945
 20
984.8420908344
 30
0.0
 10
714.6396175609
 20
984.3885361
 30
0.0
  0
SPLINE
  5
4C7
100
AcDbEntity
  8
0
100
AcDbSpline
 62
7
  6
CONTINUOUS
 70
0
 71
3
 72
17
 73
13
 74
0
 42
0.0000001
 43
0.0000001
 44
0.0000000001
 40
0.0
 40
0.0
 40
0.0
 40
0.0
 40
0.0063827341
 40
0.0223942853
 40
0.0695901276
 40
0.1261730471
 40
0.1871600354
 40
0.3157307083
 40
0.4489379275
 40
0.5847068095
 40
0.7221056712
 40
1.0
 40
1.0
 40
1.0
 40
1.0
 10
711.5218841867
 20
1009.2802327465
 30
0.0
 10
711.5189957201
 20
1009.2800307653
 30
0.0
 10
711.5229581231
 20
1009.2641268995
 30
0.0
 10
711.5202363306
 20
1009.2392478628
 30
0.0
 10
711.5289588658
 20
1009.1800154447
 30
0.0
 10
711.5353165471
 20
1009.1077576069
 30
0.0
 10
711.5482791447
 20
1008.9959938759
 30
0.0
 10
711.5649900492
 20
1008.8509777852
 30
0.0
 10
711.5865778224
 20
1008.6717760246
 30
0.0
 10
711.6088415392
 20
1008.4888155707
 30
0.0
 10
711.6393469873
 20
1008.2406808318
 30
0.0
 10
711.6625181683
 20
1008.0537192877
 30
0.0
 10
711.6780574263
 20
1007.9286142191
 30
0.0
  0
SPLINE
  5
4C8
100
AcDbEntity
  8
0
100
AcDbSpline
 62
7
  6
CONTINUOUS
 70
0
 71
3
 72
8
 73
4
 74
0
 42
0.0000001
 43
0.0000001
 44
0.0000000001
 40
0.0
 40
0.0
 40
0.0
 40
0.0
 40
1.0
 40
1.0
 40
1.0
 40
1.0
 10
712.8244585709
 20
1000.4174661547
 30
0.0
 10
712.8833792636
 20
999.969720828
 30
0.0
 10
712.9418685591
 20
999.5219185205
 30
0.0
 10
712.9999263558
 20
999.0740604874
 30
0.0
  0
SPLINE
  5
4C9
100
AcDbEntity
  8
0
100
AcDbSpline
 62
7
  6
CONTINUOUS
 70
0
 71
3
 72
8
 73
4
 74
0
 42
0.0000001
 43
0.0000001
 44
0.0000000001
 40
0.0
 40
0.0
 40
0.0
 40
0.0
 40
1.0
 40
1.0
 40
1.0
 40
1.0
 10
712.9999263558
 20
999.0740604874
 30
0.0
 10
713.0585655455
 20
998.6217175864
 30
0.0
 10
713.1167645618
 20
998.169317406
 30
0.0
 10
713.1745232994
 20
997.7168612392
 30
0.0
  0
SPLINE
  5
4CA
100
AcDbEntity
  8
0
100
AcDbSpline
 62
7
  6
CONTINUOUS
 70
0
 71
3
 72
9
 73
5
 74
0
 42
0.0000001
 43
0.0000001
 44
0.0000000001
 40
0.0
 40
0.0
 40
0.0
 40
0.0
 40
0.2715490346
 40
1.0
 40
1.0
 40
1.0
 40
1.0
 10
712.7925550265
 20
1001.0137365899
 30
0.0
 10
712.7764783528
 20
1001.1368759173
 30
0.0
 10
712.7172023161
 20
1001.5903361556
 30
0.0
 10
712.6577863079
 20
1002.0437799327
 30
0.0
 10
712.6133935566
 20
1002.3739428231
 30
0.0
  0
LINE
  5
4CB
100
AcDbEntity
  8
0
100
AcDbLine
 62
7
  6
CONTINUOUS
 10
712.8695653983
 20
1000.4382473377
 11
712.8973013015
 21
1000.2279151951
  0
LINE
  5
4CC
100
AcDbEntity
  8
0
100
AcDbLine
 62
7
  6
CONTINUOUS
 10
712.8973013015
 20
1000.2279151951
 11
712.9730479377
 21
999.6492619247
  0
SPLINE
  5
4CD
100
AcDbEntity
  8
0
100
AcDbSpline
 62
7
  6
CONTINUOUS
 70
0
 71
3
 72
14
 73
10
 74
0
 42
0.0000001
 43
0.0000001
 44
0.0000000001
 40
0.0
 40
0.0
 40
0.0
 40
0.0
 40
0.0140665646
 40
0.0570848581
 40
0.1347006777
 40
0.2497036877
 40
0.4004434424
 40
0.5808984866
 40
1.0
 40
1.0
 40
1.0
 40
1.0
 10
712.55697093
 20
1002.539900809
 30
0.0
 10
712.54703983
 20
1002.5392063589
 30
0.0
 10
712.5493246435
 20
1002.4795288292
 30
0.0
 10
712.5417421538
 20
1002.4036811936
 30
0.0
 10
712.5533659065
 20
1002.2249702794
 30
0.0
 10
712.5679125759
 20
1001.9882340507
 30
0.0
 10
712.595414029
 20
1001.6712919174
 30
0.0
 10
712.6457079993
 20
1001.1437455516
 30
0.0
 10
712.6914854524
 20
1000.7214152471
 30
0.0
 10
712.7245184502
 20
1000.4266490549
 30
0.0
  0
SPLINE
  5
4CE
100
AcDbEntity
  8
0
100
AcDbSpline
 62
7
  6
CONTINUOUS
 70
0
 71
3
 72
9
 73
5
 74
0
 42
0.0000001
 43
0.0000001
 44
0.0000000001
 40
0.0
 40
0.0
 40
0.0
 40
0.0
 40
0.2438784524
 40
1.0
 40
1.0
 40
1.0
 40
1.0
 10
712.7245184502
 20
1000.4266490549
 30
0.0
 10
712.7369838604
 20
1000.3154153876
 30
0.0
 10
712.7888419034
 20
999.8593959339
 30
0.0
 10
712.8431241298
 20
999.4036549809
 30
0.0
 10
712.8849529645
 20
999.0591571105
 30
0.0
  0
SPLINE
  5
4CF
100
AcDbEntity
  8
0
100
AcDbSpline
 62
7
  6
CONTINUOUS
 70
0
 71
3
 72
9
 73
5
 74
0
 42
0.0000001
 43
0.0000001
 44
0.0000000001
 40
0.0
 40
0.0
 40
0.0
 40
0.0
 40
0.2716503142
 40
1.0
 40
1.0
 40
1.0
 40
1.0
 10
715.0406263811
 20
982.0735990083
 30
0.0
 10
715.0277040243
 20
982.1989704262
 30
0.0
 10
714.9800612872
 20
982.6604803104
 30
0.0
 10
714.9322901811
 20
983.1219788487
 30
0.0
 10
714.8963474288
 20
983.4579890609
 30
0.0
  0
SPLINE
  5
4D0
100
AcDbEntity
  8
0
100
AcDbSpline
 62
7
  6
CONTINUOUS
 70
0
 71
3
 72
9
 73
5
 74
0
 42
0.0000001
 43
0.0000001
 44
0.0000000001
 40
0.0
 40
0.0
 40
0.0
 40
0.0
 40
0.2385178698
 40
1.0
 40
1.0
 40
1.0
 40
1.0
 10
714.8687645576
 20
983.6259650083
 30
0.0
 10
714.8829852235
 20
983.5028552199
 30
0.0
 10
714.9419765275
 20
982.9866375346
 30
0.0
 10
714.9984896226
 20
982.4701384917
 30
0.0
 10
715.0405651039
 20
982.0767335335
 30
0.0
  0
LINE
  5
4D1
100
AcDbEntity
  8
0
100
AcDbLine
 62
7
  6
CONTINUOUS
 10
715.1002538235
 20
981.5129424351
 11
715.141766173
 21
981.1146186233
  0
LINE
  5
4D2
100
AcDbEntity
  8
0
100
AcDbLine
 62
7
  6
CONTINUOUS
 10
715.141766173
 20
981.1146186233
 11
715.1816934489
 21
980.7281133051
  0
LINE
  5
4D3
100
AcDbEntity
  8
0
100
AcDbLine
 62
7
  6
CONTINUOUS
 10
715.2850441672
 20
979.7028135948
 11
715.2927444718
 21
979.62326367
  0
SPLINE
  5
4D4
100
AcDbEntity
  8
0
100
AcDbSpline
 62
7
  6
CONTINUOUS
 70
0
 71
3
 72
14
 73
10
 74
0
 42
0.0000001
 43
0.0000001
 44
0.0000000001
 40
0.0
 40
0.0
 40
0.0
 40
0.0
 40
0.0150163493
 40
0.0607554181
 40
0.1423817203
 40
0.2612208203
 40
0.4137030297
 40
0.5926433388
 40
1.0
 40
1.0
 40
1.0
 40
1.0
 10
714.8396603588
 20
983.6239298445
 30
0.0
 10
714.829038955
 20
983.6231871236
 30
0.0
 10
714.831228742
 20
983.5596650014
 30
0.0
 10
714.820954844
 20
983.4793612412
 30
0.0
 10
714.8296301503
 20
983.2922131802
 30
0.0
 10
714.838877453
 20
983.0480333373
 30
0.0
 10
714.8591357587
 20
982.7271027125
 30
0.0
 10
714.8958655978
 20
982.2055846448
 30
0.0
 10
714.9300321917
 20
981.7908283058
 30
0.0
 10
714.9546870259
 20
981.5030463124
 30
0.0
  0
SPLINE
  5
4D5
100
AcDbEntity
  8
0
100
AcDbSpline
 62
7
  6
CONTINUOUS
 70
0
 71
3
 72
9
 73
5
 74
0
 42
0.0000001
 43
0.0000001
 44
0.0000000001
 40
0.0
 40
0.0
 40
0.0
 40
0.0
 40
0.24421669
 40
1.0
 40
1.0
 40
1.0
 40
1.0
 10
714.9546870259
 20
981.5030463124
 30
0.0
 10
714.9655682078
 20
981.3760364037
 30
0.0
 10
715.0110274255
 20
980.8560432302
 30
0.0
 10
715.0593273003
 20
980.3363021026
 30
0.0
 10
715.0966809286
 20
979.9435740399
 30
0.0
  0
SPLINE
  5
4D6
100
AcDbEntity
  8
0
100
AcDbSpline
 62
7
  6
CONTINUOUS
 70
0
 71
3
 72
9
 73
5
 74
0
 42
0.0000001
 43
0.0000001
 44
0.0000000001
 40
0.0
 40
0.0
 40
0.0
 40
0.0
 40
0.711074856
 40
1.0
 40
1.0
 40
1.0
 40
1.0
 10
715.2229825914
 20
978.7763102308
 30
0.0
 10
715.2865886155
 20
978.2276048737
 30
0.0
 10
715.387823124
 20
977.4578936713
 30
0.0
 10
715.5172252694
 20
976.6904054391
 30
0.0
 10
715.5740481491
 20
976.4732736825
 30
0.0
  0
SPLINE
  5
4D7
100
AcDbEntity
  8
0
100
AcDbSpline
 62
7
  6
CONTINUOUS
 70
0
 71
3
 72
16
 73
12
 74
0
 42
0.0000001
 43
0.0000001
 44
0.0000000001
 40
0.0
 40
0.0
 40
0.0
 40
0.0
 40
0.0056100185
 40
0.0203200475
 40
0.045526164
 40
0.0816631639
 40
0.1837429891
 40
0.3183570017
 40
0.4741342735
 40
0.6428025738
 40
1.0
 40
1.0
 40
1.0
 40
1.0
 10
715.6091021536
 20
975.6971302867
 30
0.0
 10
715.6051248101
 20
975.6968521637
 30
0.0
 10
715.6007955406
 20
975.6778585583
 30
0.0
 10
715.5975275699
 20
975.6501820915
 30
0.0
 10
715.5955740822
 20
975.5935340418
 30
0.0
 10
715.5959272959
 20
975.4789983972
 30
0.0
 10
715.6026307081
 20
975.284000687
 30
0.0
 10
715.6172852602
 20
975.0059804506
 30
0.0
 10
715.6378760181
 20
974.6801922009
 30
0.0
 10
715.6718362533
 20
974.1970056401
 30
0.0
 10
715.7007055884
 20
973.8243559714
 30
0.0
 10
715.7209155317
 20
973.5713005066
 30
0.0
  0
SPLINE
  5
4D8
100
AcDbEntity
  8
0
100
AcDbSpline
 62
7
  6
CONTINUOUS
 70
0
 71
3
 72
9
 73
5
 74
0
 42
0.0000001
 43
0.0000001
 44
0.0000000001
 40
0.0
 40
0.0
 40
0.0
 40
0.0
 40
0.2732743648
 40
1.0
 40
1.0
 40
1.0
 40
1.0
 10
715.7529136719
 20
973.17675005
 30
0.0
 10
715.7707743061
 20
972.9828268933
 30
0.0
 10
715.8437974863
 20
972.2739106211
 30
0.0
 10
715.9297994647
 20
971.5664563988
 30
0.0
 10
715.9922283027
 20
971.0523453469
 30
0.0
  0
SPLINE
  5
4D9
100
AcDbEntity
  8
0
100
AcDbSpline
 62
7
  6
CONTINUOUS
 70
0
 71
3
 72
8
 73
4
 74
0
 42
0.0000001
 43
0.0000001
 44
0.0000000001
 40
0.0
 40
0.0
 40
0.0
 40
0.0
 40
1.0
 40
1.0
 40
1.0
 40
1.0
 10
717.0169948862
 20
959.8343704906
 30
0.0
 10
717.036261594
 20
959.5768955016
 30
0.0
 10
717.0553462388
 20
959.3194068243
 30
0.0
 10
717.0742487701
 20
959.0619048431
 30
0.0
  0
SPLINE
  5
4DA
100
AcDbEntity
  8
0
100
AcDbSpline
 62
7
  6
CONTINUOUS
 70
0
 71
3
 72
9
 73
5
 74
0
 42
0.0000001
 43
0.0000001
 44
0.0000000001
 40
0.0
 40
0.0
 40
0.0
 40
0.0
 40
0.2541488316
 40
1.0
 40
1.0
 40
1.0
 40
1.0
 10
717.0067299692
 20
957.692511704
 30
0.0
 10
717.0148664422
 20
957.576050644
 30
0.0
 10
717.0475907822
 20
957.1178618582
 30
0.0
 10
717.0834980108
 20
956.6598928817
 30
0.0
 10
717.1129661842
 20
956.3185508758
 30
0.0
  0
SPLINE
  5
4DB
100
AcDbEntity
  8
0
100
AcDbSpline
 62
7
  6
CONTINUOUS
 70
0
 71
3
 72
9
 73
5
 74
0
 42
0.0000001
 43
0.0000001
 44
0.0000000001
 40
0.0
 40
0.0
 40
0.0
 40
0.0
 40
0.3640513442
 40
1.0
 40
1.0
 40
1.0
 40
1.0
 10
717.1129661842
 20
956.3185508758
 30
0.0
 10
717.1371170841
 20
956.0388010416
 30
0.0
 10
717.20903564
 20
955.2709539646
 30
0.0
 10
717.2981212695
 20
954.5041865734
 30
0.0
 10
717.3770744098
 20
954.0200796043
 30
0.0
  0
LINE
  5
4DC
100
AcDbEntity
  8
0
100
AcDbLine
 62
7
  6
CONTINUOUS
 10
714.1227164336
 20
990.337282406
 11
714.1283589963
 21
990.2871881828
  0
SPLINE
  5
4DD
100
AcDbEntity
  8
0
100
AcDbSpline
 62
7
  6
CONTINUOUS
 70
0
 71
3
 72
11
 73
7
 74
0
 42
0.0000001
 43
0.0000001
 44
0.0000000001
 40
0.0
 40
0.0
 40
0.0
 40
0.0
 40
0.4933895205
 40
0.805833794
 40
0.957345379
 40
1.0
 40
1.0
 40
1.0
 40
1.0
 10
714.1283589963
 20
990.2871881828
 30
0.0
 10
714.1408095866
 20
990.1763152904
 30
0.0
 10
714.1568380346
 20
990.0022790628
 30
0.0
 10
714.1889531798
 20
989.7677668857
 30
0.0
 10
714.1823098057
 20
989.6799817342
 30
0.0
 10
714.1946486535
 20
989.6129438752
 30
0.0
 10
714.185026694
 20
989.6122710423
 30
0.0
  0
SPLINE
  5
4DE
100
AcDbEntity
  8
0
100
AcDbSpline
 62
7
  6
CONTINUOUS
 70
0
 71
3
 72
9
 73
5
 74
0
 42
0.0000001
 43
0.0000001
 44
0.0000000001
 40
0.0
 40
0.0
 40
0.0
 40
0.0
 40
0.1739636424
 40
1.0
 40
1.0
 40
1.0
 40
1.0
 10
713.8846542485
 20
992.3163507807
 30
0.0
 10
713.8858037706
 20
992.3091220991
 30
0.0
 10
713.8920550772
 20
992.26751302
 30
0.0
 10
713.8975532757
 20
992.2257958821
 30
0.0
 10
713.9020538337
 20
992.1913330728
 30
0.0
  0
LINE
  5
4DF
100
AcDbEntity
  8
0
100
AcDbLine
 62
7
  6
CONTINUOUS
 10
714.0120008601
 20
991.2884664409
 11
714.0273890067
 21
991.1584371626
  0
SPLINE
  5
4E0
100
AcDbEntity
  8
0
100
AcDbSpline
 62
7
  6
CONTINUOUS
 70
0
 71
3
 72
9
 73
5
 74
0
 42
0.0000001
 43
0.0000001
 44
0.0000000001
 40
0.0
 40
0.0
 40
0.0
 40
0.0
 40
0.7542411385
 40
1.0
 40
1.0
 40
1.0
 40
1.0
 10
713.9328701441
 20
990.5678831463
 30
0.0
 10
713.9615681779
 20
990.3231006773
 30
0.0
 10
714.000842458
 20
989.9986986994
 30
0.0
 10
714.0424716257
 20
989.6745964144
 30
0.0
 10
714.0528661969
 20
989.5949667899
 30
0.0
  0
SPLINE
  5
4E1
100
AcDbEntity
  8
0
100
AcDbSpline
 62
7
  6
CONTINUOUS
 70
0
 71
3
 72
9
 73
5
 74
0
 42
0.0000001
 43
0.0000001
 44
0.0000000001
 40
0.0
 40
0.0
 40
0.0
 40
0.0
 40
0.7121354969
 40
1.0
 40
1.0
 40
1.0
 40
1.0
 10
714.0528661969
 20
989.5949667899
 30
0.0
 10
714.124579299
 20
989.045594691
 30
0.0
 10
714.2366145498
 20
988.2759213441
 30
0.0
 10
714.3825054987
 20
987.5105288182
 30
0.0
 10
714.4411670517
 20
987.2943929115
 30
0.0
  0
LINE
  5
4E2
100
AcDbEntity
  8
0
100
AcDbLine
 62
7
  6
CONTINUOUS
 10
714.2177815692
 20
986.3055276692
 11
714.2818703269
 21
985.7260645781
  0
SPLINE
  5
4E3
100
AcDbEntity
  8
0
100
AcDbSpline
 62
7
  6
CONTINUOUS
 70
0
 71
3
 72
12
 73
8
 74
0
 42
0.0000001
 43
0.0000001
 44
0.0000000001
 40
0.0
 40
0.0
 40
0.0
 40
0.0
 40
0.396548566
 40
0.7423753966
 40
0.940826008
 40
0.9824406178
 40
1.0
 40
1.0
 40
1.0
 40
1.0
 10
714.2818703524
 20
985.7260645799
 30
0.0
 10
714.3046638665
 20
985.5191904615
 30
0.0
 10
714.3505585118
 20
985.1309150415
 30
0.0
 10
714.4190498618
 20
984.6464784668
 30
0.0
 10
714.4838025176
 20
984.3373686964
 30
0.0
 10
714.5265261521
 20
984.2158318619
 30
0.0
 10
714.551194557
 20
984.1877056529
 30
0.0
 10
714.5603880392
 20
984.1883485238
 30
0.0
  0
SPLINE
  5
4E4
100
AcDbEntity
  8
0
100
AcDbSpline
 62
7
  6
CONTINUOUS
 70
0
 71
3
 72
14
 73
10
 74
0
 42
0.0000001
 43
0.0000001
 44
0.0000000001
 40
0.0
 40
0.0
 40
0.0
 40
0.0
 40
0.0173162359
 40
0.0710334915
 40
0.1658827833
 40
0.2976264862
 40
0.4556453562
 40
0.6295614378
 40
1.0
 40
1.0
 40
1.0
 40
1.0
 10
716.313432818
 20
967.9604250234
 30
0.0
 10
716.2999948592
 20
967.9594853498
 30
0.0
 10
716.3032606451
 20
967.8779200901
 30
0.0
 10
716.2891541333
 20
967.7756096754
 30
0.0
 10
716.299101192
 20
967.5415983647
 30
0.0
 10
716.307831148
 20
967.2495590616
 30
0.0
 10
716.327425986
 20
966.8868583974
 30
0.0
 10
716.3598866373
 20
966.3424301424
 30
0.0
 10
716.3892084554
 20
965.9195669412
 30
0.0
 10
716.4098694531
 20
965.6321342767
 30
0.0
  0
SPLINE
  5
4E5
100
AcDbEntity
  8
0
100
AcDbSpline
 62
7
  6
CONTINUOUS
 70
0
 71
3
 72
9
 73
5
 74
0
 42
0.0000001
 43
0.0000001
 44
0.0000000001
 40
0.0
 40
0.0
 40
0.0
 40
0.0
 40
0.2712387047
 40
1.0
 40
1.0
 40
1.0
 40
1.0
 10
716.4382644977
 20
965.2440689345
 30
0.0
 10
716.4545742743
 20
965.0691683003
 30
0.0
 10
716.5160290057
 20
964.4244783487
 30
0.0
 10
716.5826287322
 20
963.7802219772
 30
0.0
 10
716.6385160644
 20
963.3115826728
 30
0.0
  0
LINE
  5
4E6
100
AcDbEntity
  8
0
100
AcDbLine
 62
7
  6
CONTINUOUS
 10
717.6784004145
 20
949.7588746353
 11
717.7122104687
 21
949.1772918983
  0
LINE
  5
4E7
100
AcDbEntity
  8
0
100
AcDbLine
 62
7
  6
CONTINUOUS
 10
717.7122104687
 20
949.1772918983
 11
717.7305341873
 21
948.8550973877
  0
SPLINE
  5
4E8
100
AcDbEntity
  8
0
100
AcDbSpline
 62
7
  6
CONTINUOUS
 70
0
 71
3
 72
9
 73
5
 74
0
 42
0.0000001
 43
0.0000001
 44
0.0000000001
 40
0.0
 40
0.0
 40
0.0
 40
0.0
 40
0.2679403381
 40
1.0
 40
1.0
 40
1.0
 40
1.0
 10
717.7305341873
 20
948.8550973877
 30
0.0
 10
717.7434826077
 20
948.624093041
 30
0.0
 10
717.7903594301
 20
947.7618653285
 30
0.0
 10
717.831713995
 20
946.8993273698
 30
0.0
 10
717.8575282086
 20
946.2677198496
 30
0.0
  0
LINE
  5
4E9
100
AcDbEntity
  8
0
100
AcDbLine
 62
7
  6
CONTINUOUS
 10
717.8896317628
 20
946.0753159282
 11
717.8794238939
 21
946.2685936939
  0
LINE
  5
4EA
100
AcDbEntity
  8
0
100
AcDbLine
 62
7
  6
CONTINUOUS
 10
717.8794238939
 20
946.2685936939
 11
717.8784669283
 21
946.2864682607
  0
SPLINE
  5
4EB
100
AcDbEntity
  8
0
100
AcDbSpline
 62
7
  6
CONTINUOUS
 70
0
 71
3
 72
10
 73
6
 74
0
 42
0.0000001
 43
0.0000001
 44
0.0000000001
 40
0.0
 40
0.0
 40
0.0
 40
0.0
 40
0.5204037633
 40
0.7735250402
 40
1.0
 40
1.0
 40
1.0
 40
1.0
 10
717.4997574884
 20
950.9141788856
 30
0.0
 10
717.5149895648
 20
950.5127920501
 30
0.0
 10
717.5382220531
 20
949.9160420935
 30
0.0
 10
717.554847713
 20
949.1446727187
 30
0.0
 10
717.5724144515
 20
948.7742596209
 30
0.0
 10
717.5648669618
 20
948.5996170202
 30
0.0
  0
SPLINE
  5
4EC
100
AcDbEntity
  8
0
100
AcDbSpline
 62
7
  6
CONTINUOUS
 70
0
 71
3
 72
9
 73
5
 74
0
 42
0.0000001
 43
0.0000001
 44
0.0000000001
 40
0.0
 40
0.0
 40
0.0
 40
0.0
 40
0.7093474636
 40
1.0
 40
1.0
 40
1.0
 40
1.0
 10
717.5648669618
 20
948.5996170202
 30
0.0
 10
717.5646940582
 20
948.5956161755
 30
0.0
 10
717.5635238609
 20
948.5916413531
 30
0.0
 10
717.5643486033
 20
948.5830057593
 30
0.0
 10
717.5627117387
 20
948.5828912986
 30
0.0
  0
SPLINE
  5
4ED
100
AcDbEntity
  8
0
100
AcDbSpline
 62
7
  6
CONTINUOUS
 70
0
 71
3
 72
13
 73
9
 74
0
 42
0.0000001
 43
0.0000001
 44
0.0000000001
 40
0.0
 40
0.0
 40
0.0
 40
0.0
 40
0.0798395001
 40
0.1959725483
 40
0.3236322562
 40
0.4560755394
 40
0.7267637329
 40
1.0
 40
1.0
 40
1.0
 40
1.0
 10
717.1733416058
 20
953.227237936
 30
0.0
 10
717.160240813
 20
953.1455328871
 30
0.0
 10
717.1668400684
 20
952.9409075047
 30
0.0
 10
717.1692785478
 20
952.6063332997
 30
0.0
 10
717.1841785305
 20
952.2163524884
 30
0.0
 10
717.2070268338
 20
951.6668054504
 30
0.0
 10
717.2427563838
 20
950.9666329528
 30
0.0
 10
717.2746653631
 20
950.4038077855
 30
0.0
 10
717.2913366145
 20
950.1211064752
 30
0.0
  0
SPLINE
  5
4EE
100
AcDbEntity
  8
0
100
AcDbSpline
 62
7
  6
CONTINUOUS
 70
0
 71
3
 72
8
 73
4
 74
0
 42
0.0000001
 43
0.0000001
 44
0.0000000001
 40
0.0
 40
0.0
 40
0.0
 40
0.0
 40
1.0
 40
1.0
 40
1.0
 40
1.0
 10
717.2913366145
 20
950.1211064752
 30
0.0
 10
717.3141999334
 20
949.7334037131
 30
0.0
 10
717.3367417959
 20
949.3456818605
 30
0.0
 10
717.3589621419
 20
948.9579417163
 30
0.0
  0
SPLINE
  5
4EF
100
AcDbEntity
  8
0
100
AcDbSpline
 62
7
  6
CONTINUOUS
 70
0
 71
3
 72
9
 73
5
 74
0
 42
0.0000001
 43
0.0000001
 44
0.0000000001
 40
0.0
 40
0.0
 40
0.0
 40
0.0
 40
0.4615880364
 40
1.0
 40
1.0
 40
1.0
 40
1.0
 10
711.7053743096
 20
1008.5144690152
 30
0.0
 10
711.6881439148
 20
1008.634590454
 30
0.0
 10
711.6441944634
 20
1008.8936823585
 30
0.0
 10
711.5753523254
 20
1009.1491718877
 30
0.0
 10
711.5218841867
 20
1009.2802327465
 30
0.0
  0
LINE
  5
4F0
100
AcDbEntity
  8
0
100
AcDbLine
 62
7
  6
CONTINUOUS
 10
717.540502768
 20
948.5813382961
 11
717.5089914508
 21
948.9702138102
  0
SPLINE
  5
4F1
100
AcDbEntity
  8
0
100
AcDbSpline
 62
7
  6
CONTINUOUS
 70
0
 71
3
 72
9
 73
5
 74
0
 42
0.0000001
 43
0.0000001
 44
0.0000000001
 40
0.0
 40
0.0
 40
0.0
 40
0.0
 40
0.2591729598
 40
1.0
 40
1.0
 40
1.0
 40
1.0
 10
717.4294078112
 20
950.1321857304
 30
0.0
 10
717.416453362
 20
950.3834490429
 30
0.0
 10
717.3700744715
 20
951.3531170724
 30
0.0
 10
717.332807946
 20
952.323186516
 30
0.0
 10
717.3058007115
 20
953.0418510542
 30
0.0
  0
SPLINE
  5
4F2
100
AcDbEntity
  8
0
100
AcDbSpline
 62
7
  6
CONTINUOUS
 70
0
 71
3
 72
9
 73
5
 74
0
 42
0.0000001
 43
0.0000001
 44
0.0000000001
 40
0.0
 40
0.0
 40
0.0
 40
0.0
 40
0.4996980664
 40
1.0
 40
1.0
 40
1.0
 40
1.0
 10
714.5562554937
 20
984.7720068505
 30
0.0
 10
714.5596084532
 20
984.7073409263
 30
0.0
 10
714.577600059
 20
984.5784720627
 30
0.0
 10
714.5687250386
 20
984.4486016577
 30
0.0
 10
714.570886894
 20
984.3838066688
 30
0.0
  0
SPLINE
  5
4F3
100
AcDbEntity
  8
0
100
AcDbSpline
 62
7
  6
CONTINUOUS
 70
0
 71
3
 72
8
 73
4
 74
0
 42
0.0000001
 43
0.0000001
 44
0.0000000001
 40
0.0
 40
0.0
 40
0.0
 40
0.0
 40
1.0
 40
1.0
 40
1.0
 40
1.0
 10
714.570886894
 20
984.3838066688
 30
0.0
 10
714.5730460466
 20
984.3190926843
 30
0.0
 10
714.5818026775
 20
984.2547359761
 30
0.0
 10
714.5847923402
 20
984.1900550388
 30
0.0
  0
SPLINE
  5
4F4
100
AcDbEntity
  8
0
100
AcDbSpline
 62
7
  6
CONTINUOUS
 70
0
 71
3
 72
14
 73
10
 74
0
 42
0.0000001
 43
0.0000001
 44
0.0000000001
 40
0.0
 40
0.0
 40
0.0
 40
0.0
 40
0.3991262529
 40
0.5855642342
 40
0.7464108074
 40
0.8687472594
 40
0.9466639057
 40
0.9873005556
 40
1.0
 40
1.0
 40
1.0
 40
1.0
 10
712.9552502806
 20
999.0640727777
 30
0.0
 10
712.9319562153
 20
999.2437936718
 30
0.0
 10
712.8985886869
 20
999.5078541132
 30
0.0
 10
712.8599088104
 20
999.8438674998
 30
0.0
 10
712.8375128829
 20
1000.0575154122
 30
0.0
 10
712.824159465
 20
1000.2169949598
 30
0.0
 10
712.8157614884
 20
1000.3338986817
 30
0.0
 10
712.8184472242
 20
1000.3819167534
 30
0.0
 10
712.8187064047
 20
1000.417063924
 30
0.0
 10
712.8244585709
 20
1000.4174661547
 30
0.0
  0
SPLINE
  5
4F5
100
AcDbEntity
  8
0
100
AcDbSpline
 62
7
  6
CONTINUOUS
 70
0
 71
3
 72
9
 73
5
 74
0
 42
0.0000001
 43
0.0000001
 44
0.0000000001
 40
0.0
 40
0.0
 40
0.0
 40
0.0
 40
0.1137028428
 40
1.0
 40
1.0
 40
1.0
 40
1.0
 10
696.9514659115
 20
886.2508656672
 30
0.0
 10
696.9528792163
 20
886.2517443613
 30
0.0
 10
696.9568505716
 20
886.2675274363
 30
0.0
 10
696.9590683722
 20
886.2807283906
 30
0.0
 10
696.960614681
 20
886.2936080313
 30
0.0
  0
SPLINE
  5
4F6
100
AcDbEntity
  8
0
100
AcDbSpline
 62
7
  6
CONTINUOUS
 70
0
 71
3
 72
9
 73
5
 74
0
 42
0.0000001
 43
0.0000001
 44
0.0000000001
 40
0.0
 40
0.0
 40
0.0
 40
0.0
 40
0.7048578131
 40
1.0
 40
1.0
 40
1.0
 40
1.0
 10
696.9210582025
 20
886.300312764
 30
0.0
 10
696.9202985741
 20
886.2847097614
 30
0.0
 10
696.922665108
 20
886.273911928
 30
0.0
 10
696.9195465781
 20
886.2308303916
 30
0.0
 10
696.9251048276
 20
886.2342788834
 30
0.0
  0
SPLINE
  5
4F7
100
AcDbEntity
  8
0
100
AcDbSpline
 62
7
  6
CONTINUOUS
 70
0
 71
3
 72
9
 73
5
 74
0
 42
0.0000001
 43
0.0000001
 44
0.0000000001
 40
0.0
 40
0.0
 40
0.0
 40
0.0
 40
0.2942731816
 40
1.0
 40
1.0
 40
1.0
 40
1.0
 10
694.9088138904
 20
1019.580233079
 30
0.0
 10
694.9062385166
 20
1019.5799942164
 30
0.0
 10
694.9056133991
 20
1019.5672937562
 30
0.0
 10
694.9056141604
 20
1019.5605093252
 30
0.0
 10
694.9069472484
 20
1019.5544514935
 30
0.0
  0
SPLINE
  5
4F8
100
AcDbEntity
  8
0
100
AcDbSpline
 62
7
  6
CONTINUOUS
 70
0
 71
3
 72
10
 73
6
 74
0
 42
0.0000001
 43
0.0000001
 44
0.0000000001
 40
0.0
 40
0.0
 40
0.0
 40
0.0
 40
0.6721059923
 40
0.8947122234
 40
1.0
 40
1.0
 40
1.0
 40
1.0
 10
695.4400980807
 20
1019.5509759996
 30
0.0
 10
695.3702249005
 20
1019.6348814956
 30
0.0
 10
695.2763955992
 20
1019.7464933012
 30
0.0
 10
695.1794072246
 20
1019.8759864929
 30
0.0
 10
695.1452890017
 20
1019.9177580974
 30
0.0
 10
695.1380465946
 20
1019.933254129
 30
0.0
  0
SPLINE
  5
4F9
100
AcDbEntity
  8
0
100
AcDbSpline
 62
7
  6
CONTINUOUS
 70
0
 71
3
 72
9
 73
5
 74
0
 42
0.0000001
 43
0.0000001
 44
0.0000000001
 40
0.0
 40
0.0
 40
0.0
 40
0.0
 40
0.4977482761
 40
1.0
 40
1.0
 40
1.0
 40
1.0
 10
695.1380449147
 20
1019.9332506271
 30
0.0
 10
695.1229927337
 20
1019.8582792646
 30
0.0
 10
695.0640634683
 20
1019.7159066018
 30
0.0
 10
695.0084661877
 20
1019.5702591351
 30
0.0
 10
694.962582665
 20
1019.5082247704
 30
0.0
  0
SPLINE
  5
4FA
100
AcDbEntity
  8
0
100
AcDbSpline
 62
7
  6
CONTINUOUS
 70
0
 71
3
 72
9
 73
5
 74
0
 42
0.0000001
 43
0.0000001
 44
0.0000000001
 40
0.0
 40
0.0
 40
0.0
 40
0.0
 40
0.6716674036
 40
1.0
 40
1.0
 40
1.0
 40
1.0
 10
699.3285130302
 20
1022.7863574133
 30
0.0
 10
699.2578095415
 20
1022.8708464952
 30
0.0
 10
699.1566548827
 20
1022.999496965
 30
0.0
 10
699.0467547413
 20
1023.122536933
 30
0.0
 10
699.018148387
 20
1023.1681657439
 30
0.0
  0
SPLINE
  5
4FB
100
AcDbEntity
  8
0
100
AcDbSpline
 62
7
  6
CONTINUOUS
 70
0
 71
3
 72
9
 73
5
 74
0
 42
0.0000001
 43
0.0000001
 44
0.0000000001
 40
0.0
 40
0.0
 40
0.0
 40
0.0
 40
0.2416107617
 40
1.0
 40
1.0
 40
1.0
 40
1.0
 10
700.0302974698
 20
1023.9811021155
 30
0.0
 10
699.9471961655
 20
1023.917648236
 30
0.0
 10
699.6051682937
 20
1023.6525094078
 30
0.0
 10
699.2696336741
 20
1023.3790478082
 30
0.0
 10
699.0181542451
 20
1023.1681707536
 30
0.0
  0
SPLINE
  5
4FC
100
AcDbEntity
  8
0
100
AcDbSpline
 62
7
  6
CONTINUOUS
 70
0
 71
3
 72
9
 73
5
 74
0
 42
0.0000001
 43
0.0000001
 44
0.0000000001
 40
0.0
 40
0.0
 40
0.0
 40
0.0
 40
0.3891232968
 40
1.0
 40
1.0
 40
1.0
 40
1.0
 10
700.0302171631
 20
1023.9810474969
 30
0.0
 10
699.9986825514
 20
1023.9359294289
 30
0.0
 10
700.023681417
 20
1023.7736017009
 30
0.0
 10
700.0864242551
 20
1023.6537625276
 30
0.0
 10
700.1324666846
 20
1023.5806340612
 30
0.0
  0
SPLINE
  5
4FD
100
AcDbEntity
  8
0
100
AcDbSpline
 62
7
  6
CONTINUOUS
 70
0
 71
3
 72
11
 73
7
 74
0
 42
0.0000001
 43
0.0000001
 44
0.0000000001
 40
0.0
 40
0.0
 40
0.0
 40
0.0
 40
0.3681567491
 40
0.6571825321
 40
0.8792932781
 40
1.0
 40
1.0
 40
1.0
 40
1.0
 10
700.3496278736
 20
1023.6850373167
 30
0.0
 10
700.3140049126
 20
1023.7252444664
 30
0.0
 10
700.2491606177
 20
1023.7953925896
 30
0.0
 10
700.1583224402
 20
1023.8879027293
 30
0.0
 10
700.0894559356
 20
1023.945032228
 30
0.0
 10
700.0477777924
 20
1023.9796423131
 30
0.0
 10
700.0302213125
 20
1023.9810441675
 30
0.0
  0
SPLINE
  5
4FE
100
AcDbEntity
  8
0
100
AcDbSpline
 62
7
  6
CONTINUOUS
 70
0
 71
3
 72
11
 73
7
 74
0
 42
0.0000001
 43
0.0000001
 44
0.0000000001
 40
0.0
 40
0.0
 40
0.0
 40
0.0
 40
0.129898306
 40
0.3694543012
 40
0.6546244671
 40
1.0
 40
1.0
 40
1.0
 40
1.0
 10
705.7069493637
 20
1028.8852223804
 30
0.0
 10
705.7309888089
 20
1028.887696914
 30
0.0
 10
705.7925368063
 20
1028.8405490655
 30
0.0
 10
705.8832092884
 20
1028.7678725677
 30
0.0
 10
705.9983890083
 20
1028.6505856895
 30
0.0
 10
706.0762140311
 20
1028.5636119301
 30
0.0
 10
706.1175244023
 20
1028.5143975929
 30
0.0
  0
SPLINE
  5
4FF
100
AcDbEntity
  8
0
100
AcDbSpline
 62
7
  6
CONTINUOUS
 70
0
 71
3
 72
12
 73
8
 74
0
 42
0.0000001
 43
0.0000001
 44
0.0000000001
 40
0.0
 40
0.0
 40
0.0
 40
0.0
 40
0.0470572145
 40
0.1228098262
 40
0.3499128513
 40
0.6522427915
 40
1.0
 40
1.0
 40
1.0
 40
1.0
 10
707.5663454152
 20
1029.6409659609
 30
0.0
 10
707.5525672945
 20
1029.6156170552
 30
0.0
 10
707.5001845501
 20
1029.5598319078
 30
0.0
 10
707.3438774155
 20
1029.4141701209
 30
0.0
 10
707.0527535324
 20
1029.1823273644
 30
0.0
 10
706.6220088195
 20
1028.8608465632
 30
0.0
 10
706.2922645322
 20
1028.6366010894
 30
0.0
 10
706.1175420718
 20
1028.5144023954
 30
0.0
  0
SPLINE
  5
500
100
AcDbEntity
  8
0
100
AcDbSpline
 62
7
  6
CONTINUOUS
 70
0
 71
3
 72
9
 73
5
 74
0
 42
0.0000001
 43
0.0000001
 44
0.0000000001
 40
0.0
 40
0.0
 40
0.0
 40
0.0
 40
0.2500586691
 40
1.0
 40
1.0
 40
1.0
 40
1.0
 10
717.2051222156
 20
944.1560050618
 30
0.0
 10
716.837294582
 20
951.3196548739
 30
0.0
 10
714.935272958
 20
979.9434923853
 30
0.0
 10
711.2952068656
 20
1008.4540716334
 30
0.0
 10
707.5663454152
 20
1029.6409659609
 30
0.0
  0
SPLINE
  5
501
100
AcDbEntity
  8
0
100
AcDbSpline
 62
7
  6
CONTINUOUS
 70
0
 71
3
 72
9
 73
5
 74
0
 42
0.0000001
 43
0.0000001
 44
0.0000000001
 40
0.0
 40
0.0
 40
0.0
 40
0.0
 40
0.6763481028
 40
1.0
 40
1.0
 40
1.0
 40
1.0
 10
715.5622704433
 20
944.056123193
 30
0.0
 10
715.9328247195
 20
944.0757212272
 30
0.0
 10
716.4797730499
 20
944.1134825974
 30
0.0
 10
717.0290331742
 20
944.1331299501
 30
0.0
 10
717.2051222156
 20
944.1560050618
 30
0.0
  0
SPLINE
  5
502
100
AcDbEntity
  8
0
100
AcDbSpline
 62
7
  6
CONTINUOUS
 70
0
 71
3
 72
9
 73
5
 74
0
 42
0.0000001
 43
0.0000001
 44
0.0000000001
 40
0.0
 40
0.0
 40
0.0
 40
0.0
 40
0.6764926058
 40
1.0
 40
1.0
 40
1.0
 40
1.0
 10
716.0070234444
 20
934.0561224889
 30
0.0
 10
716.3768734361
 20
934.0701272607
 30
0.0
 10
716.9231042708
 20
934.0972242107
 30
0.0
 10
717.4705501997
 20
934.1111050932
 30
0.0
 10
717.6467727057
 20
934.1276099959
 30
0.0
  0
SPLINE
  5
503
100
AcDbEntity
  8
0
100
AcDbSpline
 62
7
  6
CONTINUOUS
 70
0
 71
3
 72
12
 73
8
 74
0
 42
0.0000001
 43
0.0000001
 44
0.0000000001
 40
0.0
 40
0.0
 40
0.0
 40
0.0
 40
0.3591322496
 40
0.6640662264
 40
0.8855886057
 40
0.9569695416
 40
1.0
 40
1.0
 40
1.0
 40
1.0
 10
715.9006120531
 20
878.6991037247
 30
0.0
 10
716.0925335957
 20
878.6340145387
 30
0.0
 10
716.4484623551
 20
878.516158977
 30
0.0
 10
716.9162709451
 20
878.341729885
 30
0.0
 10
717.2295738658
 20
878.2131800095
 30
0.0
 10
717.3983981197
 20
878.1296105736
 30
0.0
 10
717.4557545642
 20
878.0969137007
 30
0.0
 10
717.4722232758
 20
878.079069864
 30
0.0
  0
SPLINE
  5
504
100
AcDbEntity
  8
0
100
AcDbSpline
 62
7
  6
CONTINUOUS
 70
0
 71
3
 72
9
 73
5
 74
0
 42
0.0000001
 43
0.0000001
 44
0.0000000001
 40
0.0
 40
0.0
 40
0.0
 40
0.0
 40
0.4995029451
 40
1.0
 40
1.0
 40
1.0
 40
1.0
 10
716.7892634024
 20
877.6390895744
 30
0.0
 10
716.9305491694
 20
877.5841856348
 30
0.0
 10
717.2867228688
 20
877.6167811226
 30
0.0
 10
717.4633047074
 20
877.9274515848
 30
0.0
 10
717.4722258499
 20
878.0790697525
 30
0.0
  0
SPLINE
  5
505
100
AcDbEntity
  8
0
100
AcDbSpline
 62
7
  6
CONTINUOUS
 70
0
 71
3
 72
9
 73
5
 74
0
 42
0.0000001
 43
0.0000001
 44
0.0000000001
 40
0.0
 40
0.0
 40
0.0
 40
0.0
 40
0.1243486084
 40
1.0
 40
1.0
 40
1.0
 40
1.0
 10
713.1745232994
 20
997.7168612392
 30
0.0
 10
713.161344346
 20
997.7718927086
 30
0.0
 10
713.0668072595
 20
998.2171521283
 30
0.0
 10
713.0064703373
 20
998.6688942519
 30
0.0
 10
712.9552502806
 20
999.0640727777
 30
0.0
  0
SPLINE
  5
506
100
AcDbEntity
  8
0
100
AcDbSpline
 62
7
  6
CONTINUOUS
 70
0
 71
3
 72
11
 73
7
 74
0
 42
0.0000001
 43
0.0000001
 44
0.0000000001
 40
0.0
 40
0.0
 40
0.0
 40
0.0
 40
0.1255483826
 40
0.343721219
 40
0.6379659014
 40
1.0
 40
1.0
 40
1.0
 40
1.0
 10
715.6168055361
 20
878.2452445466
 30
0.0
 10
715.639402923
 20
878.2472709591
 30
0.0
 10
715.6862742918
 20
878.2997915813
 30
0.0
 10
715.7502299142
 20
878.3896470651
 30
0.0
 10
715.8267524291
 20
878.5308182374
 30
0.0
 10
715.8756787712
 20
878.6382318826
 30
0.0
 10
715.9006145115
 20
878.6987172772
 30
0.0
  0
SPLINE
  5
507
100
AcDbEntity
  8
0
100
AcDbSpline
 62
7
  6
CONTINUOUS
 70
0
 71
3
 72
10
 73
6
 74
0
 42
0.0000001
 43
0.0000001
 44
0.0000000001
 40
0.0
 40
0.0
 40
0.0
 40
0.0
 40
0.1223455546
 40
0.3453712583
 40
1.0
 40
1.0
 40
1.0
 40
1.0
 10
702.6056960342
 20
883.7443956303
 30
0.0
 10
702.6197202742
 20
883.7502023118
 30
0.0
 10
702.6457875394
 20
883.7881344527
 30
0.0
 10
702.7113574395
 20
883.8899673289
 30
0.0
 10
702.7582062994
 20
883.9904823892
 30
0.0
 10
702.7918256513
 20
884.0644140188
 30
0.0
  0
SPLINE
  5
508
100
AcDbEntity
  8
0
100
AcDbSpline
 62
7
  6
CONTINUOUS
 70
0
 71
3
 72
9
 73
5
 74
0
 42
0.0000001
 43
0.0000001
 44
0.0000000001
 40
0.0
 40
0.0
 40
0.0
 40
0.0
 40
0.3531800534
 40
1.0
 40
1.0
 40
1.0
 40
1.0
 10
715.9168351375
 20
877.9524071923
 30
0.0
 10
715.9029404872
 20
877.9713179336
 30
0.0
 10
715.8418702501
 20
878.0041227441
 30
0.0
 10
715.7857901028
 20
878.0372203499
 30
0.0
 10
715.7475528349
 20
878.0568400347
 30
0.0
  0
SPLINE
  5
509
100
AcDbEntity
  8
0
100
AcDbSpline
 62
7
  6
CONTINUOUS
 70
0
 71
3
 72
9
 73
5
 74
0
 42
0.0000001
 43
0.0000001
 44
0.0000000001
 40
0.0
 40
0.0
 40
0.0
 40
0.0
 40
0.5854480453
 40
1.0
 40
1.0
 40
1.0
 40
1.0
 10
702.5304148819
 20
884.2204511469
 30
0.0
 10
702.5064304874
 20
884.1257856414
 30
0.0
 10
702.4839070527
 20
883.9617876291
 30
0.0
 10
702.5474283639
 20
883.7816388243
 30
0.0
 10
702.6056953573
 20
883.7444006817
 30
0.0
  0
SPLINE
  5
50A
100
AcDbEntity
  8
0
100
AcDbSpline
 62
7
  6
CONTINUOUS
 70
0
 71
3
 72
9
 73
5
 74
0
 42
0.0000001
 43
0.0000001
 44
0.0000000001
 40
0.0
 40
0.0
 40
0.0
 40
0.0
 40
0.2614729273
 40
1.0
 40
1.0
 40
1.0
 40
1.0
 10
701.3312025925
 20
884.2147518514
 30
0.0
 10
701.441049002
 20
884.1705270921
 30
0.0
 10
701.8621434515
 20
884.0039034823
 30
0.0
 10
702.2878700778
 20
883.8486136482
 30
0.0
 10
702.6056745491
 20
883.7443804326
 30
0.0
  0
SPLINE
  5
50B
100
AcDbEntity
  8
0
100
AcDbSpline
 62
7
  6
CONTINUOUS
 70
0
 71
3
 72
9
 73
5
 74
0
 42
0.0000001
 43
0.0000001
 44
0.0000000001
 40
0.0
 40
0.0
 40
0.0
 40
0.0
 40
0.6712785792
 40
1.0
 40
1.0
 40
1.0
 40
1.0
 10
701.5078143153
 20
884.6762742671
 30
0.0
 10
701.466481537
 20
884.5737069493
 30
0.0
 10
701.4113623966
 20
884.419042083
 30
0.0
 10
701.342775944
 20
884.2676575794
 30
0.0
 10
701.3311745787
 20
884.2147633465
 30
0.0
  0
SPLINE
  5
50C
100
AcDbEntity
  8
0
100
AcDbSpline
 62
7
  6
CONTINUOUS
 70
0
 71
3
 72
10
 73
6
 74
0
 42
0.0000001
 43
0.0000001
 44
0.0000000001
 40
0.0
 40
0.0
 40
0.0
 40
0.0
 40
0.1053582534
 40
0.3280319256
 40
1.0
 40
1.0
 40
1.0
 40
1.0
 10
697.2736446477
 20
885.8368883756
 30
0.0
 10
697.2751182989
 20
885.8541019496
 30
0.0
 10
697.2947682559
 20
885.9051121887
 30
0.0
 10
697.3462158974
 20
886.0598802133
 30
0.0
 10
697.4015260418
 20
886.1964065711
 30
0.0
 10
697.4423941361
 20
886.2987361092
 30
0.0
  0
SPLINE
  5
50D
100
AcDbEntity
  8
0
100
AcDbSpline
 62
7
  6
CONTINUOUS
 70
0
 71
3
 72
14
 73
10
 74
0
 42
0.0000001
 43
0.0000001
 44
0.0000000001
 40
0.0
 40
0.0
 40
0.0
 40
0.0
 40
0.0488429046
 40
0.1689197923
 40
0.3286518942
 40
0.5058985014
 40
0.8412439589
 40
0.9545061735
 40
1.0
 40
1.0
 40
1.0
 40
1.0
 10
696.9643306675
 20
886.327045364
 30
0.0
 10
696.9725004678
 20
886.3318714044
 30
0.0
 10
696.9984436322
 20
886.2896711701
 30
0.0
 10
697.0248046282
 20
886.2466876339
 30
0.0
 10
697.0729218719
 20
886.1650282016
 30
0.0
 10
697.1393137179
 20
886.0563257018
 30
0.0
 10
697.213070041
 20
885.9517633396
 30
0.0
 10
697.2598580836
 20
885.8778480586
 30
0.0
 10
697.2782464385
 20
885.8444340525
 30
0.0
 10
697.2736451361
 20
885.8368881694
 30
0.0
  0
SPLINE
  5
50E
100
AcDbEntity
  8
0
100
AcDbSpline
 62
7
  6
CONTINUOUS
 70
0
 71
3
 72
8
 73
4
 74
0
 42
0.0000001
 43
0.0000001
 44
0.0000000001
 40
0.0
 40
0.0
 40
0.0
 40
0.0
 40
1.0
 40
1.0
 40
1.0
 40
1.0
 10
696.951285533
 20
886.2507436268
 30
0.0
 10
696.9485144657
 20
886.1963385264
 30
0.0
 10
696.9573131252
 20
886.1402833534
 30
0.0
 10
696.9763864697
 20
886.0892558971
 30
0.0
  0
SPLINE
  5
50F
100
AcDbEntity
  8
0
100
AcDbSpline
 62
7
  6
CONTINUOUS
 70
0
 71
3
 72
8
 73
4
 74
0
 42
0.0000001
 43
0.0000001
 44
0.0000000001
 40
0.0
 40
0.0
 40
0.0
 40
0.0
 40
1.0
 40
1.0
 40
1.0
 40
1.0
 10
696.9763864697
 20
886.0892558971
 30
0.0
 10
696.995552705
 20
886.0379799271
 30
0.0
 10
697.0260404294
 20
885.9897521105
 30
0.0
 10
697.0641380817
 20
885.9504438599
 30
0.0
  0
SPLINE
  5
510
100
AcDbEntity
  8
0
100
AcDbSpline
 62
7
  6
CONTINUOUS
 70
0
 71
3
 72
8
 73
4
 74
0
 42
0.0000001
 43
0.0000001
 44
0.0000000001
 40
0.0
 40
0.0
 40
0.0
 40
0.0
 40
1.0
 40
1.0
 40
1.0
 40
1.0
 10
697.0641380817
 20
885.9504438599
 30
0.0
 10
697.1020598939
 20
885.9113170369
 30
0.0
 10
697.1489351512
 20
885.8793182199
 30
0.0
 10
697.1992831288
 20
885.858484275
 30
0.0
  0
LINE
  5
511
100
AcDbEntity
  8
0
100
AcDbLine
 62
7
  6
CONTINUOUS
 10
697.1731818946
 20
885.8419131223
 11
697.193247331
 21
885.85465058
  0
SPLINE
  5
512
100
AcDbEntity
  8
0
100
AcDbSpline
 62
7
  6
CONTINUOUS
 70
0
 71
3
 72
8
 73
4
 74
0
 42
0.0000001
 43
0.0000001
 44
0.0000000001
 40
0.0
 40
0.0
 40
0.0
 40
0.0
 40
1.0
 40
1.0
 40
1.0
 40
1.0
 10
697.1731818946
 20
885.8419131223
 30
0.0
 10
697.1227508993
 20
885.8627617369
 30
0.0
 10
697.0757984891
 20
885.8948132445
 30
0.0
 10
697.0378334876
 20
885.934012845
 30
0.0
  0
SPLINE
  5
513
100
AcDbEntity
  8
0
100
AcDbSpline
 62
7
  6
CONTINUOUS
 70
0
 71
3
 72
8
 73
4
 74
0
 42
0.0000001
 43
0.0000001
 44
0.0000000001
 40
0.0
 40
0.0
 40
0.0
 40
0.0
 40
1.0
 40
1.0
 40
1.0
 40
1.0
 10
697.0378334876
 20
885.934012845
 30
0.0
 10
696.9997631458
 20
885.9733212114
 30
0.0
 10
696.9693037753
 20
886.0215433318
 30
0.0
 10
696.9501615071
 20
886.0728080581
 30
0.0
  0
SPLINE
  5
514
100
AcDbEntity
  8
0
100
AcDbSpline
 62
7
  6
CONTINUOUS
 70
0
 71
3
 72
8
 73
4
 74
0
 42
0.0000001
 43
0.0000001
 44
0.0000000001
 40
0.0
 40
0.0
 40
0.0
 40
0.0
 40
1.0
 40
1.0
 40
1.0
 40
1.0
 10
696.9501615071
 20
886.0728080581
 30
0.0
 10
696.9311113057
 20
886.1238262213
 30
0.0
 10
696.9223329841
 20
886.1798660335
 30
0.0
 10
696.9251175534
 20
886.2342536178
 30
0.0
  0
SPLINE
  5
515
100
AcDbEntity
  8
0
100
AcDbSpline
 62
7
  6
CONTINUOUS
 70
0
 71
3
 72
9
 73
5
 74
0
 42
0.0000001
 43
0.0000001
 44
0.0000000001
 40
0.0
 40
0.0
 40
0.0
 40
0.0
 40
0.2429561616
 40
1.0
 40
1.0
 40
1.0
 40
1.0
 10
713.4934303996
 20
995.4033775641
 30
0.0
 10
713.5003339804
 20
995.4038603095
 30
0.0
 10
713.494021046
 20
995.4476196606
 30
0.0
 10
713.4968140272
 20
995.4668053344
 30
0.0
 10
713.4953043736
 20
995.4883162967
 30
0.0
  0
SPLINE
  5
516
100
AcDbEntity
  8
0
100
AcDbSpline
 62
7
  6
CONTINUOUS
 70
0
 71
3
 72
9
 73
5
 74
0
 42
0.0000001
 43
0.0000001
 44
0.0000000001
 40
0.0
 40
0.0
 40
0.0
 40
0.0
 40
0.1434372783
 40
1.0
 40
1.0
 40
1.0
 40
1.0
 10
713.4953043736
 20
995.4883162967
 30
0.0
 10
713.4921801258
 20
995.5328335149
 30
0.0
 10
713.4617622003
 20
995.8425256172
 30
0.0
 10
713.4218745266
 20
996.1511088229
 30
0.0
 10
713.3886341124
 20
996.4155244717
 30
0.0
  0
SPLINE
  5
517
100
AcDbEntity
  8
0
100
AcDbSpline
 62
7
  6
CONTINUOUS
 70
0
 71
3
 72
12
 73
8
 74
0
 42
0.0000001
 43
0.0000001
 44
0.0000000001
 40
0.0
 40
0.0
 40
0.0
 40
0.0
 40
0.3371630339
 40
0.6366146781
 40
0.8679103896
 40
0.9494064314
 40
1.0
 40
1.0
 40
1.0
 40
1.0
 10
705.7069639091
 20
1028.8852243605
 30
0.0
 10
705.8334389067
 20
1028.9949871085
 30
0.0
 10
706.0698432713
 20
1029.2052428113
 30
0.0
 10
706.3821515478
 20
1029.5017920899
 30
0.0
 10
706.5954745654
 20
1029.7201764104
 30
0.0
 10
706.7090895015
 20
1029.8591668859
 30
0.0
 10
706.7486237103
 20
1029.9131490987
 30
0.0
 10
706.7571034793
 20
1029.9368040289
 30
0.0
  0
SPLINE
  5
518
100
AcDbEntity
  8
0
100
AcDbSpline
 62
7
  6
CONTINUOUS
 70
0
 71
3
 72
8
 73
4
 74
0
 42
0.0000001
 43
0.0000001
 44
0.0000000001
 40
0.0
 40
0.0
 40
0.0
 40
0.0
 40
1.0
 40
1.0
 40
1.0
 40
1.0
 10
705.3861811107
 20
1028.8136359208
 30
0.0
 10
705.4009494807
 20
1028.8273500992
 30
0.0
 10
705.4172324004
 20
1028.8396272555
 30
0.0
 10
705.434613609
 20
1028.8498290706
 30
0.0
  0
LINE
  5
519
100
AcDbEntity
  8
0
100
AcDbLine
 62
7
  6
CONTINUOUS
 10
695.1380468618
 20
1019.9332543889
 11
699.0181542451
 21
1023.1681707536
  0
SPLINE
  5
51A
100
AcDbEntity
  8
0
100
AcDbSpline
 62
7
  6
CONTINUOUS
 70
0
 71
3
 72
14
 73
10
 74
0
 42
0.0000001
 43
0.0000001
 44
0.0000000001
 40
0.0
 40
0.0
 40
0.0
 40
0.0
 40
0.3991029571
 40
0.5854834117
 40
0.7462410951
 40
0.8685048373
 40
0.9464328011
 40
0.9871617801
 40
1.0
 40
1.0
 40
1.0
 40
1.0
 10
715.1476546639
 20
980.141785779
 30
0.0
 10
715.1292440102
 20
980.3219993983
 30
0.0
 10
715.103062962
 20
980.5867314327
 30
0.0
 10
715.0735595708
 20
980.923503901
 30
0.0
 10
715.0570036149
 20
981.1374564503
 30
0.0
 10
715.0480660568
 20
981.2972556583
 30
0.0
 10
715.0428336206
 20
981.4140564237
 30
0.0
 10
715.0469650188
 20
981.4624460699
 30
0.0
 10
715.0481007863
 20
981.4973688955
 30
0.0
 10
715.0539138197
 20
981.4977753824
 30
0.0
  0
SPLINE
  5
51B
100
AcDbEntity
  8
0
100
AcDbSpline
 62
7
  6
CONTINUOUS
 70
0
 71
3
 72
9
 73
5
 74
0
 42
0.0000001
 43
0.0000001
 44
0.0000000001
 40
0.0
 40
0.0
 40
0.0
 40
0.0
 40
0.0896369504
 40
1.0
 40
1.0
 40
1.0
 40
1.0
 10
695.0923403817
 20
1019.9023839821
 30
0.0
 10
695.0935737459
 20
1019.9018569476
 30
0.0
 10
695.1089596659
 20
1019.9089693431
 30
0.0
 10
695.1192049934
 20
1019.9181973007
 30
0.0
 10
695.1289418386
 20
1019.9277235676
 30
0.0
  0
SPLINE
  5
51C
100
AcDbEntity
  8
0
100
AcDbSpline
 62
7
  6
CONTINUOUS
 70
0
 71
3
 72
11
 73
7
 74
0
 42
0.0000001
 43
0.0000001
 44
0.0000000001
 40
0.0
 40
0.0
 40
0.0
 40
0.0
 40
0.0448241389
 40
0.2015207147
 40
0.5236597878
 40
1.0
 40
1.0
 40
1.0
 40
1.0
 10
715.3109727733
 20
978.9853141778
 30
0.0
 10
715.2999969586
 20
978.9845466741
 30
0.0
 10
715.2913044623
 20
979.0560971111
 30
0.0
 10
715.2607192802
 20
979.1549882981
 30
0.0
 10
715.2320836979
 20
979.406349294
 30
0.0
 10
715.2071403005
 20
979.5941308567
 30
0.0
 10
715.1939333365
 20
979.7103059268
 30
0.0
  0
SPLINE
  5
51D
100
AcDbEntity
  8
0
100
AcDbSpline
 62
7
  6
CONTINUOUS
 70
0
 71
3
 72
14
 73
10
 74
0
 42
0.0000001
 43
0.0000001
 44
0.0000000001
 40
0.0
 40
0.0
 40
0.0
 40
0.0
 40
0.0144876232
 40
0.0584650199
 40
0.1354517872
 40
0.2471114305
 40
0.3929121938
 40
0.5700536193
 40
1.0
 40
1.0
 40
1.0
 40
1.0
 10
715.5898532569
 20
976.4743788833
 30
0.0
 10
715.5948494096
 20
976.4747282483
 30
0.0
 10
715.5911443089
 20
976.5053537933
 30
0.0
 10
715.5949405985
 20
976.5418673646
 30
0.0
 10
715.5870408631
 20
976.6283216941
 30
0.0
 10
715.5794748015
 20
976.7407405701
 30
0.0
 10
715.5659373029
 20
976.8915508541
 30
0.0
 10
715.5423065142
 20
977.1501881409
 30
0.0
 10
715.5218687388
 20
977.3593099023
 30
0.0
 10
715.5073169573
 20
977.5072277561
 30
0.0
  0
SPLINE
  5
51E
100
AcDbEntity
  8
0
100
AcDbSpline
 62
7
  6
CONTINUOUS
 70
0
 71
3
 72
9
 73
5
 74
0
 42
0.0000001
 43
0.0000001
 44
0.0000000001
 40
0.0
 40
0.0
 40
0.0
 40
0.0
 40
0.2491781058
 40
1.0
 40
1.0
 40
1.0
 40
1.0
 10
705.299821959
 20
1028.7333333161
 30
0.0
 10
704.4533632356
 20
1028.0018194018
 30
0.0
 10
701.054378291
 20
1025.0684070485
 30
0.0
 10
697.6467576221
 20
1022.1449987911
 30
0.0
 10
695.0831464218
 20
1019.9560173038
 30
0.0
  0
SPLINE
  5
51F
100
AcDbEntity
  8
0
100
AcDbSpline
 62
7
  6
CONTINUOUS
 70
0
 71
3
 72
9
 73
5
 74
0
 42
0.0000001
 43
0.0000001
 44
0.0000000001
 40
0.0
 40
0.0
 40
0.0
 40
0.0
 40
0.500159126
 40
1.0
 40
1.0
 40
1.0
 40
1.0
 10
706.7570875976
 20
1029.9367919959
 30
0.0
 10
706.8850649347
 20
1030.040292038
 30
0.0
 10
707.2791781417
 20
1030.1089879613
 30
0.0
 10
707.5346088473
 20
1029.8023609199
 30
0.0
 10
707.5663434383
 20
1029.6409641764
 30
0.0
  0
SPLINE
  5
520
100
AcDbEntity
  8
0
100
AcDbSpline
 62
7
  6
CONTINUOUS
 70
0
 71
3
 72
9
 73
5
 74
0
 42
0.0000001
 43
0.0000001
 44
0.0000000001
 40
0.0
 40
0.0
 40
0.0
 40
0.0
 40
0.2608162289
 40
1.0
 40
1.0
 40
1.0
 40
1.0
 10
716.307236756
 20
968.7385863631
 30
0.0
 10
716.2956268373
 20
968.8739795721
 30
0.0
 10
716.2513326551
 20
969.3931119085
 30
0.0
 10
716.2079791139
 20
969.9123237997
 30
0.0
 10
716.1758208464
 20
970.2961072332
 30
0.0
  0
LINE
  5
521
100
AcDbEntity
  8
0
100
AcDbLine
 62
7
  6
CONTINUOUS
 10
716.1758208464
 20
970.2961072332
 11
716.1705650475
 21
970.3588047011
  0
LINE
  5
522
100
AcDbEntity
  8
0
100
AcDbLine
 62
7
  6
CONTINUOUS
 10
715.9196528127
 20
972.2151649789
 11
715.8667615131
 21
972.7954137613
  0
SPLINE
  5
523
100
AcDbEntity
  8
0
100
AcDbSpline
 62
7
  6
CONTINUOUS
 70
0
 71
3
 72
9
 73
5
 74
0
 42
0.0000001
 43
0.0000001
 44
0.0000000001
 40
0.0
 40
0.0
 40
0.0
 40
0.0
 40
0.306467699
 40
1.0
 40
1.0
 40
1.0
 40
1.0
 10
715.8667615131
 20
972.7954137613
 30
0.0
 10
715.8626391909
 20
972.8482824502
 30
0.0
 10
715.8498925573
 20
973.0208387243
 30
0.0
 10
715.8393435814
 20
973.1936079352
 30
0.0
 10
715.8354901797
 20
973.3135503312
 30
0.0
  0
SPLINE
  5
524
100
AcDbEntity
  8
0
100
AcDbSpline
 62
7
  6
CONTINUOUS
 70
0
 71
3
 72
9
 73
5
 74
0
 42
0.0000001
 43
0.0000001
 44
0.0000000001
 40
0.0
 40
0.0
 40
0.0
 40
0.0
 40
0.3082383616
 40
1.0
 40
1.0
 40
1.0
 40
1.0
 10
715.8354901797
 20
973.3135503312
 30
0.0
 10
715.8349932879
 20
973.3290167666
 30
0.0
 10
715.8336093312
 20
973.3791987325
 30
0.0
 10
715.8330912069
 20
973.429417339
 30
0.0
 10
715.8337162669
 20
973.464140054
 30
0.0
  0
SPLINE
  5
525
100
AcDbEntity
  8
0
100
AcDbSpline
 62
7
  6
CONTINUOUS
 70
0
 71
3
 72
9
 73
5
 74
0
 42
0.0000001
 43
0.0000001
 44
0.0000000001
 40
0.0
 40
0.0
 40
0.0
 40
0.0
 40
0.7694881155
 40
1.0
 40
1.0
 40
1.0
 40
1.0
 10
715.8337162669
 20
973.464140054
 30
0.0
 10
715.8342275114
 20
973.4925402058
 30
0.0
 10
715.8378677566
 20
973.5192758261
 30
0.0
 10
715.8404986993
 20
973.5721718971
 30
0.0
 10
715.848987048
 20
973.5727654602
 30
0.0
  0
SPLINE
  5
526
100
AcDbEntity
  8
0
100
AcDbSpline
 62
7
  6
CONTINUOUS
 70
0
 71
3
 72
9
 73
5
 74
0
 42
0.0000001
 43
0.0000001
 44
0.0000000001
 40
0.0
 40
0.0
 40
0.0
 40
0.0
 40
0.2457802568
 40
1.0
 40
1.0
 40
1.0
 40
1.0
 10
717.3992791812
 20
954.0216323132
 30
0.0
 10
717.4062866629
 20
954.022122324
 30
0.0
 10
717.4025425256
 20
954.065322734
 30
0.0
 10
717.4065149176
 20
954.0850380361
 30
0.0
 10
717.4062932204
 20
954.1065930901
 30
0.0
  0
SPLINE
  5
527
100
AcDbEntity
  8
0
100
AcDbSpline
 62
7
  6
CONTINUOUS
 70
0
 71
3
 72
9
 73
5
 74
0
 42
0.0000001
 43
0.0000001
 44
0.0000000001
 40
0.0
 40
0.0
 40
0.0
 40
0.0
 40
0.1434294428
 40
1.0
 40
1.0
 40
1.0
 40
1.0
 10
717.4062932204
 20
954.1065930901
 30
0.0
 10
717.4058345198
 20
954.1511913777
 30
0.0
 10
717.3938957207
 20
954.46198091
 30
0.0
 10
717.3723154506
 20
954.7722181494
 30
0.0
 10
717.3547468809
 20
955.0379962669
 30
0.0
  0
SPLINE
  5
528
100
AcDbEntity
  8
0
100
AcDbSpline
 62
7
  6
CONTINUOUS
 70
0
 71
3
 72
9
 73
5
 74
0
 42
0.0000001
 43
0.0000001
 44
0.0000000001
 40
0.0
 40
0.0
 40
0.0
 40
0.0
 40
0.2500860429
 40
1.0
 40
1.0
 40
1.0
 40
1.0
 10
701.5078032959
 20
884.6762274825
 30
0.0
 10
702.1793563661
 20
896.1771406321
 30
0.0
 10
704.0125112241
 20
942.2108043216
 30
0.0
 10
702.4294180839
 20
988.3801844746
 30
0.0
 10
699.328533189
 20
1022.7863862823
 30
0.0
  0
SPLINE
  5
529
100
AcDbEntity
  8
0
100
AcDbSpline
 62
7
  6
CONTINUOUS
 70
0
 71
3
 72
9
 73
5
 74
0
 42
0.0000001
 43
0.0000001
 44
0.0000000001
 40
0.0
 40
0.0
 40
0.0
 40
0.0
 40
0.2500787428
 40
1.0
 40
1.0
 40
1.0
 40
1.0
 10
695.4401528808
 20
1019.550983353
 30
0.0
 10
696.4306918668
 20
1008.4803691491
 30
0.0
 10
699.5690282222
 20
964.1420785562
 30
0.0
 10
699.4139970502
 20
919.5708908797
 30
0.0
 10
697.4424141666
 20
886.298733247
 30
0.0
  0
SPLINE
  5
52A
100
AcDbEntity
  8
0
100
AcDbSpline
 62
7
  6
CONTINUOUS
 70
0
 71
3
 72
9
 73
5
 74
0
 42
0.0000001
 43
0.0000001
 44
0.0000000001
 40
0.0
 40
0.0
 40
0.0
 40
0.0
 40
0.2608923069
 40
1.0
 40
1.0
 40
1.0
 40
1.0
 10
701.5071156734
 20
884.6765974184
 30
0.0
 10
701.5948135511
 20
884.6341685207
 30
0.0
 10
701.9328135292
 20
884.4754666002
 30
0.0
 10
702.2738995077
 20
884.3228394857
 30
0.0
 10
702.530230627
 20
884.2205210499
 30
0.0
  0
SPLINE
  5
52B
100
AcDbEntity
  8
0
100
AcDbSpline
 62
7
  6
CONTINUOUS
 70
0
 71
3
 72
9
 73
5
 74
0
 42
0.0000001
 43
0.0000001
 44
0.0000000001
 40
0.0
 40
0.0
 40
0.0
 40
0.0
 40
0.2427521424
 40
1.0
 40
1.0
 40
1.0
 40
1.0
 10
700.1324386013
 20
1023.5806912955
 30
0.0
 10
700.0661471047
 20
1023.5175850941
 30
0.0
 10
699.7938347059
 20
1023.2568029594
 30
0.0
 10
699.5282167957
 20
1022.9891355099
 30
0.0
 10
699.327883154
 20
1022.7857118796
 30
0.0
  0
SPLINE
  5
52C
100
AcDbEntity
  8
0
100
AcDbSpline
 62
7
  6
CONTINUOUS
 70
0
 71
3
 72
9
 73
5
 74
0
 42
0.0000001
 43
0.0000001
 44
0.0000000001
 40
0.0
 40
0.0
 40
0.0
 40
0.0
 40
0.4999928108
 40
1.0
 40
1.0
 40
1.0
 40
1.0
 10
704.0906786137
 20
944.0547710447
 30
0.0
 10
704.0290201851
 20
957.3283259068
 30
0.0
 10
703.2740162673
 20
983.8764514732
 30
0.0
 10
701.3408699288
 20
1010.3617318993
 30
0.0
 10
700.1325557251
 20
1023.5807020156
 30
0.0
  0
SPLINE
  5
52D
100
AcDbEntity
  8
0
100
AcDbSpline
 62
7
  6
CONTINUOUS
 70
0
 71
3
 72
9
 73
5
 74
0
 42
0.0000001
 43
0.0000001
 44
0.0000000001
 40
0.0
 40
0.0
 40
0.0
 40
0.0
 40
0.2509957185
 40
1.0
 40
1.0
 40
1.0
 40
1.0
 10
702.8516672291
 20
884.2021643169
 30
0.0
 10
703.9447162529
 20
883.7447919541
 30
0.0
 10
708.2984781125
 20
881.919958585
 30
0.0
 10
712.646974578
 20
880.0825566118
 30
0.0
 10
715.9007462178
 20
878.6986617035
 30
0.0
  0
SPLINE
  5
52E
100
AcDbEntity
  8
0
100
AcDbSpline
 62
7
  6
CONTINUOUS
 70
0
 71
3
 72
9
 73
5
 74
0
 42
0.0000001
 43
0.0000001
 44
0.0000000001
 40
0.0
 40
0.0
 40
0.0
 40
0.0
 40
0.4999946877
 40
1.0
 40
1.0
 40
1.0
 40
1.0
 10
704.4008298228
 20
944.0561224403
 30
0.0
 10
704.3406565762
 20
957.3340828505
 30
0.0
 10
703.5791687974
 20
983.8911484848
 30
0.0
 10
701.6256185436
 20
1010.3834429134
 30
0.0
 10
700.4173795511
 20
1023.6067369436
 30
0.0
  0
SPLINE
  5
52F
100
AcDbEntity
  8
0
100
AcDbSpline
 62
7
  6
CONTINUOUS
 70
0
 71
3
 72
9
 73
5
 74
0
 42
0.0000001
 43
0.0000001
 44
0.0000000001
 40
0.0
 40
0.0
 40
0.0
 40
0.0
 40
0.2494796307
 40
1.0
 40
1.0
 40
1.0
 40
1.0
 10
706.1175265903
 20
1028.5143955154
 30
0.0
 10
705.6442641081
 20
1028.1053911683
 30
0.0
 10
703.7463727546
 20
1026.4669946107
 30
0.0
 10
701.8454634757
 20
1024.8320952677
 30
0.0
 10
700.4173814109
 20
1023.6067166787
 30
0.0
  0
SPLINE
  5
530
100
AcDbEntity
  8
0
100
AcDbSpline
 62
7
  6
CONTINUOUS
 70
0
 71
3
 72
9
 73
5
 74
0
 42
0.0000001
 43
0.0000001
 44
0.0000000001
 40
0.0
 40
0.0
 40
0.0
 40
0.0
 40
0.2501190495
 40
1.0
 40
1.0
 40
1.0
 40
1.0
 10
715.562270443
 20
944.0561231979
 30
0.0
 10
715.1955317917
 20
951.1344521
 30
0.0
 10
713.3171862431
 20
979.4108719137
 30
0.0
 10
709.7725298808
 20
1007.5811109539
 30
0.0
 10
706.1175428192
 20
1028.5143981152
 30
0.0
  0
SPLINE
  5
531
100
AcDbEntity
  8
0
100
AcDbSpline
 62
7
  6
CONTINUOUS
 70
0
 71
3
 72
9
 73
5
 74
0
 42
0.0000001
 43
0.0000001
 44
0.0000000001
 40
0.0
 40
0.0
 40
0.0
 40
0.0
 40
0.3519693642
 40
1.0
 40
1.0
 40
1.0
 40
1.0
 10
694.9518831888
 20
1019.562293405
 30
0.0
 10
694.9588920612
 20
1019.5595746196
 30
0.0
 10
694.9562075288
 20
1019.5305830311
 30
0.0
 10
694.9621866652
 20
1019.5132211047
 30
0.0
 10
694.9635963147
 20
1019.4994517792
 30
0.0
  0
SPLINE
  5
532
100
AcDbEntity
  8
0
100
AcDbSpline
 62
7
  6
CONTINUOUS
 70
0
 71
3
 72
8
 73
4
 74
0
 42
0.0000001
 43
0.0000001
 44
0.0000000001
 40
0.0
 40
0.0
 40
0.0
 40
0.0
 40
1.0
 40
1.0
 40
1.0
 40
1.0
 10
695.0923396438
 20
1019.9023808408
 30
0.0
 10
694.9988684192
 20
1019.8229723453
 30
0.0
 10
694.9416861984
 20
1019.684526061
 30
0.0
 10
694.951877523
 20
1019.5623020212
 30
0.0
  0
SPLINE
  5
533
100
AcDbEntity
  8
0
100
AcDbSpline
 62
7
  6
CONTINUOUS
 70
0
 71
3
 72
9
 73
5
 74
0
 42
0.0000001
 43
0.0000001
 44
0.0000000001
 40
0.0
 40
0.0
 40
0.0
 40
0.0
 40
0.2534982396
 40
1.0
 40
1.0
 40
1.0
 40
1.0
 10
695.0492013004
 20
1019.9201129159
 30
0.0
 10
695.0472773042
 20
1019.923109727
 30
0.0
 10
695.0628472349
 20
1019.9360091179
 30
0.0
 10
695.0699128156
 20
1019.943744555
 30
0.0
 10
695.078313239
 20
1019.9500226779
 30
0.0
  0
SPLINE
  5
534
100
AcDbEntity
  8
0
100
AcDbSpline
 62
7
  6
CONTINUOUS
 70
0
 71
3
 72
8
 73
4
 74
0
 42
0.0000001
 43
0.0000001
 44
0.0000000001
 40
0.0
 40
0.0
 40
0.0
 40
0.0
 40
1.0
 40
1.0
 40
1.0
 40
1.0
 10
694.9089117518
 20
1019.5801677133
 30
0.0
 10
694.9019852856
 20
1019.6634027853
 30
0.0
 10
694.9232681764
 20
1019.7527896315
 30
0.0
 10
694.967102419
 20
1019.8238854284
 30
0.0
  0
SPLINE
  5
535
100
AcDbEntity
  8
0
100
AcDbSpline
 62
7
  6
CONTINUOUS
 70
0
 71
3
 72
8
 73
4
 74
0
 42
0.0000001
 43
0.0000001
 44
0.0000000001
 40
0.0
 40
0.0
 40
0.0
 40
0.0
 40
1.0
 40
1.0
 40
1.0
 40
1.0
 10
694.967102419
 20
1019.8238854284
 30
0.0
 10
694.9892383562
 20
1019.8597882295
 30
0.0
 10
695.0171780409
 20
1019.89275844
 30
0.0
 10
695.0493207823
 20
1019.9200687864
 30
0.0
  0
SPLINE
  5
536
100
AcDbEntity
  8
0
100
AcDbSpline
 62
7
  6
CONTINUOUS
 70
0
 71
3
 72
14
 73
10
 74
0
 42
0.0000001
 43
0.0000001
 44
0.0000000001
 40
0.0
 40
0.0
 40
0.0
 40
0.0
 40
0.0176855439
 40
0.0718781362
 40
0.1642478526
 40
0.2909746168
 40
0.4447541634
 40
0.6179517557
 40
1.0
 40
1.0
 40
1.0
 40
1.0
 10
717.2371600042
 20
956.3460830288
 30
0.0
 10
717.2295184859
 20
956.3455486818
 30
0.0
 10
717.2297747304
 20
956.393442232
 30
0.0
 10
717.2118768816
 20
956.4465382913
 30
0.0
 10
717.2014966882
 20
956.5739854597
 30
0.0
 10
717.1823440158
 20
956.7302745757
 30
0.0
 10
717.1635596004
 20
956.9273659584
 30
0.0
 10
717.1347242542
 20
957.2324985431
 30
0.0
 10
717.113914706
 20
957.4723461826
 30
0.0
 10
717.0998457599
 20
957.6372244121
 30
0.0
  0
LINE
  5
537
100
AcDbEntity
  8
0
100
AcDbLine
 62
7
  6
CONTINUOUS
 10
717.0998457599
 20
957.6372244121
 11
717.0947034486
 21
957.6976720021
  0
SPLINE
  5
538
100
AcDbEntity
  8
0
100
AcDbSpline
 62
7
  6
CONTINUOUS
 70
0
 71
3
 72
8
 73
4
 74
0
 42
0.0000001
 43
0.0000001
 44
0.0000000001
 40
0.0
 40
0.0
 40
0.0
 40
0.0
 40
1.0
 40
1.0
 40
1.0
 40
1.0
 10
713.9426127504
 20
991.1525090292
 30
0.0
 10
713.9138296866
 20
991.4100388727
 30
0.0
 10
713.8848813695
 20
991.6675503001
 30
0.0
 10
713.8557678518
 20
991.9250429954
 30
0.0
  0
SPLINE
  5
539
100
AcDbEntity
  8
0
100
AcDbSpline
 62
7
  6
CONTINUOUS
 70
0
 71
3
 72
12
 73
8
 74
0
 42
0.0000001
 43
0.0000001
 44
0.0000000001
 40
0.0
 40
0.0
 40
0.0
 40
0.0
 40
0.5096877248
 40
0.8189215175
 40
0.9057072806
 40
0.9602645985
 40
1.0
 40
1.0
 40
1.0
 40
1.0
 10
714.015380528
 20
990.5647797776
 30
0.0
 10
714.0367891665
 20
990.4014092694
 30
0.0
 10
714.0723483316
 20
990.1363231861
 30
0.0
 10
714.121703427
 20
989.8543009412
 30
0.0
 10
714.1496512182
 20
989.7042812268
 30
0.0
 10
714.1673248408
 20
989.657705075
 30
0.0
 10
714.1722126362
 20
989.6113756141
 30
0.0
 10
714.1850266493
 20
989.6122716571
 30
0.0
  0
SPLINE
  5
53A
100
AcDbEntity
  8
0
100
AcDbSpline
 62
7
  6
CONTINUOUS
 70
0
 71
3
 72
9
 73
5
 74
0
 42
0.0000001
 43
0.0000001
 44
0.0000000001
 40
0.0
 40
0.0
 40
0.0
 40
0.0
 40
0.3286341011
 40
1.0
 40
1.0
 40
1.0
 40
1.0
 10
714.4496561842
 20
987.2949865295
 30
0.0
 10
714.4520572916
 20
987.4026092671
 30
0.0
 10
714.4245898021
 20
987.7299104014
 30
0.0
 10
714.3893337286
 20
988.0551720829
 30
0.0
 10
714.3644379865
 20
988.2736753467
 30
0.0
  0
SPLINE
  5
53B
100
AcDbEntity
  8
0
100
AcDbSpline
 62
7
  6
CONTINUOUS
 70
0
 71
3
 72
9
 73
5
 74
0
 42
0.0000001
 43
0.0000001
 44
0.0000000001
 40
0.0
 40
0.0
 40
0.0
 40
0.0
 40
0.2509595364
 40
1.0
 40
1.0
 40
1.0
 40
1.0
 10
697.5214245707
 20
885.6899231444
 30
0.0
 10
699.0149540811
 20
885.0726173659
 30
0.0
 10
704.9634668823
 20
882.606147531
 30
0.0
 10
710.9017466249
 20
880.1150557266
 30
0.0
 10
715.3462273601
 20
878.2408051056
 30
0.0
  0
SPLINE
  5
53C
100
AcDbEntity
  8
0
100
AcDbSpline
 62
7
  6
CONTINUOUS
 70
0
 71
3
 72
16
 73
12
 74
0
 42
0.0000001
 43
0.0000001
 44
0.0000000001
 40
0.0
 40
0.0
 40
0.0
 40
0.0
 40
0.0039649598
 40
0.0158708502
 40
0.0357093863
 40
0.0634293926
 40
0.1421629124
 40
0.251608825
 40
0.3928140127
 40
0.5668078779
 40
1.0
 40
1.0
 40
1.0
 40
1.0
 10
708.1568029481
 20
1031.0290068098
 30
0.0
 10
708.1554651196
 20
1031.0304848804
 30
0.0
 10
708.1536888576
 20
1031.0150754828
 30
0.0
 10
708.1454108975
 20
1031.0063231417
 30
0.0
 10
708.1345275544
 20
1030.9743649409
 30
0.0
 10
708.1093793666
 20
1030.9185363117
 30
0.0
 10
708.0671736888
 20
1030.816686339
 30
0.0
 10
708.0015028186
 20
1030.6655265865
 30
0.0
 10
707.9175958695
 20
1030.4688353631
 30
0.0
 10
707.7767712173
 20
1030.1200616309
 30
0.0
 10
707.6412886777
 20
1029.8454787779
 30
0.0
 10
707.5663450154
 20
1029.6409659093
 30
0.0
  0
SPLINE
  5
53D
100
AcDbEntity
  8
0
100
AcDbSpline
 62
7
  6
CONTINUOUS
 70
0
 71
3
 72
9
 73
5
 74
0
 42
0.0000001
 43
0.0000001
 44
0.0000000001
 40
0.0
 40
0.0
 40
0.0
 40
0.0
 40
0.3003556196
 40
1.0
 40
1.0
 40
1.0
 40
1.0
 10
697.1731718454
 20
885.8418966534
 30
0.0
 10
697.1675306926
 20
885.8383602478
 30
0.0
 10
697.2081682945
 20
885.8227788733
 30
0.0
 10
697.2168384452
 20
885.8159462951
 30
0.0
 10
697.231124907
 20
885.8099108335
 30
0.0
  0
SPLINE
  5
53E
100
AcDbEntity
  8
0
100
AcDbSpline
 62
7
  6
CONTINUOUS
 70
0
 71
3
 72
9
 73
5
 74
0
 42
0.0000001
 43
0.0000001
 44
0.0000000001
 40
0.0
 40
0.0
 40
0.0
 40
0.0
 40
0.2558314638
 40
1.0
 40
1.0
 40
1.0
 40
1.0
 10
714.5562554703
 20
984.7720068488
 30
0.0
 10
714.5470110524
 20
984.8569487001
 30
0.0
 10
714.510155733
 20
985.1888889113
 30
0.0
 10
714.4700176807
 20
985.5204932984
 30
0.0
 10
714.4362635875
 20
985.76673037
 30
0.0
  0
SPLINE
  5
53F
100
AcDbEntity
  8
0
100
AcDbSpline
 62
7
  6
CONTINUOUS
 70
0
 71
3
 72
9
 73
5
 74
0
 42
0.0000001
 43
0.0000001
 44
0.0000000001
 40
0.0
 40
0.0
 40
0.0
 40
0.0
 40
0.2760029532
 40
1.0
 40
1.0
 40
1.0
 40
1.0
 10
714.4105528875
 20
985.9480680694
 30
0.0
 10
714.4045347994
 20
985.9890067914
 30
0.0
 10
714.3821448381
 20
986.1372448537
 30
0.0
 10
714.3574975713
 20
986.2851592827
 30
0.0
 10
714.3375236699
 20
986.391848172
 30
0.0
  0
SPLINE
  5
540
100
AcDbEntity
  8
0
100
AcDbSpline
 62
7
  6
CONTINUOUS
 70
0
 71
3
 72
9
 73
5
 74
0
 42
0.0000001
 43
0.0000001
 44
0.0000000001
 40
0.0
 40
0.0
 40
0.0
 40
0.0
 40
0.2839790706
 40
1.0
 40
1.0
 40
1.0
 40
1.0
 10
714.3375236699
 20
986.391848172
 30
0.0
 10
714.3320590943
 20
986.4210367362
 30
0.0
 10
714.3122203339
 20
986.5237058142
 30
0.0
 10
714.2899482517
 20
986.6259235241
 30
0.0
 10
714.2720236963
 20
986.6986206423
 30
0.0
  0
SPLINE
  5
541
100
AcDbEntity
  8
0
100
AcDbSpline
 62
7
  6
CONTINUOUS
 70
0
 71
3
 72
8
 73
4
 74
0
 42
0.0000001
 43
0.0000001
 44
0.0000000001
 40
0.0
 40
0.0
 40
0.0
 40
0.0
 40
1.0
 40
1.0
 40
1.0
 40
1.0
 10
697.2736448066
 20
885.8368884119
 30
0.0
 10
697.2536092331
 20
885.8447379466
 30
0.0
 10
697.2333375315
 20
885.8523590012
 30
0.0
 10
697.2123762447
 20
885.857223552
 30
0.0
  0
SPLINE
  5
542
100
AcDbEntity
  8
0
100
AcDbSpline
 62
7
  6
CONTINUOUS
 70
0
 71
3
 72
9
 73
5
 74
0
 42
0.0000001
 43
0.0000001
 44
0.0000000001
 40
0.0
 40
0.0
 40
0.0
 40
0.0
 40
0.6615696649
 40
1.0
 40
1.0
 40
1.0
 40
1.0
 10
697.2123762447
 20
885.857223552
 30
0.0
 10
697.2095305229
 20
885.8578839675
 30
0.0
 10
697.2054090417
 20
885.8585529395
 30
0.0
 10
697.2005479155
 20
885.8592719268
 30
0.0
 10
697.1992810536
 20
885.8584792109
 30
0.0
  0
SPLINE
  5
543
100
AcDbEntity
  8
0
100
AcDbSpline
 62
7
  6
CONTINUOUS
 70
0
 71
3
 72
9
 73
5
 74
0
 42
0.0000001
 43
0.0000001
 44
0.0000000001
 40
0.0
 40
0.0
 40
0.0
 40
0.0
 40
0.2181508766
 40
1.0
 40
1.0
 40
1.0
 40
1.0
 10
716.6658857253
 20
963.6728037953
 30
0.0
 10
716.6576270387
 20
963.7451479625
 30
0.0
 10
716.6208772995
 20
964.0768988104
 30
0.0
 10
716.5879009451
 20
964.4090597487
 30
0.0
 10
716.5634244276
 20
964.668873667
 30
0.0
  0
SPLINE
  5
544
100
AcDbEntity
  8
0
100
AcDbSpline
 62
7
  6
CONTINUOUS
 70
0
 71
3
 72
9
 73
5
 74
0
 42
0.0000001
 43
0.0000001
 44
0.0000000001
 40
0.0
 40
0.0
 40
0.0
 40
0.0
 40
0.2739650032
 40
1.0
 40
1.0
 40
1.0
 40
1.0
 10
716.5634244276
 20
964.668873667
 30
0.0
 10
716.5595831751
 20
964.7250468658
 30
0.0
 10
716.5459181433
 20
964.9301066175
 30
0.0
 10
716.5336145198
 20
965.1352738457
 30
0.0
 10
716.5269136839
 20
965.2843356231
 30
0.0
  0
SPLINE
  5
545
100
AcDbEntity
  8
0
100
AcDbSpline
 62
7
  6
CONTINUOUS
 70
0
 71
3
 72
11
 73
7
 74
0
 42
0.0000001
 43
0.0000001
 44
0.0000000001
 40
0.0
 40
0.0
 40
0.0
 40
0.0
 40
0.4660258241
 40
0.7763347764
 40
0.9446345085
 40
1.0
 40
1.0
 40
1.0
 40
1.0
 10
716.5224748965
 20
965.3959532516
 30
0.0
 10
716.5212037952
 20
965.433999938
 30
0.0
 10
716.5199623243
 20
965.4955920152
 30
0.0
 10
716.5189214835
 20
965.577900244
 30
0.0
 10
716.52305286
 20
965.613528653
 30
0.0
 10
716.5247863392
 20
965.6394164363
 30
0.0
 10
716.5292979232
 20
965.639731917
 30
0.0
  0
LINE
  5
546
100
AcDbEntity
  8
0
100
AcDbLine
 62
7
  6
CONTINUOUS
 10
701.3312025925
 20
884.2147518514
 11
697.2736448642
 21
885.8368882534
  0
SPLINE
  5
547
100
AcDbEntity
  8
0
100
AcDbSpline
 62
7
  6
CONTINUOUS
 70
0
 71
3
 72
9
 73
5
 74
0
 42
0.0000001
 43
0.0000001
 44
0.0000000001
 40
0.0
 40
0.0
 40
0.0
 40
0.0
 40
0.2489263534
 40
1.0
 40
1.0
 40
1.0
 40
1.0
 10
715.3830999908
 20
878.3447973752
 30
0.0
 10
714.3240899487
 20
878.7956571486
 30
0.0
 10
710.0687946124
 20
880.6045588835
 30
0.0
 10
705.8087735029
 20
882.4023602063
 30
0.0
 10
702.6057370417
 20
883.7444022192
 30
0.0
  0
SPLINE
  5
548
100
AcDbEntity
  8
0
100
AcDbSpline
 62
7
  6
CONTINUOUS
 70
0
 71
3
 72
11
 73
7
 74
0
 42
0.0000001
 43
0.0000001
 44
0.0000000001
 40
0.0
 40
0.0
 40
0.0
 40
0.0
 40
0.1217749552
 40
0.3418132356
 40
0.6419404037
 40
1.0
 40
1.0
 40
1.0
 40
1.0
 10
716.7886891372
 20
877.6398483008
 30
0.0
 10
716.7624275937
 20
877.673573683
 30
0.0
 10
716.6581115538
 20
877.7392558036
 30
0.0
 10
716.465402465
 20
877.8519579881
 30
0.0
 10
716.1881469681
 20
877.9892925556
 30
0.0
 10
715.9787780116
 20
878.0863142811
 30
0.0
 10
715.8640039135
 20
878.1375295785
 30
0.0
  0
SPLINE
  5
549
100
AcDbEntity
  8
0
100
AcDbSpline
 62
7
  6
CONTINUOUS
 70
0
 71
3
 72
9
 73
5
 74
0
 42
0.0000001
 43
0.0000001
 44
0.0000000001
 40
0.0
 40
0.0
 40
0.0
 40
0.0
 40
0.2647580314
 40
1.0
 40
1.0
 40
1.0
 40
1.0
 10
717.5702813563
 20
947.02622938
 30
0.0
 10
717.5715966322
 20
946.9722051695
 30
0.0
 10
717.576231622
 20
946.7681470231
 30
0.0
 10
717.5795236371
 20
946.5640501867
 30
0.0
 10
717.5803148568
 20
946.4139807644
 30
0.0
  0
SPLINE
  5
54A
100
AcDbEntity
  8
0
100
AcDbSpline
 62
7
  6
CONTINUOUS
 70
0
 71
3
 72
9
 73
5
 74
0
 42
0.0000001
 43
0.0000001
 44
0.0000000001
 40
0.0
 40
0.0
 40
0.0
 40
0.0
 40
0.3287587826
 40
1.0
 40
1.0
 40
1.0
 40
1.0
 10
717.7524240296
 20
945.8710724401
 30
0.0
 10
717.7548979017
 20
945.8712454301
 30
0.0
 10
717.7597209482
 20
945.8791420052
 30
0.0
 10
717.7612244609
 20
945.8858339484
 30
0.0
 10
717.762359618
 20
945.8907684091
 30
0.0
  0
SPLINE
  5
54B
100
AcDbEntity
  8
0
100
AcDbSpline
 62
7
  6
CONTINUOUS
 70
0
 71
3
 72
9
 73
5
 74
0
 42
0.0000001
 43
0.0000001
 44
0.0000000001
 40
0.0
 40
0.0
 40
0.0
 40
0.0
 40
0.3789974519
 40
1.0
 40
1.0
 40
1.0
 40
1.0
 10
717.762359618
 20
945.8907684091
 30
0.0
 10
717.7718746697
 20
945.932129776
 30
0.0
 10
717.7755851315
 20
946.0450135349
 30
0.0
 10
717.7791286018
 20
946.1565230532
 30
0.0
 10
717.7797691345
 20
946.2260625526
 30
0.0
  0
SPLINE
  5
54C
100
AcDbEntity
  8
0
100
AcDbSpline
 62
7
  6
CONTINUOUS
 70
0
 71
3
 72
9
 73
5
 74
0
 42
0.0000001
 43
0.0000001
 44
0.0000000001
 40
0.0
 40
0.0
 40
0.0
 40
0.0
 40
0.22080248
 40
1.0
 40
1.0
 40
1.0
 40
1.0
 10
717.7797691345
 20
946.2260625526
 30
0.0
 10
717.7803210977
 20
946.2859865014
 30
0.0
 10
717.780442443
 20
946.5573984636
 30
0.0
 10
717.7750866578
 20
946.8287762983
 30
0.0
 10
717.7699281281
 20
947.0401900423
 30
0.0
  0
LINE
  5
54D
100
AcDbEntity
  8
0
100
AcDbLine
 62
7
  6
CONTINUOUS
 10
717.7082760535
 20
948.4841227872
 11
717.7036060145
 21
948.5895487037
  0
LINE
  5
54E
100
AcDbEntity
  8
0
100
AcDbLine
 62
7
  6
CONTINUOUS
 10
717.7036060145
 20
948.5895487037
 11
717.6844635737
 21
949.0167711383
  0
SPLINE
  5
54F
100
AcDbEntity
  8
0
100
AcDbSpline
 62
7
  6
CONTINUOUS
 70
0
 71
3
 72
18
 73
14
 74
0
 42
0.0000001
 43
0.0000001
 44
0.0000000001
 40
0.0
 40
0.0
 40
0.0
 40
0.0
 40
0.277867132
 40
0.4149984615
 40
0.5503020349
 40
0.6828377925
 40
0.8105990757
 40
0.8712453441
 40
0.9277711407
 40
0.9533546544
 40
0.9758058419
 40
0.9928625613
 40
1.0
 40
1.0
 40
1.0
 40
1.0
 10
717.6844635737
 20
949.0167711383
 30
0.0
 10
717.6764902436
 20
949.193168003
 30
0.0
 10
717.6644538694
 20
949.4566154592
 30
0.0
 10
717.6483131072
 20
949.8059392966
 30
0.0
 10
717.6363557379
 20
950.0630249029
 30
0.0
 10
717.6247368418
 20
950.3140925942
 30
0.0
 10
717.6151836465
 20
950.5179887807
 30
0.0
 10
717.608496087
 20
950.6731709676
 30
0.0
 10
717.6038819438
 20
950.7645110956
 30
0.0
 10
717.602433792
 20
950.8296169059
 30
0.0
 10
717.5979714784
 20
950.8740025378
 30
0.0
 10
717.6039090268
 20
950.8965485921
 30
0.0
 10
717.59505872
 20
950.9209400766
 30
0.0
 10
717.5995833188
 20
950.9212564673
 30
0.0
  0
SPLINE
  5
550
100
AcDbEntity
  8
0
100
AcDbSpline
 62
7
  6
CONTINUOUS
 70
0
 71
3
 72
11
 73
7
 74
0
 42
0.0000001
 43
0.0000001
 44
0.0000000001
 40
0.0
 40
0.0
 40
0.0
 40
0.0
 40
0.0569309117
 40
0.2360625979
 40
0.5513554954
 40
1.0
 40
1.0
 40
1.0
 40
1.0
 10
717.4338986116
 20
953.6344745762
 30
0.0
 10
717.4400967018
 20
953.6349079889
 30
0.0
 10
717.4367567382
 20
953.5942482736
 30
0.0
 10
717.4507634296
 20
953.5498196878
 30
0.0
 10
717.4545580634
 20
953.4377857184
 30
0.0
 10
717.4622244049
 20
953.3578193546
 30
0.0
 10
717.4656740477
 20
953.3089776534
 30
0.0
  0
SPLINE
  5
551
100
AcDbEntity
  8
0
100
AcDbSpline
 62
7
  6
CONTINUOUS
 70
0
 71
3
 72
9
 73
5
 74
0
 42
0.0000001
 43
0.0000001
 44
0.0000000001
 40
0.0
 40
0.0
 40
0.0
 40
0.0
 40
0.2399608756
 40
1.0
 40
1.0
 40
1.0
 40
1.0
 10
712.129346658
 20
1005.819032224
 30
0.0
 10
712.1233032461
 20
1005.8186096275
 30
0.0
 10
712.1186352216
 20
1005.8553797666
 30
0.0
 10
712.1101110101
 20
1005.8719540557
 30
0.0
 10
712.105611132
 20
1005.8906072767
 30
0.0
  0
SPLINE
  5
552
100
AcDbEntity
  8
0
100
AcDbSpline
 62
7
  6
CONTINUOUS
 70
0
 71
3
 72
9
 73
5
 74
0
 42
0.0000001
 43
0.0000001
 44
0.0000000001
 40
0.0
 40
0.0
 40
0.0
 40
0.0
 40
0.1789119494
 40
1.0
 40
1.0
 40
1.0
 40
1.0
 10
712.105611132
 20
1005.8906072767
 30
0.0
 10
712.1027428862
 20
1005.9024969372
 30
0.0
 10
712.0874473807
 20
1005.9691293044
 30
0.0
 10
712.0742393395
 20
1006.0362213452
 30
0.0
 10
712.0637263985
 20
1006.0913590748
 30
0.0
  0
SPLINE
  5
553
100
AcDbEntity
  8
0
100
AcDbSpline
 62
7
  6
CONTINUOUS
 70
0
 71
3
 72
9
 73
5
 74
0
 42
0.0000001
 43
0.0000001
 44
0.0000000001
 40
0.0
 40
0.0
 40
0.0
 40
0.0
 40
0.1764055711
 40
1.0
 40
1.0
 40
1.0
 40
1.0
 10
712.0637263985
 20
1006.0913590748
 30
0.0
 10
712.049601726
 20
1006.1654394273
 30
0.0
 10
711.9742703301
 20
1006.5862794329
 30
0.0
 10
711.9099708194
 20
1007.0089956323
 30
0.0
 10
711.8581830219
 20
1007.3572598367
 30
0.0
  0
SPLINE
  5
554
100
AcDbEntity
  8
0
100
AcDbSpline
 62
7
  6
CONTINUOUS
 70
0
 71
3
 72
9
 73
5
 74
0
 42
0.0000001
 43
0.0000001
 44
0.0000000001
 40
0.0
 40
0.0
 40
0.0
 40
0.0
 40
0.2339418175
 40
1.0
 40
1.0
 40
1.0
 40
1.0
 10
696.752955584
 20
1059.556156537
 30
0.0
 10
696.7097759964
 20
1059.5561492765
 30
0.0
 10
696.5252050113
 20
1059.5589363495
 30
0.0
 10
696.340849296
 20
1059.5718370813
 30
0.0
 10
696.2001815969
 20
1059.5861546083
 30
0.0
  0
SPLINE
  5
555
100
AcDbEntity
  8
0
100
AcDbSpline
 62
7
  6
CONTINUOUS
 70
0
 71
3
 72
9
 73
5
 74
0
 42
0.0000001
 43
0.0000001
 44
0.0000000001
 40
0.0
 40
0.0
 40
0.0
 40
0.0
 40
0.2431137727
 40
1.0
 40
1.0
 40
1.0
 40
1.0
 10
696.0476946505
 20
1059.6034561839
 30
0.0
 10
695.9749350745
 20
1059.6125495341
 30
0.0
 10
695.6762895783
 20
1059.6547569722
 30
0.0
 10
695.3801531252
 20
1059.7156804128
 30
0.0
 10
695.1594498218
 20
1059.7740236651
 30
0.0
  0
SPLINE
  5
556
100
AcDbEntity
  8
0
100
AcDbSpline
 62
7
  6
CONTINUOUS
 70
0
 71
3
 72
9
 73
5
 74
0
 42
0.0000001
 43
0.0000001
 44
0.0000000001
 40
0.0
 40
0.0
 40
0.0
 40
0.0
 40
0.718376116
 40
1.0
 40
1.0
 40
1.0
 40
1.0
 10
696.0393987333
 20
1059.6217457848
 30
0.0
 10
696.102972596
 20
1059.6680374641
 30
0.0
 10
696.1549812783
 20
1059.7815014837
 30
0.0
 10
696.1594498218
 20
1059.8898769176
 30
0.0
 10
696.1594498218
 20
1059.9207067985
 30
0.0
  0
SPLINE
  5
557
100
AcDbEntity
  8
0
100
AcDbSpline
 62
7
  6
CONTINUOUS
 70
0
 71
3
 72
9
 73
5
 74
0
 42
0.0000001
 43
0.0000001
 44
0.0000000001
 40
0.0
 40
0.0
 40
0.0
 40
0.0
 40
0.7564734104
 40
1.0
 40
1.0
 40
1.0
 40
1.0
 10
695.1594498218
 20
1046.5098034116
 30
0.0
 10
695.3676391004
 20
1046.5848632837
 30
0.0
 10
695.6590284908
 20
1046.6433236034
 30
0.0
 10
695.951302904
 20
1046.6561224488
 30
0.0
 10
696.0225468139
 20
1046.656122449
 30
0.0
  0
SPLINE
  5
558
100
AcDbEntity
  8
0
100
AcDbSpline
 62
7
  6
CONTINUOUS
 70
0
 71
3
 72
9
 73
5
 74
0
 42
0.0000001
 43
0.0000001
 44
0.0000000001
 40
0.0
 40
0.0
 40
0.0
 40
0.0
 40
0.243526619
 40
1.0
 40
1.0
 40
1.0
 40
1.0
 10
696.0225468139
 20
981.656122449
 30
0.0
 10
695.9513029568
 20
981.656122449
 30
0.0
 10
695.6590294318
 20
981.6689335985
 30
0.0
 10
695.3676389129
 20
981.727381682
 30
0.0
 10
695.1594498218
 20
981.8024414863
 30
0.0
  0
SPLINE
  5
559
100
AcDbEntity
  8
0
100
AcDbSpline
 62
7
  6
CONTINUOUS
 70
0
 71
3
 72
11
 73
7
 74
0
 42
0.0000001
 43
0.0000001
 44
0.0000000001
 40
0.0
 40
0.0
 40
0.0
 40
0.0
 40
0.1058910819
 40
0.3226595727
 40
0.634927188
 40
1.0
 40
1.0
 40
1.0
 40
1.0
 10
684.1802461486
 20
1004.0701417097
 30
0.0
 10
684.1802461486
 20
1004.1648676879
 30
0.0
 10
684.4769557412
 20
1004.3613004543
 30
0.0
 10
684.9796605133
 20
1004.5174123097
 30
0.0
 10
685.7732315793
 20
1004.7227589054
 30
0.0
 10
686.360969162
 20
1004.8461656014
 30
0.0
 10
686.6802461486
 20
1004.9148424925
 30
0.0
  0
SPLINE
  5
55A
100
AcDbEntity
  8
0
100
AcDbSpline
 62
7
  6
CONTINUOUS
 70
0
 71
3
 72
9
 73
5
 74
0
 42
0.0000001
 43
0.0000001
 44
0.0000000001
 40
0.0
 40
0.0
 40
0.0
 40
0.0
 40
0.2568600199
 40
1.0
 40
1.0
 40
1.0
 40
1.0
 10
686.6802461486
 20
906.0614351325
 30
0.0
 10
686.5908555176
 20
906.0623572592
 30
0.0
 10
686.2428425271
 20
906.0659489409
 30
0.0
 10
685.894830117
 20
906.069605508
 30
0.0
 10
685.6362105896
 20
906.0725376232
 30
0.0
  0
SPLINE
  5
55B
100
AcDbEntity
  8
0
100
AcDbSpline
 62
7
  6
CONTINUOUS
 70
0
 71
3
 72
14
 73
10
 74
0
 42
0.0000001
 43
0.0000001
 44
0.0000000001
 40
0.0
 40
0.0
 40
0.0
 40
0.0
 40
0.4095208886
 40
0.5820971848
 40
0.7283450616
 40
0.8452460813
 40
0.9305319163
 40
0.9823850722
 40
1.0
 40
1.0
 40
1.0
 40
1.0
 10
685.6362105896
 20
906.0725376232
 30
0.0
 10
685.4373988392
 20
906.074791664
 30
0.0
 10
685.1544711425
 20
906.0779135942
 30
0.0
 10
684.8016677967
 20
906.0836024403
 30
0.0
 10
684.5884363749
 20
906.0859226257
 30
0.0
 10
684.4238978442
 20
906.0928245773
 30
0.0
 10
684.289921657
 20
906.0883723326
 30
0.0
 10
684.2339380429
 20
906.1055390056
 30
0.0
 10
684.1802461486
 20
906.0933926437
 30
0.0
 10
684.1802461486
 20
906.101944783
 30
0.0
  0
SPLINE
  5
55C
100
AcDbEntity
  8
0
100
AcDbSpline
 62
7
  6
CONTINUOUS
 70
0
 71
3
 72
10
 73
6
 74
0
 42
0.0000001
 43
0.0000001
 44
0.0000000001
 40
0.0
 40
0.0
 40
0.0
 40
0.0
 40
0.1628494217
 40
0.4837218827
 40
1.0
 40
1.0
 40
1.0
 40
1.0
 10
697.6594498218
 20
1059.9207067985
 30
0.0
 10
697.6594498218
 20
1059.8631649628
 30
0.0
 10
697.5936633126
 20
1059.6863482507
 30
0.0
 10
697.2215284154
 20
1059.5713752698
 30
0.0
 10
696.9353792602
 20
1059.5561872108
 30
0.0
 10
696.752955584
 20
1059.556156537
 30
0.0
  0
SPLINE
  5
55D
100
AcDbEntity
  8
0
100
AcDbSpline
 62
7
  6
CONTINUOUS
 70
0
 71
3
 72
8
 73
4
 74
0
 42
0.0000001
 43
0.0000001
 44
0.0000000001
 40
0.0
 40
0.0
 40
0.0
 40
0.0
 40
1.0
 40
1.0
 40
1.0
 40
1.0
 10
677.5594498218
 20
153.6061224489
 30
0.0
 10
678.0350886933
 20
153.6060535538
 30
0.0
 10
678.5138352902
 20
153.6521842327
 30
0.0
 10
678.9788969112
 20
153.7519340675
 30
0.0
  0
SPLINE
  5
55E
100
AcDbEntity
  8
0
100
AcDbSpline
 62
7
  6
CONTINUOUS
 70
0
 71
3
 72
8
 73
4
 74
0
 42
0.0000001
 43
0.0000001
 44
0.0000000001
 40
0.0
 40
0.0
 40
0.0
 40
0.0
 40
1.0
 40
1.0
 40
1.0
 40
1.0
 10
678.9788969112
 20
153.7519340675
 30
0.0
 10
679.176973517
 20
153.7944189938
 30
0.0
 10
679.3732369006
 20
153.8471174663
 30
0.0
 10
679.5653414546
 20
153.9114226067
 30
0.0
  0
SPLINE
  5
55F
100
AcDbEntity
  8
0
100
AcDbSpline
 62
7
  6
CONTINUOUS
 70
0
 71
3
 72
8
 73
4
 74
0
 42
0.0000001
 43
0.0000001
 44
0.0000000001
 40
0.0
 40
0.0
 40
0.0
 40
0.0
 40
1.0
 40
1.0
 40
1.0
 40
1.0
 10
679.5653414546
 20
1715.7008222913
 30
0.0
 10
679.358504234
 20
1715.7700590434
 30
0.0
 10
679.146831881
 20
1715.8258389488
 30
0.0
 10
678.9332154832
 20
1715.869922939
 30
0.0
  0
SPLINE
  5
560
100
AcDbEntity
  8
0
100
AcDbSpline
 62
7
  6
CONTINUOUS
 70
0
 71
3
 72
9
 73
5
 74
0
 42
0.0000001
 43
0.0000001
 44
0.0000000001
 40
0.0
 40
0.0
 40
0.0
 40
0.0
 40
0.1992336885
 40
1.0
 40
1.0
 40
1.0
 40
1.0
 10
681.1595233995
 20
1714.206122449
 30
0.0
 10
681.1595233995
 20
1714.2907049447
 30
0.0
 10
681.0668178319
 20
1714.717248579
 30
0.0
 10
680.6967982422
 20
1715.0085075755
 30
0.0
 10
680.4179650997
 20
1715.2029878788
 30
0.0
  0
SPLINE
  5
561
100
AcDbEntity
  8
0
100
AcDbSpline
 62
7
  6
CONTINUOUS
 70
0
 71
3
 72
9
 73
5
 74
0
 42
0.0000001
 43
0.0000001
 44
0.0000000001
 40
0.0
 40
0.0
 40
0.0
 40
0.0
 40
0.4859667179
 40
1.0
 40
1.0
 40
1.0
 40
1.0
 10
680.4179650997
 20
1715.2029878788
 30
0.0
 10
680.3670184879
 20
1715.2385220782
 30
0.0
 10
680.2606073912
 20
1715.309396915
 30
0.0
 10
680.151793269
 20
1715.3764976247
 30
0.0
 10
680.0953791691
 20
1715.4101757044
 30
0.0
  0
SPLINE
  5
562
100
AcDbEntity
  8
0
100
AcDbSpline
 62
7
  6
CONTINUOUS
 70
0
 71
3
 72
8
 73
4
 74
0
 42
0.0000001
 43
0.0000001
 44
0.0000000001
 40
0.0
 40
0.0
 40
0.0
 40
0.0
 40
1.0
 40
1.0
 40
1.0
 40
1.0
 10
680.0953791691
 20
1715.4101757044
 30
0.0
 10
679.9223686856
 20
1715.5134594732
 30
0.0
 10
679.7448602377
 20
1715.6092914682
 30
0.0
 10
679.5653546037
 20
1715.7008222917
 30
0.0
  0
SPLINE
  5
563
100
AcDbEntity
  8
0
100
AcDbSpline
 62
7
  6
CONTINUOUS
 70
0
 71
3
 72
8
 73
4
 74
0
 42
0.0000001
 43
0.0000001
 44
0.0000000001
 40
0.0
 40
0.0
 40
0.0
 40
0.0
 40
1.0
 40
1.0
 40
1.0
 40
1.0
 10
679.565347807
 20
153.9114226062
 30
0.0
 10
679.8580398896
 20
154.0606685399
 30
0.0
 10
680.1470465253
 20
154.2204374297
 30
0.0
 10
680.4165705706
 20
154.4083198211
 30
0.0
  0
SPLINE
  5
564
100
AcDbEntity
  8
0
100
AcDbSpline
 62
7
  6
CONTINUOUS
 70
0
 71
3
 72
8
 73
4
 74
0
 42
0.0000001
 43
0.0000001
 44
0.0000000001
 40
0.0
 40
0.0
 40
0.0
 40
0.0
 40
1.0
 40
1.0
 40
1.0
 40
1.0
 10
680.4165705706
 20
154.4083198211
 30
0.0
 10
680.6198591356
 20
154.5500301523
 30
0.0
 10
680.8183705843
 20
154.7093083468
 30
0.0
 10
680.9682157336
 20
154.9066772651
 30
0.0
  0
SPLINE
  5
565
100
AcDbEntity
  8
0
100
AcDbSpline
 62
7
  6
CONTINUOUS
 70
0
 71
3
 72
9
 73
5
 74
0
 42
0.0000001
 43
0.0000001
 44
0.0000000001
 40
0.0
 40
0.0
 40
0.0
 40
0.0
 40
0.5072995591
 40
1.0
 40
1.0
 40
1.0
 40
1.0
 10
680.9682157336
 20
154.9066772651
 30
0.0
 10
680.9792785321
 20
154.9212486582
 30
0.0
 10
681.0005022625
 20
154.950420996
 30
0.0
 10
681.0204060055
 20
154.9805124123
 30
0.0
 10
681.0298475809
 20
154.9955649924
 30
0.0
  0
SPLINE
  5
566
100
AcDbEntity
  8
0
100
AcDbSpline
 62
7
  6
CONTINUOUS
 70
0
 71
3
 72
8
 73
4
 74
0
 42
0.0000001
 43
0.0000001
 44
0.0000000001
 40
0.0
 40
0.0
 40
0.0
 40
0.0
 40
1.0
 40
1.0
 40
1.0
 40
1.0
 10
681.0298475809
 20
154.9955649924
 30
0.0
 10
681.1061063101
 20
155.117143287
 30
0.0
 10
681.1595112011
 20
155.2626070299
 30
0.0
 10
681.1595112011
 20
155.406122449
 30
0.0
  0
ENDSEC
  0
SECTION
  2
OBJECTS
  0
DICTIONARY
  5
C
100
AcDbDictionary
280
0
281
1
  3
ACAD_GROUP
350
D
  3
ACAD_MLINESTYLE
350
17
  3
ACAD_LAYOUT
350
1A
  3
ACAD_PLOTSETTINGS
350
19
  3
ACAD_PLOTSTYLENAME
350
E
  0
DICTIONARY
  5
D
102
{ACAD_REACTORS
330
C
102
}
100
AcDbDictionary
280
0
281
1
  0
ACDBDICTIONARYWDFLT
  5
E
102
{ACAD_REACTORS
330
C
102
}
100
AcDbDictionary
281
1
  3
Normal
350
F
100
AcDbDictionaryWithDefault
340
F
  0
DICTIONARY
  5
17
102
{ACAD_REACTORS
330
C
102
}
100
AcDbDictionary
280
0
281
1
  3
Standard
350
18
  0
DICTIONARY
  5
19
102
{ACAD_REACTORS
330
C
102
}
100
AcDbDictionary
281
1
  0
DICTIONARY
  5
1A
102
{ACAD_REACTORS
330
C
102
}
100
AcDbDictionary
281
1
  3
Model
350
567
  3
Layout1
350
568
  0
ACDBPLACEHOLDER
  5
F
102
{ACAD_REACTORS
330
E
102
}
  0
MLINESTYLE
  5
18
102
{ACAD_REACTORS
330
17
102
}
100
AcDbMlineStyle
  2
STANDARD
 70
0
  3

 62
256
 51
90.0
 52
90.0
 71
2
 49
0.5
 62
256
  6
BYLAYER
 49
-0.5
 62
256
  6
BYLAYER
  0
LAYOUT
  5
567
102
{ACAD_REACTORS
330
1A
102
}
100
AcDbPlotSettings
  1

  2
none_device
  4

  6

 40
0.0
 41
0.0
 42
0.0
 43
0.0
 44
210.0
 45
297.0
 46
0.0
 47
0.0
 48
0.0
 49
0.0
140
0.0
141
0.0
142
1.0
143
1.0
 70
1024
 72
1
 73
0
 74
0
  7

 75
0
147
1.0
148
0.0
149
0.0
100
AcDbLayout
  1
Model
 70
0
 71
0
 10
0.0
 20
0.0
 11
210.0
 21
297.0
 12
0.0
 22
0.0
 32
0.0
 14
0.0
 24
0.0
 34
0.0
 15
0.0
 25
0.0
 35
0.0
146
0.0
 13
0.0
 23
0.0
 33
0.0
 16
1.0
 26
0.0
 36
0.0
 17
0.0
 27
1.0
 37
0.0
 76
0
330
212
345
0
346
0
  0
LAYOUT
  5
568
102
{ACAD_REACTORS
330
1A
102
}
100
AcDbPlotSettings
  1

  2
none_device
  4

  6

 40
0.0
 41
0.0
 42
0.0
 43
0.0
 44
210.0
 45
297.0
 46
0.0
 47
0.0
 48
0.0
 49
0.0
140
0.0
141
0.0
142
1.0
143
1.0
 70
0
 72
1
 73
0
 74
0
  7

 75
0
147
1.0
148
0.0
149
0.0
100
AcDbLayout
  1
Layout1
 70
0
 71
1
 10
0.0
 20
0.0
 11
210.0
 21
297.0
 12
0.0
 22
0.0
 32
0.0
 14
0.0
 24
0.0
 34
0.0
 15
0.0
 25
0.0
 35
0.0
146
0.0
 13
0.0
 23
0.0
 33
0.0
 16
1.0
 26
0.0
 36
0.0
 17
0.0
 27
1.0
 37
0.0
 76
0
330
213
345
0
346
0
  0
ENDSEC
  0
EOF
