999
DXF file: C:\Users\sesa63760\Dev\_Creo\CAD\MCADID0003738_3D-CAD\drw0001_4.dxf
999
Pro/ENGINEER 2019471 by Parametric Technology Corporation
  0
SECTION
  2
HEADER
  9
$ACADVER
  1
AC1024
  9
$DWGCODEPAGE
  3
ANSI_1252
  9
$EXTMAX
 10
63.2776325848
 20
89.4926517986
 30
0.0
  9
$EXTMIN
 10
0.0
 20
0.0
 30
0.0
  9
$LIMMIN
 10
0.0
 20
0.0
  9
$LIMMAX
 10
63.2776325848
 20
89.4926517986
  9
$VIEWCTR
 10
31.6388162924
 20
44.7463258993
  9
$VIEWSIZE
 40
89.4926517986
  9
$CLAYER
  8
0
  9
$LTSCALE
 40
5.8335950802
  9
$CELTYPE
  6
BYLAYER
  9
$DIMSCALE
 40
1.0
  9
$DIMASZ
 40
0.7533051498
  9
$DIMEXO
 40
1.0
  9
$DIMDLI
 40
4.0304838736
  9
$DIMEXE
 40
1.0
  9
$DIMCEN
 40
0.9545882859
  9
$DIMLFAC
 40
1.0
  9
$DIMBLK
  1
_FILLED
  9
$DIMALT
 70
0
  9
$DIMALTF
 40
0.0393700787
  9
$DIMTXT
 40
1.0546272097
  9
$DIMTOL
 70
1
  9
$DIMLIM
 70
0
  9
$DIMTFAC
 40
1.0
  9
$DIMTP
 40
0.01
  9
$DIMTM
 40
0.01
  9
$DIMGAP
 40
0.625
  9
$DIMDSEP
 70
46
  9
$AUNITS
 70
0
  9
$PDMODE
 70
3
  9
$PDSIZE
 40
0.3125
  9
$HANDSEED
  5
2EC
  9
$TILEMODE
 70
1
  9
$MEASUREMENT
 70
1
  9
$INSUNITS
 70
4
  0
ENDSEC
  0
SECTION
  2
CLASSES
  0
CLASS
  1
ACDBDICTIONARYWDFLT
  2
AcDbDictionaryWithDefault
  3
AutoCAD 2000
 90
0
 91
1
280
0
281
0
  0
CLASS
  1
ACDBPLACEHOLDER
  2
AcDbPlaceHolder
  3
AutoCAD 2000
 90
0
 91
1
280
0
281
0
  0
CLASS
  1
LAYOUT
  2
AcDbLayout
  3
AutoCAD 2000
 90
0
 91
0
280
0
281
0
  0
ENDSEC
  0
SECTION
  2
TABLES
  0
TABLE
  2
VPORT
  5
8
100
AcDbSymbolTable
 70
2
  0
VPORT
  5
1F4
100
AcDbSymbolTableRecord
100
AcDbViewportTableRecord
  2
*ACTIVE
 70
0
 10
0.0
 20
0.0
 11
1.0
 21
1.0
 12
31.6388162924
 22
44.7463258993
 13
0.0
 23
0.0
 14
1.0
 24
1.0
 15
0.0
 25
0.0
 16
0.0
 26
0.0
 36
1.0
 17
0.0
 27
0.0
 37
0.0
 40
89.4926517986
 41
0.7070707071
 42
50.0
 43
0.0
 44
0.0
 50
0.0
 51
0.0
 71
0
 72
100
 73
1
 74
1
 75
0
 76
0
 77
0
 78
0
  0
ENDTAB
  0
TABLE
  2
LTYPE
  5
5
100
AcDbSymbolTable
 70
6
  0
LTYPE
  5
14
100
AcDbSymbolTableRecord
100
AcDbLinetypeTableRecord
  2
BYBLOCK
 70
0
  3

 72
65
 73
0
 40
0.0
  0
LTYPE
  5
15
100
AcDbSymbolTableRecord
100
AcDbLinetypeTableRecord
  2
BYLAYER
 70
0
  3

 72
65
 73
0
 40
0.0
  0
LTYPE
  5
16
100
AcDbSymbolTableRecord
100
AcDbLinetypeTableRecord
  2
CONTINUOUS
 70
64
  3
Solid line
 72
65
 73
0
 40
0.0
  0
LTYPE
  5
1F5
100
AcDbSymbolTableRecord
100
AcDbLinetypeTableRecord
  2
CENTER
 70
64
  3
____ _ ____ _ ____ _ ____ _ ____ _ ____ _ ____
 72
65
 73
4
 40
0.6
 49
0.375
 74
0
 49
-0.075
 74
0
 49
0.075
 74
0
 49
-0.075
 74
0
  0
LTYPE
  5
1F6
100
AcDbSymbolTableRecord
100
AcDbLinetypeTableRecord
  2
HIDDEN
 70
64
  3
- - - - - - - - - - - - - - - - - - - -
 72
65
 73
2
 40
0.2
 49
0.1
 74
0
 49
-0.1
 74
0
  0
LTYPE
  5
1F7
100
AcDbSymbolTableRecord
100
AcDbLinetypeTableRecord
  2
PHANTOM
 70
64
  3
_____ _ _ _____ _ _ _____ _ _ _____
 72
65
 73
6
 40
0.8
 49
0.45
 74
0
 49
-0.05
 74
0
 49
0.1
 74
0
 49
-0.05
 74
0
 49
0.1
 74
0
 49
-0.05
 74
0
  0
LTYPE
  5
1F8
100
AcDbSymbolTableRecord
100
AcDbLinetypeTableRecord
  2
DOT
 70
64
  3
. . . . . . . . . . . . . . . . . . . .
 72
65
 73
2
 40
0.2
 49
0.1
 74
0
 49
-0.1
 74
0
  0
LTYPE
  5
1F9
100
AcDbSymbolTableRecord
100
AcDbLinetypeTableRecord
  2
DASHED
 70
64
  3
- - - - - - - - - - - - - - - - - - - -
 72
65
 73
2
 40
0.2
 49
0.1
 74
0
 49
-0.1
 74
0
  0
ENDTAB
  0
TABLE
  2
LAYER
  5
2
100
AcDbSymbolTable
 70
36
  0
LAYER
  5
10
100
AcDbSymbolTableRecord
100
AcDbLayerTableRecord
  2
0
 70
0
 62
7
  6
CONTINUOUS
370
-3
390
F
  0
LAYER
  5
1FA
100
AcDbSymbolTableRecord
100
AcDbLayerTableRecord
  2
DEFAULT_1
 70
0
 62
7
  6
CENTER
370
-3
390
F
  0
LAYER
  5
1FB
100
AcDbSymbolTableRecord
100
AcDbLayerTableRecord
  2
DEFAULT_2
 70
0
 62
7
  6
HIDDEN
370
-3
390
F
  0
LAYER
  5
1FC
100
AcDbSymbolTableRecord
100
AcDbLayerTableRecord
  2
DEFAULT_3
 70
0
 62
7
  6
PHANTOM
370
-3
390
F
  0
LAYER
  5
1FD
100
AcDbSymbolTableRecord
100
AcDbLayerTableRecord
  2
00_COMPONENTS
 70
0
 62
7
  6
CONTINUOUS
370
-3
390
F
  0
LAYER
  5
1FE
100
AcDbSymbolTableRecord
100
AcDbLayerTableRecord
  2
01_1_DEFAULT_DATUMS
 70
0
 62
7
  6
CONTINUOUS
370
-3
390
F
  0
LAYER
  5
1FF
100
AcDbSymbolTableRecord
100
AcDbLayerTableRecord
  2
01_PLANES
 70
0
 62
7
  6
CONTINUOUS
370
-3
390
F
  0
LAYER
  5
200
100
AcDbSymbolTableRecord
100
AcDbLayerTableRecord
  2
02_COORD_SYS
 70
0
 62
7
  6
CONTINUOUS
370
-3
390
F
  0
LAYER
  5
201
100
AcDbSymbolTableRecord
100
AcDbLayerTableRecord
  2
03_AXES
 70
0
 62
7
  6
CONTINUOUS
370
-3
390
F
  0
LAYER
  5
202
100
AcDbSymbolTableRecord
100
AcDbLayerTableRecord
  2
04_POINTS
 70
0
 62
7
  6
CONTINUOUS
370
-3
390
F
  0
LAYER
  5
203
100
AcDbSymbolTableRecord
100
AcDbLayerTableRecord
  2
05_CURVES
 70
0
 62
7
  6
CONTINUOUS
370
-3
390
F
  0
LAYER
  5
204
100
AcDbSymbolTableRecord
100
AcDbLayerTableRecord
  2
06_SURFS
 70
0
 62
7
  6
CONTINUOUS
370
-3
390
F
  0
LAYER
  5
205
100
AcDbSymbolTableRecord
100
AcDbLayerTableRecord
  2
07_COSMETICS
 70
0
 62
7
  6
CONTINUOUS
370
-3
390
F
  0
LAYER
  5
206
100
AcDbSymbolTableRecord
100
AcDbLayerTableRecord
  2
1
 70
0
 62
7
  6
CONTINUOUS
370
-3
390
F
  0
LAYER
  5
207
100
AcDbSymbolTableRecord
100
AcDbLayerTableRecord
  2
10_NOTES
 70
0
 62
7
  6
CONTINUOUS
370
-3
390
F
  0
LAYER
  5
208
100
AcDbSymbolTableRecord
100
AcDbLayerTableRecord
  2
11_NOTES_PUB
 70
0
 62
7
  6
CONTINUOUS
370
-3
390
F
  0
LAYER
  5
209
100
AcDbSymbolTableRecord
100
AcDbLayerTableRecord
  2
13_REF_GTOL
 70
0
 62
7
  6
CONTINUOUS
370
-3
390
F
  0
LAYER
  5
20A
100
AcDbSymbolTableRecord
100
AcDbLayerTableRecord
  2
16_MISC
 70
0
 62
7
  6
CONTINUOUS
370
-3
390
F
  0
LAYER
  5
20B
100
AcDbSymbolTableRecord
100
AcDbLayerTableRecord
  2
17_NO_PRINT
 70
0
 62
7
  6
CONTINUOUS
370
-3
390
F
  0
LAYER
  5
20C
100
AcDbSymbolTableRecord
100
AcDbLayerTableRecord
  2
18_DATUM_CAMS_JOINTS
 70
0
 62
7
  6
CONTINUOUS
370
-3
390
F
  0
LAYER
  5
20D
100
AcDbSymbolTableRecord
100
AcDbLayerTableRecord
  2
19_DATUM_FUNCTIONAL
 70
0
 62
7
  6
CONTINUOUS
370
-3
390
F
  0
LAYER
  5
20E
100
AcDbSymbolTableRecord
100
AcDbLayerTableRecord
  2
20_DATUM_KINEMATIC_SCHEME
 70
0
 62
7
  6
CONTINUOUS
370
-3
390
F
  0
ENDTAB
  0
TABLE
  2
STYLE
  5
3
100
AcDbSymbolTable
 70
1
  0
STYLE
  5
11
100
AcDbSymbolTableRecord
100
AcDbTextStyleTableRecord
  2
STANDARD
 70
0
 40
0.0
 41
1.0
 50
0.0
 71
0
 42
0.2
  3
ARIAL.TTF
  4

  0
STYLE
  5
20F
100
AcDbSymbolTableRecord
100
AcDbTextStyleTableRecord
  2
TEXTSTYLE_1
 70
0
 40
0.0
 41
0.8
 50
0.0
 71
0
 42
0.2
  3
gdt
  4

  0
ENDTAB
  0
TABLE
  2
VIEW
  5
6
100
AcDbSymbolTable
 70
0
  0
ENDTAB
  0
TABLE
  2
UCS
  5
7
100
AcDbSymbolTable
 70
0
  0
ENDTAB
  0
TABLE
  2
APPID
  5
9
100
AcDbSymbolTable
 70
1
  0
APPID
  5
210
100
AcDbSymbolTableRecord
100
AcDbRegAppTableRecord
  2
ACAD
 70
0
  0
ENDTAB
  0
TABLE
  2
BLOCK_RECORD
  5
1
100
AcDbSymbolTable
 70
0
  0
BLOCK_RECORD
  5
211
100
AcDbSymbolTableRecord
100
AcDbBlockTableRecord
  2
*Model_Space
  0
BLOCK_RECORD
  5
212
100
AcDbSymbolTableRecord
100
AcDbBlockTableRecord
  2
*Paper_Space
  0
BLOCK_RECORD
  5
213
100
AcDbSymbolTableRecord
100
AcDbBlockTableRecord
  2
_FILLED
  0
ENDTAB
  0
TABLE
  2
DIMSTYLE
  5
A
100
AcDbSymbolTable
 70
1
100
AcDbDimStyleTable
 71
0
  0
DIMSTYLE
105
214
100
AcDbSymbolTableRecord
100
AcDbDimStyleTableRecord
  2
STANDARD
 70
0
  3

  4

 40
1.0
 41
0.7533051498
 42
1.0
 43
0.38
 44
1.0
 45
0.0
 46
0.0
 47
0.01
 48
0.01
140
1.0546272097
141
0.09
142
0.0
143
25.4
144
1.0
145
0.0
146
1.0
147
0.625
 71
1
 72
0
 73
0
 74
0
 75
0
 76
0
 77
1
 78
8
 79
2
170
0
171
1
172
0
173
0
174
0
175
0
176
0
177
0
178
0
270
2
179
2
271
2
272
2
273
2
274
2
275
0
280
0
281
0
282
0
283
1
284
8
285
0
286
0
287
3
288
0
340
11
278
46
341
213
342
213
343
213
344
213
  0
ENDTAB
  0
ENDSEC
  0
SECTION
  2
BLOCKS
  0
BLOCK
  5
20
100
AcDbEntity
  8
0
100
AcDbBlockBegin
  2
*Model_Space
 70
0
 10
0.0
 20
0.0
 30
0.0
  3
*Model_Space
  1

  0
ENDBLK
  5
21
100
AcDbEntity
  8
0
100
AcDbBlockEnd
  0
BLOCK
  5
1C
100
AcDbEntity
  8
0
100
AcDbBlockBegin
  2
*Paper_Space
 70
0
 10
0.0
 20
0.0
 30
0.0
  3
*Paper_Space
  1

  0
ENDBLK
  5
1D
100
AcDbEntity
  8
0
100
AcDbBlockEnd
  0
BLOCK
  5
215
100
AcDbEntity
  8
0
100
AcDbBlockBegin
  2
_FILLED
 70
64
 10
0.0
 20
0.0
  3
_FILLED
  1

  0
SOLID
  5
216
100
AcDbEntity
  8
0
  6
BYBLOCK
 62
0
100
AcDbTrace
 10
0.0
 20
0.0
 11
-1.0
 21
0.25
 12
-1.0
 22
-0.25
 13
-1.0
 23
-0.25
  0
ENDBLK
  5
217
100
AcDbEntity
  8
0
  6
BYBLOCK
 62
0
100
AcDbBlockEnd
  0
ENDSEC
  0
SECTION
  2
ENTITIES
  0
LINE
  5
218
100
AcDbEntity
  8
0
100
AcDbLine
 62
7
  6
BYLAYER
 10
39.2415892484
 20
6.4079805755
 11
25.6791152789
 21
6.4079805755
  0
LINE
  5
219
100
AcDbEntity
  8
0
100
AcDbLine
 62
7
  6
BYLAYER
 10
25.6791022636
 20
15.6079805755
 11
39.2416022636
 21
15.6079805755
  0
LINE
  5
21A
100
AcDbEntity
  8
0
100
AcDbLine
 62
7
  6
BYLAYER
 10
26.4603522631
 20
16.0590354743
 11
38.4603522642
 21
16.0590354743
  0
LINE
  5
21B
100
AcDbEntity
  8
0
100
AcDbLine
 62
7
  6
BYLAYER
 10
37.9603522636
 20
16.9250608771
 11
26.9603522636
 21
16.9250608771
  0
LINE
  5
21C
100
AcDbEntity
  8
0
100
AcDbLine
 62
7
  6
BYLAYER
 10
20.9603522636
 20
19.1079805755
 11
19.4603522647
 21
19.9740059811
  0
LINE
  5
21D
100
AcDbEntity
  8
0
100
AcDbLine
 62
7
  6
BYLAYER
 10
26.9603522636
 20
18.1079805755
 11
37.9603522636
 21
18.1079805755
  0
LINE
  5
21E
100
AcDbEntity
  8
0
100
AcDbLine
 62
7
  6
BYLAYER
 10
43.9603361477
 20
19.1079805755
 11
20.9603683795
 21
19.1079805755
  0
LINE
  5
21F
100
AcDbEntity
  8
0
100
AcDbLine
 62
7
  6
BYLAYER
 10
45.4603522636
 20
19.9740059793
 11
45.3526571091
 21
19.9740059793
  0
LINE
  5
220
100
AcDbEntity
  8
0
100
AcDbLine
 62
7
  6
BYLAYER
 10
40.3526571091
 20
19.9740059793
 11
37.4603522636
 21
19.9740059793
  0
LINE
  5
221
100
AcDbEntity
  8
0
100
AcDbLine
 62
7
  6
BYLAYER
 10
27.4603522636
 20
19.9740059793
 11
24.5680474182
 21
19.9740059793
  0
LINE
  5
222
100
AcDbEntity
  8
0
100
AcDbLine
 62
7
  6
BYLAYER
 10
19.5680474182
 20
19.9740059793
 11
19.4603522636
 21
19.9740059793
  0
LINE
  5
223
100
AcDbEntity
  8
0
100
AcDbLine
 62
7
  6
BYLAYER
 10
38.4603522642
 20
16.0590354743
 11
39.2416022636
 21
15.6079805755
  0
LINE
  5
224
100
AcDbEntity
  8
0
100
AcDbLine
 62
7
  6
BYLAYER
 10
29.6695727349
 20
64.470055275
 11
28.7103522636
 21
64.0739437375
  0
LINE
  5
225
100
AcDbEntity
  8
0
100
AcDbLine
 62
7
  6
BYLAYER
 10
28.7103522636
 20
64.2447802686
 11
29.4698740737
 21
64.5492059529
  0
LINE
  5
226
100
AcDbEntity
  8
0
100
AcDbLine
 62
7
  6
BYLAYER
 10
19.4603522636
 20
24.5306303063
 11
19.5680474182
 21
24.5306303063
  0
LINE
  5
227
100
AcDbEntity
  8
0
100
AcDbLine
 62
7
  6
BYLAYER
 10
24.5680474182
 20
24.5306303063
 11
27.4603522636
 21
24.5306303063
  0
LINE
  5
228
100
AcDbEntity
  8
0
100
AcDbLine
 62
7
  6
BYLAYER
 10
37.4603522636
 20
24.5306303063
 11
40.3526571091
 21
24.5306303063
  0
LINE
  5
229
100
AcDbEntity
  8
0
100
AcDbLine
 62
7
  6
BYLAYER
 10
45.3526571091
 20
24.5306303063
 11
45.4603522636
 21
24.5306303063
  0
LINE
  5
22A
100
AcDbEntity
  8
0
100
AcDbLine
 62
7
  6
BYLAYER
 10
44.4603522636
 20
25.1079805755
 11
20.4603522636
 21
25.1079805755
  0
LINE
  5
22B
100
AcDbEntity
  8
0
100
AcDbLine
 62
7
  6
BYLAYER
 10
35.2511317924
 20
64.630505518
 11
36.2103522636
 21
65.0219611332
  0
LINE
  5
22C
100
AcDbEntity
  8
0
100
AcDbLine
 62
7
  6
BYLAYER
 10
36.2103522636
 20
64.8511246021
 11
35.4497189583
 21
64.5492059529
  0
LINE
  5
22D
100
AcDbEntity
  8
0
100
AcDbLine
 62
7
  6
BYLAYER
 10
19.4603522636
 20
19.9740059817
 11
19.4603522636
 21
24.5306303063
  0
LINE
  5
22E
100
AcDbEntity
  8
0
100
AcDbLine
 62
7
  6
BYLAYER
 10
19.5680474182
 20
19.9740059793
 11
19.5680474182
 21
24.5306303063
  0
LINE
  5
22F
100
AcDbEntity
  8
0
100
AcDbLine
 62
7
  6
BYLAYER
 10
20.4603522636
 20
25.1079805771
 11
20.4603522636
 21
52.6079805755
  0
LINE
  5
230
100
AcDbEntity
  8
0
100
AcDbLine
 62
7
  6
BYLAYER
 10
21.8849817239
 20
62.3579805755
 11
21.8849817239
 21
78.4579805755
  0
LINE
  5
231
100
AcDbEntity
  8
0
100
AcDbLine
 62
7
  6
BYLAYER
 10
44.4603522643
 20
25.1079805767
 11
45.4603522636
 21
24.5306303063
  0
LINE
  5
232
100
AcDbEntity
  8
0
100
AcDbLine
 62
7
  6
BYLAYER
 10
24.5680474182
 20
24.5306303064
 11
24.5680474182
 21
19.9740059793
  0
LWPOLYLINE
  5
233
100
AcDbEntity
  8
0
100
AcDbPolyline
 62
7
  6
BYLAYER
 90
3
 70
0
 10
25.6332349933
 20
55.336168954
 10
25.60467558
 20
55.1455274509
 10
25.5837640304
 20
55.1079805755
  0
LINE
  5
234
100
AcDbEntity
  8
0
100
AcDbLine
 62
7
  6
BYLAYER
 10
31.3401502185
 20
64.2820276464
 11
31.1808358876
 21
63.8579805755
  0
LINE
  5
235
100
AcDbEntity
  8
0
100
AcDbLine
 62
7
  6
BYLAYER
 10
31.5542983191
 20
64.843603497
 11
31.3953544866
 21
64.4328078971
  0
LINE
  5
236
100
AcDbEntity
  8
0
100
AcDbLine
 62
7
  6
BYLAYER
 10
30.9774322419
 20
63.8579805755
 11
31.5335504062
 21
65.2579805755
  0
LINE
  5
237
100
AcDbEntity
  8
0
100
AcDbLine
 62
7
  6
BYLAYER
 10
26.8603522667
 20
67.9469805755
 11
26.8607544594
 21
67.9241181892
  0
LINE
  5
238
100
AcDbEntity
  8
0
100
AcDbLine
 62
7
  6
BYLAYER
 10
25.6269617989
 20
55.3361754048
 11
25.6269617989
 21
61.0579805755
  0
LINE
  5
239
100
AcDbEntity
  8
0
100
AcDbLine
 62
7
  6
BYLAYER
 10
25.6791022636
 20
6.4079805755
 11
25.6791022636
 21
15.6079805755
  0
LINE
  5
23A
100
AcDbEntity
  8
0
100
AcDbLine
 62
7
  6
BYLAYER
 10
26.8603522667
 20
82.2869805755
 11
26.8603522667
 21
67.9469805755
  0
LINE
  5
23B
100
AcDbEntity
  8
0
100
AcDbLine
 62
7
  6
BYLAYER
 10
26.9603522636
 20
16.9250608771
 11
26.9603522636
 21
18.1079805755
  0
LINE
  5
23C
100
AcDbEntity
  8
0
100
AcDbLine
 62
7
  6
BYLAYER
 10
27.0323139445
 20
67.9469805755
 11
27.0323139445
 21
82.2869805755
  0
LINE
  5
23D
100
AcDbEntity
  8
0
100
AcDbLine
 62
7
  6
BYLAYER
 10
34.150751414
 20
64.2820276464
 11
33.9914370831
 21
63.8579805755
  0
LINE
  5
23E
100
AcDbEntity
  8
0
100
AcDbLine
 62
7
  6
BYLAYER
 10
34.3648995145
 20
64.843603497
 11
34.2059556821
 21
64.4328078971
  0
LINE
  5
23F
100
AcDbEntity
  8
0
100
AcDbLine
 62
7
  6
BYLAYER
 10
33.7880334374
 20
63.8579805755
 11
34.3441516017
 21
65.2579805755
  0
LINE
  5
240
100
AcDbEntity
  8
0
100
AcDbLine
 62
7
  6
BYLAYER
 10
27.4603522636
 20
19.9740059793
 11
27.4603522636
 21
24.5306303063
  0
LINE
  5
241
100
AcDbEntity
  8
0
100
AcDbLine
 62
7
  6
BYLAYER
 10
28.1269899781
 20
55.1079805755
 11
28.1269963603
 21
61.7079805755
  0
LINE
  5
242
100
AcDbEntity
  8
0
100
AcDbLine
 62
7
  6
BYLAYER
 10
28.2222817239
 20
61.7079805755
 11
28.2222817239
 21
67.2969805755
  0
LINE
  5
243
100
AcDbEntity
  8
0
100
AcDbLine
 62
7
  6
BYLAYER
 10
28.7103522636
 20
64.0739437375
 11
28.7103522636
 21
64.2447802686
  0
LINE
  5
244
100
AcDbEntity
  8
0
100
AcDbLine
 62
7
  6
BYLAYER
 10
28.7103522636
 20
64.8511246021
 11
28.7103522636
 21
65.0219611332
  0
LINE
  5
245
100
AcDbEntity
  8
0
100
AcDbLine
 62
7
  6
BYLAYER
 10
28.8104099967
 20
61.5779805755
 11
28.8104074904
 21
55.1079805755
  0
LINE
  5
246
100
AcDbEntity
  8
0
100
AcDbLine
 62
7
  6
BYLAYER
 10
28.9604109841
 20
61.4579805755
 11
28.9604109841
 21
55.1079805755
  0
LINE
  5
247
100
AcDbEntity
  8
0
100
AcDbLine
 62
7
  6
BYLAYER
 10
29.1104126299
 20
55.1079805755
 11
29.1104126299
 21
61.5579805755
  0
LINE
  5
248
100
AcDbEntity
  8
0
100
AcDbLine
 62
7
  6
BYLAYER
 10
29.2691785317
 20
61.605703133
 11
29.2691795291
 21
61.7052890526
  0
LINE
  5
249
100
AcDbEntity
  8
0
100
AcDbLine
 62
7
  6
BYLAYER
 10
29.6695727349
 20
64.630505518
 11
29.6695727349
 21
64.470055275
  0
LINE
  5
24A
100
AcDbEntity
  8
0
100
AcDbLine
 62
7
  6
BYLAYER
 10
29.9370726114
 20
63.8579805755
 11
29.9370726114
 21
65.2579805755
  0
LINE
  5
24B
100
AcDbEntity
  8
0
100
AcDbLine
 62
7
  6
BYLAYER
 10
30.1289908054
 20
65.0928744103
 11
30.1289908054
 21
64.5921836965
  0
LINE
  5
24C
100
AcDbEntity
  8
0
100
AcDbLine
 62
7
  6
BYLAYER
 10
30.1289908054
 20
64.4270775313
 11
30.1289908054
 21
63.8579805755
  0
LINE
  5
24D
100
AcDbEntity
  8
0
100
AcDbLine
 62
7
  6
BYLAYER
 10
30.3223329453
 20
82.2869805755
 11
30.3223329453
 21
67.9469805755
  0
LINE
  5
24E
100
AcDbEntity
  8
0
100
AcDbLine
 62
7
  6
BYLAYER
 10
30.4003712676
 20
67.9469805755
 11
30.4003712676
 21
82.5369805755
  0
LINE
  5
24F
100
AcDbEntity
  8
0
100
AcDbLine
 62
7
  6
BYLAYER
 10
30.5603522667
 20
76.0579805755
 11
30.5603522667
 21
80.5579805755
  0
LINE
  5
250
100
AcDbEntity
  8
0
100
AcDbLine
 62
7
  6
BYLAYER
 10
32.4886953946
 20
63.8579805755
 11
32.4886953946
 21
65.2579805755
  0
LINE
  5
251
100
AcDbEntity
  8
0
100
AcDbLine
 62
7
  6
BYLAYER
 10
32.6806135885
 20
65.1032606983
 11
32.6806135885
 21
64.6401755103
  0
LINE
  5
252
100
AcDbEntity
  8
0
100
AcDbLine
 62
7
  6
BYLAYER
 10
32.6806135885
 20
64.4797252673
 11
32.6806135885
 21
63.8579805755
  0
LINE
  5
253
100
AcDbEntity
  8
0
100
AcDbLine
 62
7
  6
BYLAYER
 10
34.3603522667
 20
80.5579805755
 11
34.3603522667
 21
76.0579805755
  0
LINE
  5
254
100
AcDbEntity
  8
0
100
AcDbLine
 62
7
  6
BYLAYER
 10
34.5203332658
 20
82.5369805755
 11
34.5203332658
 21
67.9469805755
  0
LINE
  5
255
100
AcDbEntity
  8
0
100
AcDbLine
 62
7
  6
BYLAYER
 10
34.5983715881
 20
67.9469805755
 11
34.5983715881
 21
82.2869805755
  0
LINE
  5
256
100
AcDbEntity
  8
0
100
AcDbLine
 62
7
  6
BYLAYER
 10
35.2511317924
 20
64.470055275
 11
35.2511317924
 21
64.630505518
  0
LINE
  5
257
100
AcDbEntity
  8
0
100
AcDbLine
 62
7
  6
BYLAYER
 10
35.6516477252
 20
61.7052890526
 11
35.6516467277
 21
61.605703133
  0
LINE
  5
258
100
AcDbEntity
  8
0
100
AcDbLine
 62
7
  6
BYLAYER
 10
35.8104126295
 20
61.5579805755
 11
35.8104126295
 21
55.1079805755
  0
LINE
  5
259
100
AcDbEntity
  8
0
100
AcDbLine
 62
7
  6
BYLAYER
 10
35.9604109837
 20
55.1079805755
 11
35.9604109837
 21
61.4583477291
  0
LINE
  5
25A
100
AcDbEntity
  8
0
100
AcDbLine
 62
7
  6
BYLAYER
 10
36.1104075022
 20
55.1079805755
 11
36.1104099962
 21
61.5779805755
  0
LINE
  5
25B
100
AcDbEntity
  8
0
100
AcDbLine
 62
7
  6
BYLAYER
 10
36.2103522636
 20
65.0219611332
 11
36.2103522636
 21
64.8511246021
  0
LINE
  5
25C
100
AcDbEntity
  8
0
100
AcDbLine
 62
7
  6
BYLAYER
 10
36.2103522636
 20
64.2447802686
 11
36.2103522636
 21
64.0739437375
  0
LINE
  5
25D
100
AcDbEntity
  8
0
100
AcDbLine
 62
7
  6
BYLAYER
 10
36.6984228034
 20
67.2969805755
 11
36.6984228034
 21
61.7079805755
  0
LINE
  5
25E
100
AcDbEntity
  8
0
100
AcDbLine
 62
7
  6
BYLAYER
 10
36.7938321907
 20
61.7079805755
 11
36.7938257751
 21
55.1079805755
  0
LINE
  5
25F
100
AcDbEntity
  8
0
100
AcDbLine
 62
7
  6
BYLAYER
 10
37.4603522636
 20
24.5306303063
 11
37.4603522636
 21
19.9740059793
  0
LINE
  5
260
100
AcDbEntity
  8
0
100
AcDbLine
 62
7
  6
BYLAYER
 10
37.8883905889
 20
82.2869805755
 11
37.8883905889
 21
67.9469805755
  0
LINE
  5
261
100
AcDbEntity
  8
0
100
AcDbLine
 62
7
  6
BYLAYER
 10
37.9603522636
 20
16.9250608771
 11
37.9603522636
 21
18.1079805755
  0
LINE
  5
262
100
AcDbEntity
  8
0
100
AcDbLine
 62
7
  6
BYLAYER
 10
38.0603522667
 20
67.9469805755
 11
38.0603522667
 21
82.2869805755
  0
LINE
  5
263
100
AcDbEntity
  8
0
100
AcDbLine
 62
7
  6
BYLAYER
 10
39.2416022636
 20
6.4079805755
 11
39.2416022636
 21
15.6079805755
  0
LINE
  5
264
100
AcDbEntity
  8
0
100
AcDbLine
 62
7
  6
BYLAYER
 10
39.2937976293
 20
55.3361779994
 11
39.2937976293
 21
61.0579805755
  0
LINE
  5
265
100
AcDbEntity
  8
0
100
AcDbLine
 62
7
  6
BYLAYER
 10
40.3526571091
 20
19.9740059793
 11
40.3526571091
 21
24.5306303063
  0
LINE
  5
266
100
AcDbEntity
  8
0
100
AcDbLine
 62
7
  6
BYLAYER
 10
20.4603522636
 20
52.6079805755
 11
44.4603522636
 21
52.6079805755
  0
LINE
  5
267
100
AcDbEntity
  8
0
100
AcDbLine
 62
7
  6
BYLAYER
 10
31.7402885379
 20
65.2579805755
 11
32.3327155497
 21
63.8579805755
  0
LINE
  5
268
100
AcDbEntity
  8
0
100
AcDbLine
 62
7
  6
BYLAYER
 10
32.1144919663
 20
63.8579805755
 11
31.9455446758
 21
64.2820276464
  0
LINE
  5
269
100
AcDbEntity
  8
0
100
AcDbLine
 62
7
  6
BYLAYER
 10
43.0357228034
 20
62.3579805755
 11
43.0357228034
 21
78.4579805755
  0
LINE
  5
26A
100
AcDbEntity
  8
0
100
AcDbLine
 62
7
  6
BYLAYER
 10
20.460352263
 20
25.1079805767
 11
19.4603522636
 21
24.5306303063
  0
LINE
  5
26B
100
AcDbEntity
  8
0
100
AcDbLine
 62
7
  6
BYLAYER
 10
22.9606154624
 20
55.1079805755
 11
41.9600890649
 21
55.1079805755
  0
LINE
  5
26C
100
AcDbEntity
  8
0
100
AcDbLine
 62
7
  6
BYLAYER
 10
28.9604087898
 20
55.3086815929
 11
28.1269892286
 21
55.3086815275
  0
LINE
  5
26D
100
AcDbEntity
  8
0
100
AcDbLine
 62
7
  6
BYLAYER
 10
36.793825059
 20
55.3086823574
 11
35.9604087893
 21
55.3086822919
  0
LINE
  5
26E
100
AcDbEntity
  8
0
100
AcDbLine
 62
7
  6
BYLAYER
 10
34.5508897334
 20
65.2579805755
 11
35.1433167452
 21
63.8579805755
  0
LINE
  5
26F
100
AcDbEntity
  8
0
100
AcDbLine
 62
7
  6
BYLAYER
 10
34.9250931617
 20
63.8579805755
 11
34.7561458713
 21
64.2820276464
  0
LWPOLYLINE
  5
270
100
AcDbEntity
  8
0
100
AcDbPolyline
 62
7
  6
BYLAYER
 90
3
 70
0
 10
39.3460800156
 20
55.1079805755
 10
39.289569545
 20
55.2850838829
 10
39.2875244244
 20
55.3361586647
  0
LINE
  5
271
100
AcDbEntity
  8
0
100
AcDbLine
 62
7
  6
BYLAYER
 10
44.4603522636
 20
25.1079805771
 11
44.4603522636
 21
52.6079805755
  0
LINE
  5
272
100
AcDbEntity
  8
0
100
AcDbLine
 62
7
  6
BYLAYER
 10
45.3526571091
 20
24.5306303064
 11
45.3526571091
 21
19.9740059793
  0
LINE
  5
273
100
AcDbEntity
  8
0
100
AcDbLine
 62
7
  6
BYLAYER
 10
45.4603522636
 20
19.9740059817
 11
45.4603522636
 21
24.5306303063
  0
LINE
  5
274
100
AcDbEntity
  8
0
100
AcDbLine
 62
7
  6
BYLAYER
 10
25.6269617989
 20
61.0579805755
 11
28.9604087898
 21
61.0579805755
  0
LINE
  5
275
100
AcDbEntity
  8
0
100
AcDbLine
 62
7
  6
BYLAYER
 10
35.9805041559
 20
61.0579805755
 11
39.2937976293
 21
61.0579805755
  0
LINE
  5
276
100
AcDbEntity
  8
0
100
AcDbLine
 62
7
  6
BYLAYER
 10
29.2691785317
 20
61.605703133
 11
35.6516467277
 21
61.605703133
  0
LINE
  5
277
100
AcDbEntity
  8
0
100
AcDbLine
 62
7
  6
BYLAYER
 10
22.5351424008
 20
61.7079805755
 11
42.3856133521
 21
61.7079805755
  0
LINE
  5
278
100
AcDbEntity
  8
0
100
AcDbLine
 62
7
  6
BYLAYER
 10
43.0357228034
 20
62.3579805755
 11
21.8849817239
 21
62.3579805755
  0
LINE
  5
279
100
AcDbEntity
  8
0
100
AcDbLine
 62
7
  6
BYLAYER
 10
29.4698740737
 20
64.5492059529
 11
28.7103522636
 21
64.8511246021
  0
LINE
  5
27A
100
AcDbEntity
  8
0
100
AcDbLine
 62
7
  6
BYLAYER
 10
28.7103522636
 20
65.0219611332
 11
29.6695727349
 21
64.630505518
  0
LINE
  5
27B
100
AcDbEntity
  8
0
100
AcDbLine
 62
7
  6
BYLAYER
 10
26.4603522631
 20
16.0590354743
 11
25.6791022636
 21
15.6079805755
  0
LINE
  5
27C
100
AcDbEntity
  8
0
100
AcDbLine
 62
7
  6
BYLAYER
 10
35.1433167452
 20
63.8579805755
 11
34.9250931617
 21
63.8579805755
  0
LINE
  5
27D
100
AcDbEntity
  8
0
100
AcDbLine
 62
7
  6
BYLAYER
 10
33.9914370831
 20
63.8579805755
 11
33.7880334374
 21
63.8579805755
  0
LINE
  5
27E
100
AcDbEntity
  8
0
100
AcDbLine
 62
7
  6
BYLAYER
 10
33.7650625339
 20
63.8579805755
 11
33.5242385453
 21
63.8579805755
  0
LINE
  5
27F
100
AcDbEntity
  8
0
100
AcDbLine
 62
7
  6
BYLAYER
 10
32.6806135885
 20
63.8579805755
 11
32.4886953946
 21
63.8579805755
  0
LINE
  5
280
100
AcDbEntity
  8
0
100
AcDbLine
 62
7
  6
BYLAYER
 10
32.3327155497
 20
63.8579805755
 11
32.1144919663
 21
63.8579805755
  0
LINE
  5
281
100
AcDbEntity
  8
0
100
AcDbLine
 62
7
  6
BYLAYER
 10
31.1808358876
 20
63.8579805755
 11
30.9774322419
 21
63.8579805755
  0
LINE
  5
282
100
AcDbEntity
  8
0
100
AcDbLine
 62
7
  6
BYLAYER
 10
30.1289908054
 20
63.8579805755
 11
29.9370726114
 21
63.8579805755
  0
LINE
  5
283
100
AcDbEntity
  8
0
100
AcDbLine
 62
7
  6
BYLAYER
 10
34.7561458713
 20
64.2820276464
 11
34.150751414
 21
64.2820276464
  0
LINE
  5
284
100
AcDbEntity
  8
0
100
AcDbLine
 62
7
  6
BYLAYER
 10
31.9455446758
 20
64.2820276464
 11
31.3401502185
 21
64.2820276464
  0
LINE
  5
285
100
AcDbEntity
  8
0
100
AcDbLine
 62
7
  6
BYLAYER
 10
30.1289908054
 20
64.4270775313
 11
30.5002302462
 21
64.4270775313
  0
LINE
  5
286
100
AcDbEntity
  8
0
100
AcDbLine
 62
7
  6
BYLAYER
 10
31.3953544866
 20
64.4328078971
 11
31.8862649248
 21
64.4328078971
  0
LINE
  5
287
100
AcDbEntity
  8
0
100
AcDbLine
 62
7
  6
BYLAYER
 10
34.2059556821
 20
64.4328078971
 11
34.6968661203
 21
64.4328078971
  0
LINE
  5
288
100
AcDbEntity
  8
0
100
AcDbLine
 62
7
  6
BYLAYER
 10
32.6806135885
 20
65.1032606983
 11
33.1389201637
 21
65.1032606983
  0
LINE
  5
289
100
AcDbEntity
  8
0
100
AcDbLine
 62
7
  6
BYLAYER
 10
29.9370726114
 20
65.2579805755
 11
30.4835578162
 21
65.2579805755
  0
LINE
  5
28A
100
AcDbEntity
  8
0
100
AcDbLine
 62
7
  6
BYLAYER
 10
31.5335504062
 20
65.2579805755
 11
31.7402885379
 21
65.2579805755
  0
LINE
  5
28B
100
AcDbEntity
  8
0
100
AcDbLine
 62
7
  6
BYLAYER
 10
32.4886953946
 20
65.2579805755
 11
33.1311396963
 21
65.2579805755
  0
LINE
  5
28C
100
AcDbEntity
  8
0
100
AcDbLine
 62
7
  6
BYLAYER
 10
34.3441516017
 20
65.2579805755
 11
34.5508897334
 21
65.2579805755
  0
LINE
  5
28D
100
AcDbEntity
  8
0
100
AcDbLine
 62
7
  6
BYLAYER
 10
30.4835578162
 20
65.2579805755
 11
30.5663556939
 21
65.256731289
  0
LINE
  5
28E
100
AcDbEntity
  8
0
100
AcDbLine
 62
7
  6
BYLAYER
 10
35.4497189583
 20
64.5492059529
 11
36.2103522636
 21
64.2447802686
  0
LINE
  5
28F
100
AcDbEntity
  8
0
100
AcDbLine
 62
7
  6
BYLAYER
 10
36.2103522636
 20
64.0739437375
 11
35.2511317924
 21
64.470055275
  0
LINE
  5
290
100
AcDbEntity
  8
0
100
AcDbLine
 62
7
  6
BYLAYER
 10
27.5103522667
 20
67.2969805755
 11
37.4103522667
 21
67.2969805755
  0
LINE
  5
291
100
AcDbEntity
  8
0
100
AcDbLine
 62
7
  6
BYLAYER
 10
38.0603522667
 20
67.9469805755
 11
26.8603522667
 21
67.9469805755
  0
LINE
  5
292
100
AcDbEntity
  8
0
100
AcDbLine
 62
7
  6
BYLAYER
 10
43.9603522636
 20
19.1079805755
 11
45.4603522626
 21
19.9740059811
  0
LINE
  5
293
100
AcDbEntity
  8
0
100
AcDbLine
 62
7
  6
BYLAYER
 10
34.1603522667
 20
75.8579805755
 11
30.7603522667
 21
75.8579805755
  0
LINE
  5
294
100
AcDbEntity
  8
0
100
AcDbLine
 62
7
  6
BYLAYER
 10
21.8849817239
 20
78.4579805755
 11
26.8603522667
 21
78.4579805755
  0
LINE
  5
295
100
AcDbEntity
  8
0
100
AcDbLine
 62
7
  6
BYLAYER
 10
38.0603522667
 20
78.4579805755
 11
43.0357228034
 21
78.4579805755
  0
LINE
  5
296
100
AcDbEntity
  8
0
100
AcDbLine
 62
7
  6
BYLAYER
 10
30.5603522667
 20
78.474149997
 11
34.3603522667
 21
78.474149997
  0
LINE
  5
297
100
AcDbEntity
  8
0
100
AcDbLine
 62
7
  6
BYLAYER
 10
22.5351425277
 20
79.1079805755
 11
26.8603522667
 21
79.1079805755
  0
LINE
  5
298
100
AcDbEntity
  8
0
100
AcDbLine
 62
7
  6
BYLAYER
 10
30.5603522667
 20
79.1079805755
 11
34.3603522667
 21
79.1079805755
  0
LINE
  5
299
100
AcDbEntity
  8
0
100
AcDbLine
 62
7
  6
BYLAYER
 10
38.0603522667
 20
79.1079805755
 11
42.3854741144
 21
79.1079805755
  0
LINE
  5
29A
100
AcDbEntity
  8
0
100
AcDbLine
 62
7
  6
BYLAYER
 10
30.7603522667
 20
80.7579805755
 11
34.1603522667
 21
80.7579805755
  0
LINE
  5
29B
100
AcDbEntity
  8
0
100
AcDbLine
 62
7
  6
BYLAYER
 10
26.8603522667
 20
82.2869805755
 11
38.0603522667
 21
82.2869805755
  0
LINE
  5
29C
100
AcDbEntity
  8
0
100
AcDbLine
 62
7
  6
BYLAYER
 10
27.1103522667
 20
82.5369805755
 11
37.8103522667
 21
82.5369805755
  0
ARC
  5
29D
100
AcDbEntity
  8
0
100
AcDbCircle
 62
7
  6
BYLAYER
 10
28.0868478296
 20
249.6437657832
 40
194.3351220279
100
AcDbArc
 50
269.6442193298
 51
270.0118348796
  0
ARC
  5
29E
100
AcDbEntity
  8
0
100
AcDbCircle
 62
7
  6
BYLAYER
 10
32.46042031
 20
58.2079805755
 40
3.2
100
AcDbArc
 50
283.6798437172
 51
256.3201562828
  0
CIRCLE
  5
29F
100
AcDbEntity
  8
0
100
AcDbCircle
 62
7
  6
BYLAYER
 10
32.4604268931
 20
58.2079805755
 40
2.6
  0
ARC
  5
2A0
100
AcDbEntity
  8
0
100
AcDbCircle
 62
7
  6
BYLAYER
 10
22.9603522636
 20
52.6079805755
 40
2.5
100
AcDbArc
 50
90.0
 51
180.0
  0
ARC
  5
2A1
100
AcDbEntity
  8
0
100
AcDbCircle
 62
7
  6
BYLAYER
 10
41.9603522636
 20
52.6079805755
 40
2.5
100
AcDbArc
 50
0.0
 51
90.0
  0
ARC
  5
2A2
100
AcDbEntity
  8
0
100
AcDbCircle
 62
7
  6
BYLAYER
 10
29.9301355707
 20
65.4638522227
 40
1.7385663965
100
AcDbArc
 50
339.0987290509
 51
348.2827936099
  0
ARC
  5
2A3
100
AcDbEntity
  8
0
100
AcDbCircle
 62
7
  6
BYLAYER
 10
32.7407367662
 20
65.4638522227
 40
1.7385663965
100
AcDbArc
 50
339.0987290509
 51
348.2827936099
  0
ARC
  5
2A4
100
AcDbEntity
  8
0
100
AcDbCircle
 62
7
  6
BYLAYER
 10
38.9603522636
 20
16.9250608771
 40
1.0
100
AcDbArc
 50
180.0
 51
239.9999999314
  0
ARC
  5
2A5
100
AcDbEntity
  8
0
100
AcDbCircle
 62
7
  6
BYLAYER
 10
25.9603522636
 20
16.9250608771
 40
1.0
100
AcDbArc
 50
300.0000000686
 51
360.0
  0
ARC
  5
2A6
100
AcDbEntity
  8
0
100
AcDbCircle
 62
7
  6
BYLAYER
 10
38.9603522636
 20
18.1079805755
 40
1.0
100
AcDbArc
 50
90.0
 51
180.0
  0
ARC
  5
2A7
100
AcDbEntity
  8
0
100
AcDbCircle
 62
7
  6
BYLAYER
 10
25.9603522636
 20
18.1079805755
 40
1.0
100
AcDbArc
 50
0.0
 51
90.0
  0
CIRCLE
  5
2A8
100
AcDbEntity
  8
0
100
AcDbCircle
 62
7
  6
BYLAYER
 10
32.4604268931
 20
58.2079805755
 40
0.75
  0
ARC
  5
2A9
100
AcDbEntity
  8
0
100
AcDbCircle
 62
7
  6
BYLAYER
 10
39.9437976293
 20
61.0579805755
 40
0.65
100
AcDbArc
 50
90.0
 51
180.0
  0
ARC
  5
2AA
100
AcDbEntity
  8
0
100
AcDbCircle
 62
7
  6
BYLAYER
 10
27.5103522667
 20
67.9469805755
 40
0.65
100
AcDbArc
 50
182.0156745975
 51
270.0
  0
ARC
  5
2AB
100
AcDbEntity
  8
0
100
AcDbCircle
 62
7
  6
BYLAYER
 10
42.3857228034
 20
78.4579805755
 40
0.65
100
AcDbArc
 50
0.0
 51
90.0
  0
ARC
  5
2AC
100
AcDbEntity
  8
0
100
AcDbCircle
 62
7
  6
BYLAYER
 10
22.5349817239
 20
78.4579805755
 40
0.65
100
AcDbArc
 50
90.0
 51
180.0
  0
ARC
  5
2AD
100
AcDbEntity
  8
0
100
AcDbCircle
 62
7
  6
BYLAYER
 10
22.5349817239
 20
62.3579805755
 40
0.65
100
AcDbArc
 50
180.0
 51
270.0
  0
ARC
  5
2AE
100
AcDbEntity
  8
0
100
AcDbCircle
 62
7
  6
BYLAYER
 10
42.3857228034
 20
62.3579805755
 40
0.65
100
AcDbArc
 50
270.0
 51
360.0
  0
ARC
  5
2AF
100
AcDbEntity
  8
0
100
AcDbCircle
 62
7
  6
BYLAYER
 10
24.9769617989
 20
61.0579805755
 40
0.65
100
AcDbArc
 50
0.0
 51
90.0
  0
ARC
  5
2B0
100
AcDbEntity
  8
0
100
AcDbCircle
 62
7
  6
BYLAYER
 10
37.4103522667
 20
67.9469805755
 40
0.65
100
AcDbArc
 50
270.0
 51
360.0
  0
ARC
  5
2B1
100
AcDbEntity
  8
0
100
AcDbCircle
 62
7
  6
BYLAYER
 10
27.1103522667
 20
82.2869805755
 40
0.25
100
AcDbArc
 50
90.0
 51
180.0
  0
ARC
  5
2B2
100
AcDbEntity
  8
0
100
AcDbCircle
 62
7
  6
BYLAYER
 10
37.8103522667
 20
82.2869805755
 40
0.25
100
AcDbArc
 50
0.0
 51
90.0
  0
ARC
  5
2B3
100
AcDbEntity
  8
0
100
AcDbCircle
 62
7
  6
BYLAYER
 10
34.1603522667
 20
76.0579805755
 40
0.2
100
AcDbArc
 50
270.0
 51
360.0
  0
ARC
  5
2B4
100
AcDbEntity
  8
0
100
AcDbCircle
 62
7
  6
BYLAYER
 10
34.1603522667
 20
80.5579805755
 40
0.2
100
AcDbArc
 50
0.0
 51
90.0
  0
ARC
  5
2B5
100
AcDbEntity
  8
0
100
AcDbCircle
 62
7
  6
BYLAYER
 10
30.7603522667
 20
80.5579805755
 40
0.2
100
AcDbArc
 50
90.0
 51
180.0
  0
ARC
  5
2B6
100
AcDbEntity
  8
0
100
AcDbCircle
 62
7
  6
BYLAYER
 10
30.7603522667
 20
76.0579805755
 40
0.2
100
AcDbArc
 50
180.0
 51
270.0
  0
SPLINE
  5
2B7
100
AcDbEntity
  8
0
100
AcDbSpline
 62
7
  6
BYLAYER
 70
0
 71
3
 72
8
 73
4
 74
0
 42
0.0000001
 43
0.0000001
 44
0.0000000001
 40
0.0
 40
0.0
 40
0.0
 40
0.0
 40
1.0
 40
1.0
 40
1.0
 40
1.0
 10
30.7040043903
 20
65.2447291046
 30
0.0
 10
30.7639817925
 20
65.2350660957
 30
0.0
 10
30.8149066284
 20
65.2186665673
 30
0.0
 10
30.8588022417
 20
65.1938941122
 30
0.0
  0
SPLINE
  5
2B8
100
AcDbEntity
  8
0
100
AcDbSpline
 62
7
  6
BYLAYER
 70
0
 71
3
 72
14
 73
10
 74
0
 42
0.0000001
 43
0.0000001
 44
0.0000000001
 40
0.0
 40
0.0
 40
0.0
 40
0.0
 40
0.0280618536
 40
0.2069600544
 40
0.3862749755
 40
0.5397093925
 40
0.6931438095
 40
0.8465719047
 40
1.0
 40
1.0
 40
1.0
 40
1.0
 10
30.8588022417
 20
65.1938941122
 30
0.0
 10
30.8669686571
 20
65.1892854021
 30
0.0
 10
30.9254027882
 20
65.1531582137
 30
0.0
 10
31.0110893099
 20
65.0552394907
 30
0.0
 10
31.0554335713
 20
64.861522271
 30
0.0
 10
31.0219161801
 20
64.6834424114
 30
0.0
 10
30.9380769798
 20
64.5434620975
 30
0.0
 10
30.7769394448
 20
64.4465518516
 30
0.0
 10
30.6026730659
 20
64.4270775313
 30
0.0
 10
30.5002302462
 20
64.4270775313
 30
0.0
  0
SPLINE
  5
2B9
100
AcDbEntity
  8
0
100
AcDbSpline
 62
7
  6
BYLAYER
 70
0
 71
3
 72
8
 73
4
 74
0
 42
0.0000001
 43
0.0000001
 44
0.0000000001
 40
0.0
 40
0.0
 40
0.0
 40
0.0
 40
1.0
 40
1.0
 40
1.0
 40
1.0
 10
30.5663556939
 20
65.256731289
 30
0.0
 10
30.6230144087
 20
65.2548691331
 30
0.0
 10
30.6689784677
 20
65.2509076323
 30
0.0
 10
30.7040043903
 20
65.2447291046
 30
0.0
  0
SPLINE
  5
2BA
100
AcDbEntity
  8
0
100
AcDbSpline
 62
7
  6
BYLAYER
 70
0
 71
3
 72
10
 73
6
 74
0
 42
0.0000001
 43
0.0000001
 44
0.0000000001
 40
0.0
 40
0.0
 40
0.0
 40
0.0
 40
0.3993993994
 40
0.6996996997
 40
1.0
 40
1.0
 40
1.0
 40
1.0
 10
33.0096162067
 20
64.4729204579
 30
0.0
 10
32.9877567985
 20
64.4775763801
 30
0.0
 10
32.9198966844
 20
64.4804710489
 30
0.0
 10
32.7905722379
 20
64.4795385885
 30
0.0
 10
32.7176634329
 20
64.4797252673
 30
0.0
 10
32.6806135885
 20
64.4797252673
 30
0.0
  0
SPLINE
  5
2BB
100
AcDbEntity
  8
0
100
AcDbSpline
 62
7
  6
BYLAYER
 70
0
 71
3
 72
13
 73
9
 74
0
 42
0.0000001
 43
0.0000001
 44
0.0000000001
 40
0.0
 40
0.0
 40
0.0
 40
0.0
 40
0.1383236176
 40
0.2766472353
 40
0.3972200087
 40
0.5177927821
 40
0.7577764808
 40
1.0
 40
1.0
 40
1.0
 40
1.0
 10
33.5242385453
 20
63.8579805755
 30
0.0
 10
33.4923139294
 20
63.9065096111
 30
0.0
 10
33.4288409231
 20
64.0026585036
 30
0.0
 10
33.335543315
 20
64.1459342519
 30
0.0
 10
33.2531761977
 20
64.2664682785
 30
0.0
 10
33.1724968995
 20
64.3725680279
 30
0.0
 10
33.0953951208
 20
64.4451160288
 30
0.0
 10
33.0392560822
 20
64.4661156484
 30
0.0
 10
33.0096162067
 20
64.4729204579
 30
0.0
  0
SPLINE
  5
2BC
100
AcDbEntity
  8
0
100
AcDbSpline
 62
7
  6
BYLAYER
 70
0
 71
3
 72
10
 73
6
 74
0
 42
0.0000001
 43
0.0000001
 44
0.0000000001
 40
0.0
 40
0.0
 40
0.0
 40
0.0
 40
0.3707746073
 40
0.6853873036
 40
1.0
 40
1.0
 40
1.0
 40
1.0
 10
33.3541797596
 20
64.425286792
 30
0.0
 10
33.4101250246
 20
64.3755042389
 30
0.0
 10
33.5069988825
 20
64.2554562895
 30
0.0
 10
33.6393002238
 20
64.0475503707
 30
0.0
 10
33.7230727102
 20
63.9214921301
 30
0.0
 10
33.7650625339
 20
63.8579805755
 30
0.0
  0
SPLINE
  5
2BD
100
AcDbEntity
  8
0
100
AcDbSpline
 62
7
  6
BYLAYER
 70
0
 71
3
 72
8
 73
4
 74
0
 42
0.0000001
 43
0.0000001
 44
0.0000000001
 40
0.0
 40
0.0
 40
0.0
 40
0.0
 40
1.0
 40
1.0
 40
1.0
 40
1.0
 10
33.2385842451
 20
64.4951256254
 30
0.0
 10
33.2893425319
 20
64.4714878664
 30
0.0
 10
33.3278743701
 20
64.4482082553
 30
0.0
 10
33.3541797596
 20
64.425286792
 30
0.0
  0
SPLINE
  5
2BE
100
AcDbEntity
  8
0
100
AcDbSpline
 62
7
  6
BYLAYER
 70
0
 71
3
 72
15
 73
11
 74
0
 42
0.0000001
 43
0.0000001
 44
0.0000000001
 40
0.0
 40
0.0
 40
0.0
 40
0.0
 40
0.1109165478
 40
0.2218330957
 40
0.3334820539
 40
0.4451310122
 40
0.5569354783
 40
0.6687399444
 40
0.9568314524
 40
1.0
 40
1.0
 40
1.0
 40
1.0
 10
33.1311396963
 20
65.2579805755
 30
0.0
 10
33.1956064256
 20
65.2579805755
 30
0.0
 10
33.3097593104
 20
65.2515091104
 30
0.0
 10
33.4312799269
 20
65.2241623546
 30
0.0
 10
33.5186181207
 20
65.1734931762
 30
0.0
 10
33.5908828393
 20
65.0901241166
 30
0.0
 10
33.6369363775
 20
64.988574362
 30
0.0
 10
33.6589106757
 20
64.8151500794
 30
0.0
 10
33.6093740778
 20
64.6783105991
 30
0.0
 10
33.5258623493
 20
64.6052321387
 30
0.0
 10
33.5141839298
 20
64.5962203064
 30
0.0
  0
SPLINE
  5
2BF
100
AcDbEntity
  8
0
100
AcDbSpline
 62
7
  6
BYLAYER
 70
0
 71
3
 72
8
 73
4
 74
0
 42
0.0000001
 43
0.0000001
 44
0.0000000001
 40
0.0
 40
0.0
 40
0.0
 40
0.0
 40
1.0
 40
1.0
 40
1.0
 40
1.0
 10
33.5141839298
 20
64.5962203064
 30
0.0
 10
33.4481365648
 20
64.5452538402
 30
0.0
 10
33.3566456746
 20
64.5106467406
 30
0.0
 10
33.2385842451
 20
64.4951256254
 30
0.0
  0
SPLINE
  5
2C0
100
AcDbEntity
  8
0
100
AcDbSpline
 62
7
  6
BYLAYER
 70
0
 71
3
 72
11
 73
7
 74
0
 42
0.0000001
 43
0.0000001
 44
0.0000000001
 40
0.0
 40
0.0
 40
0.0
 40
0.0
 40
0.2062279671
 40
0.4124559342
 40
0.7062279671
 40
1.0
 40
1.0
 40
1.0
 40
1.0
 10
30.6780694992
 20
65.080339235
 30
0.0
 10
30.6619528169
 20
65.0844579355
 30
0.0
 10
30.6171460773
 20
65.0909058897
 30
0.0
 10
30.486024238
 20
65.093658825
 30
0.0
 10
30.3126231222
 20
65.0926174779
 30
0.0
 10
30.190740546
 20
65.0928744103
 30
0.0
 10
30.1289908054
 20
65.0928744103
 30
0.0
  0
SPLINE
  5
2C1
100
AcDbEntity
  8
0
100
AcDbSpline
 62
7
  6
BYLAYER
 70
0
 71
3
 72
16
 73
12
 74
0
 42
0.0000001
 43
0.0000001
 44
0.0000000001
 40
0.0
 40
0.0
 40
0.0
 40
0.0
 40
0.1124984884
 40
0.2249969768
 40
0.3366043881
 40
0.4482117994
 40
0.560279896
 40
0.6723479926
 40
0.7540331831
 40
0.8357183735
 40
1.0
 40
1.0
 40
1.0
 40
1.0
 10
30.1289908054
 20
64.5921836965
 30
0.0
 10
30.1913580434
 20
64.5921836965
 30
0.0
 10
30.3148276225
 20
64.5929881779
 30
0.0
 10
30.5071123468
 20
64.5893775701
 30
0.0
 10
30.6725701172
 20
64.6025148644
 30
0.0
 10
30.7745808271
 20
64.654699682
 30
0.0
 10
30.8318069227
 20
64.7342634374
 30
0.0
 10
30.8501014811
 20
64.8362716926
 30
0.0
 10
30.8378761736
 20
64.9314553512
 30
0.0
 10
30.7900326351
 20
65.0237229201
 30
0.0
 10
30.7280867892
 20
65.0670877641
 30
0.0
 10
30.6780694992
 20
65.080339235
 30
0.0
  0
SPLINE
  5
2C2
100
AcDbEntity
  8
0
100
AcDbSpline
 62
7
  6
BYLAYER
 70
0
 71
3
 72
11
 73
7
 74
0
 42
0.0000001
 43
0.0000001
 44
0.0000000001
 40
0.0
 40
0.0
 40
0.0
 40
0.0
 40
0.2615868502
 40
0.5231737005
 40
0.7615868502
 40
1.0
 40
1.0
 40
1.0
 40
1.0
 10
31.8862649248
 20
64.4328078971
 30
0.0
 10
31.8610710306
 20
64.4974535865
 30
0.0
 10
31.8111527059
 20
64.6258779968
 30
0.0
 10
31.7357527211
 20
64.8178743254
 30
0.0
 10
31.6715126102
 20
64.9876562804
 30
0.0
 10
31.6435884441
 20
65.0729972038
 30
0.0
 10
31.6324734907
 20
65.1107818035
 30
0.0
  0
SPLINE
  5
2C3
100
AcDbEntity
  8
0
100
AcDbSpline
 62
7
  6
BYLAYER
 70
0
 71
3
 72
11
 73
7
 74
0
 42
0.0000001
 43
0.0000001
 44
0.0000000001
 40
0.0
 40
0.0
 40
0.0
 40
0.0
 40
0.2615868502
 40
0.5231737005
 40
0.7615868502
 40
1.0
 40
1.0
 40
1.0
 40
1.0
 10
34.6968661203
 20
64.4328078971
 30
0.0
 10
34.6716722261
 20
64.4974535865
 30
0.0
 10
34.6217539014
 20
64.6258779968
 30
0.0
 10
34.5463539165
 20
64.8178743254
 30
0.0
 10
34.4821138057
 20
64.9876562804
 30
0.0
 10
34.4541896395
 20
65.0729972038
 30
0.0
 10
34.4430746862
 20
65.1107818035
 30
0.0
  0
SPLINE
  5
2C4
100
AcDbEntity
  8
0
100
AcDbSpline
 62
7
  6
BYLAYER
 70
0
 71
3
 72
12
 73
8
 74
0
 42
0.0000001
 43
0.0000001
 44
0.0000000001
 40
0.0
 40
0.0
 40
0.0
 40
0.0
 40
0.2195263034
 40
0.4390526068
 40
0.5788229511
 40
0.7185932954
 40
1.0
 40
1.0
 40
1.0
 40
1.0
 10
32.6806135885
 20
64.6401755103
 30
0.0
 10
32.7492793002
 20
64.6401755103
 30
0.0
 10
32.8853510071
 20
64.6407761179
 30
0.0
 10
33.0713834699
 20
64.6384006933
 30
0.0
 10
33.2153774074
 20
64.6441742167
 30
0.0
 10
33.330421949
 20
64.6706719595
 30
0.0
 10
33.3849311304
 20
64.7118050831
 30
0.0
 10
33.410495523
 20
64.7504850524
 30
0.0
  0
SPLINE
  5
2C5
100
AcDbEntity
  8
0
100
AcDbSpline
 62
7
  6
BYLAYER
 70
0
 71
3
 72
10
 73
6
 74
0
 42
0.0000001
 43
0.0000001
 44
0.0000000001
 40
0.0
 40
0.0
 40
0.0
 40
0.0
 40
0.2540322581
 40
0.627016129
 40
1.0
 40
1.0
 40
1.0
 40
1.0
 10
33.410495523
 20
64.7504850524
 30
0.0
 10
33.4364304141
 20
64.7888068738
 30
0.0
 10
33.4663206408
 20
64.8981318804
 30
0.0
 10
33.4010607323
 20
65.0573809692
 30
0.0
 10
33.2463647124
 20
65.1032606983
 30
0.0
 10
33.1389201637
 20
65.1032606983
 30
0.0
  0
SPLINE
  5
2C6
100
AcDbEntity
  8
0
100
AcDbSpline
 62
7
  6
BYLAYER
 70
0
 71
3
 72
11
 73
7
 74
0
 42
0.0000001
 43
0.0000001
 44
0.0000000001
 40
0.0
 40
0.0
 40
0.0
 40
0.0
 40
0.2934846339
 40
0.5670414853
 40
0.8014251075
 40
1.0
 40
1.0
 40
1.0
 40
1.0
 10
35.8104126295
 20
61.5579805755
 30
0.0
 10
35.8236090402
 20
61.5584178478
 30
0.0
 10
35.8491479242
 20
61.5582403669
 30
0.0
 10
35.8851273678
 20
61.5570988771
 30
0.0
 10
35.9169009668
 20
61.5520309742
 30
0.0
 10
35.9340277519
 20
61.5413142552
 30
0.0
 10
35.9403156172
 20
61.5349680455
 30
0.0
  0
SPLINE
  5
2C7
100
AcDbEntity
  8
0
100
AcDbSpline
 62
7
  6
BYLAYER
 70
0
 71
3
 72
9
 73
5
 74
0
 42
0.0000001
 43
0.0000001
 44
0.0000000001
 40
0.0
 40
0.0
 40
0.0
 40
0.0
 40
0.5000324222
 40
1.0
 40
1.0
 40
1.0
 40
1.0
 10
27.4603522636
 20
19.9740059793
 30
0.0
 10
28.2805581044
 20
19.7918728777
 30
0.0
 10
29.9387450384
 20
19.5022820305
 30
0.0
 10
31.6202766633
 20
19.3966557867
 30
0.0
 10
32.4603522636
 20
19.3966557867
 30
0.0
  0
SPLINE
  5
2C8
100
AcDbEntity
  8
0
100
AcDbSpline
 62
7
  6
BYLAYER
 70
0
 71
3
 72
9
 73
5
 74
0
 42
0.0000001
 43
0.0000001
 44
0.0000000001
 40
0.0
 40
0.0
 40
0.0
 40
0.0
 40
0.4999682698
 40
1.0
 40
1.0
 40
1.0
 40
1.0
 10
32.4603522636
 20
19.3966557867
 30
0.0
 10
33.3004085511
 20
19.3966557867
 30
0.0
 10
34.9817024029
 20
19.5045187552
 30
0.0
 10
36.6401675492
 20
19.7918775689
 30
0.0
 10
37.4603522636
 20
19.9740059793
 30
0.0
  0
SPLINE
  5
2C9
100
AcDbEntity
  8
0
100
AcDbSpline
 62
7
  6
BYLAYER
 70
0
 71
3
 72
9
 73
5
 74
0
 42
0.0000001
 43
0.0000001
 44
0.0000000001
 40
0.0
 40
0.0
 40
0.0
 40
0.0
 40
0.5000318183
 40
1.0
 40
1.0
 40
1.0
 40
1.0
 10
37.4603522636
 20
24.5306303063
 30
0.0
 10
36.6401670572
 20
24.712758826
 30
0.0
 10
34.9817067478
 20
25.0001564664
 30
0.0
 10
33.3004087591
 20
25.1079805755
 30
0.0
 10
32.4603522636
 20
25.1079805755
 30
0.0
  0
SPLINE
  5
2CA
100
AcDbEntity
  8
0
100
AcDbSpline
 62
7
  6
BYLAYER
 70
0
 71
3
 72
9
 73
5
 74
0
 42
0.0000001
 43
0.0000001
 44
0.0000000001
 40
0.0
 40
0.0
 40
0.0
 40
0.0
 40
0.4999676672
 40
1.0
 40
1.0
 40
1.0
 40
1.0
 10
32.4603522636
 20
25.1079805755
 30
0.0
 10
31.6202766402
 20
25.1079805755
 30
0.0
 10
29.938746499
 20
25.0023402817
 30
0.0
 10
28.2805578335
 20
24.7127633478
 30
0.0
 10
27.4603522636
 20
24.5306303063
 30
0.0
  0
SPLINE
  5
2CB
100
AcDbEntity
  8
0
100
AcDbSpline
 62
7
  6
BYLAYER
 70
0
 71
3
 72
14
 73
10
 74
0
 42
0.0000001
 43
0.0000001
 44
0.0000000001
 40
0.0
 40
0.0
 40
0.0
 40
0.0
 40
0.1287149569
 40
0.2544923509
 40
0.3779591909
 40
0.5001447767
 40
0.6223332884
 40
0.7458016739
 40
1.0
 40
1.0
 40
1.0
 40
1.0
 10
45.3526571091
 20
19.9740059793
 30
0.0
 10
45.1500861816
 20
19.8840410718
 30
0.0
 10
44.7424379191
 20
19.7215115218
 30
0.0
 10
44.1171451661
 20
19.5371546389
 30
0.0
 10
43.4864690814
 20
19.4226283082
 30
0.0
 10
42.8526688046
 20
19.3837407605
 30
0.0
 10
42.2188383131
 20
19.4230833544
 30
0.0
 10
41.3703995272
 20
19.5771720589
 30
0.0
 10
40.7527131081
 20
19.7963348721
 30
0.0
 10
40.3526571091
 20
19.9740059793
 30
0.0
  0
SPLINE
  5
2CC
100
AcDbEntity
  8
0
100
AcDbSpline
 62
7
  6
BYLAYER
 70
0
 71
3
 72
14
 73
10
 74
0
 42
0.0000001
 43
0.0000001
 44
0.0000000001
 40
0.0
 40
0.0
 40
0.0
 40
0.0
 40
0.1287149569
 40
0.2544923509
 40
0.3779591909
 40
0.5001447767
 40
0.6223332884
 40
0.7458016739
 40
1.0
 40
1.0
 40
1.0
 40
1.0
 10
24.5680474182
 20
19.9740059793
 30
0.0
 10
24.3654764908
 20
19.8840410718
 30
0.0
 10
23.9578282283
 20
19.7215115218
 30
0.0
 10
23.3325354752
 20
19.5371546389
 30
0.0
 10
22.7018593906
 20
19.4226283082
 30
0.0
 10
22.0680591138
 20
19.3837407605
 30
0.0
 10
21.4342286223
 20
19.4230833544
 30
0.0
 10
20.5857898364
 20
19.5771720589
 30
0.0
 10
19.9681034173
 20
19.7963348721
 30
0.0
 10
19.5680474182
 20
19.9740059793
 30
0.0
  0
SPLINE
  5
2CD
100
AcDbEntity
  8
0
100
AcDbSpline
 62
7
  6
BYLAYER
 70
0
 71
3
 72
15
 73
11
 74
0
 42
0.0000001
 43
0.0000001
 44
0.0000000001
 40
0.0
 40
0.0
 40
0.0
 40
0.0
 40
0.1262970864
 40
0.2416446529
 40
0.3471492469
 40
0.4497358391
 40
0.5632968527
 40
0.696363714
 40
0.8447926377
 40
1.0
 40
1.0
 40
1.0
 40
1.0
 10
28.9604109841
 20
61.4579805755
 30
0.0
 10
28.9604110485
 20
61.4670814303
 30
0.0
 10
28.9609717816
 20
61.4845133928
 30
0.0
 10
28.9653780279
 20
61.5092947875
 30
0.0
 10
28.9754315968
 20
61.5307709258
 30
0.0
 10
28.9930408171
 20
61.54697856
 30
0.0
 10
29.0175867497
 20
61.5545438144
 30
0.0
 10
29.0458935863
 20
61.5573829713
 30
0.0
 10
29.077346672
 20
61.5589613833
 30
0.0
 10
29.0992469765
 20
61.5586227221
 30
0.0
 10
29.1104126299
 20
61.5579805755
 30
0.0
  0
SPLINE
  5
2CE
100
AcDbEntity
  8
0
100
AcDbSpline
 62
7
  6
BYLAYER
 70
0
 71
3
 72
11
 73
7
 74
0
 42
0.0000001
 43
0.0000001
 44
0.0000000001
 40
0.0
 40
0.0
 40
0.0
 40
0.0
 40
0.264273937
 40
0.5360820558
 40
0.7851411251
 40
1.0
 40
1.0
 40
1.0
 40
1.0
 10
28.8104099967
 20
61.5779805155
 30
0.0
 10
28.8290277411
 20
61.577979698
 30
0.0
 10
28.8670399912
 20
61.5723519198
 30
0.0
 10
28.9173989487
 20
61.5467776494
 30
0.0
 10
28.9522338974
 20
61.5061977464
 30
0.0
 10
28.9604099108
 20
61.4731170951
 30
0.0
 10
28.9604109343
 20
61.4579805755
 30
0.0
  0
SPLINE
  5
2CF
100
AcDbEntity
  8
0
100
AcDbSpline
 62
7
  6
BYLAYER
 70
0
 71
3
 72
20
 73
16
 74
0
 42
0.0000001
 43
0.0000001
 44
0.0000000001
 40
0.0
 40
0.0
 40
0.0
 40
0.0
 40
0.0030667112
 40
0.0080397036
 40
0.0237548353
 40
0.0471780495
 40
0.0783052181
 40
0.117137955
 40
0.1636912825
 40
0.2179308998
 40
0.2797410341
 40
0.4248296007
 40
0.5953967006
 40
0.7882063413
 40
1.0
 40
1.0
 40
1.0
 40
1.0
 10
25.6345410357
 20
55.335265052
 30
0.0
 10
25.6357446457
 20
55.3348481887
 30
0.0
 10
25.6390430352
 20
55.3342196043
 30
0.0
 10
25.6488101988
 20
55.3329046107
 30
0.0
 10
25.6670992128
 20
55.3315046148
 30
0.0
 10
25.6962281915
 20
55.3298467596
 30
0.0
 10
25.7349858067
 20
55.3282244742
 30
0.0
 10
25.783350845
 20
55.3265972181
 30
0.0
 10
25.8413231694
 20
55.3250041105
 30
0.0
 10
25.9088421809
 20
55.3234461704
 30
0.0
 10
26.0172851552
 20
55.3213224476
 30
0.0
 10
26.1740472346
 20
55.3189148919
 30
0.0
 10
26.3852230722
 20
55.3164035055
 30
0.0
 10
26.6241094123
 20
55.3141871722
 30
0.0
 10
26.7921567073
 20
55.312976775
 30
0.0
 10
26.8801231993
 20
55.312418125
 30
0.0
  0
SPLINE
  5
2D0
100
AcDbEntity
  8
0
100
AcDbSpline
 62
7
  6
BYLAYER
 70
0
 71
3
 72
27
 73
23
 74
0
 42
0.0000001
 43
0.0000001
 44
0.0000000001
 40
0.0
 40
0.0
 40
0.0
 40
0.0
 40
0.1947916681
 40
0.3810379075
 40
0.4691124571
 40
0.552837596
 40
0.6314727675
 40
0.7042754782
 40
0.7705106774
 40
0.8294697846
 40
0.88032326
 40
0.9223678604
 40
0.9400026444
 40
0.955366273
 40
0.9684624914
 40
0.979293695
 40
0.9878585124
 40
0.9941561957
 40
0.9964558051
 40
0.9981910297
 40
0.999366444
 40
1.0
 40
1.0
 40
1.0
 40
1.0
 10
36.793825059
 20
55.3086655774
 30
0.0
 10
36.9557699503
 20
55.3086655968
 30
0.0
 10
37.272555378
 20
55.3090224237
 30
0.0
 10
37.6625618554
 20
55.3103270878
 30
0.0
 10
37.9602282975
 20
55.3118710422
 30
0.0
 10
38.1684292021
 20
55.3132253139
 30
0.0
 10
38.3639316872
 20
55.314783773
 30
0.0
 10
38.5448912639
 20
55.3165326946
 30
0.0
 10
38.7094898683
 20
55.3184581556
 30
0.0
 10
38.8558369431
 20
55.3205435064
 30
0.0
 10
38.9820677626
 20
55.3227711674
 30
0.0
 10
39.0739396842
 20
55.3248282096
 30
0.0
 10
39.1363041131
 20
55.3265766163
 30
0.0
 10
39.1746060167
 20
55.3278281177
 30
0.0
 10
39.2072465783
 20
55.3290944229
 30
0.0
 10
39.2342324378
 20
55.3303644039
 30
0.0
 10
39.2555507688
 20
55.3316422961
 30
0.0
 10
39.269787611
 20
55.3327610945
 30
0.0
 10
39.2783099793
 20
55.3337339873
 30
0.0
 10
39.2826221705
 20
55.3343561903
 30
0.0
 10
39.2854526103
 20
55.3349968861
 30
0.0
 10
39.286956
 20
55.3354635927
 30
0.0
 10
39.2873421842
 20
55.3358217803
 30
0.0
  0
SPLINE
  5
2D1
100
AcDbEntity
  8
0
100
AcDbSpline
 62
7
  6
BYLAYER
 70
0
 71
3
 72
15
 73
11
 74
0
 42
0.0000001
 43
0.0000001
 44
0.0000000001
 40
0.0
 40
0.0
 40
0.0
 40
0.0
 40
0.105311838
 40
0.1970528434
 40
0.2834623877
 40
0.3790833375
 40
0.4966563712
 40
0.6418672517
 40
0.812985459
 40
1.0
 40
1.0
 40
1.0
 40
1.0
 10
36.1104099962
 20
61.5779805755
 30
0.0
 10
36.1105065744
 20
61.591193261
 30
0.0
 10
36.1088857656
 20
61.6160281765
 30
0.0
 10
36.0976768583
 20
61.6504198115
 30
0.0
 10
36.0749227517
 20
61.677435537
 30
0.0
 10
36.0406324233
 20
61.6946000313
 30
0.0
 10
35.9963444803
 20
61.703642278
 30
0.0
 10
35.9419646877
 20
61.7073351044
 30
0.0
 10
35.8788113535
 20
61.7080593365
 30
0.0
 10
35.8338782121
 20
61.7079805755
 30
0.0
 10
35.8104142753
 20
61.7079805755
 30
0.0
  0
SPLINE
  5
2D2
100
AcDbEntity
  8
0
100
AcDbSpline
 62
7
  6
BYLAYER
 70
0
 71
3
 72
11
 73
7
 74
0
 42
0.0000001
 43
0.0000001
 44
0.0000000001
 40
0.0
 40
0.0
 40
0.0
 40
0.0
 40
0.2500891726
 40
0.4999495784
 40
0.7501272089
 40
1.0
 40
1.0
 40
1.0
 40
1.0
 10
35.6516467277
 20
61.605703133
 30
0.0
 10
35.6655550056
 20
61.6052885172
 30
0.0
 10
35.6933770177
 20
61.6022401241
 30
0.0
 10
35.7335558
 20
61.5904699359
 30
0.0
 10
35.772373348
 20
61.5751463608
 30
0.0
 10
35.7978782479
 20
61.5639944336
 30
0.0
 10
35.8104126295
 20
61.5579805755
 30
0.0
  0
SPLINE
  5
2D3
100
AcDbEntity
  8
0
100
AcDbSpline
 62
7
  6
BYLAYER
 70
0
 71
3
 72
9
 73
5
 74
0
 42
0.0000001
 43
0.0000001
 44
0.0000000001
 40
0.0
 40
0.0
 40
0.0
 40
0.0
 40
0.2574251164
 40
1.0
 40
1.0
 40
1.0
 40
1.0
 10
35.8104126295
 20
61.5579805756
 30
0.0
 10
35.8062749071
 20
61.5664577647
 30
0.0
 10
35.7907670645
 20
61.5995529275
 30
0.0
 10
35.7737553552
 20
61.6327679297
 30
0.0
 10
35.7560053366
 20
61.653392521
 30
0.0
  0
SPLINE
  5
2D4
100
AcDbEntity
  8
0
100
AcDbSpline
 62
7
  6
BYLAYER
 70
0
 71
3
 72
9
 73
5
 74
0
 42
0.0000001
 43
0.0000001
 44
0.0000000001
 40
0.0
 40
0.0
 40
0.0
 40
0.0
 40
0.2554296714
 40
1.0
 40
1.0
 40
1.0
 40
1.0
 10
35.7560053366
 20
61.653392521
 30
0.0
 10
35.7532384734
 20
61.656607471
 30
0.0
 10
35.7419848274
 20
61.6688152324
 30
0.0
 10
35.7288674405
 20
61.6793820681
 30
0.0
 10
35.718243968
 20
61.6857079011
 30
0.0
  0
SPLINE
  5
2D5
100
AcDbEntity
  8
0
100
AcDbSpline
 62
7
  6
BYLAYER
 70
0
 71
3
 72
9
 73
5
 74
0
 42
0.0000001
 43
0.0000001
 44
0.0000000001
 40
0.0
 40
0.0
 40
0.0
 40
0.0
 40
0.2512200409
 40
1.0
 40
1.0
 40
1.0
 40
1.0
 10
35.718243968
 20
61.6857079011
 30
0.0
 10
35.713220705
 20
61.6886990439
 30
0.0
 10
35.6924458129
 20
61.6992794847
 30
0.0
 10
35.6690518059
 20
61.7044242062
 30
0.0
 10
35.6516477252
 20
61.7052890526
 30
0.0
  0
SPLINE
  5
2D6
100
AcDbEntity
  8
0
100
AcDbSpline
 62
7
  6
BYLAYER
 70
0
 71
3
 72
11
 73
7
 74
0
 42
0.0000001
 43
0.0000001
 44
0.0000000001
 40
0.0
 40
0.0
 40
0.0
 40
0.0
 40
0.2498736041
 40
0.5000495738
 40
0.749912581
 40
1.0
 40
1.0
 40
1.0
 40
1.0
 10
29.1104126299
 20
61.5579805755
 30
0.0
 10
29.1229480946
 20
61.5639923368
 30
0.0
 10
29.1484513194
 20
61.5751478322
 30
0.0
 10
29.1872705191
 20
61.5904680211
 30
0.0
 10
29.2274475228
 20
61.6022423661
 30
0.0
 10
29.2552701692
 20
61.6052938436
 30
0.0
 10
29.2691785317
 20
61.605703133
 30
0.0
  0
SPLINE
  5
2D7
100
AcDbEntity
  8
0
100
AcDbSpline
 62
7
  6
BYLAYER
 70
0
 71
3
 72
9
 73
5
 74
0
 42
0.0000001
 43
0.0000001
 44
0.0000000001
 40
0.0
 40
0.0
 40
0.0
 40
0.0
 40
0.4894720803
 40
1.0
 40
1.0
 40
1.0
 40
1.0
 10
29.2691795291
 20
61.7052890526
 30
0.0
 10
29.2458271126
 20
61.7041286646
 30
0.0
 10
29.1974636273
 20
61.6904859591
 30
0.0
 10
29.1635247776
 20
61.654089145
 30
0.0
 10
29.1499967513
 20
61.6337982675
 30
0.0
  0
SPLINE
  5
2D8
100
AcDbEntity
  8
0
100
AcDbSpline
 62
7
  6
BYLAYER
 70
0
 71
3
 72
9
 73
5
 74
0
 42
0.0000001
 43
0.0000001
 44
0.0000000001
 40
0.0
 40
0.0
 40
0.0
 40
0.0
 40
0.2440895043
 40
1.0
 40
1.0
 40
1.0
 40
1.0
 10
29.1499967513
 20
61.6337982675
 30
0.0
 10
29.1461338754
 20
61.6280042854
 30
0.0
 10
29.1314509131
 20
61.6034973549
 30
0.0
 10
29.1198722458
 20
61.5773604604
 30
0.0
 10
29.1104126299
 20
61.5579805755
 30
0.0
  0
SPLINE
  5
2D9
100
AcDbEntity
  8
0
100
AcDbSpline
 62
7
  6
BYLAYER
 70
0
 71
3
 72
14
 73
10
 74
0
 42
0.0000001
 43
0.0000001
 44
0.0000000001
 40
0.0
 40
0.0
 40
0.0
 40
0.0
 40
0.0579246544
 40
0.1321567389
 40
0.2294582475
 40
0.3502700632
 40
0.4923286864
 40
0.6516423241
 40
1.0
 40
1.0
 40
1.0
 40
1.0
 10
30.4003712676
 20
82.5369805755
 30
0.0
 10
30.3950583627
 20
82.5369805755
 30
0.0
 10
30.3829719636
 20
82.532483413
 30
0.0
 10
30.3684476573
 20
82.5167594005
 30
0.0
 10
30.3553973497
 20
82.4931784721
 30
0.0
 10
30.3439931224
 20
82.4620760828
 30
0.0
 10
30.3346095311
 20
82.4244510209
 30
0.0
 10
30.3250009649
 20
82.3655918092
 30
0.0
 10
30.3223329453
 20
82.3189322759
 30
0.0
 10
30.3223329453
 20
82.2869805755
 30
0.0
  0
SPLINE
  5
2DA
100
AcDbEntity
  8
0
100
AcDbSpline
 62
7
  6
BYLAYER
 70
0
 71
3
 72
14
 73
10
 74
0
 42
0.0000001
 43
0.0000001
 44
0.0000000001
 40
0.0
 40
0.0
 40
0.0
 40
0.0
 40
0.3483576759
 40
0.5076713136
 40
0.6497299368
 40
0.7705417525
 40
0.8678432611
 40
0.9420753456
 40
1.0
 40
1.0
 40
1.0
 40
1.0
 10
27.0323139445
 20
82.2869805755
 30
0.0
 10
27.0323139445
 20
82.3189322759
 30
0.0
 10
27.034981964
 20
82.3655918092
 30
0.0
 10
27.0445905302
 20
82.4244510209
 30
0.0
 10
27.0539741215
 20
82.4620760828
 30
0.0
 10
27.0653783488
 20
82.4931784721
 30
0.0
 10
27.0784286564
 20
82.5167594005
 30
0.0
 10
27.0929529627
 20
82.532483413
 30
0.0
 10
27.1050393618
 20
82.5369805755
 30
0.0
 10
27.1103522667
 20
82.5369805755
 30
0.0
  0
SPLINE
  5
2DB
100
AcDbEntity
  8
0
100
AcDbSpline
 62
7
  6
BYLAYER
 70
0
 71
3
 72
17
 73
13
 74
0
 42
0.0000001
 43
0.0000001
 44
0.0000000001
 40
0.0
 40
0.0
 40
0.0
 40
0.0
 40
0.0205096374
 40
0.0447146916
 40
0.0746057719
 40
0.1111605367
 40
0.2052842519
 40
0.3267953534
 40
0.472268794
 40
0.6369522448
 40
0.8152226443
 40
1.0
 40
1.0
 40
1.0
 40
1.0
 10
30.4644016689
 20
67.2969805755
 30
0.0
 10
30.459701888
 20
67.2969805755
 30
0.0
 10
30.4494051511
 20
67.2995850204
 30
0.0
 10
30.4353745399
 20
67.3097737633
 30
0.0
 10
30.4218632318
 20
67.325721846
 30
0.0
 10
30.402992417
 20
67.3574377087
 30
0.0
 10
30.3823089091
 20
67.4117380696
 30
0.0
 10
30.3617015081
 20
67.4919357852
 30
0.0
 10
30.344656803
 20
67.5894700038
 30
0.0
 10
30.3319908369
 20
67.7007205189
 30
0.0
 10
30.3241414373
 20
67.8214361281
 30
0.0
 10
30.3223344593
 20
67.9046388664
 30
0.0
 10
30.3223329453
 20
67.9469805755
 30
0.0
  0
SPLINE
  5
2DC
100
AcDbEntity
  8
0
100
AcDbSpline
 62
7
  6
BYLAYER
 70
0
 71
3
 72
19
 73
15
 74
0
 42
0.0000001
 43
0.0000001
 44
0.0000000001
 40
0.0
 40
0.0
 40
0.0
 40
0.0
 40
0.0107409958
 40
0.0182909432
 40
0.0277388045
 40
0.0528174448
 40
0.0864540058
 40
0.1285285541
 40
0.1787303443
 40
0.3019073875
 40
0.4515433197
 40
0.6221775412
 40
0.807556018
 40
1.0
 40
1.0
 40
1.0
 40
1.0
 10
34.4563028645
 20
67.2969805755
 30
0.0
 10
34.4586656533
 20
67.2969805755
 30
0.0
 10
34.4624987921
 20
67.2994212568
 30
0.0
 10
34.4661005924
 20
67.3042639318
 30
0.0
 10
34.4706042303
 20
67.3124166746
 30
0.0
 10
34.4757053943
 20
67.3265593855
 30
0.0
 10
34.4814013812
 20
67.3479994823
 30
0.0
 10
34.4869218177
 20
67.3751549085
 30
0.0
 10
34.4945110709
 20
67.4219463458
 30
0.0
 10
34.5025799487
 20
67.4925762394
 30
0.0
 10
34.5102490467
 20
67.5898323769
 30
0.0
 10
34.5160418284
 20
67.7009261059
 30
0.0
 10
34.5195692555
 20
67.8215316046
 30
0.0
 10
34.5203348592
 20
67.9046470249
 30
0.0
 10
34.5203332658
 20
67.9469805755
 30
0.0
  0
SPLINE
  5
2DD
100
AcDbEntity
  8
0
100
AcDbSpline
 62
7
  6
BYLAYER
 70
0
 71
3
 72
19
 73
15
 74
0
 42
0.0000001
 43
0.0000001
 44
0.0000000001
 40
0.0
 40
0.0
 40
0.0
 40
0.0
 40
0.1924439746
 40
0.3778224472
 40
0.5484566649
 40
0.698092587
 40
0.8212696164
 40
0.8714714003
 40
0.9135459427
 40
0.9471824989
 40
0.9722611397
 40
0.9817090057
 40
0.9892589626
 40
1.0
 40
1.0
 40
1.0
 40
1.0
 10
30.4003712676
 20
67.9469805755
 30
0.0
 10
30.4003696841
 20
67.9046470249
 30
0.0
 10
30.401135307
 20
67.8215316043
 30
0.0
 10
30.4046627469
 20
67.700926105
 30
0.0
 10
30.4104555225
 20
67.5898323755
 30
0.0
 10
30.418124623
 20
67.4925762406
 30
0.0
 10
30.4261934881
 20
67.4219463503
 30
0.0
 10
30.4337827035
 20
67.375154911
 30
0.0
 10
30.4393031142
 20
67.3479994822
 30
0.0
 10
30.4449990848
 20
67.3265593827
 30
0.0
 10
30.4501002504
 20
67.3124166703
 30
0.0
 10
30.4546038982
 20
67.3042639294
 30
0.0
 10
30.4582057158
 20
67.2994212494
 30
0.0
 10
30.4620388709
 20
67.2969805755
 30
0.0
 10
30.4644016689
 20
67.2969805755
 30
0.0
  0
SPLINE
  5
2DE
100
AcDbEntity
  8
0
100
AcDbSpline
 62
7
  6
BYLAYER
 70
0
 71
3
 72
14
 73
10
 74
0
 42
0.0000001
 43
0.0000001
 44
0.0000000001
 40
0.0
 40
0.0
 40
0.0
 40
0.0
 40
0.3480823484
 40
0.5072248691
 40
0.6493354715
 40
0.7702739227
 40
0.8675939536
 40
0.9419318744
 40
1.0
 40
1.0
 40
1.0
 40
1.0
 10
34.5983715881
 20
82.2869805755
 30
0.0
 10
34.5983715881
 20
82.3189077913
 30
0.0
 10
34.5957042655
 20
82.3655262603
 30
0.0
 10
34.5861189031
 20
82.4243548763
 30
0.0
 10
34.5767341011
 20
82.461979648
 30
0.0
 10
34.5653480654
 20
82.4931117783
 30
0.0
 10
34.5522848062
 20
82.5167065319
 30
0.0
 10
34.5377765344
 20
82.5324865711
 30
0.0
 10
34.5256594583
 20
82.5369805755
 30
0.0
 10
34.5203332658
 20
82.5369805755
 30
0.0
  0
SPLINE
  5
2DF
100
AcDbEntity
  8
0
100
AcDbSpline
 62
7
  6
BYLAYER
 70
0
 71
3
 72
14
 73
10
 74
0
 42
0.0000001
 43
0.0000001
 44
0.0000000001
 40
0.0
 40
0.0
 40
0.0
 40
0.0
 40
0.0579246544
 40
0.1321567389
 40
0.2294582475
 40
0.3502700632
 40
0.4923286864
 40
0.6516423241
 40
1.0
 40
1.0
 40
1.0
 40
1.0
 10
37.8103522667
 20
82.5369805755
 30
0.0
 10
37.8156651716
 20
82.5369805755
 30
0.0
 10
37.8277515707
 20
82.532483413
 30
0.0
 10
37.842275877
 20
82.5167594005
 30
0.0
 10
37.8553261846
 20
82.4931784721
 30
0.0
 10
37.8667304119
 20
82.4620760828
 30
0.0
 10
37.8761140032
 20
82.4244510209
 30
0.0
 10
37.8857225694
 20
82.3655918092
 30
0.0
 10
37.8883905889
 20
82.3189322759
 30
0.0
 10
37.8883905889
 20
82.2869805755
 30
0.0
  0
SPLINE
  5
2E0
100
AcDbEntity
  8
0
100
AcDbSpline
 62
7
  6
BYLAYER
 70
0
 71
3
 72
11
 73
7
 74
0
 42
0.0000001
 43
0.0000001
 44
0.0000000001
 40
0.0
 40
0.0
 40
0.0
 40
0.0
 40
0.2572958218
 40
0.50873852
 40
0.7556665246
 40
1.0
 40
1.0
 40
1.0
 40
1.0
 10
24.5680474182
 20
24.5306303064
 30
0.0
 10
24.3655514896
 20
24.6205619058
 30
0.0
 10
23.9577014042
 20
24.7822572485
 30
0.0
 10
23.3322329705
 20
24.9655167893
 30
0.0
 10
22.7018885583
 20
25.0807711257
 30
0.0
 10
22.2784528273
 20
25.1079805755
 30
0.0
 10
22.0680474182
 20
25.1079805755
 30
0.0
  0
SPLINE
  5
2E1
100
AcDbEntity
  8
0
100
AcDbSpline
 62
7
  6
BYLAYER
 70
0
 71
3
 72
11
 73
7
 74
0
 42
0.0000001
 43
0.0000001
 44
0.0000000001
 40
0.0
 40
0.0
 40
0.0
 40
0.0
 40
0.2443126432
 40
0.4912101079
 40
0.7426700753
 40
1.0
 40
1.0
 40
1.0
 40
1.0
 10
22.0680474182
 20
25.1079805755
 30
0.0
 10
21.8576451104
 20
25.1079805755
 30
0.0
 10
21.4342080251
 20
25.0813377943
 30
0.0
 10
20.8037354054
 20
24.9664830889
 30
0.0
 10
20.1783252674
 20
24.7827151074
 30
0.0
 10
19.77058447
 20
24.6205801692
 30
0.0
 10
19.5680474182
 20
24.5306303063
 30
0.0
  0
SPLINE
  5
2E2
100
AcDbEntity
  8
0
100
AcDbSpline
 62
7
  6
BYLAYER
 70
0
 71
3
 72
9
 73
5
 74
0
 42
0.0000001
 43
0.0000001
 44
0.0000000001
 40
0.0
 40
0.0
 40
0.0
 40
0.0
 40
0.2568405477
 40
1.0
 40
1.0
 40
1.0
 40
1.0
 10
37.8883905889
 20
67.9469805755
 30
0.0
 10
37.8884108558
 20
67.9189112879
 30
0.0
 10
37.8831726722
 20
67.8097210307
 30
0.0
 10
37.8573772555
 20
67.7012386868
 30
0.0
 10
37.8261003675
 20
67.6262850486
 30
0.0
  0
SPLINE
  5
2E3
100
AcDbEntity
  8
0
100
AcDbSpline
 62
7
  6
BYLAYER
 70
0
 71
3
 72
11
 73
7
 74
0
 42
0.0000001
 43
0.0000001
 44
0.0000000001
 40
0.0
 40
0.0
 40
0.0
 40
0.0
 40
0.2864312554
 40
0.5450022017
 40
0.7791950082
 40
1.0
 40
1.0
 40
1.0
 40
1.0
 10
37.8261003675
 20
67.6262850486
 30
0.0
 10
37.8055003951
 20
67.5769181527
 30
0.0
 10
37.755944129
 20
67.4867178477
 30
0.0
 10
37.6547468577
 20
67.3797064832
 30
0.0
 10
37.5372341123
 20
67.3123872513
 30
0.0
 10
37.4515887391
 20
67.2969805755
 30
0.0
 10
37.4103522667
 20
67.2969805755
 30
0.0
  0
SPLINE
  5
2E4
100
AcDbEntity
  8
0
100
AcDbSpline
 62
7
  6
BYLAYER
 70
0
 71
3
 72
17
 73
13
 74
0
 42
0.0000001
 43
0.0000001
 44
0.0000000001
 40
0.0
 40
0.0
 40
0.0
 40
0.0
 40
0.1847773584
 40
0.363047763
 40
0.5277312203
 40
0.6732046605
 40
0.7947157686
 40
0.8888395174
 40
0.9253942953
 40
0.9552853733
 40
0.9794904057
 40
1.0
 40
1.0
 40
1.0
 40
1.0
 10
34.5983715881
 20
67.9469805755
 30
0.0
 10
34.5983700835
 20
67.9046388667
 30
0.0
 10
34.5965631239
 20
67.821436128
 30
0.0
 10
34.588713736
 20
67.7007205172
 30
0.0
 10
34.5760477635
 20
67.5894700026
 30
0.0
 10
34.5590030627
 20
67.4919357831
 30
0.0
 10
34.5383956452
 20
67.4117380621
 30
0.0
 10
34.517712086
 20
67.3574377086
 30
0.0
 10
34.4988412504
 20
67.3257218482
 30
0.0
 10
34.4853299464
 20
67.3097737672
 30
0.0
 10
34.4712993563
 20
67.2995850242
 30
0.0
 10
34.4610026355
 20
67.2969805755
 30
0.0
 10
34.4563028645
 20
67.2969805755
 30
0.0
  0
SPLINE
  5
2E5
100
AcDbEntity
  8
0
100
AcDbSpline
 62
7
  6
BYLAYER
 70
0
 71
3
 72
11
 73
7
 74
0
 42
0.0000001
 43
0.0000001
 44
0.0000000001
 40
0.0
 40
0.0
 40
0.0
 40
0.0
 40
0.2148592168
 40
0.4639175987
 40
0.7357253152
 40
1.0
 40
1.0
 40
1.0
 40
1.0
 10
35.9604110335
 20
61.4579805755
 30
0.0
 10
35.960411808
 20
61.4731170389
 30
0.0
 10
35.9685872134
 20
61.5061976521
 30
0.0
 10
36.0034215851
 20
61.5467776881
 30
0.0
 10
36.0537802184
 20
61.5723519595
 30
0.0
 10
36.0917922979
 20
61.5779796964
 30
0.0
 10
36.1104099962
 20
61.5779805152
 30
0.0
  0
SPLINE
  5
2E6
100
AcDbEntity
  8
0
100
AcDbSpline
 62
7
  6
BYLAYER
 70
0
 71
3
 72
11
 73
7
 74
0
 42
0.0000001
 43
0.0000001
 44
0.0000000001
 40
0.0
 40
0.0
 40
0.0
 40
0.0
 40
0.2572958218
 40
0.50873852
 40
0.7556665246
 40
1.0
 40
1.0
 40
1.0
 40
1.0
 10
45.3526571091
 20
24.5306303064
 30
0.0
 10
45.1501611804
 20
24.6205619058
 30
0.0
 10
44.742311095
 20
24.7822572485
 30
0.0
 10
44.1168426613
 20
24.9655167893
 30
0.0
 10
43.4864982492
 20
25.0807711257
 30
0.0
 10
43.0630625181
 20
25.1079805755
 30
0.0
 10
42.8526571091
 20
25.1079805755
 30
0.0
  0
SPLINE
  5
2E7
100
AcDbEntity
  8
0
100
AcDbSpline
 62
7
  6
BYLAYER
 70
0
 71
3
 72
11
 73
7
 74
0
 42
0.0000001
 43
0.0000001
 44
0.0000000001
 40
0.0
 40
0.0
 40
0.0
 40
0.0
 40
0.2443126432
 40
0.4912101079
 40
0.7426700753
 40
1.0
 40
1.0
 40
1.0
 40
1.0
 10
42.8526571091
 20
25.1079805755
 30
0.0
 10
42.6422548012
 20
25.1079805755
 30
0.0
 10
42.2188177159
 20
25.0813377943
 30
0.0
 10
41.5883450962
 20
24.9664830889
 30
0.0
 10
40.9629349582
 20
24.7827151074
 30
0.0
 10
40.5551941608
 20
24.6205801692
 30
0.0
 10
40.3526571091
 20
24.5306303063
 30
0.0
  0
SPLINE
  5
2E8
100
AcDbEntity
  8
0
100
AcDbSpline
 62
7
  6
BYLAYER
 70
0
 71
3
 72
13
 73
9
 74
0
 42
0.0000001
 43
0.0000001
 44
0.0000000001
 40
0.0
 40
0.0
 40
0.0
 40
0.0
 40
0.1017005231
 40
0.2063970336
 40
0.3178769768
 40
0.4380102952
 40
0.7052099418
 40
1.0
 40
1.0
 40
1.0
 40
1.0
 10
27.5103522667
 20
67.2969805755
 30
0.0
 10
27.4802487153
 20
67.2969805755
 30
0.0
 10
27.4188645837
 20
67.3048826897
 30
0.0
 10
27.3307767479
 20
67.3403973121
 30
0.0
 10
27.2487278729
 20
67.3982072424
 30
0.0
 10
27.1478300461
 20
67.5072779311
 30
0.0
 10
27.0567626622
 20
67.6923122257
 30
0.0
 10
27.0322512483
 20
67.859722171
 30
0.0
 10
27.0323139445
 20
67.9469805755
 30
0.0
  0
SPLINE
  5
2E9
100
AcDbEntity
  8
0
100
AcDbSpline
 62
7
  6
BYLAYER
 70
0
 71
3
 72
9
 73
5
 74
0
 42
0.0000001
 43
0.0000001
 44
0.0000000001
 40
0.0
 40
0.0
 40
0.0
 40
0.0
 40
0.462490039
 40
1.0
 40
1.0
 40
1.0
 40
1.0
 10
35.9403156172
 20
61.5349501744
 30
0.0
 10
35.9486844743
 20
61.5257223605
 30
0.0
 10
35.9592306531
 20
61.4993814303
 30
0.0
 10
35.960411088
 20
61.472458838
 30
0.0
 10
35.9604109837
 20
61.4579805755
 30
0.0
  0
ENDSEC
  0
SECTION
  2
OBJECTS
  0
DICTIONARY
  5
C
100
AcDbDictionary
280
0
281
1
  3
ACAD_GROUP
350
D
  3
ACAD_MLINESTYLE
350
17
  3
ACAD_LAYOUT
350
1A
  3
ACAD_PLOTSETTINGS
350
19
  3
ACAD_PLOTSTYLENAME
350
E
  0
DICTIONARY
  5
D
102
{ACAD_REACTORS
330
C
102
}
100
AcDbDictionary
280
0
281
1
  0
ACDBDICTIONARYWDFLT
  5
E
102
{ACAD_REACTORS
330
C
102
}
100
AcDbDictionary
281
1
  3
Normal
350
F
100
AcDbDictionaryWithDefault
340
F
  0
DICTIONARY
  5
17
102
{ACAD_REACTORS
330
C
102
}
100
AcDbDictionary
280
0
281
1
  3
Standard
350
18
  0
DICTIONARY
  5
19
102
{ACAD_REACTORS
330
C
102
}
100
AcDbDictionary
281
1
  0
DICTIONARY
  5
1A
102
{ACAD_REACTORS
330
C
102
}
100
AcDbDictionary
281
1
  3
Model
350
2EA
  3
Layout1
350
2EB
  0
ACDBPLACEHOLDER
  5
F
102
{ACAD_REACTORS
330
E
102
}
  0
MLINESTYLE
  5
18
102
{ACAD_REACTORS
330
17
102
}
100
AcDbMlineStyle
  2
STANDARD
 70
0
  3

 62
256
 51
90.0
 52
90.0
 71
2
 49
0.5
 62
256
  6
BYLAYER
 49
-0.5
 62
256
  6
BYLAYER
  0
LAYOUT
  5
2EA
102
{ACAD_REACTORS
330
1A
102
}
100
AcDbPlotSettings
  1

  2
none_device
  4

  6

 40
0.0
 41
0.0
 42
0.0
 43
0.0
 44
210.0
 45
297.0
 46
0.0
 47
0.0
 48
0.0
 49
0.0
140
0.0
141
0.0
142
1.0
143
1.0
 70
1024
 72
1
 73
0
 74
0
  7

 75
0
147
1.0
148
0.0
149
0.0
100
AcDbLayout
  1
Model
 70
0
 71
0
 10
0.0
 20
0.0
 11
210.0
 21
297.0
 12
0.0
 22
0.0
 32
0.0
 14
0.0
 24
0.0
 34
0.0
 15
0.0
 25
0.0
 35
0.0
146
0.0
 13
0.0
 23
0.0
 33
0.0
 16
1.0
 26
0.0
 36
0.0
 17
0.0
 27
1.0
 37
0.0
 76
0
330
211
345
0
346
0
  0
LAYOUT
  5
2EB
102
{ACAD_REACTORS
330
1A
102
}
100
AcDbPlotSettings
  1

  2
none_device
  4

  6

 40
0.0
 41
0.0
 42
0.0
 43
0.0
 44
210.0
 45
297.0
 46
0.0
 47
0.0
 48
0.0
 49
0.0
140
0.0
141
0.0
142
1.0
143
1.0
 70
0
 72
1
 73
0
 74
0
  7

 75
0
147
1.0
148
0.0
149
0.0
100
AcDbLayout
  1
Layout1
 70
0
 71
1
 10
0.0
 20
0.0
 11
210.0
 21
297.0
 12
0.0
 22
0.0
 32
0.0
 14
0.0
 24
0.0
 34
0.0
 15
0.0
 25
0.0
 35
0.0
146
0.0
 13
0.0
 23
0.0
 33
0.0
 16
1.0
 26
0.0
 36
0.0
 17
0.0
 27
1.0
 37
0.0
 76
0
330
212
345
0
346
0
  0
ENDSEC
  0
EOF
