999
DXF file: C:\Users\sesa63760\Dev\_Creo\CAD\MCADID0003805_3D-CAD\drw0001_3.dxf
999
Pro/ENGINEER 2019471 by Parametric Technology Corporation
  0
SECTION
  2
HEADER
  9
$ACADVER
  1
AC1024
  9
$DWGCODEPAGE
  3
ANSI_1252
  9
$EXTMAX
 10
82.9259186064
 20
117.280942029
 30
0.0
  9
$EXTMIN
 10
0.0
 20
0.0
 30
0.0
  9
$LIMMIN
 10
0.0
 20
0.0
  9
$LIMMAX
 10
82.9259186064
 20
117.280942029
  9
$VIEWCTR
 10
41.4629593032
 20
58.6404710145
  9
$VIEWSIZE
 40
117.280942029
  9
$CLAYER
  8
0
  9
$LTSCALE
 40
7.6449799249
  9
$CELTYPE
  6
BYLAYER
  9
$DIMSCALE
 40
1.0
  9
$DIMASZ
 40
0.9872133167
  9
$DIMEXO
 40
1.0
  9
$DIMDLI
 40
5.2819861299
  9
$DIMEXE
 40
1.0
  9
$DIMCEN
 40
1.250996715
  9
$DIMLFAC
 40
1.0
  9
$DIMBLK
  1
_FILLED
  9
$DIMALT
 70
0
  9
$DIMALTF
 40
0.0393700787
  9
$DIMTXT
 40
1.3820986434
  9
$DIMTOL
 70
1
  9
$DIMLIM
 70
0
  9
$DIMTFAC
 40
1.0
  9
$DIMTP
 40
0.01
  9
$DIMTM
 40
0.01
  9
$DIMGAP
 40
0.625
  9
$DIMDSEP
 70
46
  9
$AUNITS
 70
0
  9
$PDMODE
 70
3
  9
$PDSIZE
 40
0.3125
  9
$HANDSEED
  5
2A8
  9
$TILEMODE
 70
1
  9
$MEASUREMENT
 70
1
  9
$INSUNITS
 70
4
  0
ENDSEC
  0
SECTION
  2
CLASSES
  0
CLASS
  1
ACDBDICTIONARYWDFLT
  2
AcDbDictionaryWithDefault
  3
AutoCAD 2000
 90
0
 91
1
280
0
281
0
  0
CLASS
  1
ACDBPLACEHOLDER
  2
AcDbPlaceHolder
  3
AutoCAD 2000
 90
0
 91
1
280
0
281
0
  0
CLASS
  1
LAYOUT
  2
AcDbLayout
  3
AutoCAD 2000
 90
0
 91
0
280
0
281
0
  0
ENDSEC
  0
SECTION
  2
TABLES
  0
TABLE
  2
VPORT
  5
8
100
AcDbSymbolTable
 70
2
  0
VPORT
  5
1F4
100
AcDbSymbolTableRecord
100
AcDbViewportTableRecord
  2
*ACTIVE
 70
0
 10
0.0
 20
0.0
 11
1.0
 21
1.0
 12
41.4629593032
 22
58.6404710145
 13
0.0
 23
0.0
 14
1.0
 24
1.0
 15
0.0
 25
0.0
 16
0.0
 26
0.0
 36
1.0
 17
0.0
 27
0.0
 37
0.0
 40
117.280942029
 41
0.7070707071
 42
50.0
 43
0.0
 44
0.0
 50
0.0
 51
0.0
 71
0
 72
100
 73
1
 74
1
 75
0
 76
0
 77
0
 78
0
  0
ENDTAB
  0
TABLE
  2
LTYPE
  5
5
100
AcDbSymbolTable
 70
6
  0
LTYPE
  5
14
100
AcDbSymbolTableRecord
100
AcDbLinetypeTableRecord
  2
BYBLOCK
 70
0
  3

 72
65
 73
0
 40
0.0
  0
LTYPE
  5
15
100
AcDbSymbolTableRecord
100
AcDbLinetypeTableRecord
  2
BYLAYER
 70
0
  3

 72
65
 73
0
 40
0.0
  0
LTYPE
  5
16
100
AcDbSymbolTableRecord
100
AcDbLinetypeTableRecord
  2
CONTINUOUS
 70
64
  3
Solid line
 72
65
 73
0
 40
0.0
  0
LTYPE
  5
1F5
100
AcDbSymbolTableRecord
100
AcDbLinetypeTableRecord
  2
CENTER
 70
64
  3
____ _ ____ _ ____ _ ____ _ ____ _ ____ _ ____
 72
65
 73
4
 40
0.6
 49
0.375
 74
0
 49
-0.075
 74
0
 49
0.075
 74
0
 49
-0.075
 74
0
  0
LTYPE
  5
1F6
100
AcDbSymbolTableRecord
100
AcDbLinetypeTableRecord
  2
HIDDEN
 70
64
  3
- - - - - - - - - - - - - - - - - - - -
 72
65
 73
2
 40
0.2
 49
0.1
 74
0
 49
-0.1
 74
0
  0
LTYPE
  5
1F7
100
AcDbSymbolTableRecord
100
AcDbLinetypeTableRecord
  2
PHANTOM
 70
64
  3
_____ _ _ _____ _ _ _____ _ _ _____
 72
65
 73
6
 40
0.8
 49
0.45
 74
0
 49
-0.05
 74
0
 49
0.1
 74
0
 49
-0.05
 74
0
 49
0.1
 74
0
 49
-0.05
 74
0
  0
LTYPE
  5
1F8
100
AcDbSymbolTableRecord
100
AcDbLinetypeTableRecord
  2
DOT
 70
64
  3
. . . . . . . . . . . . . . . . . . . .
 72
65
 73
2
 40
0.2
 49
0.1
 74
0
 49
-0.1
 74
0
  0
LTYPE
  5
1F9
100
AcDbSymbolTableRecord
100
AcDbLinetypeTableRecord
  2
DASHED
 70
64
  3
- - - - - - - - - - - - - - - - - - - -
 72
65
 73
2
 40
0.2
 49
0.1
 74
0
 49
-0.1
 74
0
  0
ENDTAB
  0
TABLE
  2
LAYER
  5
2
100
AcDbSymbolTable
 70
36
  0
LAYER
  5
10
100
AcDbSymbolTableRecord
100
AcDbLayerTableRecord
  2
0
 70
0
 62
7
  6
CONTINUOUS
370
-3
390
F
  0
LAYER
  5
1FA
100
AcDbSymbolTableRecord
100
AcDbLayerTableRecord
  2
DEFAULT_1
 70
0
 62
7
  6
CENTER
370
-3
390
F
  0
LAYER
  5
1FB
100
AcDbSymbolTableRecord
100
AcDbLayerTableRecord
  2
DEFAULT_2
 70
0
 62
7
  6
HIDDEN
370
-3
390
F
  0
LAYER
  5
1FC
100
AcDbSymbolTableRecord
100
AcDbLayerTableRecord
  2
DEFAULT_3
 70
0
 62
7
  6
PHANTOM
370
-3
390
F
  0
LAYER
  5
1FD
100
AcDbSymbolTableRecord
100
AcDbLayerTableRecord
  2
00_COMPONENTS
 70
0
 62
7
  6
CONTINUOUS
370
-3
390
F
  0
LAYER
  5
1FE
100
AcDbSymbolTableRecord
100
AcDbLayerTableRecord
  2
01_1_DEFAULT_DATUMS
 70
0
 62
7
  6
CONTINUOUS
370
-3
390
F
  0
LAYER
  5
1FF
100
AcDbSymbolTableRecord
100
AcDbLayerTableRecord
  2
01_PLANES
 70
0
 62
7
  6
CONTINUOUS
370
-3
390
F
  0
LAYER
  5
200
100
AcDbSymbolTableRecord
100
AcDbLayerTableRecord
  2
02_COORD_SYS
 70
0
 62
7
  6
CONTINUOUS
370
-3
390
F
  0
LAYER
  5
201
100
AcDbSymbolTableRecord
100
AcDbLayerTableRecord
  2
03_AXES
 70
0
 62
7
  6
CONTINUOUS
370
-3
390
F
  0
LAYER
  5
202
100
AcDbSymbolTableRecord
100
AcDbLayerTableRecord
  2
04_POINTS
 70
0
 62
7
  6
CONTINUOUS
370
-3
390
F
  0
LAYER
  5
203
100
AcDbSymbolTableRecord
100
AcDbLayerTableRecord
  2
05_CURVES
 70
0
 62
7
  6
CONTINUOUS
370
-3
390
F
  0
LAYER
  5
204
100
AcDbSymbolTableRecord
100
AcDbLayerTableRecord
  2
06_SURFS
 70
0
 62
7
  6
CONTINUOUS
370
-3
390
F
  0
LAYER
  5
205
100
AcDbSymbolTableRecord
100
AcDbLayerTableRecord
  2
07_COSMETICS
 70
0
 62
7
  6
CONTINUOUS
370
-3
390
F
  0
LAYER
  5
206
100
AcDbSymbolTableRecord
100
AcDbLayerTableRecord
  2
10_NOTES
 70
0
 62
7
  6
CONTINUOUS
370
-3
390
F
  0
LAYER
  5
207
100
AcDbSymbolTableRecord
100
AcDbLayerTableRecord
  2
11_NOTES_PUB
 70
0
 62
7
  6
CONTINUOUS
370
-3
390
F
  0
LAYER
  5
208
100
AcDbSymbolTableRecord
100
AcDbLayerTableRecord
  2
13_REF_GTOL
 70
0
 62
7
  6
CONTINUOUS
370
-3
390
F
  0
LAYER
  5
209
100
AcDbSymbolTableRecord
100
AcDbLayerTableRecord
  2
16_MISC
 70
0
 62
7
  6
CONTINUOUS
370
-3
390
F
  0
LAYER
  5
20A
100
AcDbSymbolTableRecord
100
AcDbLayerTableRecord
  2
17_NO_PRINT
 70
0
 62
7
  6
CONTINUOUS
370
-3
390
F
  0
LAYER
  5
20B
100
AcDbSymbolTableRecord
100
AcDbLayerTableRecord
  2
18_DATUM_CAMS_JOINTS
 70
0
 62
7
  6
CONTINUOUS
370
-3
390
F
  0
LAYER
  5
20C
100
AcDbSymbolTableRecord
100
AcDbLayerTableRecord
  2
19_DATUM_FUNCTIONAL
 70
0
 62
7
  6
CONTINUOUS
370
-3
390
F
  0
LAYER
  5
20D
100
AcDbSymbolTableRecord
100
AcDbLayerTableRecord
  2
20_DATUM_KINEMATIC_SCHEME
 70
0
 62
7
  6
CONTINUOUS
370
-3
390
F
  0
ENDTAB
  0
TABLE
  2
STYLE
  5
3
100
AcDbSymbolTable
 70
1
  0
STYLE
  5
11
100
AcDbSymbolTableRecord
100
AcDbTextStyleTableRecord
  2
STANDARD
 70
0
 40
0.0
 41
1.0
 50
0.0
 71
0
 42
0.2
  3
ARIAL.TTF
  4

  0
STYLE
  5
20E
100
AcDbSymbolTableRecord
100
AcDbTextStyleTableRecord
  2
TEXTSTYLE_1
 70
0
 40
0.0
 41
0.8
 50
0.0
 71
0
 42
0.2
  3
gdt
  4

  0
ENDTAB
  0
TABLE
  2
VIEW
  5
6
100
AcDbSymbolTable
 70
0
  0
ENDTAB
  0
TABLE
  2
UCS
  5
7
100
AcDbSymbolTable
 70
0
  0
ENDTAB
  0
TABLE
  2
APPID
  5
9
100
AcDbSymbolTable
 70
1
  0
APPID
  5
20F
100
AcDbSymbolTableRecord
100
AcDbRegAppTableRecord
  2
ACAD
 70
0
  0
ENDTAB
  0
TABLE
  2
BLOCK_RECORD
  5
1
100
AcDbSymbolTable
 70
0
  0
BLOCK_RECORD
  5
210
100
AcDbSymbolTableRecord
100
AcDbBlockTableRecord
  2
*Model_Space
  0
BLOCK_RECORD
  5
211
100
AcDbSymbolTableRecord
100
AcDbBlockTableRecord
  2
*Paper_Space
  0
BLOCK_RECORD
  5
212
100
AcDbSymbolTableRecord
100
AcDbBlockTableRecord
  2
_FILLED
  0
ENDTAB
  0
TABLE
  2
DIMSTYLE
  5
A
100
AcDbSymbolTable
 70
1
100
AcDbDimStyleTable
 71
0
  0
DIMSTYLE
105
213
100
AcDbSymbolTableRecord
100
AcDbDimStyleTableRecord
  2
STANDARD
 70
0
  3

  4

 40
1.0
 41
0.9872133167
 42
1.0
 43
0.38
 44
1.0
 45
0.0
 46
0.0
 47
0.01
 48
0.01
140
1.3820986434
141
0.09
142
0.0
143
25.4
144
1.0
145
0.0
146
1.0
147
0.625
 71
1
 72
0
 73
0
 74
0
 75
0
 76
0
 77
1
 78
8
 79
2
170
0
171
1
172
0
173
0
174
0
175
0
176
0
177
0
178
0
270
2
179
2
271
2
272
2
273
2
274
2
275
0
280
0
281
0
282
0
283
1
284
8
285
0
286
0
287
3
288
0
340
11
278
46
341
212
342
212
343
212
344
212
  0
ENDTAB
  0
ENDSEC
  0
SECTION
  2
BLOCKS
  0
BLOCK
  5
20
100
AcDbEntity
  8
0
100
AcDbBlockBegin
  2
*Model_Space
 70
0
 10
0.0
 20
0.0
 30
0.0
  3
*Model_Space
  1

  0
ENDBLK
  5
21
100
AcDbEntity
  8
0
100
AcDbBlockEnd
  0
BLOCK
  5
1C
100
AcDbEntity
  8
0
100
AcDbBlockBegin
  2
*Paper_Space
 70
0
 10
0.0
 20
0.0
 30
0.0
  3
*Paper_Space
  1

  0
ENDBLK
  5
1D
100
AcDbEntity
  8
0
100
AcDbBlockEnd
  0
BLOCK
  5
214
100
AcDbEntity
  8
0
100
AcDbBlockBegin
  2
_FILLED
 70
64
 10
0.0
 20
0.0
  3
_FILLED
  1

  0
SOLID
  5
215
100
AcDbEntity
  8
0
  6
BYBLOCK
 62
0
100
AcDbTrace
 10
0.0
 20
0.0
 11
-1.0
 21
0.25
 12
-1.0
 22
-0.25
 13
-1.0
 23
-0.25
  0
ENDBLK
  5
216
100
AcDbEntity
  8
0
  6
BYBLOCK
 62
0
100
AcDbBlockEnd
  0
ENDSEC
  0
SECTION
  2
ENTITIES
  0
LINE
  5
217
100
AcDbEntity
  8
0
100
AcDbLine
 62
7
  6
BYLAYER
 10
53.6110795533
 20
9.4025724638
 11
31.6116506472
 21
9.4025724638
  0
LINE
  5
218
100
AcDbEntity
  8
0
100
AcDbLine
 62
7
  6
BYLAYER
 10
54.1113651003
 20
9.9025724638
 11
31.1113651003
 21
9.9025724638
  0
LINE
  5
219
100
AcDbEntity
  8
0
100
AcDbLine
 62
7
  6
BYLAYER
 10
31.6113651003
 20
9.4025724638
 11
31.1113651003
 21
9.9025724638
  0
LINE
  5
21A
100
AcDbEntity
  8
0
100
AcDbLine
 62
7
  6
BYLAYER
 10
36.6113651003
 20
104.2525724638
 11
37.6113651003
 21
105.2525724638
  0
LINE
  5
21B
100
AcDbEntity
  8
0
100
AcDbLine
 62
7
  6
BYLAYER
 10
31.1113651003
 20
29.4025724638
 11
54.1113651003
 21
29.4025724638
  0
LINE
  5
21C
100
AcDbEntity
  8
0
100
AcDbLine
 62
7
  6
BYLAYER
 10
55.6113651003
 20
30.2685978675
 11
55.5036699457
 21
30.2685978675
  0
LINE
  5
21D
100
AcDbEntity
  8
0
100
AcDbLine
 62
7
  6
BYLAYER
 10
50.5036699457
 20
30.2685978675
 11
47.6113651003
 21
30.2685978675
  0
LINE
  5
21E
100
AcDbEntity
  8
0
100
AcDbLine
 62
7
  6
BYLAYER
 10
37.6113651003
 20
30.2685978675
 11
34.7190602549
 21
30.2685978675
  0
LINE
  5
21F
100
AcDbEntity
  8
0
100
AcDbLine
 62
7
  6
BYLAYER
 10
29.7190602549
 20
30.2685978675
 11
29.6113651003
 21
30.2685978675
  0
LINE
  5
220
100
AcDbEntity
  8
0
100
AcDbLine
 62
7
  6
BYLAYER
 10
31.1113651003
 20
29.4025724638
 11
29.6113651003
 21
30.2685978675
  0
LINE
  5
221
100
AcDbEntity
  8
0
100
AcDbLine
 62
7
  6
BYLAYER
 10
27.6113651003
 20
36.3966500122
 11
27.1804249926
 21
36.7525724638
  0
LINE
  5
222
100
AcDbEntity
  8
0
100
AcDbLine
 62
7
  6
BYLAYER
 10
29.6113651003
 20
34.8252221946
 11
29.7190602549
 21
34.8252221946
  0
LINE
  5
223
100
AcDbEntity
  8
0
100
AcDbLine
 62
7
  6
BYLAYER
 10
34.7190602549
 20
34.8252221946
 11
37.6113651003
 21
34.8252221946
  0
LINE
  5
224
100
AcDbEntity
  8
0
100
AcDbLine
 62
7
  6
BYLAYER
 10
47.6113651003
 20
34.8252221946
 11
50.5036699457
 21
34.8252221946
  0
LINE
  5
225
100
AcDbEntity
  8
0
100
AcDbLine
 62
7
  6
BYLAYER
 10
55.5036699457
 20
34.8252221946
 11
55.6113651003
 21
34.8252221946
  0
LINE
  5
226
100
AcDbEntity
  8
0
100
AcDbLine
 62
7
  6
BYLAYER
 10
54.6113651003
 20
35.4025724638
 11
30.6113651003
 21
35.4025724638
  0
LINE
  5
227
100
AcDbEntity
  8
0
100
AcDbLine
 62
7
  6
BYLAYER
 10
57.6113651003
 20
36.3525724638
 11
27.6113651003
 21
36.3525724638
  0
LINE
  5
228
100
AcDbEntity
  8
0
100
AcDbLine
 62
7
  6
BYLAYER
 10
27.6113651003
 20
36.3966500122
 11
57.6113651003
 21
36.3966500122
  0
LINE
  5
229
100
AcDbEntity
  8
0
100
AcDbLine
 62
7
  6
BYLAYER
 10
58.042305208
 20
36.7525724638
 11
27.1804249926
 21
36.7525724638
  0
LINE
  5
22A
100
AcDbEntity
  8
0
100
AcDbLine
 62
7
  6
BYLAYER
 10
26.4855320754
 20
37.9561623023
 11
58.7371981252
 21
37.9561623023
  0
LINE
  5
22B
100
AcDbEntity
  8
0
100
AcDbLine
 62
7
  6
BYLAYER
 10
27.1804249926
 20
36.7525724638
 11
26.4855320754
 21
37.9561623023
  0
LINE
  5
22C
100
AcDbEntity
  8
0
100
AcDbLine
 62
7
  6
BYLAYER
 10
26.4855320754
 20
37.9561623023
 11
26.3556615261
 21
38.2696975436
  0
LWPOLYLINE
  5
22D
100
AcDbEntity
  8
0
100
AcDbPolyline
 62
7
  6
BYLAYER
 90
4
 70
0
 10
22.0389664124
 20
43.3013102527
 10
22.1385046517
 20
42.8695227803
 10
22.6066269268
 20
42.4002004636
 10
23.0201140869
 20
42.3002239503
  0
LINE
  5
22E
100
AcDbEntity
  8
0
100
AcDbLine
 62
7
  6
BYLAYER
 10
23.1276033015
 20
96.3292873614
 11
23.1223675796
 21
96.6074809612
  0
LINE
  5
22F
100
AcDbEntity
  8
0
100
AcDbLine
 62
7
  6
BYLAYER
 10
22.8113651003
 20
95.285227028
 11
22.8113651003
 21
43.6216777095
  0
LINE
  5
230
100
AcDbEntity
  8
0
100
AcDbLine
 62
7
  6
BYLAYER
 10
22.0390686089
 20
43.3007276207
 11
22.1386855304
 21
95.6087079542
  0
LINE
  5
231
100
AcDbEntity
  8
0
100
AcDbLine
 62
7
  6
BYLAYER
 10
22.4385827279
 20
95.6304686629
 11
22.3389658064
 21
43.3224883294
  0
LINE
  5
232
100
AcDbEntity
  8
0
100
AcDbLine
 62
7
  6
BYLAYER
 10
23.0201166663
 20
42.3002238857
 11
23.0253523882
 21
42.621938903
  0
LINE
  5
233
100
AcDbEntity
  8
0
100
AcDbLine
 62
7
  6
BYLAYER
 10
47.8113651003
 20
106.7525724638
 11
47.6113651003
 21
106.4061623023
  0
LWPOLYLINE
  5
234
100
AcDbEntity
  8
0
100
AcDbPolyline
 62
7
  6
BYLAYER
 90
4
 70
0
 10
62.2026155085
 20
42.3002239481
 10
62.632259028
 20
42.408286493
 10
63.0919780833
 20
42.8858254101
 10
63.1837638022
 20
43.3013086061
  0
LINE
  5
235
100
AcDbEntity
  8
0
100
AcDbLine
 62
7
  6
BYLAYER
 10
58.9113651003
 20
38.6061623023
 11
26.3113651003
 21
38.6061623023
  0
LINE
  5
236
100
AcDbEntity
  8
0
100
AcDbLine
 62
7
  6
BYLAYER
 10
26.3556615261
 20
38.2696975436
 11
26.3113651003
 21
38.6061623023
  0
LINE
  5
237
100
AcDbEntity
  8
0
100
AcDbLine
 62
7
  6
BYLAYER
 10
26.3113651003
 20
38.6061623023
 11
26.3113651003
 21
42.2428206291
  0
LINE
  5
238
100
AcDbEntity
  8
0
100
AcDbLine
 62
7
  6
BYLAYER
 10
27.6113651003
 20
36.3966500122
 11
27.6113651003
 21
36.3525724638
  0
LINE
  5
239
100
AcDbEntity
  8
0
100
AcDbLine
 62
7
  6
BYLAYER
 10
37.4113651003
 20
107.4525724638
 11
37.611184818
 21
108.4525724638
  0
LINE
  5
23A
100
AcDbEntity
  8
0
100
AcDbLine
 62
7
  6
BYLAYER
 10
62.2026060924
 20
42.3002694543
 11
42.6113650993
 21
41.9583030705
  0
LINE
  5
23B
100
AcDbEntity
  8
0
100
AcDbLine
 62
7
  6
BYLAYER
 10
42.6113651003
 20
42.2800637794
 11
62.1973778124
 21
42.621938903
  0
LINE
  5
23C
100
AcDbEntity
  8
0
100
AcDbLine
 62
7
  6
BYLAYER
 10
61.9113692241
 20
43.1229948011
 11
23.3113609765
 21
43.1229948011
  0
LINE
  5
23D
100
AcDbEntity
  8
0
100
AcDbLine
 62
7
  6
BYLAYER
 10
23.0934201531
 20
43.1728630919
 11
62.1293100475
 21
43.1728630919
  0
LINE
  5
23E
100
AcDbEntity
  8
0
100
AcDbLine
 62
7
  6
BYLAYER
 10
23.0531784806
 20
43.1946238006
 11
62.1695517199
 21
43.1946238006
  0
LINE
  5
23F
100
AcDbEntity
  8
0
100
AcDbLine
 62
7
  6
BYLAYER
 10
42.6113651052
 20
41.9583030704
 11
23.0201241082
 21
42.3002694543
  0
LINE
  5
240
100
AcDbEntity
  8
0
100
AcDbLine
 62
7
  6
BYLAYER
 10
23.0253523882
 20
42.621938903
 11
42.6113651003
 21
42.2800637794
  0
LINE
  5
241
100
AcDbEntity
  8
0
100
AcDbLine
 62
7
  6
BYLAYER
 10
54.6113651003
 20
35.4025724638
 11
55.6113651003
 21
34.8252221946
  0
LINE
  5
242
100
AcDbEntity
  8
0
100
AcDbLine
 62
7
  6
BYLAYER
 10
29.6113651003
 20
30.2685978676
 11
29.6113651003
 21
34.8252221946
  0
LINE
  5
243
100
AcDbEntity
  8
0
100
AcDbLine
 62
7
  6
BYLAYER
 10
29.7190602549
 20
30.2685978675
 11
29.7190602549
 21
34.8252221946
  0
LINE
  5
244
100
AcDbEntity
  8
0
100
AcDbLine
 62
7
  6
BYLAYER
 10
30.6113651003
 20
35.4025724638
 11
30.6113651003
 21
36.3525724638
  0
LINE
  5
245
100
AcDbEntity
  8
0
100
AcDbLine
 62
7
  6
BYLAYER
 10
31.1113651003
 20
9.9025724638
 11
31.1113651003
 21
29.4025724638
  0
LINE
  5
246
100
AcDbEntity
  8
0
100
AcDbLine
 62
7
  6
BYLAYER
 10
34.6172706314
 20
96.793021729
 11
34.6172706314
 21
97.1525724638
  0
LINE
  5
247
100
AcDbEntity
  8
0
100
AcDbLine
 62
7
  6
BYLAYER
 10
34.7190602549
 20
34.8252221946
 11
34.7190602549
 21
30.2685978675
  0
LINE
  5
248
100
AcDbEntity
  8
0
100
AcDbLine
 62
7
  6
BYLAYER
 10
36.6113651003
 20
98.4525724638
 11
36.6113651003
 21
104.2525724638
  0
LINE
  5
249
100
AcDbEntity
  8
0
100
AcDbLine
 62
7
  6
BYLAYER
 10
37.4113651003
 20
106.7525724638
 11
37.4113651003
 21
107.4525724638
  0
LINE
  5
24A
100
AcDbEntity
  8
0
100
AcDbLine
 62
7
  6
BYLAYER
 10
37.6113651003
 20
30.2685978675
 11
37.6113651003
 21
34.8252221946
  0
LINE
  5
24B
100
AcDbEntity
  8
0
100
AcDbLine
 62
7
  6
BYLAYER
 10
37.6113651003
 20
105.2525724638
 11
37.6113651003
 21
106.4061623023
  0
LINE
  5
24C
100
AcDbEntity
  8
0
100
AcDbLine
 62
7
  6
BYLAYER
 10
42.6113650422
 20
41.9582573733
 11
42.6113651003
 21
42.2800637794
  0
LINE
  5
24D
100
AcDbEntity
  8
0
100
AcDbLine
 62
7
  6
BYLAYER
 10
42.6113652192
 20
96.6693776907
 11
42.6113649515
 21
96.9476626757
  0
LINE
  5
24E
100
AcDbEntity
  8
0
100
AcDbLine
 62
7
  6
BYLAYER
 10
42.6113722899
 20
96.9522089572
 11
42.6113656466
 21
97.0831748152
  0
LINE
  5
24F
100
AcDbEntity
  8
0
100
AcDbLine
 62
7
  6
BYLAYER
 10
47.6113651003
 20
34.8252221946
 11
47.6113651003
 21
30.2685978675
  0
LINE
  5
250
100
AcDbEntity
  8
0
100
AcDbLine
 62
7
  6
BYLAYER
 10
47.6113651003
 20
105.2525724638
 11
47.6113651003
 21
106.4061623023
  0
LINE
  5
251
100
AcDbEntity
  8
0
100
AcDbLine
 62
7
  6
BYLAYER
 10
47.8113651003
 20
106.7525724638
 11
47.8113651003
 21
107.4525724638
  0
LINE
  5
252
100
AcDbEntity
  8
0
100
AcDbLine
 62
7
  6
BYLAYER
 10
48.6113651003
 20
98.4525724638
 11
48.6113651003
 21
104.2525724638
  0
LINE
  5
253
100
AcDbEntity
  8
0
100
AcDbLine
 62
7
  6
BYLAYER
 10
50.5036699457
 20
30.2685978675
 11
50.5036699457
 21
34.8252221946
  0
LINE
  5
254
100
AcDbEntity
  8
0
100
AcDbLine
 62
7
  6
BYLAYER
 10
50.6054595692
 20
96.8098463608
 11
50.6054595692
 21
97.1525724638
  0
LINE
  5
255
100
AcDbEntity
  8
0
100
AcDbLine
 62
7
  6
BYLAYER
 10
54.1113651003
 20
9.9025724638
 11
54.1113651003
 21
29.4025724638
  0
LINE
  5
256
100
AcDbEntity
  8
0
100
AcDbLine
 62
7
  6
BYLAYER
 10
54.6113651003
 20
35.4025724638
 11
54.6113651003
 21
36.3525724638
  0
LINE
  5
257
100
AcDbEntity
  8
0
100
AcDbLine
 62
7
  6
BYLAYER
 10
55.5036699457
 20
34.8252221946
 11
55.5036699457
 21
30.2685978675
  0
LINE
  5
258
100
AcDbEntity
  8
0
100
AcDbLine
 62
7
  6
BYLAYER
 10
55.6113651003
 20
30.2685978676
 11
55.6113651003
 21
34.8252221946
  0
LINE
  5
259
100
AcDbEntity
  8
0
100
AcDbLine
 62
7
  6
BYLAYER
 10
30.6113651003
 20
35.4025724638
 11
29.6113651003
 21
34.8252221946
  0
LINE
  5
25A
100
AcDbEntity
  8
0
100
AcDbLine
 62
7
  6
BYLAYER
 10
47.8113651003
 20
107.4525724638
 11
47.6115453826
 21
108.4525724638
  0
LINE
  5
25B
100
AcDbEntity
  8
0
100
AcDbLine
 62
7
  6
BYLAYER
 10
57.6113651003
 20
36.3966500122
 11
57.6113651003
 21
36.3525724638
  0
LINE
  5
25C
100
AcDbEntity
  8
0
100
AcDbLine
 62
7
  6
BYLAYER
 10
58.9113651003
 20
38.6061623023
 11
58.9113651003
 21
42.2428206291
  0
LINE
  5
25D
100
AcDbEntity
  8
0
100
AcDbLine
 62
7
  6
BYLAYER
 10
62.1973778124
 20
42.621938903
 11
62.2026135343
 21
42.3002238857
  0
LINE
  5
25E
100
AcDbEntity
  8
0
100
AcDbLine
 62
7
  6
BYLAYER
 10
62.8837643942
 20
43.3224883294
 11
62.7841474727
 21
95.6304686629
  0
LINE
  5
25F
100
AcDbEntity
  8
0
100
AcDbLine
 62
7
  6
BYLAYER
 10
63.0840446702
 20
95.6087079542
 11
63.1836615917
 21
43.3007276207
  0
LINE
  5
260
100
AcDbEntity
  8
0
100
AcDbLine
 62
7
  6
BYLAYER
 10
62.4113651003
 20
43.6216777095
 11
62.4113651003
 21
95.285227028
  0
LINE
  5
261
100
AcDbEntity
  8
0
100
AcDbLine
 62
7
  6
BYLAYER
 10
62.100362621
 20
96.6074809612
 11
62.095126899
 21
96.3292873614
  0
LINE
  5
262
100
AcDbEntity
  8
0
100
AcDbLine
 62
7
  6
BYLAYER
 10
58.8670686745
 20
38.2696975436
 11
58.9113651003
 21
38.6061623023
  0
LINE
  5
263
100
AcDbEntity
  8
0
100
AcDbLine
 62
7
  6
BYLAYER
 10
37.4113651003
 20
106.7525724638
 11
37.6113651003
 21
106.4061623023
  0
LINE
  5
264
100
AcDbEntity
  8
0
100
AcDbLine
 62
7
  6
BYLAYER
 10
58.7371981252
 20
37.9561623023
 11
58.8670686745
 21
38.2696975436
  0
LINE
  5
265
100
AcDbEntity
  8
0
100
AcDbLine
 62
7
  6
BYLAYER
 10
58.042305208
 20
36.7525724638
 11
58.7371981252
 21
37.9561623023
  0
LINE
  5
266
100
AcDbEntity
  8
0
100
AcDbLine
 62
7
  6
BYLAYER
 10
57.6113651003
 20
36.3966500122
 11
58.042305208
 21
36.7525724638
  0
LINE
  5
267
100
AcDbEntity
  8
0
100
AcDbLine
 62
7
  6
BYLAYER
 10
54.1113651003
 20
29.4025724638
 11
55.6113651003
 21
30.2685978675
  0
LINE
  5
268
100
AcDbEntity
  8
0
100
AcDbLine
 62
7
  6
BYLAYER
 10
42.6113651004
 20
96.6693776886
 11
23.1276033015
 21
96.3292873614
  0
LINE
  5
269
100
AcDbEntity
  8
0
100
AcDbLine
 62
7
  6
BYLAYER
 10
23.1223617325
 20
96.6074351606
 11
42.6113648865
 21
96.947616988
  0
LINE
  5
26A
100
AcDbEntity
  8
0
100
AcDbLine
 62
7
  6
BYLAYER
 10
62.076857104
 20
95.7558023544
 11
23.1458730965
 21
95.7558023544
  0
LINE
  5
26B
100
AcDbEntity
  8
0
100
AcDbLine
 62
7
  6
BYLAYER
 10
23.3113607381
 20
95.7839099365
 11
61.9113694624
 21
95.7839099365
  0
LINE
  5
26C
100
AcDbEntity
  8
0
100
AcDbLine
 62
7
  6
BYLAYER
 10
34.6172706314
 20
97.1525724638
 11
50.6054595692
 21
97.1525724638
  0
LINE
  5
26D
100
AcDbEntity
  8
0
100
AcDbLine
 62
7
  6
BYLAYER
 10
34.9172706314
 20
97.4525724638
 11
50.3054595692
 21
97.4525724638
  0
LINE
  5
26E
100
AcDbEntity
  8
0
100
AcDbLine
 62
7
  6
BYLAYER
 10
48.6113651003
 20
98.4525724638
 11
36.6113651003
 21
98.4525724638
  0
LINE
  5
26F
100
AcDbEntity
  8
0
100
AcDbLine
 62
7
  6
BYLAYER
 10
62.095126899
 20
96.3292873614
 11
42.6113651004
 21
96.6693776886
  0
LINE
  5
270
100
AcDbEntity
  8
0
100
AcDbLine
 62
7
  6
BYLAYER
 10
42.6113653195
 20
96.9476169879
 11
62.100368468
 21
96.6074351606
  0
LINE
  5
271
100
AcDbEntity
  8
0
100
AcDbLine
 62
7
  6
BYLAYER
 10
48.6113651003
 20
104.2525724638
 11
47.6113651003
 21
105.2525724638
  0
LINE
  5
272
100
AcDbEntity
  8
0
100
AcDbLine
 62
7
  6
BYLAYER
 10
53.6113651003
 20
9.4025724638
 11
54.1113651003
 21
9.9025724638
  0
LINE
  5
273
100
AcDbEntity
  8
0
100
AcDbLine
 62
7
  6
BYLAYER
 10
36.6113651003
 20
104.2525724638
 11
48.6113651003
 21
104.2525724638
  0
LINE
  5
274
100
AcDbEntity
  8
0
100
AcDbLine
 62
7
  6
BYLAYER
 10
47.6113651003
 20
105.2525724638
 11
37.6113651003
 21
105.2525724638
  0
LINE
  5
275
100
AcDbEntity
  8
0
100
AcDbLine
 62
7
  6
BYLAYER
 10
37.6113651003
 20
106.4061623023
 11
47.6113651003
 21
106.4061623023
  0
LINE
  5
276
100
AcDbEntity
  8
0
100
AcDbLine
 62
7
  6
BYLAYER
 10
47.8113651003
 20
106.7525724638
 11
37.4113651003
 21
106.7525724638
  0
LINE
  5
277
100
AcDbEntity
  8
0
100
AcDbLine
 62
7
  6
BYLAYER
 10
37.4113651003
 20
107.4525724638
 11
47.8113651003
 21
107.4525724638
  0
LINE
  5
278
100
AcDbEntity
  8
0
100
AcDbLine
 62
7
  6
BYLAYER
 10
37.611184818
 20
108.4525724638
 11
47.6115453826
 21
108.4525724638
  0
ARC
  5
279
100
AcDbEntity
  8
0
100
AcDbCircle
 62
7
  6
BYLAYER
 10
60.0696098292
 20
-713.7755579893
 40
811.0466090063
100
AcDbArc
 50
91.2507792438
 51
91.6041210124
  0
ARC
  5
27A
100
AcDbEntity
  8
0
100
AcDbCircle
 62
7
  6
BYLAYER
 10
26.2462275364
 20
-665.5429026111
 40
762.8013091415
100
AcDbArc
 50
88.3765350688
 51
88.7713216267
  0
ARC
  5
27B
100
AcDbEntity
  8
0
100
AcDbCircle
 62
7
  6
BYLAYER
 10
23.1394289587
 20
95.6067947101
 40
1.0007707762
100
AcDbArc
 50
90.9771682696
 51
179.8904607579
  0
ARC
  5
27C
100
AcDbEntity
  8
0
100
AcDbCircle
 62
7
  6
BYLAYER
 10
62.0833015656
 20
95.6067943938
 40
1.000770771
100
AcDbArc
 50
0.109557392
 51
89.0228504198
  0
ARC
  5
27D
100
AcDbEntity
  8
0
100
AcDbCircle
 62
7
  6
BYLAYER
 10
35.6113651003
 20
98.4525724638
 40
1.0
100
AcDbArc
 50
270.0
 51
360.0
  0
ARC
  5
27E
100
AcDbEntity
  8
0
100
AcDbCircle
 62
7
  6
BYLAYER
 10
49.6113651003
 20
98.4525724638
 40
1.0
100
AcDbArc
 50
180.0
 51
270.0
  0
ARC
  5
27F
100
AcDbEntity
  8
0
100
AcDbCircle
 62
7
  6
BYLAYER
 10
61.9109930577
 20
95.2977756197
 40
0.4861344625
100
AcDbArc
 50
81.5079649888
 51
89.9556369598
  0
ARC
  5
280
100
AcDbEntity
  8
0
100
AcDbCircle
 62
7
  6
BYLAYER
 10
23.3117371428
 20
95.2977756197
 40
0.4861344625
100
AcDbArc
 50
90.0443630406
 51
98.4920350115
  0
ARC
  5
281
100
AcDbEntity
  8
0
100
AcDbCircle
 62
7
  6
BYLAYER
 10
50.3054595692
 20
97.1525724638
 40
0.3
100
AcDbArc
 50
0.0
 51
90.0
  0
ARC
  5
282
100
AcDbEntity
  8
0
100
AcDbCircle
 62
7
  6
BYLAYER
 10
34.9172706314
 20
97.1525724638
 40
0.3
100
AcDbArc
 50
90.0
 51
180.0
  0
SPLINE
  5
283
100
AcDbEntity
  8
0
100
AcDbSpline
 62
7
  6
BYLAYER
 70
0
 71
3
 72
11
 73
7
 74
0
 42
0.0000001
 43
0.0000001
 44
0.0000000001
 40
0.0
 40
0.0
 40
0.0
 40
0.0
 40
0.2498688834
 40
0.4995682373
 40
0.7495229494
 40
1.0
 40
1.0
 40
1.0
 40
1.0
 10
62.4113651003
 20
43.6216735966
 30
0.0
 10
62.4113645288
 20
43.5567991733
 30
0.0
 10
62.3843325468
 20
43.4260058596
 30
0.0
 10
62.2743361193
 20
43.2595125568
 30
0.0
 10
62.1074125351
 20
43.1499099776
 30
0.0
 10
61.976401548
 20
43.1229953705
 30
0.0
 10
61.9113692241
 20
43.1229948011
 30
0.0
  0
SPLINE
  5
284
100
AcDbEntity
  8
0
100
AcDbSpline
 62
7
  6
BYLAYER
 70
0
 71
3
 72
11
 73
7
 74
0
 42
0.0000001
 43
0.0000001
 44
0.0000000001
 40
0.0
 40
0.0
 40
0.0
 40
0.0
 40
0.1747630802
 40
0.449967383
 40
0.7248905321
 40
1.0
 40
1.0
 40
1.0
 40
1.0
 10
61.9827814679
 20
95.7785802991
 30
0.0
 10
62.0237796091
 20
95.772487367
 30
0.0
 10
62.1278288896
 20
95.7435893139
 30
0.0
 10
62.2743361193
 20
95.6473921808
 30
0.0
 10
62.384332502
 20
95.4808989457
 30
0.0
 10
62.4113644958
 20
95.350105724
 30
0.0
 10
62.4113651003
 20
95.2852313787
 30
0.0
  0
SPLINE
  5
285
100
AcDbEntity
  8
0
100
AcDbSpline
 62
7
  6
BYLAYER
 70
0
 71
3
 72
11
 73
7
 74
0
 42
0.0000001
 43
0.0000001
 44
0.0000000001
 40
0.0
 40
0.0
 40
0.0
 40
0.0
 40
0.2751094679
 40
0.550032617
 40
0.8252369198
 40
1.0
 40
1.0
 40
1.0
 40
1.0
 10
22.8113651003
 20
95.2852313787
 30
0.0
 10
22.8113657048
 20
95.3501057241
 30
0.0
 10
22.8383976986
 20
95.4808989457
 30
0.0
 10
22.9483940812
 20
95.6473921808
 30
0.0
 10
23.094901311
 20
95.7435893139
 30
0.0
 10
23.1989505915
 20
95.772487367
 30
0.0
 10
23.2399487327
 20
95.7785802991
 30
0.0
  0
SPLINE
  5
286
100
AcDbEntity
  8
0
100
AcDbSpline
 62
7
  6
BYLAYER
 70
0
 71
3
 72
11
 73
7
 74
0
 42
0.0000001
 43
0.0000001
 44
0.0000000001
 40
0.0
 40
0.0
 40
0.0
 40
0.0
 40
0.2504770506
 40
0.5004317627
 40
0.7501311166
 40
1.0
 40
1.0
 40
1.0
 40
1.0
 10
23.3113609765
 20
43.1229948011
 30
0.0
 10
23.2463286525
 20
43.1229953705
 30
0.0
 10
23.1153176654
 20
43.1499099776
 30
0.0
 10
22.9483940812
 20
43.2595125568
 30
0.0
 10
22.8383976538
 20
43.4260058596
 30
0.0
 10
22.8113656717
 20
43.5567991733
 30
0.0
 10
22.8113651003
 20
43.6216735966
 30
0.0
  0
SPLINE
  5
287
100
AcDbEntity
  8
0
100
AcDbSpline
 62
7
  6
BYLAYER
 70
0
 71
3
 72
13
 73
9
 74
0
 42
0.0000001
 43
0.0000001
 44
0.0000000001
 40
0.0
 40
0.0
 40
0.0
 40
0.0
 40
0.2495822638
 40
0.4991726089
 40
0.6244354526
 40
0.7496449167
 40
0.8749653253
 40
1.0
 40
1.0
 40
1.0
 40
1.0
 10
23.1276033015
 20
96.3292873614
 30
0.0
 10
23.0380255482
 20
96.3284388494
 30
0.0
 10
22.8580206951
 20
96.2845746023
 30
0.0
 10
22.6711972398
 20
96.1521869408
 30
0.0
 10
22.5565557736
 20
96.0130225172
 30
0.0
 10
22.4905464059
 20
95.8944470409
 30
0.0
 10
22.4486714006
 20
95.7654412039
 30
0.0
 10
22.4386431431
 20
95.6753469222
 30
0.0
 10
22.4385827279
 20
95.6304686629
 30
0.0
  0
SPLINE
  5
288
100
AcDbEntity
  8
0
100
AcDbSpline
 62
7
  6
BYLAYER
 70
0
 71
3
 72
10
 73
6
 74
0
 42
0.0000001
 43
0.0000001
 44
0.0000000001
 40
0.0
 40
0.0
 40
0.0
 40
0.0
 40
0.244434715
 40
0.4914491423
 40
1.0
 40
1.0
 40
1.0
 40
1.0
 10
53.0036699457
 20
35.4025724638
 30
0.0
 10
53.2140719739
 20
35.4025724638
 30
0.0
 10
53.6375518613
 20
35.3762604348
 30
0.0
 10
54.4859090875
 20
35.2222019725
 30
0.0
 10
55.1036044819
 20
35.0028975048
 30
0.0
 10
55.5036699457
 20
34.8252221946
 30
0.0
  0
SPLINE
  5
289
100
AcDbEntity
  8
0
100
AcDbSpline
 62
7
  6
BYLAYER
 70
0
 71
3
 72
13
 73
9
 74
0
 42
0.0000001
 43
0.0000001
 44
0.0000000001
 40
0.0
 40
0.0
 40
0.0
 40
0.0
 40
0.2489960055
 40
0.498359965
 40
0.623678169
 40
0.7490568254
 40
0.8746468842
 40
1.0
 40
1.0
 40
1.0
 40
1.0
 10
62.7841474727
 20
95.6304686629
 30
0.0
 10
62.7846393743
 20
95.7198388636
 30
0.0
 10
62.743638309
 20
95.9002131246
 30
0.0
 10
62.614085169
 20
96.0887038949
 30
0.0
 10
62.4766131735
 20
96.2053627662
 30
0.0
 10
62.358862476
 20
96.2731873915
 30
0.0
 10
62.2302583604
 20
96.3171145244
 30
0.0
 10
62.1401137215
 20
96.3285600774
 30
0.0
 10
62.095126899
 20
96.3292873614
 30
0.0
  0
SPLINE
  5
28A
100
AcDbEntity
  8
0
100
AcDbSpline
 62
7
  6
BYLAYER
 70
0
 71
3
 72
11
 73
7
 74
0
 42
0.0000001
 43
0.0000001
 44
0.0000000001
 40
0.0
 40
0.0
 40
0.0
 40
0.0
 40
0.2501619196
 40
0.5003290498
 40
0.7503470461
 40
1.0
 40
1.0
 40
1.0
 40
1.0
 10
62.1973778124
 20
42.621938903
 30
0.0
 10
62.2869516348
 20
42.6228414585
 30
0.0
 10
62.4670770978
 20
42.666815107
 30
0.0
 10
62.69017666
 20
42.8259640858
 30
0.0
 10
62.8449856894
 20
43.0523821396
 30
0.0
 10
62.8838014255
 20
43.2330922188
 30
0.0
 10
62.8837643942
 20
43.3224883294
 30
0.0
  0
SPLINE
  5
28B
100
AcDbEntity
  8
0
100
AcDbSpline
 62
7
  6
BYLAYER
 70
0
 71
3
 72
11
 73
7
 74
0
 42
0.0000001
 43
0.0000001
 44
0.0000000001
 40
0.0
 40
0.0
 40
0.0
 40
0.0
 40
0.249597067
 40
0.4995558593
 40
0.7497834467
 40
1.0
 40
1.0
 40
1.0
 40
1.0
 10
22.3389658064
 20
43.3224883294
 30
0.0
 10
22.3383166442
 20
43.2331146186
 30
0.0
 10
22.3782009031
 20
43.0524673821
 30
0.0
 10
22.532425459
 20
42.8260823133
 30
0.0
 10
22.7555651839
 20
42.6663906564
 30
0.0
 10
22.9357664539
 20
42.623402851
 30
0.0
 10
23.0253523882
 20
42.621938903
 30
0.0
  0
SPLINE
  5
28C
100
AcDbEntity
  8
0
100
AcDbSpline
 62
7
  6
BYLAYER
 70
0
 71
3
 72
9
 73
5
 74
0
 42
0.0000001
 43
0.0000001
 44
0.0000000001
 40
0.0
 40
0.0
 40
0.0
 40
0.0
 40
0.4999719375
 40
1.0
 40
1.0
 40
1.0
 40
1.0
 10
42.6113651003
 20
35.4025724638
 30
0.0
 10
43.4514615311
 20
35.4025724638
 30
0.0
 10
45.1331488712
 20
35.2984104573
 30
0.0
 10
46.7911532255
 20
35.0073566356
 30
0.0
 10
47.6113651003
 20
34.8252221946
 30
0.0
  0
SPLINE
  5
28D
100
AcDbEntity
  8
0
100
AcDbSpline
 62
7
  6
BYLAYER
 70
0
 71
3
 72
9
 73
5
 74
0
 42
0.0000001
 43
0.0000001
 44
0.0000000001
 40
0.0
 40
0.0
 40
0.0
 40
0.0
 40
0.2531729928
 40
1.0
 40
1.0
 40
1.0
 40
1.0
 10
50.5036699457
 20
34.8252221946
 30
0.0
 10
50.5740697579
 20
34.8564878488
 30
0.0
 10
50.8537728808
 20
34.9762339228
 30
0.0
 10
51.1404006614
 20
35.0801147028
 30
0.0
 10
51.3577335888
 20
35.1464441465
 30
0.0
  0
SPLINE
  5
28E
100
AcDbEntity
  8
0
100
AcDbSpline
 62
7
  6
BYLAYER
 70
0
 71
3
 72
9
 73
5
 74
0
 42
0.0000001
 43
0.0000001
 44
0.0000000001
 40
0.0
 40
0.0
 40
0.0
 40
0.0
 40
0.5043128433
 40
1.0
 40
1.0
 40
1.0
 40
1.0
 10
51.3577335888
 20
35.1464441465
 30
0.0
 10
51.6263034709
 20
35.2284109754
 30
0.0
 10
52.1700550033
 20
35.3572206411
 30
0.0
 10
52.7276732247
 20
35.4025724638
 30
0.0
 10
53.0036699457
 20
35.4025724638
 30
0.0
  0
SPLINE
  5
28F
100
AcDbEntity
  8
0
100
AcDbSpline
 62
7
  6
BYLAYER
 70
0
 71
3
 72
15
 73
11
 74
0
 42
0.0000001
 43
0.0000001
 44
0.0000000001
 40
0.0
 40
0.0
 40
0.0
 40
0.0
 40
0.36314922
 40
0.5403916137
 40
0.6993447431
 40
0.8287316843
 40
0.922567995
 40
0.9778389635
 40
0.9922435688
 40
1.0
 40
1.0
 40
1.0
 40
1.0
 10
22.3389658064
 20
43.3224883294
 30
0.0
 10
22.3023401617
 20
43.3225577134
 30
0.0
 10
22.2478344584
 20
43.3219822297
 30
0.0
 10
22.177333845
 20
43.3195197372
 30
0.0
 10
22.1304610446
 20
43.316984802
 30
0.0
 10
22.0919883988
 20
43.3137633154
 30
0.0
 10
22.0642313218
 20
43.3103097896
 30
0.0
 10
22.0478416106
 20
43.3068718173
 30
0.0
 10
22.0407457987
 20
43.303982091
 30
0.0
 10
22.0389902379
 20
43.3021098491
 30
0.0
 10
22.0389690081
 20
43.301327856
 30
0.0
  0
SPLINE
  5
290
100
AcDbEntity
  8
0
100
AcDbSpline
 62
7
  6
BYLAYER
 70
0
 71
3
 72
23
 73
19
 74
0
 42
0.0000001
 43
0.0000001
 44
0.0000000001
 40
0.0
 40
0.0
 40
0.0
 40
0.0
 40
0.2227841176
 40
0.421447947
 40
0.5935012327
 40
0.6689530807
 40
0.7370708749
 40
0.7976665957
 40
0.8505540087
 40
0.8955794291
 40
0.9326319422
 40
0.9616066863
 40
0.9730385283
 40
0.982429298
 40
0.9897812754
 40
0.9951049654
 40
0.9984391259
 40
1.0
 40
1.0
 40
1.0
 40
1.0
 10
47.8571643975
 20
96.9522151674
 30
0.0
 10
48.0616130127
 20
96.9454575134
 30
0.0
 10
48.4483636937
 20
96.9323200919
 30
0.0
 10
48.9929465249
 20
96.9122250944
 30
0.0
 10
49.4022756806
 20
96.8954166798
 30
0.0
 10
49.6917794627
 20
96.8821991192
 30
0.0
 10
49.8790169665
 20
96.8729678312
 30
0.0
 10
50.0455232304
 20
96.8640125736
 30
0.0
 10
50.1908083627
 20
96.8553612472
 30
0.0
 10
50.3144591705
 20
96.8470516011
 30
0.0
 10
50.4161138165
 20
96.8391289954
 30
0.0
 10
50.486949249
 20
96.8324846334
 30
0.0
 10
50.5323444537
 20
96.8272114621
 30
0.0
 10
50.5580251384
 20
96.8236432147
 30
0.0
 10
50.5778754961
 20
96.8203544725
 30
0.0
 10
50.5925314775
 20
96.8168979694
 30
0.0
 10
50.6008850378
 20
96.8143663833
 30
0.0
 10
50.6054595613
 20
96.8112795545
 30
0.0
 10
50.6054595692
 20
96.8098463608
 30
0.0
  0
SPLINE
  5
291
100
AcDbEntity
  8
0
100
AcDbSpline
 62
7
  6
BYLAYER
 70
0
 71
3
 72
13
 73
9
 74
0
 42
0.0000001
 43
0.0000001
 44
0.0000000001
 40
0.0
 40
0.0
 40
0.0
 40
0.0
 40
0.2542846119
 40
0.3777826447
 40
0.4999998149
 40
0.6222164404
 40
0.7457156587
 40
1.0
 40
1.0
 40
1.0
 40
1.0
 10
55.5036699457
 20
30.2685978675
 30
0.0
 10
55.1035760332
 20
30.0909099229
 30
0.0
 10
54.4860744741
 20
29.8711094587
 30
0.0
 10
53.6375100136
 20
29.7171988606
 30
0.0
 10
53.0036715157
 20
29.6784830783
 30
0.0
 10
52.3698220186
 20
29.7171388517
 30
0.0
 10
51.521275299
 20
29.8711545854
 30
0.0
 10
50.9037634324
 20
30.0909101119
 30
0.0
 10
50.5036699457
 20
30.2685978675
 30
0.0
  0
SPLINE
  5
292
100
AcDbEntity
  8
0
100
AcDbSpline
 62
7
  6
BYLAYER
 70
0
 71
3
 72
9
 73
5
 74
0
 42
0.0000001
 43
0.0000001
 44
0.0000000001
 40
0.0
 40
0.0
 40
0.0
 40
0.0
 40
0.5000284632
 40
1.0
 40
1.0
 40
1.0
 40
1.0
 10
47.6113651003
 20
30.2685978675
 30
0.0
 10
46.7911484236
 20
30.0864623602
 30
0.0
 10
45.1332011939
 20
29.7949505306
 30
0.0
 10
43.4514651027
 20
29.6912476239
 30
0.0
 10
42.6113651003
 20
29.6912476239
 30
0.0
  0
SPLINE
  5
293
100
AcDbEntity
  8
0
100
AcDbSpline
 62
7
  6
BYLAYER
 70
0
 71
3
 72
9
 73
5
 74
0
 42
0.0000001
 43
0.0000001
 44
0.0000000001
 40
0.0
 40
0.0
 40
0.0
 40
0.0
 40
0.4999717088
 40
1.0
 40
1.0
 40
1.0
 40
1.0
 10
42.6113651003
 20
29.6912476239
 30
0.0
 10
41.7712649669
 20
29.6912476239
 30
0.0
 10
40.0895306877
 20
29.7949676398
 30
0.0
 10
38.4315813405
 20
30.0864624571
 30
0.0
 10
37.6113651003
 20
30.2685978675
 30
0.0
  0
SPLINE
  5
294
100
AcDbEntity
  8
0
100
AcDbSpline
 62
7
  6
BYLAYER
 70
0
 71
3
 72
13
 73
9
 74
0
 42
0.0000001
 43
0.0000001
 44
0.0000000001
 40
0.0
 40
0.0
 40
0.0
 40
0.0
 40
0.2542846119
 40
0.3777826447
 40
0.4999998149
 40
0.6222164404
 40
0.7457156587
 40
1.0
 40
1.0
 40
1.0
 40
1.0
 10
34.7190602549
 20
30.2685978675
 30
0.0
 10
34.3189663424
 20
30.0909099229
 30
0.0
 10
33.7014647833
 20
29.8711094587
 30
0.0
 10
32.8529003227
 20
29.7171988606
 30
0.0
 10
32.2190618248
 20
29.6784830783
 30
0.0
 10
31.5852123278
 20
29.7171388517
 30
0.0
 10
30.7366656081
 20
29.8711545854
 30
0.0
 10
30.1191537416
 20
30.0909101119
 30
0.0
 10
29.7190602549
 20
30.2685978675
 30
0.0
  0
LINE
  5
295
100
AcDbEntity
  8
0
100
AcDbLine
 62
7
  6
BYLAYER
 10
42.3656933889
 20
97.0778031822
 11
42.6028535809
 21
97.0830201141
  0
SPLINE
  5
296
100
AcDbEntity
  8
0
100
AcDbSpline
 62
7
  6
BYLAYER
 70
0
 71
3
 72
9
 73
5
 74
0
 42
0.0000001
 43
0.0000001
 44
0.0000000001
 40
0.0
 40
0.0
 40
0.0
 40
0.0
 40
0.4956833663
 40
1.0
 40
1.0
 40
1.0
 40
1.0
 10
32.2190602549
 20
35.4025724638
 30
0.0
 10
32.4953085246
 20
35.4025724638
 30
0.0
 10
33.0534263773
 20
35.3569015219
 30
0.0
 10
33.5976435621
 20
35.2278957918
 30
0.0
 10
33.8664580078
 20
35.1458389506
 30
0.0
  0
SPLINE
  5
297
100
AcDbEntity
  8
0
100
AcDbSpline
 62
7
  6
BYLAYER
 70
0
 71
3
 72
9
 73
5
 74
0
 42
0.0000001
 43
0.0000001
 44
0.0000000001
 40
0.0
 40
0.0
 40
0.0
 40
0.0
 40
0.2470094921
 40
1.0
 40
1.0
 40
1.0
 40
1.0
 10
33.8664580078
 20
35.1458389506
 30
0.0
 10
33.938215875
 20
35.1239345328
 30
0.0
 10
34.2272093017
 20
35.0303243109
 30
0.0
 10
34.5100339588
 20
34.9180540317
 30
0.0
 10
34.7190602549
 20
34.8252221946
 30
0.0
  0
SPLINE
  5
298
100
AcDbEntity
  8
0
100
AcDbSpline
 62
7
  6
BYLAYER
 70
0
 71
3
 72
9
 73
5
 74
0
 42
0.0000001
 43
0.0000001
 44
0.0000000001
 40
0.0
 40
0.0
 40
0.0
 40
0.0
 40
0.5000279715
 40
1.0
 40
1.0
 40
1.0
 40
1.0
 10
37.6113651003
 20
34.8252221946
 30
0.0
 10
38.4315720279
 20
35.0073555371
 30
0.0
 10
40.0896426369
 20
35.2978781654
 30
0.0
 10
41.7712734308
 20
35.4025724638
 30
0.0
 10
42.6113651003
 20
35.4025724638
 30
0.0
  0
SPLINE
  5
299
100
AcDbEntity
  8
0
100
AcDbSpline
 62
7
  6
BYLAYER
 70
0
 71
3
 72
16
 73
12
 74
0
 42
0.0000001
 43
0.0000001
 44
0.0000000001
 40
0.0
 40
0.0
 40
0.0
 40
0.0
 40
0.3699735071
 40
0.5498982784
 40
0.7100783025
 40
0.8388786652
 40
0.8895563305
 40
0.930339418
 40
0.9609176511
 40
0.9818884743
 40
1.0
 40
1.0
 40
1.0
 40
1.0
 10
62.7841474727
 20
95.630468663
 30
0.0
 10
62.8214896832
 20
95.6305394044
 30
0.0
 10
62.8770023351
 20
95.6299364277
 30
0.0
 10
62.9486228924
 20
95.6273861222
 30
0.0
 10
62.995898238
 20
95.6247323139
 30
0.0
 10
63.0300222597
 20
95.6218354908
 30
0.0
 10
63.0521540773
 20
95.6190452133
 30
0.0
 10
63.0641819609
 20
95.6171866095
 30
0.0
 10
63.0736408679
 20
95.6150075066
 30
0.0
 10
63.0795575028
 20
95.6133836121
 30
0.0
 10
63.0846635724
 20
95.6104280364
 30
0.0
 10
63.0840446702
 20
95.6087079542
 30
0.0
  0
SPLINE
  5
29A
100
AcDbEntity
  8
0
100
AcDbSpline
 62
7
  6
BYLAYER
 70
0
 71
3
 72
15
 73
11
 74
0
 42
0.0000001
 43
0.0000001
 44
0.0000000001
 40
0.0
 40
0.0
 40
0.0
 40
0.0
 40
0.007748951
 40
0.0221419047
 40
0.0773904433
 40
0.1712126788
 40
0.3005957982
 40
0.4595555333
 40
0.6368127912
 40
1.0
 40
1.0
 40
1.0
 40
1.0
 10
63.183761285
 20
43.3013242999
 30
0.0
 10
63.1837418552
 20
43.3021055935
 30
0.0
 10
63.1819900209
 20
43.3039795558
 30
0.0
 10
63.1748978226
 20
43.3068685109
 30
0.0
 10
63.1585136967
 20
43.3103080381
 30
0.0
 10
63.1307600376
 20
43.3137612468
 30
0.0
 10
63.0922883398
 20
43.3169836555
 30
0.0
 10
63.0454132184
 20
43.3195190005
 30
0.0
 10
62.974905892
 20
43.3219821226
 30
0.0
 10
62.9203942624
 20
43.3225577214
 30
0.0
 10
62.8837643942
 20
43.3224883294
 30
0.0
  0
SPLINE
  5
29B
100
AcDbEntity
  8
0
100
AcDbSpline
 62
7
  6
BYLAYER
 70
0
 71
3
 72
15
 73
11
 74
0
 42
0.0000001
 43
0.0000001
 44
0.0000000001
 40
0.0
 40
0.0
 40
0.0
 40
0.0
 40
0.0166837869
 40
0.0399020964
 40
0.1057978602
 40
0.1971601248
 40
0.3131891717
 40
0.4528262439
 40
0.6148521517
 40
1.0
 40
1.0
 40
1.0
 40
1.0
 10
34.6526577612
 20
96.8088192722
 30
0.0
 10
34.6674528298
 20
96.8119023408
 30
0.0
 10
34.7031825572
 20
96.8175537001
 30
0.0
 10
34.7983157452
 20
96.8291310241
 30
0.0
 10
34.9612298831
 20
96.8432541784
 30
0.0
 10
35.2081959663
 20
96.860242492
 30
0.0
 10
35.5220556603
 20
96.8780275695
 30
0.0
 10
35.8999644924
 20
96.8965779441
 30
0.0
 10
36.5215290611
 20
96.9234736967
 30
0.0
 10
37.0168666096
 20
96.9413205057
 30
0.0
 10
37.3655475091
 20
96.9532052445
 30
0.0
  0
SPLINE
  5
29C
100
AcDbEntity
  8
0
100
AcDbSpline
 62
7
  6
BYLAYER
 70
0
 71
3
 72
16
 73
12
 74
0
 42
0.0000001
 43
0.0000001
 44
0.0000000001
 40
0.0
 40
0.0
 40
0.0
 40
0.0
 40
0.0181115257
 40
0.0390823489
 40
0.069660582
 40
0.1104436695
 40
0.1611213348
 40
0.2899216975
 40
0.4501017216
 40
0.6300264929
 40
1.0
 40
1.0
 40
1.0
 40
1.0
 10
22.1386855304
 20
95.6087079542
 30
0.0
 10
22.1380666281
 20
95.6104280364
 30
0.0
 10
22.1431726977
 20
95.6133836121
 30
0.0
 10
22.1490893327
 20
95.6150075066
 30
0.0
 10
22.1585482397
 20
95.6171866095
 30
0.0
 10
22.1705761232
 20
95.6190452133
 30
0.0
 10
22.1927079409
 20
95.6218354908
 30
0.0
 10
22.2268319625
 20
95.6247323139
 30
0.0
 10
22.2741073081
 20
95.6273861222
 30
0.0
 10
22.3457278654
 20
95.6299364277
 30
0.0
 10
22.4012405173
 20
95.6305394044
 30
0.0
 10
22.4385827279
 20
95.630468663
 30
0.0
  0
SPLINE
  5
29D
100
AcDbEntity
  8
0
100
AcDbSpline
 62
7
  6
BYLAYER
 70
0
 71
3
 72
27
 73
23
 74
0
 42
0.0000001
 43
0.0000001
 44
0.0000000001
 40
0.0
 40
0.0
 40
0.0
 40
0.0
 40
0.0623985709
 40
0.0936479611
 40
0.1248904926
 40
0.1873242967
 40
0.2497882062
 40
0.2810693754
 40
0.3123596115
 40
0.3748867442
 40
0.437436543
 40
0.4999982939
 40
0.562559788
 40
0.6251089305
 40
0.6876354902
 40
0.7189256716
 40
0.7502070078
 40
0.8126719298
 40
0.8751069207
 40
0.9063502419
 40
0.9376005819
 40
1.0
 40
1.0
 40
1.0
 40
1.0
 10
46.6113651003
 20
56.5312181658
 30
0.0
 10
46.6113651003
 20
56.1401848283
 30
0.0
 10
46.6695651312
 20
55.551199093
 30
0.0
 10
46.8605278559
 20
54.7912705915
 30
0.0
 10
47.1252093297
 20
54.0532712724
 30
0.0
 10
47.5905065504
 20
53.1848883979
 30
0.0
 10
48.2167973551
 20
52.4240672174
 30
0.0
 10
48.7989450406
 20
51.8979489906
 30
0.0
 10
49.4300447385
 20
51.4310446152
 30
0.0
 10
50.3007494138
 20
50.9667851458
 30
0.0
 10
51.4333403111
 20
50.624232272
 30
0.0
 10
52.6113299465
 20
50.5084855506
 30
0.0
 10
53.789316322
 20
50.6242191389
 30
0.0
 10
54.9219033963
 20
50.9667540423
 30
0.0
 10
55.7926038064
 20
51.4310022928
 30
0.0
 10
56.4237143552
 20
51.8978873758
 30
0.0
 10
57.0058691336
 20
52.4240086653
 30
0.0
 10
57.6321817892
 20
53.1848301763
 30
0.0
 10
58.0974995441
 20
54.0532241649
 30
0.0
 10
58.3621929705
 20
54.7912388276
 30
0.0
 10
58.5531612137
 20
55.5511827029
 30
0.0
 10
58.6113651003
 20
56.140179519
 30
0.0
 10
58.6113651003
 20
56.5312181658
 30
0.0
  0
SPLINE
  5
29E
100
AcDbEntity
  8
0
100
AcDbSpline
 62
7
  6
BYLAYER
 70
0
 71
3
 72
27
 73
23
 74
0
 42
0.0000001
 43
0.0000001
 44
0.0000000001
 40
0.0
 40
0.0
 40
0.0
 40
0.0
 40
0.0623985709
 40
0.0936479611
 40
0.1248904926
 40
0.1873242967
 40
0.2497882062
 40
0.2810693754
 40
0.3123596115
 40
0.3748867442
 40
0.437436543
 40
0.4999982939
 40
0.562559788
 40
0.6251089305
 40
0.6876354902
 40
0.7189256716
 40
0.7502070078
 40
0.8126719298
 40
0.8751069207
 40
0.9063502419
 40
0.9376005819
 40
1.0
 40
1.0
 40
1.0
 40
1.0
 10
58.6113651003
 20
56.5312181658
 30
0.0
 10
58.6113651003
 20
56.9222515032
 30
0.0
 10
58.5531650694
 20
57.5112372385
 30
0.0
 10
58.3622023446
 20
58.27116574
 30
0.0
 10
58.0975208709
 20
59.0091650591
 30
0.0
 10
57.6322236502
 20
59.8775479336
 30
0.0
 10
57.0059328454
 20
60.6383691141
 30
0.0
 10
56.4237851599
 20
61.1644873409
 30
0.0
 10
55.7926854621
 20
61.6313917164
 30
0.0
 10
54.9219807867
 20
62.0956511858
 30
0.0
 10
53.7893898895
 20
62.4382040595
 30
0.0
 10
52.611400254
 20
62.5539507809
 30
0.0
 10
51.4334138786
 20
62.4382171926
 30
0.0
 10
50.3008268043
 20
62.0956822892
 30
0.0
 10
49.4301263942
 20
61.6314340388
 30
0.0
 10
48.7990158453
 20
61.1645489557
 30
0.0
 10
48.216861067
 20
60.6384276662
 30
0.0
 10
47.5905484113
 20
59.8776061552
 30
0.0
 10
47.1252306564
 20
59.0092121667
 30
0.0
 10
46.8605372301
 20
58.2711975039
 30
0.0
 10
46.6695689869
 20
57.5112536287
 30
0.0
 10
46.6113651003
 20
56.9222568125
 30
0.0
 10
46.6113651003
 20
56.5312181658
 30
0.0
  0
SPLINE
  5
29F
100
AcDbEntity
  8
0
100
AcDbSpline
 62
7
  6
BYLAYER
 70
0
 71
3
 72
27
 73
23
 74
0
 42
0.0000001
 43
0.0000001
 44
0.0000000001
 40
0.0
 40
0.0
 40
0.0
 40
0.0
 40
0.0623985709
 40
0.0936479611
 40
0.1248904926
 40
0.1873242967
 40
0.2497882062
 40
0.2810693754
 40
0.3123596115
 40
0.3748867442
 40
0.437436543
 40
0.4999982939
 40
0.562559788
 40
0.6251089305
 40
0.6876354902
 40
0.7189256716
 40
0.7502070078
 40
0.8126719298
 40
0.8751069207
 40
0.9063502419
 40
0.9376005819
 40
1.0
 40
1.0
 40
1.0
 40
1.0
 10
26.6113651003
 20
56.5312181658
 30
0.0
 10
26.6113651003
 20
56.1401848283
 30
0.0
 10
26.6695651312
 20
55.551199093
 30
0.0
 10
26.8605278559
 20
54.7912705915
 30
0.0
 10
27.1252093297
 20
54.0532712724
 30
0.0
 10
27.5905065504
 20
53.1848883979
 30
0.0
 10
28.2167973551
 20
52.4240672174
 30
0.0
 10
28.7989450406
 20
51.8979489906
 30
0.0
 10
29.4300447385
 20
51.4310446152
 30
0.0
 10
30.3007494138
 20
50.9667851458
 30
0.0
 10
31.4333403111
 20
50.624232272
 30
0.0
 10
32.6113299465
 20
50.5084855506
 30
0.0
 10
33.789316322
 20
50.6242191389
 30
0.0
 10
34.9219033963
 20
50.9667540423
 30
0.0
 10
35.7926038064
 20
51.4310022928
 30
0.0
 10
36.4237143552
 20
51.8978873758
 30
0.0
 10
37.0058691336
 20
52.4240086653
 30
0.0
 10
37.6321817892
 20
53.1848301763
 30
0.0
 10
38.0974995441
 20
54.0532241649
 30
0.0
 10
38.3621929705
 20
54.7912388276
 30
0.0
 10
38.5531612137
 20
55.5511827029
 30
0.0
 10
38.6113651003
 20
56.140179519
 30
0.0
 10
38.6113651003
 20
56.5312181658
 30
0.0
  0
SPLINE
  5
2A0
100
AcDbEntity
  8
0
100
AcDbSpline
 62
7
  6
BYLAYER
 70
0
 71
3
 72
27
 73
23
 74
0
 42
0.0000001
 43
0.0000001
 44
0.0000000001
 40
0.0
 40
0.0
 40
0.0
 40
0.0
 40
0.0623985709
 40
0.0936479611
 40
0.1248904926
 40
0.1873242967
 40
0.2497882062
 40
0.2810693754
 40
0.3123596115
 40
0.3748867442
 40
0.437436543
 40
0.4999982939
 40
0.562559788
 40
0.6251089305
 40
0.6876354902
 40
0.7189256716
 40
0.7502070078
 40
0.8126719298
 40
0.8751069207
 40
0.9063502419
 40
0.9376005819
 40
1.0
 40
1.0
 40
1.0
 40
1.0
 10
38.6113651003
 20
56.5312181658
 30
0.0
 10
38.6113651003
 20
56.9222515032
 30
0.0
 10
38.5531650694
 20
57.5112372385
 30
0.0
 10
38.3622023446
 20
58.27116574
 30
0.0
 10
38.0975208709
 20
59.0091650591
 30
0.0
 10
37.6322236502
 20
59.8775479336
 30
0.0
 10
37.0059328454
 20
60.6383691141
 30
0.0
 10
36.4237851599
 20
61.1644873409
 30
0.0
 10
35.7926854621
 20
61.6313917164
 30
0.0
 10
34.9219807867
 20
62.0956511858
 30
0.0
 10
33.7893898895
 20
62.4382040595
 30
0.0
 10
32.611400254
 20
62.5539507809
 30
0.0
 10
31.4334138786
 20
62.4382171926
 30
0.0
 10
30.3008268043
 20
62.0956822892
 30
0.0
 10
29.4301263942
 20
61.6314340388
 30
0.0
 10
28.7990158453
 20
61.1645489557
 30
0.0
 10
28.216861067
 20
60.6384276662
 30
0.0
 10
27.5905484113
 20
59.8776061552
 30
0.0
 10
27.1252306564
 20
59.0092121667
 30
0.0
 10
26.8605372301
 20
58.2711975039
 30
0.0
 10
26.6695689869
 20
57.5112536287
 30
0.0
 10
26.6113651003
 20
56.9222568125
 30
0.0
 10
26.6113651003
 20
56.5312181658
 30
0.0
  0
SPLINE
  5
2A1
100
AcDbEntity
  8
0
100
AcDbSpline
 62
7
  6
BYLAYER
 70
0
 71
3
 72
27
 73
23
 74
0
 42
0.0000001
 43
0.0000001
 44
0.0000000001
 40
0.0
 40
0.0
 40
0.0
 40
0.0
 40
0.0623983516
 40
0.0936476972
 40
0.1248903088
 40
0.1873242785
 40
0.2497885222
 40
0.2810699059
 40
0.3123603393
 40
0.3748876016
 40
0.4374372165
 40
0.4999986134
 40
0.5625597464
 40
0.625108671
 40
0.687635267
 40
0.7189255682
 40
0.7502070331
 40
0.8126721112
 40
0.8751071405
 40
0.9063504957
 40
0.9376007745
 40
1.0
 40
1.0
 40
1.0
 40
1.0
 10
59.1113651003
 20
56.509457457
 30
0.0
 10
59.1113651003
 20
56.085839499
 30
0.0
 10
59.048316474
 20
55.4477732516
 30
0.0
 10
58.8414395509
 20
54.6245188208
 30
0.0
 10
58.5547022149
 20
53.8250178355
 30
0.0
 10
58.0506286079
 20
52.884265864
 30
0.0
 10
57.3721426323
 20
52.0600401674
 30
0.0
 10
56.7414787237
 20
51.4900754618
 30
0.0
 10
56.057782461
 20
50.9842628208
 30
0.0
 10
55.1145176131
 20
50.4813159162
 30
0.0
 10
53.8875458884
 20
50.1102207286
 30
0.0
 10
52.6113965304
 20
49.9848305308
 30
0.0
 10
51.335251136
 20
50.110208837
 30
0.0
 10
50.1082852159
 20
50.481286663
 30
0.0
 10
49.1650267769
 20
50.9842219254
 30
0.0
 10
48.4813215286
 20
51.4900144461
 30
0.0
 10
47.8506518832
 20
52.0599811181
 30
0.0
 10
47.1721448849
 20
52.8842059472
 30
0.0
 10
46.6680506885
 20
53.824968022
 30
0.0
 10
46.3813007225
 20
54.6244843776
 30
0.0
 10
46.174418057
 20
55.4477552684
 30
0.0
 10
46.1113651003
 20
56.085833566
 30
0.0
 10
46.1113651003
 20
56.509457457
 30
0.0
  0
SPLINE
  5
2A2
100
AcDbEntity
  8
0
100
AcDbSpline
 62
7
  6
BYLAYER
 70
0
 71
3
 72
27
 73
23
 74
0
 42
0.0000001
 43
0.0000001
 44
0.0000000001
 40
0.0
 40
0.0
 40
0.0
 40
0.0
 40
0.0623983516
 40
0.0936476972
 40
0.1248903088
 40
0.1873242785
 40
0.2497885222
 40
0.2810699059
 40
0.3123603393
 40
0.3748876016
 40
0.4374372165
 40
0.4999986134
 40
0.5625597464
 40
0.625108671
 40
0.687635267
 40
0.7189255682
 40
0.7502070331
 40
0.8126721112
 40
0.8751071405
 40
0.9063504957
 40
0.9376007745
 40
1.0
 40
1.0
 40
1.0
 40
1.0
 10
46.1113651003
 20
56.509457457
 30
0.0
 10
46.1113651003
 20
56.9330754151
 30
0.0
 10
46.1744137266
 20
57.5711416624
 30
0.0
 10
46.3812906496
 20
58.3943960932
 30
0.0
 10
46.6680279856
 20
59.1938970786
 30
0.0
 10
47.1721015926
 20
60.1346490501
 30
0.0
 10
47.8505875682
 20
60.9588747466
 30
0.0
 10
48.4812514769
 20
61.5288394522
 30
0.0
 10
49.1649477396
 20
62.0346520933
 30
0.0
 10
50.1082125875
 20
62.5375989979
 30
0.0
 10
51.3351843121
 20
62.9086941855
 30
0.0
 10
52.6113336701
 20
63.0340843833
 30
0.0
 10
53.8874790646
 20
62.908706077
 30
0.0
 10
55.1144449847
 20
62.537628251
 30
0.0
 10
56.0577034237
 20
62.0346929887
 30
0.0
 10
56.741408672
 20
61.528900468
 30
0.0
 10
57.3720783173
 20
60.958933796
 30
0.0
 10
58.0505853157
 20
60.1347089669
 30
0.0
 10
58.554679512
 20
59.1939468921
 30
0.0
 10
58.8414294781
 20
58.3944305365
 30
0.0
 10
59.0483121436
 20
57.5711596457
 30
0.0
 10
59.1113651003
 20
56.933081348
 30
0.0
 10
59.1113651003
 20
56.509457457
 30
0.0
  0
SPLINE
  5
2A3
100
AcDbEntity
  8
0
100
AcDbSpline
 62
7
  6
BYLAYER
 70
0
 71
3
 72
27
 73
23
 74
0
 42
0.0000001
 43
0.0000001
 44
0.0000000001
 40
0.0
 40
0.0
 40
0.0
 40
0.0
 40
0.0623983516
 40
0.0936476972
 40
0.1248903088
 40
0.1873242785
 40
0.2497885222
 40
0.2810699059
 40
0.3123603393
 40
0.3748876016
 40
0.4374372165
 40
0.4999986134
 40
0.5625597464
 40
0.625108671
 40
0.687635267
 40
0.7189255682
 40
0.7502070331
 40
0.8126721112
 40
0.8751071405
 40
0.9063504957
 40
0.9376007745
 40
1.0
 40
1.0
 40
1.0
 40
1.0
 10
39.1113651003
 20
56.509457457
 30
0.0
 10
39.1113651003
 20
56.085839499
 30
0.0
 10
39.048316474
 20
55.4477732516
 30
0.0
 10
38.8414395509
 20
54.6245188208
 30
0.0
 10
38.5547022149
 20
53.8250178355
 30
0.0
 10
38.0506286079
 20
52.884265864
 30
0.0
 10
37.3721426323
 20
52.0600401674
 30
0.0
 10
36.7414787237
 20
51.4900754618
 30
0.0
 10
36.057782461
 20
50.9842628208
 30
0.0
 10
35.1145176131
 20
50.4813159162
 30
0.0
 10
33.8875458884
 20
50.1102207286
 30
0.0
 10
32.6113965304
 20
49.9848305308
 30
0.0
 10
31.335251136
 20
50.110208837
 30
0.0
 10
30.1082852159
 20
50.481286663
 30
0.0
 10
29.1650267769
 20
50.9842219254
 30
0.0
 10
28.4813215286
 20
51.4900144461
 30
0.0
 10
27.8506518832
 20
52.0599811181
 30
0.0
 10
27.1721448849
 20
52.8842059472
 30
0.0
 10
26.6680506885
 20
53.824968022
 30
0.0
 10
26.3813007225
 20
54.6244843776
 30
0.0
 10
26.174418057
 20
55.4477552684
 30
0.0
 10
26.1113651003
 20
56.085833566
 30
0.0
 10
26.1113651003
 20
56.509457457
 30
0.0
  0
SPLINE
  5
2A4
100
AcDbEntity
  8
0
100
AcDbSpline
 62
7
  6
BYLAYER
 70
0
 71
3
 72
27
 73
23
 74
0
 42
0.0000001
 43
0.0000001
 44
0.0000000001
 40
0.0
 40
0.0
 40
0.0
 40
0.0
 40
0.0623983516
 40
0.0936476972
 40
0.1248903088
 40
0.1873242785
 40
0.2497885222
 40
0.2810699059
 40
0.3123603393
 40
0.3748876016
 40
0.4374372165
 40
0.4999986134
 40
0.5625597464
 40
0.625108671
 40
0.687635267
 40
0.7189255682
 40
0.7502070331
 40
0.8126721112
 40
0.8751071405
 40
0.9063504957
 40
0.9376007745
 40
1.0
 40
1.0
 40
1.0
 40
1.0
 10
26.1113651003
 20
56.509457457
 30
0.0
 10
26.1113651003
 20
56.9330754151
 30
0.0
 10
26.1744137266
 20
57.5711416624
 30
0.0
 10
26.3812906496
 20
58.3943960932
 30
0.0
 10
26.6680279856
 20
59.1938970786
 30
0.0
 10
27.1721015926
 20
60.1346490501
 30
0.0
 10
27.8505875682
 20
60.9588747466
 30
0.0
 10
28.4812514769
 20
61.5288394522
 30
0.0
 10
29.1649477396
 20
62.0346520933
 30
0.0
 10
30.1082125875
 20
62.5375989979
 30
0.0
 10
31.3351843121
 20
62.9086941855
 30
0.0
 10
32.6113336701
 20
63.0340843833
 30
0.0
 10
33.8874790646
 20
62.908706077
 30
0.0
 10
35.1144449847
 20
62.537628251
 30
0.0
 10
36.0577034237
 20
62.0346929887
 30
0.0
 10
36.741408672
 20
61.528900468
 30
0.0
 10
37.3720783173
 20
60.958933796
 30
0.0
 10
38.0505853157
 20
60.1347089669
 30
0.0
 10
38.554679512
 20
59.1939468921
 30
0.0
 10
38.8414294781
 20
58.3944305365
 30
0.0
 10
39.0483121436
 20
57.5711596457
 30
0.0
 10
39.1113651003
 20
56.933081348
 30
0.0
 10
39.1113651003
 20
56.509457457
 30
0.0
  0
SPLINE
  5
2A5
100
AcDbEntity
  8
0
100
AcDbSpline
 62
7
  6
BYLAYER
 70
0
 71
3
 72
10
 73
6
 74
0
 42
0.0000001
 43
0.0000001
 44
0.0000000001
 40
0.0
 40
0.0
 40
0.0
 40
0.0
 40
0.5085633139
 40
0.7555702933
 40
1.0
 40
1.0
 40
1.0
 40
1.0
 10
29.7190602549
 20
34.8252221946
 30
0.0
 10
30.1191424135
 20
35.0029049192
 30
0.0
 10
30.7367662493
 20
35.2224681593
 30
0.0
 10
31.5851791061
 20
35.3764050882
 30
0.0
 10
32.0086589112
 20
35.4025724638
 30
0.0
 10
32.2190602549
 20
35.4025724638
 30
0.0
  0
ENDSEC
  0
SECTION
  2
OBJECTS
  0
DICTIONARY
  5
C
100
AcDbDictionary
280
0
281
1
  3
ACAD_GROUP
350
D
  3
ACAD_MLINESTYLE
350
17
  3
ACAD_LAYOUT
350
1A
  3
ACAD_PLOTSETTINGS
350
19
  3
ACAD_PLOTSTYLENAME
350
E
  0
DICTIONARY
  5
D
102
{ACAD_REACTORS
330
C
102
}
100
AcDbDictionary
280
0
281
1
  0
ACDBDICTIONARYWDFLT
  5
E
102
{ACAD_REACTORS
330
C
102
}
100
AcDbDictionary
281
1
  3
Normal
350
F
100
AcDbDictionaryWithDefault
340
F
  0
DICTIONARY
  5
17
102
{ACAD_REACTORS
330
C
102
}
100
AcDbDictionary
280
0
281
1
  3
Standard
350
18
  0
DICTIONARY
  5
19
102
{ACAD_REACTORS
330
C
102
}
100
AcDbDictionary
281
1
  0
DICTIONARY
  5
1A
102
{ACAD_REACTORS
330
C
102
}
100
AcDbDictionary
281
1
  3
Model
350
2A6
  3
Layout1
350
2A7
  0
ACDBPLACEHOLDER
  5
F
102
{ACAD_REACTORS
330
E
102
}
  0
MLINESTYLE
  5
18
102
{ACAD_REACTORS
330
17
102
}
100
AcDbMlineStyle
  2
STANDARD
 70
0
  3

 62
256
 51
90.0
 52
90.0
 71
2
 49
0.5
 62
256
  6
BYLAYER
 49
-0.5
 62
256
  6
BYLAYER
  0
LAYOUT
  5
2A6
102
{ACAD_REACTORS
330
1A
102
}
100
AcDbPlotSettings
  1

  2
none_device
  4

  6

 40
0.0
 41
0.0
 42
0.0
 43
0.0
 44
210.0
 45
297.0
 46
0.0
 47
0.0
 48
0.0
 49
0.0
140
0.0
141
0.0
142
1.0
143
1.0
 70
1024
 72
1
 73
0
 74
0
  7

 75
0
147
1.0
148
0.0
149
0.0
100
AcDbLayout
  1
Model
 70
0
 71
0
 10
0.0
 20
0.0
 11
210.0
 21
297.0
 12
0.0
 22
0.0
 32
0.0
 14
0.0
 24
0.0
 34
0.0
 15
0.0
 25
0.0
 35
0.0
146
0.0
 13
0.0
 23
0.0
 33
0.0
 16
1.0
 26
0.0
 36
0.0
 17
0.0
 27
1.0
 37
0.0
 76
0
330
210
345
0
346
0
  0
LAYOUT
  5
2A7
102
{ACAD_REACTORS
330
1A
102
}
100
AcDbPlotSettings
  1

  2
none_device
  4

  6

 40
0.0
 41
0.0
 42
0.0
 43
0.0
 44
210.0
 45
297.0
 46
0.0
 47
0.0
 48
0.0
 49
0.0
140
0.0
141
0.0
142
1.0
143
1.0
 70
0
 72
1
 73
0
 74
0
  7

 75
0
147
1.0
148
0.0
149
0.0
100
AcDbLayout
  1
Layout1
 70
0
 71
1
 10
0.0
 20
0.0
 11
210.0
 21
297.0
 12
0.0
 22
0.0
 32
0.0
 14
0.0
 24
0.0
 34
0.0
 15
0.0
 25
0.0
 35
0.0
146
0.0
 13
0.0
 23
0.0
 33
0.0
 16
1.0
 26
0.0
 36
0.0
 17
0.0
 27
1.0
 37
0.0
 76
0
330
211
345
0
346
0
  0
ENDSEC
  0
EOF
