999
DXF file: C:\Users\sesa63760\Dev\_Creo\CAD\MCADID0005838_3D-CAD\mcadid0005838_3d-simplified_1.dxf
999
Pro/ENGINEER 2019471 by Parametric Technology Corporation
  0
SECTION
  2
HEADER
  9
$ACADVER
  1
AC1024
  9
$DWGCODEPAGE
  3
ANSI_1252
  9
$EXTMAX
 10
245.4158321093
 20
347.0881054117
 30
0.0
  9
$EXTMIN
 10
0.0
 20
0.0
 30
0.0
  9
$LIMMIN
 10
0.0
 20
0.0
  9
$LIMMAX
 10
245.4158321093
 20
347.0881054117
  9
$VIEWCTR
 10
122.7079160547
 20
173.5440527059
  9
$VIEWSIZE
 40
347.0881054117
  9
$CLAYER
  8
0
  9
$LTSCALE
 40
22.6250024268
  9
$CELTYPE
  6
BYLAYER
  9
$DIMSCALE
 40
1.0
  9
$DIMASZ
 40
2.9216170489
  9
$DIMEXO
 40
1.0
  9
$DIMDLI
 40
15.6318198585
  9
$DIMEXE
 40
1.0
  9
$DIMCEN
 40
3.7022731244
  9
$DIMLFAC
 40
1.0
  9
$DIMBLK
  1
_FILLED
  9
$DIMALT
 70
0
  9
$DIMALTF
 40
0.0393700787
  9
$DIMTXT
 40
4.0902638685
  9
$DIMTOL
 70
1
  9
$DIMLIM
 70
0
  9
$DIMTFAC
 40
1.0
  9
$DIMTP
 40
0.01
  9
$DIMTM
 40
0.01
  9
$DIMGAP
 40
0.625
  9
$DIMDSEP
 70
46
  9
$AUNITS
 70
0
  9
$PDMODE
 70
3
  9
$PDSIZE
 40
0.3125
  9
$HANDSEED
  5
505
  9
$TILEMODE
 70
1
  9
$MEASUREMENT
 70
1
  9
$INSUNITS
 70
4
  0
ENDSEC
  0
SECTION
  2
CLASSES
  0
CLASS
  1
ACDBDICTIONARYWDFLT
  2
AcDbDictionaryWithDefault
  3
AutoCAD 2000
 90
0
 91
1
280
0
281
0
  0
CLASS
  1
ACDBPLACEHOLDER
  2
AcDbPlaceHolder
  3
AutoCAD 2000
 90
0
 91
1
280
0
281
0
  0
CLASS
  1
LAYOUT
  2
AcDbLayout
  3
AutoCAD 2000
 90
0
 91
0
280
0
281
0
  0
ENDSEC
  0
SECTION
  2
TABLES
  0
TABLE
  2
VPORT
  5
8
100
AcDbSymbolTable
 70
2
  0
VPORT
  5
1F4
100
AcDbSymbolTableRecord
100
AcDbViewportTableRecord
  2
*ACTIVE
 70
0
 10
0.0
 20
0.0
 11
1.0
 21
1.0
 12
122.7079160547
 22
173.5440527059
 13
0.0
 23
0.0
 14
1.0
 24
1.0
 15
0.0
 25
0.0
 16
0.0
 26
0.0
 36
1.0
 17
0.0
 27
0.0
 37
0.0
 40
347.0881054117
 41
0.7070707071
 42
50.0
 43
0.0
 44
0.0
 50
0.0
 51
0.0
 71
0
 72
100
 73
1
 74
1
 75
0
 76
0
 77
0
 78
0
  0
ENDTAB
  0
TABLE
  2
LTYPE
  5
5
100
AcDbSymbolTable
 70
6
  0
LTYPE
  5
14
100
AcDbSymbolTableRecord
100
AcDbLinetypeTableRecord
  2
BYBLOCK
 70
0
  3

 72
65
 73
0
 40
0.0
  0
LTYPE
  5
15
100
AcDbSymbolTableRecord
100
AcDbLinetypeTableRecord
  2
BYLAYER
 70
0
  3

 72
65
 73
0
 40
0.0
  0
LTYPE
  5
16
100
AcDbSymbolTableRecord
100
AcDbLinetypeTableRecord
  2
CONTINUOUS
 70
64
  3
Solid line
 72
65
 73
0
 40
0.0
  0
LTYPE
  5
1F5
100
AcDbSymbolTableRecord
100
AcDbLinetypeTableRecord
  2
CENTER
 70
64
  3
____ _ ____ _ ____ _ ____ _ ____ _ ____ _ ____
 72
65
 73
4
 40
0.6
 49
0.375
 74
0
 49
-0.075
 74
0
 49
0.075
 74
0
 49
-0.075
 74
0
  0
LTYPE
  5
1F6
100
AcDbSymbolTableRecord
100
AcDbLinetypeTableRecord
  2
HIDDEN
 70
64
  3
- - - - - - - - - - - - - - - - - - - -
 72
65
 73
2
 40
0.2
 49
0.1
 74
0
 49
-0.1
 74
0
  0
LTYPE
  5
1F7
100
AcDbSymbolTableRecord
100
AcDbLinetypeTableRecord
  2
PHANTOM
 70
64
  3
_____ _ _ _____ _ _ _____ _ _ _____
 72
65
 73
6
 40
0.8
 49
0.45
 74
0
 49
-0.05
 74
0
 49
0.1
 74
0
 49
-0.05
 74
0
 49
0.1
 74
0
 49
-0.05
 74
0
  0
LTYPE
  5
1F8
100
AcDbSymbolTableRecord
100
AcDbLinetypeTableRecord
  2
DOT
 70
64
  3
. . . . . . . . . . . . . . . . . . . .
 72
65
 73
2
 40
0.2
 49
0.1
 74
0
 49
-0.1
 74
0
  0
LTYPE
  5
1F9
100
AcDbSymbolTableRecord
100
AcDbLinetypeTableRecord
  2
DASHED
 70
64
  3
- - - - - - - - - - - - - - - - - - - -
 72
65
 73
2
 40
0.2
 49
0.1
 74
0
 49
-0.1
 74
0
  0
ENDTAB
  0
TABLE
  2
LAYER
  5
2
100
AcDbSymbolTable
 70
36
  0
LAYER
  5
10
100
AcDbSymbolTableRecord
100
AcDbLayerTableRecord
  2
0
 70
0
 62
7
  6
CONTINUOUS
370
-3
390
F
  0
LAYER
  5
1FA
100
AcDbSymbolTableRecord
100
AcDbLayerTableRecord
  2
DEFAULT_1
 70
0
 62
7
  6
CENTER
370
-3
390
F
  0
LAYER
  5
1FB
100
AcDbSymbolTableRecord
100
AcDbLayerTableRecord
  2
DEFAULT_2
 70
0
 62
7
  6
HIDDEN
370
-3
390
F
  0
LAYER
  5
1FC
100
AcDbSymbolTableRecord
100
AcDbLayerTableRecord
  2
DEFAULT_3
 70
0
 62
7
  6
PHANTOM
370
-3
390
F
  0
LAYER
  5
1FD
100
AcDbSymbolTableRecord
100
AcDbLayerTableRecord
  2
00_COMPONENTS
 70
0
 62
7
  6
CONTINUOUS
370
-3
390
F
  0
LAYER
  5
1FE
100
AcDbSymbolTableRecord
100
AcDbLayerTableRecord
  2
01_1_DEFAULT_DATUMS
 70
0
 62
7
  6
CONTINUOUS
370
-3
390
F
  0
LAYER
  5
1FF
100
AcDbSymbolTableRecord
100
AcDbLayerTableRecord
  2
01_PLANES
 70
0
 62
7
  6
CONTINUOUS
370
-3
390
F
  0
LAYER
  5
200
100
AcDbSymbolTableRecord
100
AcDbLayerTableRecord
  2
02_COORD_SYS
 70
0
 62
7
  6
CONTINUOUS
370
-3
390
F
  0
LAYER
  5
201
100
AcDbSymbolTableRecord
100
AcDbLayerTableRecord
  2
03_AXES
 70
0
 62
7
  6
CONTINUOUS
370
-3
390
F
  0
LAYER
  5
202
100
AcDbSymbolTableRecord
100
AcDbLayerTableRecord
  2
04_POINTS
 70
0
 62
7
  6
CONTINUOUS
370
-3
390
F
  0
LAYER
  5
203
100
AcDbSymbolTableRecord
100
AcDbLayerTableRecord
  2
05_CURVES
 70
0
 62
7
  6
CONTINUOUS
370
-3
390
F
  0
LAYER
  5
204
100
AcDbSymbolTableRecord
100
AcDbLayerTableRecord
  2
06_SURFS
 70
0
 62
7
  6
CONTINUOUS
370
-3
390
F
  0
LAYER
  5
205
100
AcDbSymbolTableRecord
100
AcDbLayerTableRecord
  2
07_COSMETICS
 70
0
 62
7
  6
CONTINUOUS
370
-3
390
F
  0
LAYER
  5
206
100
AcDbSymbolTableRecord
100
AcDbLayerTableRecord
  2
10_NOTES
 70
0
 62
7
  6
CONTINUOUS
370
-3
390
F
  0
LAYER
  5
207
100
AcDbSymbolTableRecord
100
AcDbLayerTableRecord
  2
11_NOTES_PUB
 70
0
 62
7
  6
CONTINUOUS
370
-3
390
F
  0
LAYER
  5
208
100
AcDbSymbolTableRecord
100
AcDbLayerTableRecord
  2
13_REF_GTOL
 70
0
 62
7
  6
CONTINUOUS
370
-3
390
F
  0
LAYER
  5
209
100
AcDbSymbolTableRecord
100
AcDbLayerTableRecord
  2
16_MISC
 70
0
 62
7
  6
CONTINUOUS
370
-3
390
F
  0
LAYER
  5
20A
100
AcDbSymbolTableRecord
100
AcDbLayerTableRecord
  2
17_NO_PRINT
 70
0
 62
7
  6
CONTINUOUS
370
-3
390
F
  0
LAYER
  5
20B
100
AcDbSymbolTableRecord
100
AcDbLayerTableRecord
  2
18_DATUM_CAMS_JOINTS
 70
0
 62
7
  6
CONTINUOUS
370
-3
390
F
  0
LAYER
  5
20C
100
AcDbSymbolTableRecord
100
AcDbLayerTableRecord
  2
19_DATUM_FUNCTIONAL
 70
0
 62
7
  6
CONTINUOUS
370
-3
390
F
  0
LAYER
  5
20D
100
AcDbSymbolTableRecord
100
AcDbLayerTableRecord
  2
20_DATUM_KINEMATIC_SCHEME
 70
0
 62
7
  6
CONTINUOUS
370
-3
390
F
  0
ENDTAB
  0
TABLE
  2
STYLE
  5
3
100
AcDbSymbolTable
 70
1
  0
STYLE
  5
11
100
AcDbSymbolTableRecord
100
AcDbTextStyleTableRecord
  2
STANDARD
 70
0
 40
0.0
 41
1.0
 50
0.0
 71
0
 42
0.2
  3
ARIAL.TTF
  4

  0
STYLE
  5
20E
100
AcDbSymbolTableRecord
100
AcDbTextStyleTableRecord
  2
TEXTSTYLE_1
 70
0
 40
0.0
 41
0.8
 50
0.0
 71
0
 42
0.2
  3
gdt
  4

  0
ENDTAB
  0
TABLE
  2
VIEW
  5
6
100
AcDbSymbolTable
 70
0
  0
ENDTAB
  0
TABLE
  2
UCS
  5
7
100
AcDbSymbolTable
 70
0
  0
ENDTAB
  0
TABLE
  2
APPID
  5
9
100
AcDbSymbolTable
 70
1
  0
APPID
  5
20F
100
AcDbSymbolTableRecord
100
AcDbRegAppTableRecord
  2
ACAD
 70
0
  0
ENDTAB
  0
TABLE
  2
BLOCK_RECORD
  5
1
100
AcDbSymbolTable
 70
0
  0
BLOCK_RECORD
  5
210
100
AcDbSymbolTableRecord
100
AcDbBlockTableRecord
  2
*Model_Space
  0
BLOCK_RECORD
  5
211
100
AcDbSymbolTableRecord
100
AcDbBlockTableRecord
  2
*Paper_Space
  0
BLOCK_RECORD
  5
212
100
AcDbSymbolTableRecord
100
AcDbBlockTableRecord
  2
_FILLED
  0
ENDTAB
  0
TABLE
  2
DIMSTYLE
  5
A
100
AcDbSymbolTable
 70
1
100
AcDbDimStyleTable
 71
0
  0
DIMSTYLE
105
213
100
AcDbSymbolTableRecord
100
AcDbDimStyleTableRecord
  2
STANDARD
 70
0
  3

  4

 40
1.0
 41
2.9216170489
 42
1.0
 43
0.38
 44
1.0
 45
0.0
 46
0.0
 47
0.01
 48
0.01
140
4.0902638685
141
0.09
142
0.0
143
25.4
144
1.0
145
0.0
146
1.0
147
0.625
 71
1
 72
0
 73
0
 74
0
 75
0
 76
0
 77
1
 78
8
 79
2
170
0
171
1
172
0
173
0
174
0
175
0
176
0
177
0
178
0
270
2
179
2
271
2
272
2
273
2
274
2
275
0
280
0
281
0
282
0
283
1
284
8
285
0
286
0
287
3
288
0
340
11
278
46
341
212
342
212
343
212
344
212
  0
ENDTAB
  0
ENDSEC
  0
SECTION
  2
BLOCKS
  0
BLOCK
  5
20
100
AcDbEntity
  8
0
100
AcDbBlockBegin
  2
*Model_Space
 70
0
 10
0.0
 20
0.0
 30
0.0
  3
*Model_Space
  1

  0
ENDBLK
  5
21
100
AcDbEntity
  8
0
100
AcDbBlockEnd
  0
BLOCK
  5
1C
100
AcDbEntity
  8
0
100
AcDbBlockBegin
  2
*Paper_Space
 70
0
 10
0.0
 20
0.0
 30
0.0
  3
*Paper_Space
  1

  0
ENDBLK
  5
1D
100
AcDbEntity
  8
0
100
AcDbBlockEnd
  0
BLOCK
  5
214
100
AcDbEntity
  8
0
100
AcDbBlockBegin
  2
_FILLED
 70
64
 10
0.0
 20
0.0
  3
_FILLED
  1

  0
SOLID
  5
215
100
AcDbEntity
  8
0
  6
BYBLOCK
 62
0
100
AcDbTrace
 10
0.0
 20
0.0
 11
-1.0
 21
0.25
 12
-1.0
 22
-0.25
 13
-1.0
 23
-0.25
  0
ENDBLK
  5
216
100
AcDbEntity
  8
0
  6
BYBLOCK
 62
0
100
AcDbBlockEnd
  0
ENDSEC
  0
SECTION
  2
ENTITIES
  0
LWPOLYLINE
  5
217
100
AcDbEntity
  8
0
100
AcDbPolyline
 62
7
  6
BYLAYER
 90
6
 70
0
 10
111.6108133909
 20
63.2237888524
 10
113.8868336394
 20
62.837236579
 10
116.3905457465
 20
62.741907612
 10
119.0549829881
 20
62.9688140334
 10
121.6943209413
 20
63.6061008125
 10
123.6727043932
 20
64.4958875185
  0
LWPOLYLINE
  5
218
100
AcDbEntity
  8
0
100
AcDbPolyline
 62
7
  6
BYLAYER
 90
6
 70
0
 10
125.753004127
 20
70.1642694475
 10
128.0290266557
 20
69.777716353
 10
130.5328195017
 20
69.6823888617
 10
133.1972884132
 20
69.9093108176
 10
135.8365479437
 20
70.5465915822
 10
137.8148989815
 20
71.4363671943
  0
LINE
  5
219
100
AcDbEntity
  8
0
100
AcDbLine
 62
7
  6
BYLAYER
 10
82.2316363155
 20
79.7614008218
 11
109.101805871
 21
64.24825215
  0
LINE
  5
21A
100
AcDbEntity
  8
0
100
AcDbLine
 62
7
  6
BYLAYER
 10
80.1605131082
 20
84.3392623
 11
114.1017210359
 21
64.7435309956
  0
LINE
  5
21B
100
AcDbEntity
  8
0
100
AcDbLine
 62
7
  6
BYLAYER
 10
28.4710601009
 20
142.7600427025
 11
28.4710601009
 21
123.9804871085
  0
LINE
  5
21C
100
AcDbEntity
  8
0
100
AcDbLine
 62
7
  6
BYLAYER
 10
29.5317246886
 20
123.3681259768
 11
29.5317246886
 21
142.1476815707
  0
LINE
  5
21D
100
AcDbEntity
  8
0
100
AcDbLine
 62
7
  6
BYLAYER
 10
29.8852677753
 20
150.5168015559
 11
29.8852677753
 21
143.5765310103
  0
LINE
  5
21E
100
AcDbEntity
  8
0
100
AcDbLine
 62
7
  6
BYLAYER
 10
29.8852677753
 20
124.7969754163
 11
29.8852677753
 21
117.8567048707
  0
LINE
  5
21F
100
AcDbEntity
  8
0
100
AcDbLine
 62
7
  6
BYLAYER
 10
30.945932363
 20
117.2443437389
 11
30.945932363
 21
124.1846142845
  0
LINE
  5
220
100
AcDbEntity
  8
0
100
AcDbLine
 62
7
  6
BYLAYER
 10
30.945932363
 20
142.9641698785
 11
30.945932363
 21
149.9044404241
  0
LINE
  5
221
100
AcDbEntity
  8
0
100
AcDbLine
 62
7
  6
BYLAYER
 10
44.5263981606
 20
126.3097149822
 11
44.5263981606
 21
127.1262173994
  0
LINE
  5
222
100
AcDbEntity
  8
0
100
AcDbLine
 62
7
  6
BYLAYER
 10
44.5263981606
 20
158.1533092503
 11
44.5263981606
 21
158.9698116674
  0
LINE
  5
223
100
AcDbEntity
  8
0
100
AcDbLine
 62
7
  6
BYLAYER
 10
45.5870627484
 20
158.3574505356
 11
45.5870627484
 21
157.5409481185
  0
LINE
  5
224
100
AcDbEntity
  8
0
100
AcDbLine
 62
7
  6
BYLAYER
 10
45.5870627484
 20
126.5138562676
 11
45.5870627484
 21
125.6973538504
  0
LINE
  5
225
100
AcDbEntity
  8
0
100
AcDbLine
 62
7
  6
BYLAYER
 10
73.0893569774
 20
103.5267894747
 11
74.1500215642
 21
102.9144283434
  0
LINE
  5
226
100
AcDbEntity
  8
0
100
AcDbLine
 62
7
  6
BYLAYER
 10
127.1832509514
 20
72.2963717537
 11
128.2439155388
 21
71.6840106221
  0
LINE
  5
227
100
AcDbEntity
  8
0
100
AcDbLine
 62
7
  6
BYLAYER
 10
121.1728771667
 20
75.7665932547
 11
120.1122806547
 21
76.3789124982
  0
LINE
  5
228
100
AcDbEntity
  8
0
100
AcDbLine
 62
7
  6
BYLAYER
 10
67.0789378064
 20
106.9970345931
 11
66.0183186052
 21
107.6093721072
  0
LINE
  5
229
100
AcDbEntity
  8
0
100
AcDbLine
 62
7
  6
BYLAYER
 10
73.0894158567
 20
103.9352157706
 11
114.1017799152
 21
80.2572520085
  0
LINE
  5
22A
100
AcDbEntity
  8
0
100
AcDbLine
 62
7
  6
BYLAYER
 10
114.667462985
 20
80.5838473316
 11
73.6550989265
 21
104.2618110937
  0
LINE
  5
22B
100
AcDbEntity
  8
0
100
AcDbLine
 62
7
  6
BYLAYER
 10
71.5845737967
 20
107.564904349
 11
73.8473249172
 21
106.2585339345
  0
LINE
  5
22C
100
AcDbEntity
  8
0
100
AcDbLine
 62
7
  6
BYLAYER
 10
75.8472909831
 20
106.4566454728
 11
73.5845398626
 21
107.7630158872
  0
LINE
  5
22D
100
AcDbEntity
  8
0
100
AcDbLine
 62
7
  6
BYLAYER
 10
70.7561245138
 20
109.3960489403
 11
73.0188756343
 21
108.0896785258
  0
LINE
  5
22E
100
AcDbEntity
  8
0
100
AcDbLine
 62
7
  6
BYLAYER
 10
72.983520148
 20
111.0114576753
 11
73.0188756343
 21
110.9910456376
  0
LINE
  5
22F
100
AcDbEntity
  8
0
100
AcDbLine
 62
7
  6
BYLAYER
 10
53.5732812185
 20
128.2975984988
 11
53.573281221
 21
157.6304478328
  0
LINE
  5
230
100
AcDbEntity
  8
0
100
AcDbLine
 62
7
  6
BYLAYER
 10
103.0855180931
 20
247.390331714
 11
125.3500267623
 21
259.4842589806
  0
LINE
  5
231
100
AcDbEntity
  8
0
100
AcDbLine
 62
7
  6
BYLAYER
 10
106.0398761
 20
247.0677074217
 11
128.2999144113
 21
259.1592064208
  0
LINE
  5
232
100
AcDbEntity
  8
0
100
AcDbLine
 62
7
  6
BYLAYER
 10
124.0577250412
 20
256.7099173477
 11
101.7976872894
 21
244.6184186526
  0
LINE
  5
233
100
AcDbEntity
  8
0
100
AcDbLine
 62
7
  6
BYLAYER
 10
80.0091441764
 20
112.3587661879
 11
53.0734529709
 21
127.9097429462
  0
LINE
  5
234
100
AcDbEntity
  8
0
100
AcDbLine
 62
7
  6
BYLAYER
 10
81.362682072
 20
112.2537015798
 11
53.406344442
 21
128.3939354951
  0
LINE
  5
235
100
AcDbEntity
  8
0
100
AcDbLine
 62
7
  6
BYLAYER
 10
153.3460634884
 20
72.7042743951
 11
107.3839313538
 21
99.2399234389
  0
LINE
  5
236
100
AcDbEntity
  8
0
100
AcDbLine
 62
7
  6
BYLAYER
 10
146.6285269874
 20
79.4403375318
 11
112.6872601803
 21
99.0358937487
  0
LINE
  5
237
100
AcDbEntity
  8
0
100
AcDbLine
 62
7
  6
BYLAYER
 10
156.1744788372
 20
74.3372510106
 11
110.2123467027
 21
100.8729000544
  0
LINE
  5
238
100
AcDbEntity
  8
0
100
AcDbLine
 62
7
  6
BYLAYER
 10
157.235134593
 20
74.9496172414
 11
111.2730024585
 21
101.4852662852
  0
LINE
  5
239
100
AcDbEntity
  8
0
100
AcDbLine
 62
7
  6
BYLAYER
 10
89.2822462264
 20
114.4275637546
 11
62.4120766708
 21
129.9407124264
  0
LINE
  5
23A
100
AcDbEntity
  8
0
100
AcDbLine
 62
7
  6
BYLAYER
 10
111.9506318693
 20
101.5893074055
 11
157.2646090194
 21
75.4278623508
  0
LINE
  5
23B
100
AcDbEntity
  8
0
100
AcDbLine
 62
7
  6
BYLAYER
 10
62.7656315334
 20
130.7163949497
 11
60.2907474953
 21
132.1452375905
  0
LINE
  5
23C
100
AcDbEntity
  8
0
100
AcDbLine
 62
7
  6
BYLAYER
 10
58.5229731825
 20
135.2070955196
 11
58.5229731825
 21
166.2341873705
  0
LINE
  5
23D
100
AcDbEntity
  8
0
100
AcDbLine
 62
7
  6
BYLAYER
 10
59.5836377702
 20
165.6218262388
 11
59.5836377702
 21
134.5947343878
  0
LINE
  5
23E
100
AcDbEntity
  8
0
100
AcDbLine
 62
7
  6
BYLAYER
 10
61.7049669456
 20
131.165455598
 11
61.7049669456
 21
166.6016605014
  0
LINE
  5
23F
100
AcDbEntity
  8
0
100
AcDbLine
 62
7
  6
BYLAYER
 10
63.0893569774
 20
194.1585577761
 11
63.0893569774
 21
111.691813646
  0
LINE
  5
240
100
AcDbEntity
  8
0
100
AcDbLine
 62
7
  6
BYLAYER
 10
64.1746221561
 20
168.0275080909
 11
64.1746221561
 21
132.5913031874
  0
LINE
  5
241
100
AcDbEntity
  8
0
100
AcDbLine
 62
7
  6
BYLAYER
 10
66.0182597259
 20
198.2409653213
 11
66.0183186052
 21
107.6093721073
  0
LWPOLYLINE
  5
242
100
AcDbEntity
  8
0
100
AcDbPolyline
 62
7
  6
BYLAYER
 90
6
 70
0
 10
70.5892585388
 20
206.6535783667
 10
68.8313286289
 20
205.386584557
 10
66.9571650816
 20
203.4158945831
 10
65.4291913965
 20
201.2216924439
 10
64.2608577691
 20
199.008281408
 10
63.4566872154
 20
196.8434294728
  0
LINE
  5
243
100
AcDbEntity
  8
0
100
AcDbLine
 62
7
  6
BYLAYER
 10
97.0543998403
 20
229.5086823041
 11
101.3187361415
 21
232.0767408334
  0
LINE
  5
244
100
AcDbEntity
  8
0
100
AcDbLine
 62
7
  6
BYLAYER
 10
96.8526123536
 20
229.0540741316
 11
101.1116518278
 21
231.6190089532
  0
LINE
  5
245
100
AcDbEntity
  8
0
100
AcDbLine
 62
7
  6
BYLAYER
 10
115.7477472176
 20
240.4075724439
 11
111.4506861106
 21
237.8206851967
  0
LINE
  5
246
100
AcDbEntity
  8
0
100
AcDbLine
 62
7
  6
BYLAYER
 10
111.9506318693
 20
237.7711689903
 11
116.2476929763
 21
240.3580562375
  0
LINE
  5
247
100
AcDbEntity
  8
0
100
AcDbLine
 62
7
  6
BYLAYER
 10
114.9652807623
 20
241.1103820443
 11
102.4943547006
 21
233.910149029
  0
LINE
  5
248
100
AcDbEntity
  8
0
100
AcDbLine
 62
7
  6
BYLAYER
 10
125.4612458161
 20
247.1529925562
 11
137.26764346
 21
253.9696188309
  0
LINE
  5
249
100
AcDbEntity
  8
0
100
AcDbLine
 62
7
  6
BYLAYER
 10
92.5346271257
 20
227.0223321848
 11
95.3630424746
 21
228.6553088003
  0
LINE
  5
24A
100
AcDbEntity
  8
0
100
AcDbLine
 62
7
  6
BYLAYER
 10
95.3630424746
 20
228.6553088003
 11
111.2730024585
 21
237.8411699459
  0
LINE
  5
24B
100
AcDbEntity
  8
0
100
AcDbLine
 62
7
  6
BYLAYER
 10
101.3187361015
 20
232.0767408093
 11
115.7477472176
 21
240.4075724439
  0
LINE
  5
24C
100
AcDbEntity
  8
0
100
AcDbLine
 62
7
  6
BYLAYER
 10
139.4322714742
 20
254.0651902847
 11
125.6679406244
 21
246.1181229519
  0
LINE
  5
24D
100
AcDbEntity
  8
0
100
AcDbLine
 62
7
  6
BYLAYER
 10
111.4506861106
 20
237.8206851967
 11
97.0596966673
 21
229.5118060118
  0
LINE
  5
24E
100
AcDbEntity
  8
0
100
AcDbLine
 62
7
  6
BYLAYER
 10
156.3813464329
 20
263.0417346918
 11
142.4131435801
 21
254.9769584378
  0
LINE
  5
24F
100
AcDbEntity
  8
0
100
AcDbLine
 62
7
  6
BYLAYER
 10
156.2839449337
 20
262.9901830867
 11
139.4322714742
 21
254.0651902847
  0
LINE
  5
250
100
AcDbEntity
  8
0
100
AcDbLine
 62
7
  6
BYLAYER
 10
139.9214375569
 20
254.0098406518
 11
156.7731110164
 21
262.9348334539
  0
LINE
  5
251
100
AcDbEntity
  8
0
100
AcDbLine
 62
7
  6
BYLAYER
 10
125.6679406244
 20
246.1181229519
 11
142.3154966402
 21
254.9252651234
  0
LINE
  5
252
100
AcDbEntity
  8
0
100
AcDbLine
 62
7
  6
BYLAYER
 10
142.0976326505
 20
254.4616998168
 11
125.4500766346
 21
245.6545576452
  0
LINE
  5
253
100
AcDbEntity
  8
0
100
AcDbLine
 62
7
  6
BYLAYER
 10
91.4035754018
 20
115.4380168579
 11
64.3566284149
 21
131.0532257183
  0
LINE
  5
254
100
AcDbEntity
  8
0
100
AcDbLine
 62
7
  6
BYLAYER
 10
61.1746346518
 20
132.8903091137
 11
60.6443023579
 21
133.1964896796
  0
LINE
  5
255
100
AcDbEntity
  8
0
100
AcDbLine
 62
7
  6
BYLAYER
 10
66.0183186052
 20
130.3081393035
 11
68.8467575058
 21
128.6751762854
  0
LINE
  5
256
100
AcDbEntity
  8
0
100
AcDbLine
 62
7
  6
BYLAYER
 10
69.4124405756
 20
129.0017716085
 11
91.9692408078
 21
115.9788915393
  0
LINE
  5
257
100
AcDbEntity
  8
0
100
AcDbLine
 62
7
  6
BYLAYER
 10
173.2162290461
 20
71.92839622
 11
106.0398852893
 21
110.711798988
  0
LINE
  5
258
100
AcDbEntity
  8
0
100
AcDbLine
 62
7
  6
BYLAYER
 10
73.0188756343
 20
131.2551510809
 11
72.983520148
 21
131.2755631186
  0
LINE
  5
259
100
AcDbEntity
  8
0
100
AcDbLine
 62
7
  6
BYLAYER
 10
73.0188756343
 20
134.1565181926
 11
70.7561245138
 21
135.4628886071
  0
LINE
  5
25A
100
AcDbEntity
  8
0
100
AcDbLine
 62
7
  6
BYLAYER
 10
160.7707214903
 20
86.3808171583
 11
156.174508277
 21
89.0343820625
  0
LINE
  5
25B
100
AcDbEntity
  8
0
100
AcDbLine
 62
7
  6
BYLAYER
 10
103.1412788907
 20
119.6524386518
 11
98.5450656774
 21
122.306003556
  0
LINE
  5
25C
100
AcDbEntity
  8
0
100
AcDbLine
 62
7
  6
BYLAYER
 10
68.8467575058
 20
183.135887508
 11
68.8467575058
 21
165.7443860231
  0
LINE
  5
25D
100
AcDbEntity
  8
0
100
AcDbLine
 62
7
  6
BYLAYER
 10
68.8467575058
 20
128.6751762854
 11
68.8467575058
 21
111.2836748005
  0
LINE
  5
25E
100
AcDbEntity
  8
0
100
AcDbLine
 62
7
  6
BYLAYER
 10
69.4124405756
 20
111.6102701236
 11
69.4124405756
 21
129.0017716085
  0
LINE
  5
25F
100
AcDbEntity
  8
0
100
AcDbLine
 62
7
  6
BYLAYER
 10
69.4124405756
 20
166.0709813462
 11
69.4124405756
 21
183.462482831
  0
LINE
  5
260
100
AcDbEntity
  8
0
100
AcDbLine
 62
7
  6
BYLAYER
 10
70.7561245138
 20
109.3960489403
 11
70.7561215698
 21
135.8711240251
  0
LINE
  5
261
100
AcDbEntity
  8
0
100
AcDbLine
 62
7
  6
BYLAYER
 10
72.983520148
 20
111.0114576753
 11
72.983520148
 21
131.2755631186
  0
LINE
  5
262
100
AcDbEntity
  8
0
100
AcDbLine
 62
7
  6
BYLAYER
 10
73.0188756343
 20
134.1565181926
 11
73.0188756343
 21
131.2551510809
  0
LINE
  5
263
100
AcDbEntity
  8
0
100
AcDbLine
 62
7
  6
BYLAYER
 10
73.0188756343
 20
110.9910456376
 11
73.0188756343
 21
108.0896785258
  0
LINE
  5
264
100
AcDbEntity
  8
0
100
AcDbLine
 62
7
  6
BYLAYER
 10
73.2309850001
 20
117.2529111137
 11
73.2309850001
 21
131.2802204192
  0
LINE
  5
265
100
AcDbEntity
  8
0
100
AcDbLine
 62
7
  6
BYLAYER
 10
73.7259824154
 20
108.0896852038
 11
73.7259824154
 21
110.9817689007
  0
LINE
  5
266
100
AcDbEntity
  8
0
100
AcDbLine
 62
7
  6
BYLAYER
 10
73.7259824154
 20
131.2644312171
 11
73.7259824154
 21
134.1565128601
  0
LINE
  5
267
100
AcDbEntity
  8
0
100
AcDbLine
 62
7
  6
BYLAYER
 10
75.8119354969
 20
129.7901416652
 11
75.8119354969
 21
115.7628323597
  0
LWPOLYLINE
  5
268
100
AcDbEntity
  8
0
100
AcDbPolyline
 62
7
  6
BYLAYER
 90
6
 70
0
 10
84.7314565722
 20
213.5940600318
 10
82.9733888354
 20
212.327117865
 10
81.100758333
 20
210.3593612669
 10
79.571631553
 20
208.1649502205
 10
78.4022891073
 20
205.9490446354
 10
77.5988258879
 20
203.7841662517
  0
LINE
  5
269
100
AcDbEntity
  8
0
100
AcDbLine
 62
7
  6
BYLAYER
 10
96.0450768696
 20
221.3504174238
 11
70.5893387299
 21
206.6536278844
  0
LINE
  5
26A
100
AcDbEntity
  8
0
100
AcDbLine
 62
7
  6
BYLAYER
 10
110.1872713725
 20
228.2908970503
 11
84.7315332328
 21
213.5941075109
  0
LINE
  5
26B
100
AcDbEntity
  8
0
100
AcDbLine
 62
7
  6
BYLAYER
 10
69.553778912
 20
204.3646981763
 11
98.5450656774
 21
221.1027960287
  0
LINE
  5
26C
100
AcDbEntity
  8
0
100
AcDbLine
 62
7
  6
BYLAYER
 10
83.6959734149
 20
211.3051778028
 11
112.6872601803
 21
228.0432756552
  0
LINE
  5
26D
100
AcDbEntity
  8
0
100
AcDbLine
 62
7
  6
BYLAYER
 10
166.3747855539
 20
257.2695922578
 11
156.1328406377
 21
251.3562335369
  0
LINE
  5
26E
100
AcDbEntity
  8
0
100
AcDbLine
 62
7
  6
BYLAYER
 10
74.1500215647
 20
201.7112208158
 11
109.1517115546
 21
221.9194552565
  0
LINE
  5
26F
100
AcDbEntity
  8
0
100
AcDbLine
 62
7
  6
BYLAYER
 10
73.5845398626
 20
140.3618748911
 11
75.8472909831
 21
139.0555044767
  0
LINE
  5
270
100
AcDbEntity
  8
0
100
AcDbLine
 62
7
  6
BYLAYER
 10
79.594919535
 20
142.607187819
 11
53.573281221
 21
157.6304478328
  0
LINE
  5
271
100
AcDbEntity
  8
0
100
AcDbLine
 62
7
  6
BYLAYER
 10
107.3839313538
 20
99.2399234389
 11
92.5346271257
 21
124.9595300436
  0
LINE
  5
272
100
AcDbEntity
  8
0
100
AcDbLine
 62
7
  6
BYLAYER
 10
95.3630424746
 20
126.5925066591
 11
110.2123467027
 21
100.8729000544
  0
LINE
  5
273
100
AcDbEntity
  8
0
100
AcDbLine
 62
7
  6
BYLAYER
 10
111.2730024585
 20
101.4852662852
 11
96.4236982304
 21
127.2048728899
  0
LINE
  5
274
100
AcDbEntity
  8
0
100
AcDbLine
 62
7
  6
BYLAYER
 10
79.594919535
 20
113.2743384836
 11
79.594919535
 21
142.607187819
  0
LINE
  5
275
100
AcDbEntity
  8
0
100
AcDbLine
 62
7
  6
BYLAYER
 10
107.3912598641
 20
218.0282747527
 11
78.4000025384
 21
201.290264444
  0
LINE
  5
276
100
AcDbEntity
  8
0
100
AcDbLine
 62
7
  6
BYLAYER
 10
53.4063444421
 20
160.992794499
 11
81.362682072
 21
144.8525605837
  0
LINE
  5
277
100
AcDbEntity
  8
0
100
AcDbLine
 62
7
  6
BYLAYER
 10
194.8178650939
 20
85.1602845534
 11
186.546617568
 21
89.9355835073
  0
LINE
  5
278
100
AcDbEntity
  8
0
100
AcDbLine
 62
7
  6
BYLAYER
 10
136.5711618919
 20
118.7882735597
 11
128.299913768
 21
123.5635728589
  0
LINE
  5
279
100
AcDbEntity
  8
0
100
AcDbLine
 62
7
  6
BYLAYER
 10
137.2676526181
 20
120.0068007097
 11
128.9963723787
 21
124.7821185503
  0
LINE
  5
27A
100
AcDbEntity
  8
0
100
AcDbLine
 62
7
  6
BYLAYER
 10
187.2431082942
 20
91.154111881
 11
195.5143878855
 21
86.3787944146
  0
LINE
  5
27B
100
AcDbEntity
  8
0
100
AcDbLine
 62
7
  6
BYLAYER
 10
188.5193914982
 20
91.4971937157
 11
191.7013852614
 21
89.6601103204
  0
LINE
  5
27C
100
AcDbEntity
  8
0
100
AcDbLine
 62
7
  6
BYLAYER
 10
188.4619519134
 20
91.5498254885
 11
191.6439456765
 21
89.7127420932
  0
LINE
  5
27D
100
AcDbEntity
  8
0
100
AcDbLine
 62
7
  6
BYLAYER
 10
60.6443023579
 20
165.7953486835
 11
61.1746346518
 21
165.4891681176
  0
LINE
  5
27E
100
AcDbEntity
  8
0
100
AcDbLine
 62
7
  6
BYLAYER
 10
64.3566284149
 20
163.6520847222
 11
91.4035754018
 21
148.0368758618
  0
LINE
  5
27F
100
AcDbEntity
  8
0
100
AcDbLine
 62
7
  6
BYLAYER
 10
60.2907474953
 20
167.2548415271
 11
62.7656315334
 21
165.8259988862
  0
LINE
  5
280
100
AcDbEntity
  8
0
100
AcDbLine
 62
7
  6
BYLAYER
 10
97.0596966673
 20
127.0428522944
 11
111.4506861106
 21
102.1170657762
  0
LINE
  5
281
100
AcDbEntity
  8
0
100
AcDbLine
 62
7
  6
BYLAYER
 10
115.7477472176
 20
104.5540559943
 11
101.3187360614
 21
129.5456976854
  0
LINE
  5
282
100
AcDbEntity
  8
0
100
AcDbLine
 62
7
  6
BYLAYER
 10
102.4942795208
 20
127.9634817069
 11
114.9651490336
 21
106.3633566479
  0
LINE
  5
283
100
AcDbEntity
  8
0
100
AcDbLine
 62
7
  6
BYLAYER
 10
88.7872694188
 20
143.8624685743
 11
88.7872694188
 21
122.6334057289
  0
LINE
  5
284
100
AcDbEntity
  8
0
100
AcDbLine
 62
7
  6
BYLAYER
 10
89.9893559515
 20
150.2720303206
 11
89.9893559515
 21
114.8358254172
  0
LINE
  5
285
100
AcDbEntity
  8
0
100
AcDbLine
 62
7
  6
BYLAYER
 10
91.7571302644
 20
147.424504276
 11
91.7571302644
 21
142.1478574053
  0
LINE
  5
286
100
AcDbEntity
  8
0
100
AcDbLine
 62
7
  6
BYLAYER
 10
91.7571302644
 20
120.9187945599
 11
91.7571302644
 21
115.6421476892
  0
LINE
  5
287
100
AcDbEntity
  8
0
100
AcDbLine
 62
7
  6
BYLAYER
 10
92.5346271257
 20
124.9595300436
 11
92.5346271257
 21
227.0223321848
  0
LINE
  5
288
100
AcDbEntity
  8
0
100
AcDbLine
 62
7
  6
BYLAYER
 10
92.6763505329
 20
116.3871532019
 11
92.6763505329
 21
151.8233581053
  0
LINE
  5
289
100
AcDbEntity
  8
0
100
AcDbLine
 62
7
  6
BYLAYER
 10
95.0095170517
 20
128.4297194143
 11
95.0095170517
 21
219.0614877157
  0
LINE
  5
28A
100
AcDbEntity
  8
0
100
AcDbLine
 62
7
  6
BYLAYER
 10
95.3630424746
 20
228.6553088003
 11
95.3630424746
 21
126.5925066591
  0
LINE
  5
28B
100
AcDbEntity
  8
0
100
AcDbLine
 62
7
  6
BYLAYER
 10
96.4236982304
 20
127.2048728899
 11
96.4236982304
 21
229.2676750311
  0
LINE
  5
28C
100
AcDbEntity
  8
0
100
AcDbLine
 62
7
  6
BYLAYER
 10
47.5189122458
 20
124.7714590866
 11
60.9725084511
 21
126.8527425693
  0
LINE
  5
28D
100
AcDbEntity
  8
0
100
AcDbLine
 62
7
  6
BYLAYER
 10
62.4120766708
 20
167.0099221641
 11
89.2822462264
 21
151.4967734923
  0
LINE
  5
28E
100
AcDbEntity
  8
0
100
AcDbLine
 62
7
  6
BYLAYER
 10
183.1548095391
 20
99.1001683812
 11
186.3368033022
 21
97.2630849859
  0
LINE
  5
28F
100
AcDbEntity
  8
0
100
AcDbLine
 62
7
  6
BYLAYER
 10
183.1548095252
 20
99.508554643
 11
186.3368032884
 21
97.6714712477
  0
LINE
  5
290
100
AcDbEntity
  8
0
100
AcDbLine
 62
7
  6
BYLAYER
 10
68.8467575058
 20
165.7443860231
 11
66.0183186052
 21
167.3773490412
  0
LINE
  5
291
100
AcDbEntity
  8
0
100
AcDbLine
 62
7
  6
BYLAYER
 10
91.9692408078
 20
153.048101277
 11
69.4124405756
 21
166.0709813462
  0
LINE
  5
292
100
AcDbEntity
  8
0
100
AcDbLine
 62
7
  6
BYLAYER
 10
96.8526123536
 20
229.0540741316
 11
96.8526123536
 21
127.7396991336
  0
LINE
  5
293
100
AcDbEntity
  8
0
100
AcDbLine
 62
7
  6
BYLAYER
 10
101.7976873612
 20
118.0594606044
 11
101.7976873738
 21
244.6183985565
  0
LINE
  5
294
100
AcDbEntity
  8
0
100
AcDbLine
 62
7
  6
BYLAYER
 10
61.1746346518
 20
165.4891681176
 11
54.9880262302
 21
161.7125937695
  0
LINE
  5
295
100
AcDbEntity
  8
0
100
AcDbLine
 62
7
  6
BYLAYER
 10
44.5263981606
 20
158.9698116674
 11
29.8852677753
 21
150.5168015559
  0
LINE
  5
296
100
AcDbEntity
  8
0
100
AcDbLine
 62
7
  6
BYLAYER
 10
60.2907474953
 20
167.2548415271
 11
44.5263981606
 21
158.1533092503
  0
LINE
  5
297
100
AcDbEntity
  8
0
100
AcDbLine
 62
7
  6
BYLAYER
 10
30.945932363
 20
149.9044404241
 11
45.5870627484
 21
158.3574505356
  0
LINE
  5
298
100
AcDbEntity
  8
0
100
AcDbLine
 62
7
  6
BYLAYER
 10
45.5870627484
 20
157.5409481185
 11
59.5836377702
 21
165.6218262388
  0
LINE
  5
299
100
AcDbEntity
  8
0
100
AcDbLine
 62
7
  6
BYLAYER
 10
54.2803750076
 20
162.1211554466
 11
60.6443023579
 21
165.7953486835
  0
LINE
  5
29A
100
AcDbEntity
  8
0
100
AcDbLine
 62
7
  6
BYLAYER
 10
29.8852677753
 20
143.5765310103
 11
28.4710601009
 21
142.7600427025
  0
LINE
  5
29B
100
AcDbEntity
  8
0
100
AcDbLine
 62
7
  6
BYLAYER
 10
184.3075090393
 20
232.2642216277
 11
178.5446127661
 21
228.9370317737
  0
LINE
  5
29C
100
AcDbEntity
  8
0
100
AcDbLine
 62
7
  6
BYLAYER
 10
29.5317246886
 20
142.1476815707
 11
30.945932363
 21
142.9641698785
  0
LINE
  5
29D
100
AcDbEntity
  8
0
100
AcDbLine
 62
7
  6
BYLAYER
 10
121.1727888477
 20
193.7509298989
 11
146.6285269874
 21
208.4477194382
  0
LINE
  5
29E
100
AcDbEntity
  8
0
100
AcDbLine
 62
7
  6
BYLAYER
 10
191.3178871788
 20
234.0022435433
 11
190.257231423
 21
233.3898773125
  0
LINE
  5
29F
100
AcDbEntity
  8
0
100
AcDbLine
 62
7
  6
BYLAYER
 10
177.7063428041
 20
228.3839676824
 11
174.9196789551
 21
226.8426915866
  0
LINE
  5
2A0
100
AcDbEntity
  8
0
100
AcDbLine
 62
7
  6
BYLAYER
 10
57.8153677667
 20
160.0802643006
 11
64.3566284149
 21
163.6520847222
  0
LINE
  5
2A1
100
AcDbEntity
  8
0
100
AcDbLine
 62
7
  6
BYLAYER
 10
183.0219994929
 20
228.0426579817
 11
179.2925439213
 21
226.1845138496
  0
LINE
  5
2A2
100
AcDbEntity
  8
0
100
AcDbLine
 62
7
  6
BYLAYER
 10
156.7731110192
 20
127.9553352403
 11
201.890896351
 21
101.9071590223
  0
LINE
  5
2A3
100
AcDbEntity
  8
0
100
AcDbLine
 62
7
  6
BYLAYER
 10
188.4619516043
 20
113.187020489
 11
191.6439453674
 21
111.3499370937
  0
LINE
  5
2A4
100
AcDbEntity
  8
0
100
AcDbLine
 62
7
  6
BYLAYER
 10
188.7682235662
 20
113.5680359729
 11
191.9502173293
 21
111.7309525776
  0
LINE
  5
2A5
100
AcDbEntity
  8
0
100
AcDbLine
 62
7
  6
BYLAYER
 10
109.1517115546
 20
105.159609607
 11
109.1517115546
 21
109.2421216926
  0
LINE
  5
2A6
100
AcDbEntity
  8
0
100
AcDbLine
 62
7
  6
BYLAYER
 10
109.1517115546
 20
221.9194552565
 11
109.1517115546
 21
226.0019673422
  0
LINE
  5
2A7
100
AcDbEntity
  8
0
100
AcDbLine
 62
7
  6
BYLAYER
 10
201.8908963482
 20
236.8866572358
 11
185.9398619748
 21
227.4416919784
  0
LINE
  5
2A8
100
AcDbEntity
  8
0
100
AcDbLine
 62
7
  6
BYLAYER
 10
186.4503021081
 20
226.9199932754
 11
202.4012838711
 21
236.364927381
  0
LINE
  5
2A9
100
AcDbEntity
  8
0
100
AcDbLine
 62
7
  6
BYLAYER
 10
161.6154409484
 20
214.1655672866
 11
157.2646090194
 21
211.6097239357
  0
LINE
  5
2AA
100
AcDbEntity
  8
0
100
AcDbLine
 62
7
  6
BYLAYER
 10
157.7645547782
 20
211.0819655649
 11
162.1153867071
 21
213.6378089159
  0
LINE
  5
2AB
100
AcDbEntity
  8
0
100
AcDbLine
 62
7
  6
BYLAYER
 10
194.2517584582
 20
232.9289499454
 11
196.3325772514
 21
234.1303040648
  0
LINE
  5
2AC
100
AcDbEntity
  8
0
100
AcDbLine
 62
7
  6
BYLAYER
 10
186.5139692157
 20
228.275201993
 11
187.5746249715
 21
228.8875682239
  0
LINE
  5
2AD
100
AcDbEntity
  8
0
100
AcDbLine
 62
7
  6
BYLAYER
 10
153.3460634884
 20
209.0601780558
 11
157.235134593
 21
211.3055209021
  0
LINE
  5
2AE
100
AcDbEntity
  8
0
100
AcDbLine
 62
7
  6
BYLAYER
 10
199.161016152
 20
234.382972608
 11
197.0801973588
 21
233.1816184887
  0
LINE
  5
2AF
100
AcDbEntity
  8
0
100
AcDbLine
 62
7
  6
BYLAYER
 10
150.1640756131
 20
202.32400358
 11
124.7083374734
 21
187.6272140406
  0
LINE
  5
2B0
100
AcDbEntity
  8
0
100
AcDbLine
 62
7
  6
BYLAYER
 10
114.1017799152
 20
161.9074937214
 11
73.0894158567
 21
185.5854574836
  0
LINE
  5
2B1
100
AcDbEntity
  8
0
100
AcDbLine
 62
7
  6
BYLAYER
 10
120.1122579655
 20
158.8456748989
 11
121.1728771667
 21
158.2333373848
  0
LINE
  5
2B2
100
AcDbEntity
  8
0
100
AcDbLine
 62
7
  6
BYLAYER
 10
66.0183186052
 20
190.0761162374
 11
67.0789151172
 21
189.4637969939
  0
LINE
  5
2B3
100
AcDbEntity
  8
0
100
AcDbLine
 62
7
  6
BYLAYER
 10
73.6550989265
 20
185.9120528067
 11
114.667462985
 21
162.2340890445
  0
LINE
  5
2B4
100
AcDbEntity
  8
0
100
AcDbLine
 62
7
  6
BYLAYER
 10
194.0753799345
 20
116.6321007874
 11
197.2573736977
 21
114.7950173921
  0
LINE
  5
2B5
100
AcDbEntity
  8
0
100
AcDbLine
 62
7
  6
BYLAYER
 10
206.2190363355
 20
115.6147343794
 11
166.3747855539
 21
138.6183028835
  0
LINE
  5
2B6
100
AcDbEntity
  8
0
100
AcDbLine
 62
7
  6
BYLAYER
 10
199.3825496312
 20
119.6961808554
 11
202.5645433943
 21
117.85909746
  0
LINE
  5
2B7
100
AcDbEntity
  8
0
100
AcDbLine
 62
7
  6
BYLAYER
 10
202.8132947989
 20
117.8843865906
 11
199.6313010357
 21
119.721469986
  0
LINE
  5
2B8
100
AcDbEntity
  8
0
100
AcDbLine
 62
7
  6
BYLAYER
 10
188.4619519134
 20
91.5498254886
 11
188.5193999968
 21
91.4972085158
  0
LINE
  5
2B9
100
AcDbEntity
  8
0
100
AcDbLine
 62
7
  6
BYLAYER
 10
191.70139376
 20
89.6601251205
 11
191.6439456765
 21
89.7127420932
  0
LINE
  5
2BA
100
AcDbEntity
  8
0
100
AcDbLine
 62
7
  6
BYLAYER
 10
137.2676473793
 20
120.0068037341
 11
125.4612458161
 21
140.4559730524
  0
LINE
  5
2BB
100
AcDbEntity
  8
0
100
AcDbLine
 62
7
  6
BYLAYER
 10
125.6679406244
 20
142.8361313561
 11
139.4322714742
 21
118.9957433356
  0
LINE
  5
2BC
100
AcDbEntity
  8
0
100
AcDbLine
 62
7
  6
BYLAYER
 10
118.3444382661
 20
82.7068219841
 11
118.3444382661
 21
154.5590346915
  0
LINE
  5
2BD
100
AcDbEntity
  8
0
100
AcDbLine
 62
7
  6
BYLAYER
 10
118.9101213359
 20
154.8856300146
 11
118.9101213359
 21
83.0334173072
  0
LINE
  5
2BE
100
AcDbEntity
  8
0
100
AcDbLine
 62
7
  6
BYLAYER
 10
121.1728771667
 20
75.7665932547
 11
121.1728771667
 21
158.2333373848
  0
LINE
  5
2BF
100
AcDbEntity
  8
0
100
AcDbLine
 62
7
  6
BYLAYER
 10
124.0577250174
 20
130.9112192659
 11
124.0577250174
 21
140.4620617411
  0
LINE
  5
2C0
100
AcDbEntity
  8
0
100
AcDbLine
 62
7
  6
BYLAYER
 10
124.0577250174
 20
247.159064567
 11
124.0577250174
 21
256.7099077327
  0
LINE
  5
2C1
100
AcDbEntity
  8
0
100
AcDbLine
 62
7
  6
BYLAYER
 10
125.4612458162
 20
247.1529865068
 11
125.4612458162
 21
256.7038667564
  0
LINE
  5
2C2
100
AcDbEntity
  8
0
100
AcDbLine
 62
7
  6
BYLAYER
 10
125.4612468033
 20
140.4559831111
 11
125.4612468033
 21
130.9051036099
  0
LINE
  5
2C3
100
AcDbEntity
  8
0
100
AcDbLine
 62
7
  6
BYLAYER
 10
121.1728182874
 20
181.5034811856
 11
150.1640756131
 21
198.2414914943
  0
LINE
  5
2C4
100
AcDbEntity
  8
0
100
AcDbLine
 62
7
  6
BYLAYER
 10
187.5746249715
 20
219.19007382
 11
186.5139692157
 21
218.5777075892
  0
LINE
  5
2C5
100
AcDbEntity
  8
0
100
AcDbLine
 62
7
  6
BYLAYER
 10
194.8178739432
 20
220.7559130342
 11
173.216247462
 21
208.2842891847
  0
LINE
  5
2C6
100
AcDbEntity
  8
0
100
AcDbLine
 62
7
  6
BYLAYER
 10
205.5655140605
 20
226.3970978731
 11
207.6463328538
 21
227.5984519924
  0
LINE
  5
2C7
100
AcDbEntity
  8
0
100
AcDbLine
 62
7
  6
BYLAYER
 10
28.4710601009
 20
123.9804871085
 11
29.8852677753
 21
124.7969754163
  0
LINE
  5
2C8
100
AcDbEntity
  8
0
100
AcDbLine
 62
7
  6
BYLAYER
 10
210.4747717544
 20
227.8511205356
 11
208.3939529611
 21
226.6497664163
  0
LINE
  5
2C9
100
AcDbEntity
  8
0
100
AcDbLine
 62
7
  6
BYLAYER
 10
30.945932363
 20
124.1846142845
 11
29.5317246886
 21
123.3681259768
  0
LINE
  5
2CA
100
AcDbEntity
  8
0
100
AcDbLine
 62
7
  6
BYLAYER
 10
44.5263981606
 20
127.1262173994
 11
58.5229731825
 21
135.2070955196
  0
LINE
  5
2CB
100
AcDbEntity
  8
0
100
AcDbLine
 62
7
  6
BYLAYER
 10
29.8852677753
 20
117.8567048707
 11
44.5263981606
 21
126.3097149822
  0
LINE
  5
2CC
100
AcDbEntity
  8
0
100
AcDbLine
 62
7
  6
BYLAYER
 10
60.972508451
 20
161.9623465059
 11
47.5189122458
 21
159.8810630232
  0
LINE
  5
2CD
100
AcDbEntity
  8
0
100
AcDbLine
 62
7
  6
BYLAYER
 10
107.0306826638
 20
181.5034471921
 11
80.1605131082
 21
197.0165958639
  0
LINE
  5
2CE
100
AcDbEntity
  8
0
100
AcDbLine
 62
7
  6
BYLAYER
 10
128.2439155388
 20
170.4808030948
 11
127.1832509521
 21
171.093164226
  0
LINE
  5
2CF
100
AcDbEntity
  8
0
100
AcDbLine
 62
7
  6
BYLAYER
 10
74.1500215647
 20
201.7112208158
 11
73.0893569774
 21
202.3235819474
  0
LINE
  5
2D0
100
AcDbEntity
  8
0
100
AcDbLine
 62
7
  6
BYLAYER
 10
135.3150127903
 20
158.2333713783
 11
135.3150127903
 21
75.7666272482
  0
LINE
  5
2D1
100
AcDbEntity
  8
0
100
AcDbLine
 62
7
  6
BYLAYER
 10
54.9880262302
 20
129.1137347656
 11
61.1746346518
 21
132.8903091137
  0
LINE
  5
2D2
100
AcDbEntity
  8
0
100
AcDbLine
 62
7
  6
BYLAYER
 10
75.9951347773
 20
136.1412600119
 11
88.7872694188
 21
143.8624685743
  0
LINE
  5
2D3
100
AcDbEntity
  8
0
100
AcDbLine
 62
7
  6
BYLAYER
 10
72.983520148
 20
131.2755631186
 11
78.5760852741
 21
134.6511812579
  0
LINE
  5
2D4
100
AcDbEntity
  8
0
100
AcDbLine
 62
7
  6
BYLAYER
 10
91.7571302644
 20
142.1478574053
 11
73.7259824154
 21
131.2644312171
  0
LINE
  5
2D5
100
AcDbEntity
  8
0
100
AcDbLine
 62
7
  6
BYLAYER
 10
59.5836377702
 20
134.5947343878
 11
45.5870627484
 21
126.5138562676
  0
LINE
  5
2D6
100
AcDbEntity
  8
0
100
AcDbLine
 62
7
  6
BYLAYER
 10
45.5870627484
 20
125.6973538504
 11
30.945932363
 21
117.2443437389
  0
LINE
  5
2D7
100
AcDbEntity
  8
0
100
AcDbLine
 62
7
  6
BYLAYER
 10
177.4584275053
 20
200.9366470109
 11
199.060054474
 21
213.4082711418
  0
LINE
  5
2D8
100
AcDbEntity
  8
0
100
AcDbLine
 62
7
  6
BYLAYER
 10
60.6443023579
 20
133.1964896796
 11
54.2803750073
 21
129.5222964425
  0
LINE
  5
2D9
100
AcDbEntity
  8
0
100
AcDbLine
 62
7
  6
BYLAYER
 10
81.362682072
 20
144.8525605837
 11
73.2309910927
 21
140.1577475774
  0
LINE
  5
2DA
100
AcDbEntity
  8
0
100
AcDbLine
 62
7
  6
BYLAYER
 10
156.1745082776
 20
187.8311745349
 11
127.1832509518
 21
171.0931642262
  0
LINE
  5
2DB
100
AcDbEntity
  8
0
100
AcDbLine
 62
7
  6
BYLAYER
 10
196.3325772514
 20
210.7629829311
 11
194.2517584582
 21
209.5616288117
  0
LINE
  5
2DC
100
AcDbEntity
  8
0
100
AcDbLine
 62
7
  6
BYLAYER
 10
60.2907474953
 20
132.1452375905
 11
47.5189122458
 21
124.7714590866
  0
LINE
  5
2DD
100
AcDbEntity
  8
0
100
AcDbLine
 62
7
  6
BYLAYER
 10
91.4035754018
 20
148.0368758618
 11
75.8472909831
 21
139.0555044767
  0
LINE
  5
2DE
100
AcDbEntity
  8
0
100
AcDbLine
 62
7
  6
BYLAYER
 10
76.2008519365
 20
138.4431364073
 11
91.7571302644
 21
147.424504276
  0
LINE
  5
2DF
100
AcDbEntity
  8
0
100
AcDbLine
 62
7
  6
BYLAYER
 10
135.3149833506
 20
170.4808200916
 11
160.7707214903
 21
185.1776096309
  0
LINE
  5
2E0
100
AcDbEntity
  8
0
100
AcDbLine
 62
7
  6
BYLAYER
 10
197.0801973588
 20
206.0430342324
 11
199.161016152
 21
207.2443883517
  0
LINE
  5
2E1
100
AcDbEntity
  8
0
100
AcDbLine
 62
7
  6
BYLAYER
 10
64.3566284149
 20
131.0532257183
 11
57.8153677667
 21
127.4814052967
  0
LINE
  5
2E2
100
AcDbEntity
  8
0
100
AcDbLine
 62
7
  6
BYLAYER
 10
142.4131435801
 20
152.739337851
 11
156.3813464328
 21
128.5458351232
  0
LINE
  5
2E3
100
AcDbEntity
  8
0
100
AcDbLine
 62
7
  6
BYLAYER
 10
142.0976326505
 20
254.4616998135
 11
142.0976326505
 21
153.3738682897
  0
LINE
  5
2E4
100
AcDbEntity
  8
0
100
AcDbLine
 62
7
  6
BYLAYER
 10
216.0610553716
 20
212.4412920286
 11
215.0003996158
 21
211.8289257978
  0
LINE
  5
2E5
100
AcDbEntity
  8
0
100
AcDbLine
 62
7
  6
BYLAYER
 10
168.1953677165
 20
183.3405714511
 11
172.0844388211
 21
185.5859142974
  0
LINE
  5
2E6
100
AcDbEntity
  8
0
100
AcDbLine
 62
7
  6
BYLAYER
 10
207.6463328538
 20
204.2311308587
 11
205.5655140605
 21
203.0297767394
  0
LINE
  5
2E7
100
AcDbEntity
  8
0
100
AcDbLine
 62
7
  6
BYLAYER
 10
164.3062701161
 20
179.0538937727
 11
138.8505319764
 21
164.3571042333
  0
LINE
  5
2E8
100
AcDbEntity
  8
0
100
AcDbLine
 62
7
  6
BYLAYER
 10
208.3939529611
 20
199.51118216
 11
210.4747717544
 21
200.7125362794
  0
LINE
  5
2E9
100
AcDbEntity
  8
0
100
AcDbLine
 62
7
  6
BYLAYER
 10
215.0003996158
 20
202.131431394
 11
216.0610553716
 21
202.7437976248
  0
LINE
  5
2EA
100
AcDbEntity
  8
0
100
AcDbLine
 62
7
  6
BYLAYER
 10
176.5443978633
 20
188.6461672248
 11
172.1555442214
 21
186.1561790467
  0
LINE
  5
2EB
100
AcDbEntity
  8
0
100
AcDbLine
 62
7
  6
BYLAYER
 10
176.751482177
 20
187.9493203856
 11
172.3626285352
 21
185.4593322075
  0
LINE
  5
2EC
100
AcDbEntity
  8
0
100
AcDbLine
 62
7
  6
BYLAYER
 10
216.3697321644
 20
212.1709995399
 11
200.2145803509
 21
203.0795741051
  0
LINE
  5
2ED
100
AcDbEntity
  8
0
100
AcDbLine
 62
7
  6
BYLAYER
 10
200.4112229008
 20
202.37669875
 11
216.5663747143
 21
211.4681241849
  0
LINE
  5
2EE
100
AcDbEntity
  8
0
100
AcDbLine
 62
7
  6
BYLAYER
 10
87.2315514803
 20
209.2640615739
 11
114.1017210359
 21
193.7509129021
  0
LINE
  5
2EF
100
AcDbEntity
  8
0
100
AcDbLine
 62
7
  6
BYLAYER
 10
202.8132859239
 20
117.8843711321
 11
202.8707962349
 21
117.8317320056
  0
LINE
  5
2F0
100
AcDbEntity
  8
0
100
AcDbLine
 62
7
  6
BYLAYER
 10
156.1328406377
 20
156.3577733709
 11
166.3747855539
 21
138.6183028835
  0
LINE
  5
2F1
100
AcDbEntity
  8
0
100
AcDbLine
 62
7
  6
BYLAYER
 10
150.1640756131
 20
202.32400358
 11
150.1640756131
 21
198.2414914943
  0
LINE
  5
2F2
100
AcDbEntity
  8
0
100
AcDbLine
 62
7
  6
BYLAYER
 10
150.1640756131
 20
85.5641579305
 11
150.1640756131
 21
81.4816458448
  0
LINE
  5
2F3
100
AcDbEntity
  8
0
100
AcDbLine
 62
7
  6
BYLAYER
 10
203.0086750933
 20
193.4245137261
 11
199.5347353918
 21
191.1238004833
  0
LINE
  5
2F4
100
AcDbEntity
  8
0
100
AcDbLine
 62
7
  6
BYLAYER
 10
200.6464049406
 20
188.6503773571
 11
197.9182802711
 21
187.0077078228
  0
LINE
  5
2F5
100
AcDbEntity
  8
0
100
AcDbLine
 62
7
  6
BYLAYER
 10
125.4500766346
 20
143.5267545802
 11
142.0976326505
 21
153.373868293
  0
LINE
  5
2F6
100
AcDbEntity
  8
0
100
AcDbLine
 62
7
  6
BYLAYER
 10
142.3154966402
 20
152.6832450689
 11
125.6679406244
 21
142.8361313561
  0
LINE
  5
2F7
100
AcDbEntity
  8
0
100
AcDbLine
 62
7
  6
BYLAYER
 10
96.8526123536
 20
127.7396991336
 11
101.1116517477
 21
130.2425445246
  0
LINE
  5
2F8
100
AcDbEntity
  8
0
100
AcDbLine
 62
7
  6
BYLAYER
 10
101.3187360614
 20
129.5456976854
 11
97.0596966673
 21
127.0428522944
  0
LINE
  5
2F9
100
AcDbEntity
  8
0
100
AcDbLine
 62
7
  6
BYLAYER
 10
212.3177931643
 20
197.6291223053
 11
211.2571374085
 21
197.0167560745
  0
LINE
  5
2FA
100
AcDbEntity
  8
0
100
AcDbLine
 62
7
  6
BYLAYER
 10
95.0095170517
 20
128.4297194143
 11
69.553778912
 21
113.7329298749
  0
LINE
  5
2FB
100
AcDbEntity
  8
0
100
AcDbLine
 62
7
  6
BYLAYER
 10
207.3074060711
 20
192.4269936051
 11
201.5445097978
 21
189.099803751
  0
LINE
  5
2FC
100
AcDbEntity
  8
0
100
AcDbLine
 62
7
  6
BYLAYER
 10
92.5346271257
 20
124.9595300436
 11
96.4236982304
 21
127.2048728899
  0
LINE
  5
2FD
100
AcDbEntity
  8
0
100
AcDbLine
 62
7
  6
BYLAYER
 10
88.7872694188
 20
122.6334057289
 11
75.9951347773
 21
115.5836177047
  0
LINE
  5
2FE
100
AcDbEntity
  8
0
100
AcDbLine
 62
7
  6
BYLAYER
 10
78.576085274
 20
114.0935389507
 11
72.983520148
 21
111.0114576753
  0
LINE
  5
2FF
100
AcDbEntity
  8
0
100
AcDbLine
 62
7
  6
BYLAYER
 10
73.7259824154
 20
110.9817689007
 11
91.7571302644
 21
120.9187945599
  0
LINE
  5
300
100
AcDbEntity
  8
0
100
AcDbLine
 62
7
  6
BYLAYER
 10
98.5450656774
 20
221.1027960287
 11
103.1412788906
 21
218.4492311245
  0
LINE
  5
301
100
AcDbEntity
  8
0
100
AcDbLine
 62
7
  6
BYLAYER
 10
156.1745082773
 20
187.8311745351
 11
160.7707214903
 21
185.1776096309
  0
LINE
  5
302
100
AcDbEntity
  8
0
100
AcDbLine
 62
7
  6
BYLAYER
 10
188.5193914982
 20
171.5144305944
 11
191.7013852614
 21
169.6773471991
  0
LINE
  5
303
100
AcDbEntity
  8
0
100
AcDbLine
 62
7
  6
BYLAYER
 10
188.4619519134
 20
171.5670623672
 11
191.6439456765
 21
169.7299789719
  0
LINE
  5
304
100
AcDbEntity
  8
0
100
AcDbLine
 62
7
  6
BYLAYER
 10
156.1328406377
 20
156.3577733709
 11
156.1328406377
 21
251.3562335369
  0
LINE
  5
305
100
AcDbEntity
  8
0
100
AcDbLine
 62
7
  6
BYLAYER
 10
164.3062701161
 20
179.0538937727
 11
164.3062701161
 21
88.4221254713
  0
LINE
  5
306
100
AcDbEntity
  8
0
100
AcDbLine
 62
7
  6
BYLAYER
 10
73.2309910908
 20
108.3753909895
 11
80.0737167572
 21
112.326016913
  0
LINE
  5
307
100
AcDbEntity
  8
0
100
AcDbLine
 62
7
  6
BYLAYER
 10
73.0893275377
 20
107.6092140167
 11
98.5450656774
 21
122.306003556
  0
LINE
  5
308
100
AcDbEntity
  8
0
100
AcDbLine
 62
7
  6
BYLAYER
 10
81.362682072
 20
112.2537015798
 11
73.5845398626
 21
107.7630158872
  0
LINE
  5
309
100
AcDbEntity
  8
0
100
AcDbLine
 62
7
  6
BYLAYER
 10
75.8472909831
 20
106.4566454728
 11
91.7571302644
 21
115.6421476892
  0
LINE
  5
30A
100
AcDbEntity
  8
0
100
AcDbLine
 62
7
  6
BYLAYER
 10
103.1412788909
 20
119.6524386517
 11
74.1500215651
 21
102.9144283429
  0
LINE
  5
30B
100
AcDbEntity
  8
0
100
AcDbLine
 62
7
  6
BYLAYER
 10
101.7976868995
 20
118.0594501887
 11
124.0577252097
 21
130.9112191534
  0
LINE
  5
30C
100
AcDbEntity
  8
0
100
AcDbLine
 62
7
  6
BYLAYER
 10
183.1548095391
 20
179.1174052599
 11
186.3368033022
 21
177.2803218646
  0
LINE
  5
30D
100
AcDbEntity
  8
0
100
AcDbLine
 62
7
  6
BYLAYER
 10
183.1548095252
 20
179.5257915217
 11
186.3368032884
 21
177.6887081264
  0
LINE
  5
30E
100
AcDbEntity
  8
0
100
AcDbLine
 62
7
  6
BYLAYER
 10
168.1953677165
 20
81.2777693099
 11
168.1953677165
 21
183.3405714511
  0
LINE
  5
30F
100
AcDbEntity
  8
0
100
AcDbLine
 62
7
  6
BYLAYER
 10
171.0237830653
 20
184.9735480666
 11
171.0237830653
 21
82.9107459254
  0
LINE
  5
310
100
AcDbEntity
  8
0
100
AcDbLine
 62
7
  6
BYLAYER
 10
172.0844388211
 20
185.5859142974
 11
172.0844388211
 21
83.5231121562
  0
LINE
  5
311
100
AcDbEntity
  8
0
100
AcDbLine
 62
7
  6
BYLAYER
 10
172.3626285352
 20
84.1449572095
 11
172.3626285352
 21
185.4593322075
  0
LINE
  5
312
100
AcDbEntity
  8
0
100
AcDbLine
 62
7
  6
BYLAYER
 10
128.2999054761
 20
123.5635776735
 11
106.0398677287
 21
110.7118090338
  0
LINE
  5
313
100
AcDbEntity
  8
0
100
AcDbLine
 62
7
  6
BYLAYER
 10
80.1604542288
 20
92.5041113839
 11
109.1517115546
 21
109.2421216926
  0
LINE
  5
314
100
AcDbEntity
  8
0
100
AcDbLine
 62
7
  6
BYLAYER
 10
192.3634685268
 20
233.9666399154
 11
187.2338978009
 21
233.2536136419
  0
LINE
  5
315
100
AcDbEntity
  8
0
100
AcDbLine
 62
7
  6
BYLAYER
 10
208.3939529611
 20
226.6497664163
 11
205.5655140605
 21
226.3970978731
  0
LINE
  5
316
100
AcDbEntity
  8
0
100
AcDbLine
 62
7
  6
BYLAYER
 10
112.6872601803
 20
228.0432756552
 11
146.6285269874
 21
208.4477194382
  0
LINE
  5
317
100
AcDbEntity
  8
0
100
AcDbLine
 62
7
  6
BYLAYER
 10
153.3460634884
 20
209.0601780558
 11
107.3839313538
 21
235.5958270996
  0
LINE
  5
318
100
AcDbEntity
  8
0
100
AcDbLine
 62
7
  6
BYLAYER
 10
156.1744788372
 20
210.6931546713
 11
110.2123467027
 21
237.2288037151
  0
LINE
  5
319
100
AcDbEntity
  8
0
100
AcDbLine
 62
7
  6
BYLAYER
 10
188.4619516043
 20
193.2042573677
 11
191.6439453674
 21
191.3671739724
  0
LINE
  5
31A
100
AcDbEntity
  8
0
100
AcDbLine
 62
7
  6
BYLAYER
 10
111.2730024585
 20
237.8411699459
 11
157.235134593
 21
211.3055209021
  0
LINE
  5
31B
100
AcDbEntity
  8
0
100
AcDbLine
 62
7
  6
BYLAYER
 10
157.2646090194
 20
211.6097239357
 11
111.9506318693
 21
237.7711689903
  0
LINE
  5
31C
100
AcDbEntity
  8
0
100
AcDbLine
 62
7
  6
BYLAYER
 10
188.7682235662
 20
193.5852728516
 11
191.9502173293
 21
191.7481894563
  0
LINE
  5
31D
100
AcDbEntity
  8
0
100
AcDbLine
 62
7
  6
BYLAYER
 10
188.4619519134
 20
171.5670623672
 11
188.5193999968
 21
171.5144453945
  0
LINE
  5
31E
100
AcDbEntity
  8
0
100
AcDbLine
 62
7
  6
BYLAYER
 10
191.70139376
 20
169.6773619992
 11
191.6439456765
 21
169.7299789719
  0
LINE
  5
31F
100
AcDbEntity
  8
0
100
AcDbLine
 62
7
  6
BYLAYER
 10
153.3460634884
 20
209.0601780558
 11
168.1953677165
 21
183.3405714511
  0
LINE
  5
320
100
AcDbEntity
  8
0
100
AcDbLine
 62
7
  6
BYLAYER
 10
156.1744788372
 20
210.6931546713
 11
171.0237830653
 21
184.9735480666
  0
LINE
  5
321
100
AcDbEntity
  8
0
100
AcDbLine
 62
7
  6
BYLAYER
 10
157.235134593
 20
211.3055209021
 11
172.0844388211
 21
185.5859142974
  0
LINE
  5
322
100
AcDbEntity
  8
0
100
AcDbLine
 62
7
  6
BYLAYER
 10
172.1555442214
 20
186.1561790467
 11
157.7645547782
 21
211.0819655649
  0
LINE
  5
323
100
AcDbEntity
  8
0
100
AcDbLine
 62
7
  6
BYLAYER
 10
177.458428016
 20
200.9366365901
 11
177.4584280031
 21
74.3777008994
  0
LINE
  5
324
100
AcDbEntity
  8
0
100
AcDbLine
 62
7
  6
BYLAYER
 10
212.809754965
 20
198.5524215852
 11
209.6274496142
 21
194.4666126135
  0
LINE
  5
325
100
AcDbEntity
  8
0
100
AcDbLine
 62
7
  6
BYLAYER
 10
109.1517115546
 20
105.159609607
 11
83.6959734149
 21
90.4628200676
  0
LINE
  5
326
100
AcDbEntity
  8
0
100
AcDbLine
 62
7
  6
BYLAYER
 10
111.2730024585
 20
101.4852662852
 11
107.3839313538
 21
99.2399234389
  0
LINE
  5
327
100
AcDbEntity
  8
0
100
AcDbLine
 62
7
  6
BYLAYER
 10
87.2315220406
 20
84.3391042094
 11
112.6872601803
 21
99.0358937487
  0
LINE
  5
328
100
AcDbEntity
  8
0
100
AcDbLine
 62
7
  6
BYLAYER
 10
111.4506861106
 20
102.1170657762
 11
115.7477472176
 21
104.5540559943
  0
LINE
  5
329
100
AcDbEntity
  8
0
100
AcDbLine
 62
7
  6
BYLAYER
 10
116.2476929763
 20
104.0262976236
 11
111.9506318693
 21
101.5893074055
  0
LINE
  5
32A
100
AcDbEntity
  8
0
100
AcDbLine
 62
7
  6
BYLAYER
 10
139.4322714742
 20
118.9957433356
 11
156.283944934
 21
128.489317228
  0
LINE
  5
32B
100
AcDbEntity
  8
0
100
AcDbLine
 62
7
  6
BYLAYER
 10
156.7731110164
 20
127.955335242
 11
139.9214375569
 21
118.4617613498
  0
LINE
  5
32C
100
AcDbEntity
  8
0
100
AcDbLine
 62
7
  6
BYLAYER
 10
197.0801973588
 20
233.1816184887
 11
194.2517584582
 21
232.9289499454
  0
LINE
  5
32D
100
AcDbEntity
  8
0
100
AcDbLine
 62
7
  6
BYLAYER
 10
106.0398853524
 20
247.0677026714
 11
173.2162291067
 21
208.284299905
  0
LINE
  5
32E
100
AcDbEntity
  8
0
100
AcDbLine
 62
7
  6
BYLAYER
 10
194.0753799345
 20
196.6493376661
 11
197.2573736977
 21
194.8122542708
  0
LINE
  5
32F
100
AcDbEntity
  8
0
100
AcDbLine
 62
7
  6
BYLAYER
 10
199.3825496312
 20
199.7134177341
 11
202.5645433943
 21
197.8763343387
  0
LINE
  5
330
100
AcDbEntity
  8
0
100
AcDbLine
 62
7
  6
BYLAYER
 10
202.8132947989
 20
197.9016234693
 11
199.6313010357
 21
199.7387068647
  0
LINE
  5
331
100
AcDbEntity
  8
0
100
AcDbLine
 62
7
  6
BYLAYER
 10
162.1153867071
 20
213.6378089159
 11
176.5443978633
 21
188.6461672248
  0
LINE
  5
332
100
AcDbEntity
  8
0
100
AcDbLine
 62
7
  6
BYLAYER
 10
176.7618358165
 20
191.0326167231
 11
164.2909664183
 21
212.6327415864
  0
LINE
  5
333
100
AcDbEntity
  8
0
100
AcDbLine
 62
7
  6
BYLAYER
 10
194.393232217
 20
282.7483480761
 11
194.393232217
 21
120.7137274777
  0
LINE
  5
334
100
AcDbEntity
  8
0
100
AcDbLine
 62
7
  6
BYLAYER
 10
213.5056710373
 20
202.4132724071
 11
207.9491202106
 21
205.621275948
  0
LINE
  5
335
100
AcDbEntity
  8
0
100
AcDbLine
 62
7
  6
BYLAYER
 10
202.1919154349
 20
208.9451244795
 11
196.6353646082
 21
212.1531280203
  0
LINE
  5
336
100
AcDbEntity
  8
0
100
AcDbLine
 62
7
  6
BYLAYER
 10
198.6358552403
 20
285.1978129993
 11
198.6358905679
 21
118.2642829506
  0
LINE
  5
337
100
AcDbEntity
  8
0
100
AcDbLine
 62
7
  6
BYLAYER
 10
199.0495151426
 20
97.9707376671
 11
199.0495151426
 21
88.4198574175
  0
LINE
  5
338
100
AcDbEntity
  8
0
100
AcDbLine
 62
7
  6
BYLAYER
 10
199.0495151427
 20
204.6677375795
 11
199.0495151427
 21
214.2186233201
  0
LINE
  5
339
100
AcDbEntity
  8
0
100
AcDbLine
 62
7
  6
BYLAYER
 10
199.060054501
 20
213.4082736832
 11
199.060054501
 21
203.8574261106
  0
LINE
  5
33A
100
AcDbEntity
  8
0
100
AcDbLine
 62
7
  6
BYLAYER
 10
199.060054489
 20
97.160426191
 11
199.060054489
 21
87.6095830253
  0
LINE
  5
33B
100
AcDbEntity
  8
0
100
AcDbLine
 62
7
  6
BYLAYER
 10
199.3424113055
 20
213.8103459648
 11
199.3424113055
 21
204.2594934256
  0
LINE
  5
33C
100
AcDbEntity
  8
0
100
AcDbLine
 62
7
  6
BYLAYER
 10
199.3424113055
 20
88.011642842
 11
199.3424113055
 21
97.5624935132
  0
LINE
  5
33D
100
AcDbEntity
  8
0
100
AcDbLine
 62
7
  6
BYLAYER
 10
202.8785135912
 20
282.7483684722
 11
202.8785135912
 21
120.7137478738
  0
LINE
  5
33E
100
AcDbEntity
  8
0
100
AcDbLine
 62
7
  6
BYLAYER
 10
196.6353646082
 20
213.377881646
 11
202.1919154349
 21
210.1698781052
  0
LINE
  5
33F
100
AcDbEntity
  8
0
100
AcDbLine
 62
7
  6
BYLAYER
 10
207.9491202106
 20
206.8460295737
 11
213.5056710373
 21
203.6380260328
  0
LINE
  5
340
100
AcDbEntity
  8
0
100
AcDbLine
 62
7
  6
BYLAYER
 10
216.0610553716
 20
202.7437976248
 11
187.5746249715
 21
219.19007382
  0
LINE
  5
341
100
AcDbEntity
  8
0
100
AcDbLine
 62
7
  6
BYLAYER
 10
189.8080210942
 20
222.1777671973
 11
219.2018333014
 21
205.2076257229
  0
LINE
  5
342
100
AcDbEntity
  8
0
100
AcDbLine
 62
7
  6
BYLAYER
 10
195.5143898173
 20
220.3416049095
 11
187.2431082944
 21
225.1169234911
  0
LINE
  5
343
100
AcDbEntity
  8
0
100
AcDbLine
 62
7
  6
BYLAYER
 10
137.2676526646
 20
253.969612377
 11
128.9963730734
 21
258.7449298434
  0
LINE
  5
344
100
AcDbEntity
  8
0
100
AcDbLine
 62
7
  6
BYLAYER
 10
194.817866563
 20
220.7559174231
 11
186.5466175682
 21
225.531217225
  0
LINE
  5
345
100
AcDbEntity
  8
0
100
AcDbLine
 62
7
  6
BYLAYER
 10
128.2999144125
 20
259.1592062046
 11
136.5711619384
 21
254.3839072507
  0
LINE
  5
346
100
AcDbEntity
  8
0
100
AcDbLine
 62
7
  6
BYLAYER
 10
137.0605403439
 20
254.4273996646
 11
128.7892860842
 21
259.2027025062
  0
LINE
  5
347
100
AcDbEntity
  8
0
100
AcDbLine
 62
7
  6
BYLAYER
 10
187.0359959737
 20
225.5747096389
 11
195.3072504503
 21
220.7994066721
  0
LINE
  5
348
100
AcDbEntity
  8
0
100
AcDbLine
 62
7
  6
BYLAYER
 10
220.6629291084
 20
207.6300486013
 11
191.1753383966
 21
224.6543318958
  0
LINE
  5
349
100
AcDbEntity
  8
0
100
AcDbLine
 62
7
  6
BYLAYER
 10
187.5746249715
 20
228.8875682239
 11
216.0610553716
 21
212.4412920286
  0
LINE
  5
34A
100
AcDbEntity
  8
0
100
AcDbLine
 62
7
  6
BYLAYER
 10
202.8132859239
 20
197.9016080108
 11
202.8707962349
 21
197.8489688843
  0
LINE
  5
34B
100
AcDbEntity
  8
0
100
AcDbLine
 62
7
  6
BYLAYER
 10
194.2517584582
 20
209.5616288117
 11
197.0801973588
 21
206.0430342324
  0
LINE
  5
34C
100
AcDbEntity
  8
0
100
AcDbLine
 62
7
  6
BYLAYER
 10
151.9245273036
 20
89.4553384343
 11
122.9332699779
 21
72.7173281255
  0
LINE
  5
34D
100
AcDbEntity
  8
0
100
AcDbLine
 62
7
  6
BYLAYER
 10
156.1745082769
 20
89.0343820626
 11
121.1728182874
 21
68.8261476217
  0
LINE
  5
34E
100
AcDbEntity
  8
0
100
AcDbLine
 62
7
  6
BYLAYER
 10
219.2016482355
 20
212.5562543225
 11
220.6627464584
 21
211.7126661376
  0
LINE
  5
34F
100
AcDbEntity
  8
0
100
AcDbLine
 62
7
  6
BYLAYER
 10
219.2016482355
 20
212.5562543225
 11
189.807836205
 21
229.5263956949
  0
LINE
  5
350
100
AcDbEntity
  8
0
100
AcDbLine
 62
7
  6
BYLAYER
 10
220.2162699538
 20
212.6468586338
 11
190.7931056532
 21
229.633946164
  0
LINE
  5
351
100
AcDbEntity
  8
0
100
AcDbLine
 62
7
  6
BYLAYER
 10
213.5056710373
 20
222.0093304182
 11
207.9491202106
 21
225.2173339591
  0
LINE
  5
352
100
AcDbEntity
  8
0
100
AcDbLine
 62
7
  6
BYLAYER
 10
202.1919154349
 20
228.5411824906
 11
196.6353646082
 21
231.7491860314
  0
LINE
  5
353
100
AcDbEntity
  8
0
100
AcDbLine
 62
7
  6
BYLAYER
 10
196.6353646082
 20
232.9739396571
 11
202.1919154349
 21
229.7659361163
  0
LINE
  5
354
100
AcDbEntity
  8
0
100
AcDbLine
 62
7
  6
BYLAYER
 10
207.9491202106
 20
226.4420875848
 11
213.5056710373
 21
223.2340840439
  0
LINE
  5
355
100
AcDbEntity
  8
0
100
AcDbLine
 62
7
  6
BYLAYER
 10
205.5655140605
 20
203.0297767394
 11
208.3939529611
 21
199.51118216
  0
LINE
  5
356
100
AcDbEntity
  8
0
100
AcDbLine
 62
7
  6
BYLAYER
 10
187.2430741432
 20
225.1169432079
 11
199.0495151427
 21
204.6676999879
  0
LINE
  5
357
100
AcDbEntity
  8
0
100
AcDbLine
 62
7
  6
BYLAYER
 10
200.214606991
 20
203.079589097
 11
186.4503021081
 21
226.9199932754
  0
LINE
  5
358
100
AcDbEntity
  8
0
100
AcDbLine
 62
7
  6
BYLAYER
 10
216.4609812517
 20
216.5265532663
 11
216.4609812517
 21
121.5280931003
  0
LINE
  5
359
100
AcDbEntity
  8
0
100
AcDbLine
 62
7
  6
BYLAYER
 10
216.5663747142
 20
110.3802926643
 11
216.5663747142
 21
211.4681241881
  0
LINE
  5
35A
100
AcDbEntity
  8
0
100
AcDbLine
 62
7
  6
BYLAYER
 10
219.3899428796
 20
214.595351268
 11
219.3899428796
 21
115.29343126
  0
LINE
  5
35B
100
AcDbEntity
  8
0
100
AcDbLine
 62
7
  6
BYLAYER
 10
206.2190363355
 20
115.6147343794
 11
216.4609812517
 21
121.5280931003
  0
LINE
  5
35C
100
AcDbEntity
  8
0
100
AcDbLine
 62
7
  6
BYLAYER
 10
150.1640756131
 20
81.4816458448
 11
121.1727888477
 21
64.7435479924
  0
LINE
  5
35D
100
AcDbEntity
  8
0
100
AcDbLine
 62
7
  6
BYLAYER
 10
164.3062701161
 20
88.4221254713
 11
135.3149833506
 21
71.6840276189
  0
LINE
  5
35E
100
AcDbEntity
  8
0
100
AcDbLine
 62
7
  6
BYLAYER
 10
149.1285157952
 20
79.1927161367
 11
123.6727776555
 21
64.4959265973
  0
LINE
  5
35F
100
AcDbEntity
  8
0
100
AcDbLine
 62
7
  6
BYLAYER
 10
163.2707102981
 20
86.1331957632
 11
137.8149721584
 21
71.4364062238
  0
LINE
  5
360
100
AcDbEntity
  8
0
100
AcDbLine
 62
7
  6
BYLAYER
 10
166.3747855539
 20
257.2695922578
 11
206.2190363355
 21
234.2660237536
  0
LINE
  5
361
100
AcDbEntity
  8
0
100
AcDbLine
 62
7
  6
BYLAYER
 10
201.8908963454
 20
236.8866572375
 11
156.7731110136
 21
262.9348334555
  0
LINE
  5
362
100
AcDbEntity
  8
0
100
AcDbLine
 62
7
  6
BYLAYER
 10
162.4398138001
 20
262.9235228521
 11
206.0096780482
 21
237.7690190708
  0
LINE
  5
363
100
AcDbEntity
  8
0
100
AcDbLine
 62
7
  6
BYLAYER
 10
216.4630781833
 20
212.2251759357
 11
202.4948753305
 21
236.4186786634
  0
LINE
  5
364
100
AcDbEntity
  8
0
100
AcDbLine
 62
7
  6
BYLAYER
 10
185.9398619747
 20
91.8936126763
 11
201.8908963482
 21
101.9071590239
  0
LINE
  5
365
100
AcDbEntity
  8
0
100
AcDbLine
 62
7
  6
BYLAYER
 10
202.4012838708
 20
101.864061522
 11
186.4502494973
 21
91.8505151743
  0
LINE
  5
366
100
AcDbEntity
  8
0
100
AcDbLine
 62
7
  6
BYLAYER
 10
216.5663747141
 20
110.380292661
 11
200.411222897
 21
100.2488956829
  0
LINE
  5
367
100
AcDbEntity
  8
0
100
AcDbLine
 62
7
  6
BYLAYER
 10
200.2145803471
 20
99.7975825071
 11
216.3697321645
 21
109.9289794854
  0
LINE
  5
368
100
AcDbEntity
  8
0
100
AcDbLine
 62
7
  6
BYLAYER
 10
202.4948753305
 20
101.9227790949
 11
216.4630781833
 21
109.9875553489
  0
LINE
  5
369
100
AcDbEntity
  8
0
100
AcDbLine
 62
7
  6
BYLAYER
 10
157.7645547782
 20
75.3783461445
 11
172.1555442214
 21
83.6872253294
  0
LINE
  5
36A
100
AcDbEntity
  8
0
100
AcDbLine
 62
7
  6
BYLAYER
 10
186.4502494973
 20
91.8505151743
 11
200.2145803471
 21
99.7975825071
  0
LINE
  5
36B
100
AcDbEntity
  8
0
100
AcDbLine
 62
7
  6
BYLAYER
 10
176.5443978633
 20
86.115124125
 11
162.1153867071
 21
77.7842924663
  0
LINE
  5
36C
100
AcDbEntity
  8
0
100
AcDbLine
 62
7
  6
BYLAYER
 10
172.0844388211
 20
83.5231121562
 11
156.1744788372
 21
74.3372510106
  0
LINE
  5
36D
100
AcDbEntity
  8
0
100
AcDbLine
 62
7
  6
BYLAYER
 10
156.1744788372
 20
74.3372510106
 11
153.3460634884
 21
72.7042743951
  0
LINE
  5
36E
100
AcDbEntity
  8
0
100
AcDbLine
 62
7
  6
BYLAYER
 10
199.0495151427
 20
97.9707316177
 11
187.2431174988
 21
91.154105343
  0
LINE
  5
36F
100
AcDbEntity
  8
0
100
AcDbLine
 62
7
  6
BYLAYER
 10
164.2908348354
 20
77.8857162999
 11
176.7617607023
 21
85.0859493355
  0
LINE
  5
370
100
AcDbEntity
  8
0
100
AcDbLine
 62
7
  6
BYLAYER
 10
176.751482177
 20
86.5728560052
 11
172.3626285352
 21
84.1449572095
  0
LINE
  5
371
100
AcDbEntity
  8
0
100
AcDbLine
 62
7
  6
BYLAYER
 10
172.1555442214
 20
83.6872253294
 11
176.5443978633
 21
86.115124125
  0
LINE
  5
372
100
AcDbEntity
  8
0
100
AcDbLine
 62
7
  6
BYLAYER
 10
157.2646090194
 20
75.4278623508
 11
161.6154409483
 21
77.8338086727
  0
LINE
  5
373
100
AcDbEntity
  8
0
100
AcDbLine
 62
7
  6
BYLAYER
 10
162.1153867071
 20
77.7842924663
 11
157.7645547782
 21
75.3783461445
  0
LINE
  5
374
100
AcDbEntity
  8
0
100
AcDbLine
 62
7
  6
BYLAYER
 10
216.4609812517
 20
216.5265532663
 11
206.2190363355
 21
234.2660237536
  0
LINE
  5
375
100
AcDbEntity
  8
0
100
AcDbLine
 62
7
  6
BYLAYER
 10
206.7329923043
 20
237.0459763028
 11
219.1266701804
 21
215.5796156934
  0
LINE
  5
376
100
AcDbEntity
  8
0
100
AcDbLine
 62
7
  6
BYLAYER
 10
173.216237818
 20
71.9283906273
 11
194.8178649818
 21
85.1602848368
  0
LINE
  5
377
100
AcDbEntity
  8
0
100
AcDbLine
 62
7
  6
BYLAYER
 10
199.0600545113
 20
87.6095734369
 11
177.4584279041
 21
74.3776795683
  0
LINE
  5
378
100
AcDbEntity
  8
0
100
AcDbLine
 62
7
  6
BYLAYER
 10
176.260635291
 20
71.6577497698
 11
197.8666005369
 21
84.8923012348
  0
ARC
  5
379
100
AcDbEntity
  8
0
100
AcDbCircle
 62
7
  6
BYLAYER
 10
202.1250949477
 20
105.5470245719
 40
16.0997063071
100
AcDbArc
 50
119.9994155422
 51
120.2177931294
  0
ARC
  5
37A
100
AcDbEntity
  8
0
100
AcDbCircle
 62
7
  6
BYLAYER
 10
202.1250949433
 20
185.5642614583
 40
16.0997062982
100
AcDbArc
 50
119.9994155421
 51
120.2177931295
  0
ARC
  5
37B
100
AcDbEntity
  8
0
100
AcDbCircle
 62
7
  6
BYLAYER
 10
73.0893569774
 20
111.691813646
 40
10.0
100
AcDbArc
 50
180.0
 51
240.0005612632
  0
ARC
  5
37C
100
AcDbEntity
  8
0
100
AcDbCircle
 62
7
  6
BYLAYER
 10
87.2315514803
 20
88.4217038387
 40
10.0
100
AcDbArc
 50
180.0
 51
240.0005612632
  0
ARC
  5
37D
100
AcDbEntity
  8
0
100
AcDbCircle
 62
7
  6
BYLAYER
 10
114.1017210359
 20
72.9085551669
 40
10.0
100
AcDbArc
 50
240.0005612632
 51
255.5737715947
  0
ARC
  5
37E
100
AcDbEntity
  8
0
100
AcDbCircle
 62
7
  6
BYLAYER
 10
128.2439155388
 20
79.8490347934
 40
10.0
100
AcDbArc
 50
240.0005612632
 51
255.5706408878
  0
ARC
  5
37F
100
AcDbEntity
  8
0
100
AcDbCircle
 62
7
  6
BYLAYER
 10
87.2315514803
 20
201.0990374026
 40
10.0
100
AcDbArc
 50
164.4269071698
 51
180.0
  0
ARC
  5
380
100
AcDbEntity
  8
0
100
AcDbCircle
 62
7
  6
BYLAYER
 10
73.0893569774
 20
194.1585577761
 40
10.0
100
AcDbArc
 50
164.4169016551
 51
180.0002117653
  0
ARC
  5
381
100
AcDbEntity
  8
0
100
AcDbCircle
 62
7
  6
BYLAYER
 10
144.7157471502
 20
148.9241283741
 40
5.1628198819
100
AcDbArc
 50
119.0842012883
 51
120.4714796877
  0
ARC
  5
382
100
AcDbEntity
  8
0
100
AcDbCircle
 62
7
  6
BYLAYER
 10
154.2290740447
 20
132.4467584929
 40
5.1618801702
100
AcDbArc
 50
299.5281317892
 51
300.9156646633
  0
ARC
  5
383
100
AcDbEntity
  8
0
100
AcDbCircle
 62
7
  6
BYLAYER
 10
204.3065530524
 20
232.784217344
 40
4.7608203601
100
AcDbArc
 50
119.0462849977
 51
120.4910296139
  0
ARC
  5
384
100
AcDbEntity
  8
0
100
AcDbCircle
 62
7
  6
BYLAYER
 10
214.2221708876
 20
215.6100718418
 40
4.7593089379
100
AcDbArc
 50
299.5084095391
 51
300.953610797
  0
ARC
  5
385
100
AcDbEntity
  8
0
100
AcDbCircle
 62
7
  6
BYLAYER
 10
154.1135827609
 20
132.3418526072
 40
4.4218209836
100
AcDbArc
 50
299.3951463988
 51
300.8543487489
  0
ARC
  5
386
100
AcDbEntity
  8
0
100
AcDbCircle
 62
7
  6
BYLAYER
 10
144.5666792772
 20
148.8774000912
 40
4.4217959315
100
AcDbArc
 50
119.145386575
 51
120.6045972271
  0
ARC
  5
387
100
AcDbEntity
  8
0
100
AcDbCircle
 62
7
  6
BYLAYER
 10
204.4708333945
 20
232.8697944103
 40
4.0618948427
100
AcDbArc
 50
119.1083124324
 51
120.6307618904
  0
ARC
  5
388
100
AcDbEntity
  8
0
100
AcDbCircle
 62
7
  6
BYLAYER
 10
214.3776684385
 20
215.7108344766
 40
4.0618652449
100
AcDbArc
 50
299.3688991924
 51
300.8913597109
  0
SPLINE
  5
389
100
AcDbEntity
  8
0
100
AcDbSpline
 62
7
  6
BYLAYER
 70
0
 71
3
 72
11
 73
7
 74
0
 42
0.0000001
 43
0.0000001
 44
0.0000000001
 40
0.0
 40
0.0
 40
0.0
 40
0.0
 40
0.2500118991
 40
0.4999922039
 40
0.7499940319
 40
1.0
 40
1.0
 40
1.0
 40
1.0
 10
202.8707962349
 20
117.8317320056
 30
0.0
 10
203.3025072648
 20
117.1952064724
 30
0.0
 10
204.2016583786
 20
115.9469349129
 30
0.0
 10
205.5241130667
 20
114.0563984663
 30
0.0
 10
206.8493034795
 20
112.1677313589
 30
0.0
 10
207.7407305283
 20
110.9141233219
 30
0.0
 10
208.177943442
 20
110.2813864331
 30
0.0
  0
SPLINE
  5
38A
100
AcDbEntity
  8
0
100
AcDbSpline
 62
7
  6
BYLAYER
 70
0
 71
3
 72
10
 73
6
 74
0
 42
0.0000001
 43
0.0000001
 44
0.0000000001
 40
0.0
 40
0.0
 40
0.0
 40
0.0
 40
0.2033165735
 40
0.5683602322
 40
1.0
 40
1.0
 40
1.0
 40
1.0
 10
208.177943442
 20
110.2813864331
 30
0.0
 10
208.1940137706
 20
110.2577530889
 30
0.0
 10
208.2261675931
 20
110.1827240148
 30
0.0
 10
208.2293974236
 20
110.0387647101
 30
0.0
 10
208.1994875215
 20
109.9297438097
 30
0.0
 10
208.1779502491
 20
109.8730207701
 30
0.0
  0
SPLINE
  5
38B
100
AcDbEntity
  8
0
100
AcDbSpline
 62
7
  6
BYLAYER
 70
0
 71
3
 72
17
 73
13
 74
0
 42
0.0000001
 43
0.0000001
 44
0.0000000001
 40
0.0
 40
0.0
 40
0.0
 40
0.0
 40
0.125033841
 40
0.1874805966
 40
0.249969168
 40
0.3124845515
 40
0.3750005899
 40
0.5000028532
 40
0.6250006495
 40
0.7500010005
 40
0.8749985814
 40
1.0
 40
1.0
 40
1.0
 40
1.0
 10
208.1779502491
 20
109.8730207701
 30
0.0
 10
207.9517174014
 20
109.3049120871
 30
0.0
 10
207.6221876909
 20
108.4492345108
 30
0.0
 10
207.1843353556
 20
107.3078291885
 30
0.0
 10
206.8530040897
 20
106.4530383734
 30
0.0
 10
206.5202997968
 20
105.5984212149
 30
0.0
 10
206.0767839489
 20
104.4588586297
 30
0.0
 10
205.5243130895
 20
103.0337946754
 30
0.0
 10
204.8609851303
 20
101.323958223
 30
0.0
 10
204.1975134682
 20
99.6142019966
 30
0.0
 10
203.534273818
 20
97.9043368032
 30
0.0
 10
203.0921195956
 20
96.764427435
 30
0.0
 10
202.8708118866
 20
96.1945522084
 30
0.0
  0
SPLINE
  5
38C
100
AcDbEntity
  8
0
100
AcDbSpline
 62
7
  6
BYLAYER
 70
0
 71
3
 72
9
 73
5
 74
0
 42
0.0000001
 43
0.0000001
 44
0.0000000001
 40
0.0
 40
0.0
 40
0.0
 40
0.0
 40
0.26301058
 40
1.0
 40
1.0
 40
1.0
 40
1.0
 10
202.8708118866
 20
96.1945522084
 30
0.0
 10
202.8549355331
 20
96.1543084954
 30
0.0
 10
202.7839243005
 20
96.0062516684
 30
0.0
 10
202.668885375
 20
95.8751574861
 30
0.0
 10
202.5645096168
 20
95.8135013474
 30
0.0
  0
SPLINE
  5
38D
100
AcDbEntity
  8
0
100
AcDbSpline
 62
7
  6
BYLAYER
 70
0
 71
3
 72
11
 73
7
 74
0
 42
0.0000001
 43
0.0000001
 44
0.0000000001
 40
0.0
 40
0.0
 40
0.0
 40
0.0
 40
0.2499439
 40
0.5000107587
 40
0.7500136598
 40
1.0
 40
1.0
 40
1.0
 40
1.0
 10
202.5645096168
 20
95.8135013474
 30
0.0
 10
202.1177761144
 20
95.5663081884
 30
0.0
 10
201.239308206
 20
95.0448554233
 30
0.0
 10
199.9108322064
 20
94.2818147737
 30
0.0
 10
198.5836098019
 20
93.5163168631
 30
0.0
 10
197.7011907658
 20
93.0020193925
 30
0.0
 10
197.2573736975
 20
92.7494521295
 30
0.0
  0
SPLINE
  5
38E
100
AcDbEntity
  8
0
100
AcDbSpline
 62
7
  6
BYLAYER
 70
0
 71
3
 72
12
 73
8
 74
0
 42
0.0000001
 43
0.0000001
 44
0.0000000001
 40
0.0
 40
0.0
 40
0.0
 40
0.0
 40
0.2500576149
 40
0.4374898582
 40
0.6250167398
 40
0.8123988937
 40
1.0
 40
1.0
 40
1.0
 40
1.0
 10
197.2573736975
 20
92.7494521295
 30
0.0
 10
196.8160242911
 20
92.4923024132
 30
0.0
 10
196.0413627622
 20
92.0467027764
 30
0.0
 10
194.9351451451
 20
91.409259192
 30
0.0
 10
193.940935378
 20
90.8338627564
 30
0.0
 10
192.944757269
 20
90.2611937146
 30
0.0
 10
192.2813260658
 20
89.8783076948
 30
0.0
 10
191.9502169725
 20
89.6853770389
 30
0.0
  0
SPLINE
  5
38F
100
AcDbEntity
  8
0
100
AcDbSpline
 62
7
  6
BYLAYER
 70
0
 71
3
 72
11
 73
7
 74
0
 42
0.0000001
 43
0.0000001
 44
0.0000000001
 40
0.0
 40
0.0
 40
0.0
 40
0.0
 40
0.2888398858
 40
0.5489020332
 40
0.7822983351
 40
1.0
 40
1.0
 40
1.0
 40
1.0
 10
191.9502169725
 20
89.6853770389
 30
0.0
 10
191.9283369072
 20
89.6730014523
 30
0.0
 10
191.8849177528
 20
89.6524608153
 30
0.0
 10
191.818310805
 20
89.6357416493
 30
0.0
 10
191.755548444
 20
89.6369646165
 30
0.0
 10
191.7177933603
 20
89.6506373092
 30
0.0
 10
191.7013852268
 20
89.6601103403
 30
0.0
  0
SPLINE
  5
390
100
AcDbEntity
  8
0
100
AcDbSpline
 62
7
  6
BYLAYER
 70
0
 71
3
 72
11
 73
7
 74
0
 42
0.0000001
 43
0.0000001
 44
0.0000000001
 40
0.0
 40
0.0
 40
0.0
 40
0.0
 40
0.2176883222
 40
0.4511016489
 40
0.7111769702
 40
1.0
 40
1.0
 40
1.0
 40
1.0
 10
199.6313010731
 20
119.7214699644
 30
0.0
 10
199.6148993298
 20
119.7309393067
 30
0.0
 10
199.5771537877
 20
119.7446043171
 30
0.0
 10
199.5144097621
 20
119.7458062453
 30
0.0
 10
199.447827782
 20
119.7290802409
 30
0.0
 10
199.4044234057
 20
119.708547828
 30
0.0
 10
199.3825496312
 20
119.6961808554
 30
0.0
  0
SPLINE
  5
391
100
AcDbEntity
  8
0
100
AcDbSpline
 62
7
  6
BYLAYER
 70
0
 71
3
 72
15
 73
11
 74
0
 42
0.0000001
 43
0.0000001
 44
0.0000000001
 40
0.0
 40
0.0
 40
0.0
 40
0.0
 40
0.1249847991
 40
0.2500141654
 40
0.3750044393
 40
0.4999961867
 40
0.625004386
 40
0.7500139704
 40
0.8749853056
 40
1.0
 40
1.0
 40
1.0
 40
1.0
 10
188.4619516043
 20
113.187020489
 30
0.0
 10
188.2423782046
 20
112.616562133
 30
0.0
 10
187.7994620368
 20
111.4768659343
 30
0.0
 10
187.1339580856
 20
109.767855693
 30
0.0
 10
186.4716547778
 20
108.0575642618
 30
0.0
 10
185.8086889014
 20
106.3476416413
 30
0.0
 10
185.1448698132
 20
104.6379487595
 30
0.0
 10
184.4803855432
 20
102.9286203447
 30
0.0
 10
183.8191073711
 20
101.218016825
 30
0.0
 10
183.3774935264
 20
100.077962942
 30
0.0
 10
183.1548095252
 20
99.508554643
 30
0.0
  0
SPLINE
  5
392
100
AcDbEntity
  8
0
100
AcDbSpline
 62
7
  6
BYLAYER
 70
0
 71
3
 72
9
 73
5
 74
0
 42
0.0000001
 43
0.0000001
 44
0.0000000001
 40
0.0
 40
0.0
 40
0.0
 40
0.0
 40
0.2294344294
 40
1.0
 40
1.0
 40
1.0
 40
1.0
 10
188.7682235662
 20
113.5680359729
 30
0.0
 10
188.7356810658
 20
113.5488637187
 30
0.0
 10
188.6028229162
 20
113.4502724394
 30
0.0
 10
188.5085630126
 20
113.3049994947
 30
0.0
 10
188.4619516043
 20
113.187020489
 30
0.0
  0
SPLINE
  5
393
100
AcDbEntity
  8
0
100
AcDbSpline
 62
7
  6
BYLAYER
 70
0
 71
3
 72
17
 73
13
 74
0
 42
0.0000001
 43
0.0000001
 44
0.0000000001
 40
0.0
 40
0.0
 40
0.0
 40
0.0
 40
0.1249619361
 40
0.1875116745
 40
0.2500357885
 40
0.3750112502
 40
0.4999903625
 40
0.6250110585
 40
0.7500353298
 40
0.8125114502
 40
0.8749625027
 40
1.0
 40
1.0
 40
1.0
 40
1.0
 10
183.1548095391
 20
99.1001683812
 30
0.0
 10
183.3780045943
 20
98.787175223
 30
0.0
 10
183.7092198086
 20
98.3148817742
 30
0.0
 10
184.1494518446
 20
97.6841324097
 30
0.0
 10
184.5909910527
 20
97.0542422277
 30
0.0
 10
185.1448714497
 20
96.2685683357
 30
0.0
 10
185.8088723202
 20
95.3252948278
 30
0.0
 10
186.4716568106
 20
94.3809827897
 30
0.0
 10
187.0234311004
 20
93.5936690779
 30
0.0
 10
187.4664172661
 20
92.9651639828
 30
0.0
 10
187.9107082066
 20
92.3375350347
 30
0.0
 10
188.2428888119
 20
91.8660072078
 30
0.0
 10
188.4619519134
 20
91.5498254885
 30
0.0
  0
SPLINE
  5
394
100
AcDbEntity
  8
0
100
AcDbSpline
 62
7
  6
BYLAYER
 70
0
 71
3
 72
11
 73
7
 74
0
 42
0.0000001
 43
0.0000001
 44
0.0000000001
 40
0.0
 40
0.0
 40
0.0
 40
0.0
 40
0.2500209513
 40
0.4999981422
 40
0.7499863769
 40
1.0
 40
1.0
 40
1.0
 40
1.0
 10
194.0753799343
 20
116.6321007873
 30
0.0
 10
194.5173256979
 20
116.8880768592
 30
0.0
 10
195.4021600045
 20
117.3982206369
 30
0.0
 10
196.7290007405
 20
118.1641008066
 30
0.0
 10
198.055730226
 20
118.9301440882
 30
0.0
 10
198.9405325066
 20
119.4403579119
 30
0.0
 10
199.3825496312
 20
119.6961808554
 30
0.0
  0
SPLINE
  5
395
100
AcDbEntity
  8
0
100
AcDbSpline
 62
7
  6
BYLAYER
 70
0
 71
3
 72
12
 73
8
 74
0
 42
0.0000001
 43
0.0000001
 44
0.0000000001
 40
0.0
 40
0.0
 40
0.0
 40
0.0
 40
0.2499456825
 40
0.4375161999
 40
0.6249886938
 40
0.8126042431
 40
1.0
 40
1.0
 40
1.0
 40
1.0
 10
188.7682235662
 20
113.5680359729
 30
0.0
 10
189.2114103666
 20
113.8215448232
 30
0.0
 10
189.9846523836
 20
114.2697094652
 30
0.0
 10
191.0897501263
 20
114.9089757499
 30
0.0
 10
192.0857240884
 20
115.4826106678
 30
0.0
 10
193.0797386816
 20
116.0589175599
 30
0.0
 10
193.7431075639
 20
116.4420245969
 30
0.0
 10
194.0753799343
 20
116.6321007873
 30
0.0
  0
SPLINE
  5
396
100
AcDbEntity
  8
0
100
AcDbSpline
 62
7
  6
BYLAYER
 70
0
 71
3
 72
11
 73
7
 74
0
 42
0.0000001
 43
0.0000001
 44
0.0000000001
 40
0.0
 40
0.0
 40
0.0
 40
0.0
 40
0.2937225711
 40
0.4984921413
 40
0.6850556236
 40
1.0
 40
1.0
 40
1.0
 40
1.0
 10
183.1548095252
 20
99.508554643
 30
0.0
 10
183.1401056972
 20
99.4699492448
 30
0.0
 10
183.1195505013
 20
99.4025651435
 30
0.0
 10
183.1060669031
 20
99.3067344156
 30
0.0
 10
183.1078419513
 20
99.2073434089
 30
0.0
 10
183.1299017296
 20
99.1367975209
 30
0.0
 10
183.1548095391
 20
99.1001683812
 30
0.0
  0
SPLINE
  5
397
100
AcDbEntity
  8
0
100
AcDbSpline
 62
7
  6
BYLAYER
 70
0
 71
3
 72
10
 73
6
 74
0
 42
0.0000001
 43
0.0000001
 44
0.0000000001
 40
0.0
 40
0.0
 40
0.0
 40
0.0
 40
0.2033193358
 40
0.5683664729
 40
1.0
 40
1.0
 40
1.0
 40
1.0
 10
186.3368033022
 20
97.2630849859
 30
0.0
 10
186.3207317471
 20
97.286719631
 30
0.0
 10
186.2885704236
 20
97.3617543887
 30
0.0
 10
186.2853853418
 20
97.5057112066
 30
0.0
 10
186.3152066673
 20
97.6147685881
 30
0.0
 10
186.3368032884
 20
97.6714712477
 30
0.0
  0
SPLINE
  5
398
100
AcDbEntity
  8
0
100
AcDbSpline
 62
7
  6
BYLAYER
 70
0
 71
3
 72
15
 73
11
 74
0
 42
0.0000001
 43
0.0000001
 44
0.0000000001
 40
0.0
 40
0.0
 40
0.0
 40
0.0
 40
0.1250146944
 40
0.2499860296
 40
0.374995614
 40
0.5000038133
 40
0.6249955607
 40
0.7499858346
 40
0.8750152009
 40
1.0
 40
1.0
 40
1.0
 40
1.0
 10
186.3368032884
 20
97.6714712477
 30
0.0
 10
186.5594872896
 20
98.2408795466
 30
0.0
 10
187.0011011342
 20
99.3809334297
 30
0.0
 10
187.6623793064
 20
101.0915369493
 30
0.0
 10
188.3268635764
 20
102.8008653642
 30
0.0
 10
188.9906826645
 20
104.510558246
 30
0.0
 10
189.6536485409
 20
106.2204808664
 30
0.0
 10
190.3159518487
 20
107.9307722976
 30
0.0
 10
190.9814557999
 20
109.6397825389
 30
0.0
 10
191.4243719678
 20
110.7794787377
 30
0.0
 10
191.6439453674
 20
111.3499370937
 30
0.0
  0
SPLINE
  5
399
100
AcDbEntity
  8
0
100
AcDbSpline
 62
7
  6
BYLAYER
 70
0
 71
3
 72
9
 73
5
 74
0
 42
0.0000001
 43
0.0000001
 44
0.0000000001
 40
0.0
 40
0.0
 40
0.0
 40
0.0
 40
0.2630211995
 40
1.0
 40
1.0
 40
1.0
 40
1.0
 10
191.6439453674
 20
111.3499370937
 30
0.0
 10
191.6598408676
 20
111.390170491
 30
0.0
 10
191.7308264414
 20
111.5382013668
 30
0.0
 10
191.8457818306
 20
111.6694249165
 30
0.0
 10
191.9502173293
 20
111.7309525776
 30
0.0
  0
SPLINE
  5
39A
100
AcDbEntity
  8
0
100
AcDbSpline
 62
7
  6
BYLAYER
 70
0
 71
3
 72
12
 73
8
 74
0
 42
0.0000001
 43
0.0000001
 44
0.0000000001
 40
0.0
 40
0.0
 40
0.0
 40
0.0
 40
0.2499456825
 40
0.4375161999
 40
0.6249886938
 40
0.8126042431
 40
1.0
 40
1.0
 40
1.0
 40
1.0
 10
191.9502173293
 20
111.7309525776
 30
0.0
 10
192.3934041298
 20
111.9844614279
 30
0.0
 10
193.1666461468
 20
112.4326260699
 30
0.0
 10
194.2717438896
 20
113.0718923546
 30
0.0
 10
195.2677178518
 20
113.6455272725
 30
0.0
 10
196.261732445
 20
114.2218341647
 30
0.0
 10
196.9251013274
 20
114.6049412017
 30
0.0
 10
197.2573736979
 20
114.7950173922
 30
0.0
  0
SPLINE
  5
39B
100
AcDbEntity
  8
0
100
AcDbSpline
 62
7
  6
BYLAYER
 70
0
 71
3
 72
11
 73
7
 74
0
 42
0.0000001
 43
0.0000001
 44
0.0000000001
 40
0.0
 40
0.0
 40
0.0
 40
0.0
 40
0.2500209513
 40
0.4999981422
 40
0.7499863769
 40
1.0
 40
1.0
 40
1.0
 40
1.0
 10
197.2573736979
 20
114.7950173922
 30
0.0
 10
197.6993194614
 20
115.050993464
 30
0.0
 10
198.5841537679
 20
115.5611372417
 30
0.0
 10
199.9109945038
 20
116.3270174114
 30
0.0
 10
201.2377239893
 20
117.0930606929
 30
0.0
 10
202.1225262698
 20
117.6032745166
 30
0.0
 10
202.5645433943
 20
117.85909746
 30
0.0
  0
SPLINE
  5
39C
100
AcDbEntity
  8
0
100
AcDbSpline
 62
7
  6
BYLAYER
 70
0
 71
3
 72
11
 73
7
 74
0
 42
0.0000001
 43
0.0000001
 44
0.0000000001
 40
0.0
 40
0.0
 40
0.0
 40
0.0
 40
0.2888230298
 40
0.5488983511
 40
0.7823116778
 40
1.0
 40
1.0
 40
1.0
 40
1.0
 10
202.5645433943
 20
117.85909746
 30
0.0
 10
202.5864171689
 20
117.8714644327
 30
0.0
 10
202.6298215452
 20
117.8919968456
 30
0.0
 10
202.6964035253
 20
117.90872285
 30
0.0
 10
202.7591475508
 20
117.9075209218
 30
0.0
 10
202.796893093
 20
117.8938559113
 30
0.0
 10
202.8132948362
 20
117.8843865691
 30
0.0
  0
SPLINE
  5
39D
100
AcDbEntity
  8
0
100
AcDbSpline
 62
7
  6
BYLAYER
 70
0
 71
3
 72
17
 73
13
 74
0
 42
0.0000001
 43
0.0000001
 44
0.0000000001
 40
0.0
 40
0.0
 40
0.0
 40
0.0
 40
0.1250374973
 40
0.1874885498
 40
0.2499646702
 40
0.3749889415
 40
0.5000096375
 40
0.6249887498
 40
0.7499642115
 40
0.8124883255
 40
0.8750380639
 40
1.0
 40
1.0
 40
1.0
 40
1.0
 10
191.6439456765
 20
89.7127420932
 30
0.0
 10
191.424882575
 20
90.0289238125
 30
0.0
 10
191.0927019698
 20
90.5004516394
 30
0.0
 10
190.6484110293
 20
91.1280805875
 30
0.0
 10
190.2054248636
 20
91.7565856825
 30
0.0
 10
189.6536505737
 20
92.5438993943
 30
0.0
 10
188.9908660834
 20
93.4882114325
 30
0.0
 10
188.3268652129
 20
94.4314849404
 30
0.0
 10
187.7729848159
 20
95.2171588323
 30
0.0
 10
187.3314456078
 20
95.8470490144
 30
0.0
 10
186.8912135718
 20
96.4777983789
 30
0.0
 10
186.5599983575
 20
96.9500918277
 30
0.0
 10
186.3368033022
 20
97.2630849859
 30
0.0
  0
SPLINE
  5
39E
100
AcDbEntity
  8
0
100
AcDbSpline
 62
7
  6
BYLAYER
 70
0
 71
3
 72
11
 73
7
 74
0
 42
0.0000001
 43
0.0000001
 44
0.0000000001
 40
0.0
 40
0.0
 40
0.0
 40
0.0
 40
0.2500118991
 40
0.4999922039
 40
0.7499940319
 40
1.0
 40
1.0
 40
1.0
 40
1.0
 10
202.8707962349
 20
197.8489688843
 30
0.0
 10
203.3025072648
 20
197.2124433511
 30
0.0
 10
204.2016583786
 20
195.9641717916
 30
0.0
 10
205.5241130667
 20
194.073635345
 30
0.0
 10
206.8493034795
 20
192.1849682376
 30
0.0
 10
207.7407305283
 20
190.9313602006
 30
0.0
 10
208.177943442
 20
190.2986233118
 30
0.0
  0
SPLINE
  5
39F
100
AcDbEntity
  8
0
100
AcDbSpline
 62
7
  6
BYLAYER
 70
0
 71
3
 72
10
 73
6
 74
0
 42
0.0000001
 43
0.0000001
 44
0.0000000001
 40
0.0
 40
0.0
 40
0.0
 40
0.0
 40
0.2033165735
 40
0.5683602322
 40
1.0
 40
1.0
 40
1.0
 40
1.0
 10
208.177943442
 20
190.2986233118
 30
0.0
 10
208.1940137706
 20
190.2749899676
 30
0.0
 10
208.2261675931
 20
190.1999608935
 30
0.0
 10
208.2293974236
 20
190.0560015888
 30
0.0
 10
208.1994875215
 20
189.9469806884
 30
0.0
 10
208.1779502491
 20
189.8902576487
 30
0.0
  0
SPLINE
  5
3A0
100
AcDbEntity
  8
0
100
AcDbSpline
 62
7
  6
BYLAYER
 70
0
 71
3
 72
17
 73
13
 74
0
 42
0.0000001
 43
0.0000001
 44
0.0000000001
 40
0.0
 40
0.0
 40
0.0
 40
0.0
 40
0.125033841
 40
0.1874805966
 40
0.249969168
 40
0.3124845515
 40
0.3750005899
 40
0.5000028532
 40
0.6250006495
 40
0.7500010005
 40
0.8749985814
 40
1.0
 40
1.0
 40
1.0
 40
1.0
 10
208.1779502491
 20
189.8902576487
 30
0.0
 10
207.9517174014
 20
189.3221489658
 30
0.0
 10
207.6221876909
 20
188.4664713895
 30
0.0
 10
207.1843353556
 20
187.3250660672
 30
0.0
 10
206.8530040897
 20
186.4702752521
 30
0.0
 10
206.5202997968
 20
185.6156580936
 30
0.0
 10
206.0767839489
 20
184.4760955084
 30
0.0
 10
205.5243130895
 20
183.0510315541
 30
0.0
 10
204.8609851303
 20
181.3411951017
 30
0.0
 10
204.1975134682
 20
179.6314388753
 30
0.0
 10
203.534273818
 20
177.9215736819
 30
0.0
 10
203.0921195956
 20
176.7816643137
 30
0.0
 10
202.8708118866
 20
176.2117890871
 30
0.0
  0
SPLINE
  5
3A1
100
AcDbEntity
  8
0
100
AcDbSpline
 62
7
  6
BYLAYER
 70
0
 71
3
 72
9
 73
5
 74
0
 42
0.0000001
 43
0.0000001
 44
0.0000000001
 40
0.0
 40
0.0
 40
0.0
 40
0.0
 40
0.26301058
 40
1.0
 40
1.0
 40
1.0
 40
1.0
 10
202.8708118866
 20
176.2117890871
 30
0.0
 10
202.8549355331
 20
176.1715453741
 30
0.0
 10
202.7839243005
 20
176.0234885471
 30
0.0
 10
202.668885375
 20
175.8923943648
 30
0.0
 10
202.5645096168
 20
175.8307382261
 30
0.0
  0
SPLINE
  5
3A2
100
AcDbEntity
  8
0
100
AcDbSpline
 62
7
  6
BYLAYER
 70
0
 71
3
 72
11
 73
7
 74
0
 42
0.0000001
 43
0.0000001
 44
0.0000000001
 40
0.0
 40
0.0
 40
0.0
 40
0.0
 40
0.2499439
 40
0.5000107587
 40
0.7500136598
 40
1.0
 40
1.0
 40
1.0
 40
1.0
 10
202.5645096168
 20
175.8307382261
 30
0.0
 10
202.1177761144
 20
175.5835450671
 30
0.0
 10
201.239308206
 20
175.062092302
 30
0.0
 10
199.9108322064
 20
174.2990516524
 30
0.0
 10
198.5836098019
 20
173.5335537418
 30
0.0
 10
197.7011907658
 20
173.0192562712
 30
0.0
 10
197.2573736975
 20
172.7666890082
 30
0.0
  0
SPLINE
  5
3A3
100
AcDbEntity
  8
0
100
AcDbSpline
 62
7
  6
BYLAYER
 70
0
 71
3
 72
12
 73
8
 74
0
 42
0.0000001
 43
0.0000001
 44
0.0000000001
 40
0.0
 40
0.0
 40
0.0
 40
0.0
 40
0.2500576149
 40
0.4374898582
 40
0.6250167398
 40
0.8123988937
 40
1.0
 40
1.0
 40
1.0
 40
1.0
 10
197.2573736975
 20
172.7666890082
 30
0.0
 10
196.8160242911
 20
172.5095392919
 30
0.0
 10
196.0413627622
 20
172.0639396551
 30
0.0
 10
194.9351451451
 20
171.4264960707
 30
0.0
 10
193.940935378
 20
170.8510996351
 30
0.0
 10
192.944757269
 20
170.2784305933
 30
0.0
 10
192.2813260658
 20
169.8955445735
 30
0.0
 10
191.9502169725
 20
169.7026139176
 30
0.0
  0
SPLINE
  5
3A4
100
AcDbEntity
  8
0
100
AcDbSpline
 62
7
  6
BYLAYER
 70
0
 71
3
 72
11
 73
7
 74
0
 42
0.0000001
 43
0.0000001
 44
0.0000000001
 40
0.0
 40
0.0
 40
0.0
 40
0.0
 40
0.2888398858
 40
0.5489020332
 40
0.7822983351
 40
1.0
 40
1.0
 40
1.0
 40
1.0
 10
191.9502169725
 20
169.7026139176
 30
0.0
 10
191.9283369072
 20
169.690238331
 30
0.0
 10
191.8849177528
 20
169.669697694
 30
0.0
 10
191.818310805
 20
169.652978528
 30
0.0
 10
191.755548444
 20
169.6542014952
 30
0.0
 10
191.7177933603
 20
169.6678741879
 30
0.0
 10
191.7013852268
 20
169.677347219
 30
0.0
  0
SPLINE
  5
3A5
100
AcDbEntity
  8
0
100
AcDbSpline
 62
7
  6
BYLAYER
 70
0
 71
3
 72
11
 73
7
 74
0
 42
0.0000001
 43
0.0000001
 44
0.0000000001
 40
0.0
 40
0.0
 40
0.0
 40
0.0
 40
0.2176883222
 40
0.4511016489
 40
0.7111769702
 40
1.0
 40
1.0
 40
1.0
 40
1.0
 10
199.6313010731
 20
199.7387068431
 30
0.0
 10
199.6148993298
 20
199.7481761854
 30
0.0
 10
199.5771537877
 20
199.7618411958
 30
0.0
 10
199.5144097621
 20
199.763043124
 30
0.0
 10
199.447827782
 20
199.7463171196
 30
0.0
 10
199.4044234057
 20
199.7257847067
 30
0.0
 10
199.3825496312
 20
199.7134177341
 30
0.0
  0
SPLINE
  5
3A6
100
AcDbEntity
  8
0
100
AcDbSpline
 62
7
  6
BYLAYER
 70
0
 71
3
 72
15
 73
11
 74
0
 42
0.0000001
 43
0.0000001
 44
0.0000000001
 40
0.0
 40
0.0
 40
0.0
 40
0.0
 40
0.1249847991
 40
0.2500141654
 40
0.3750044393
 40
0.4999961867
 40
0.625004386
 40
0.7500139704
 40
0.8749853056
 40
1.0
 40
1.0
 40
1.0
 40
1.0
 10
188.4619516043
 20
193.2042573677
 30
0.0
 10
188.2423782046
 20
192.6337990117
 30
0.0
 10
187.7994620368
 20
191.494102813
 30
0.0
 10
187.1339580856
 20
189.7850925717
 30
0.0
 10
186.4716547778
 20
188.0748011405
 30
0.0
 10
185.8086889014
 20
186.36487852
 30
0.0
 10
185.1448698132
 20
184.6551856382
 30
0.0
 10
184.4803855432
 20
182.9458572234
 30
0.0
 10
183.8191073711
 20
181.2352537037
 30
0.0
 10
183.3774935264
 20
180.0951998207
 30
0.0
 10
183.1548095252
 20
179.5257915217
 30
0.0
  0
SPLINE
  5
3A7
100
AcDbEntity
  8
0
100
AcDbSpline
 62
7
  6
BYLAYER
 70
0
 71
3
 72
9
 73
5
 74
0
 42
0.0000001
 43
0.0000001
 44
0.0000000001
 40
0.0
 40
0.0
 40
0.0
 40
0.0
 40
0.2294344294
 40
1.0
 40
1.0
 40
1.0
 40
1.0
 10
188.7682235662
 20
193.5852728516
 30
0.0
 10
188.7356810658
 20
193.5661005974
 30
0.0
 10
188.6028229162
 20
193.467509318
 30
0.0
 10
188.5085630126
 20
193.3222363734
 30
0.0
 10
188.4619516043
 20
193.2042573677
 30
0.0
  0
SPLINE
  5
3A8
100
AcDbEntity
  8
0
100
AcDbSpline
 62
7
  6
BYLAYER
 70
0
 71
3
 72
17
 73
13
 74
0
 42
0.0000001
 43
0.0000001
 44
0.0000000001
 40
0.0
 40
0.0
 40
0.0
 40
0.0
 40
0.1249619361
 40
0.1875116745
 40
0.2500357885
 40
0.3750112502
 40
0.4999903625
 40
0.6250110585
 40
0.7500353298
 40
0.8125114502
 40
0.8749625027
 40
1.0
 40
1.0
 40
1.0
 40
1.0
 10
183.1548095391
 20
179.1174052599
 30
0.0
 10
183.3780045943
 20
178.8044121017
 30
0.0
 10
183.7092198086
 20
178.3321186529
 30
0.0
 10
184.1494518446
 20
177.7013692884
 30
0.0
 10
184.5909910527
 20
177.0714791064
 30
0.0
 10
185.1448714497
 20
176.2858052144
 30
0.0
 10
185.8088723202
 20
175.3425317065
 30
0.0
 10
186.4716568106
 20
174.3982196684
 30
0.0
 10
187.0234311004
 20
173.6109059566
 30
0.0
 10
187.4664172661
 20
172.9824008615
 30
0.0
 10
187.9107082066
 20
172.3547719134
 30
0.0
 10
188.2428888119
 20
171.8832440865
 30
0.0
 10
188.4619519134
 20
171.5670623672
 30
0.0
  0
SPLINE
  5
3A9
100
AcDbEntity
  8
0
100
AcDbSpline
 62
7
  6
BYLAYER
 70
0
 71
3
 72
11
 73
7
 74
0
 42
0.0000001
 43
0.0000001
 44
0.0000000001
 40
0.0
 40
0.0
 40
0.0
 40
0.0
 40
0.2500209513
 40
0.4999981422
 40
0.7499863769
 40
1.0
 40
1.0
 40
1.0
 40
1.0
 10
194.0753799343
 20
196.649337666
 30
0.0
 10
194.5173256979
 20
196.9053137379
 30
0.0
 10
195.4021600045
 20
197.4154575156
 30
0.0
 10
196.7290007405
 20
198.1813376853
 30
0.0
 10
198.055730226
 20
198.9473809669
 30
0.0
 10
198.9405325066
 20
199.4575947906
 30
0.0
 10
199.3825496312
 20
199.7134177341
 30
0.0
  0
SPLINE
  5
3AA
100
AcDbEntity
  8
0
100
AcDbSpline
 62
7
  6
BYLAYER
 70
0
 71
3
 72
12
 73
8
 74
0
 42
0.0000001
 43
0.0000001
 44
0.0000000001
 40
0.0
 40
0.0
 40
0.0
 40
0.0
 40
0.2499456825
 40
0.4375161999
 40
0.6249886938
 40
0.8126042431
 40
1.0
 40
1.0
 40
1.0
 40
1.0
 10
188.7682235662
 20
193.5852728516
 30
0.0
 10
189.2114103666
 20
193.8387817019
 30
0.0
 10
189.9846523836
 20
194.2869463439
 30
0.0
 10
191.0897501263
 20
194.9262126286
 30
0.0
 10
192.0857240884
 20
195.4998475465
 30
0.0
 10
193.0797386816
 20
196.0761544386
 30
0.0
 10
193.7431075639
 20
196.4592614756
 30
0.0
 10
194.0753799343
 20
196.649337666
 30
0.0
  0
SPLINE
  5
3AB
100
AcDbEntity
  8
0
100
AcDbSpline
 62
7
  6
BYLAYER
 70
0
 71
3
 72
11
 73
7
 74
0
 42
0.0000001
 43
0.0000001
 44
0.0000000001
 40
0.0
 40
0.0
 40
0.0
 40
0.0
 40
0.2937225711
 40
0.4984921413
 40
0.6850556236
 40
1.0
 40
1.0
 40
1.0
 40
1.0
 10
183.1548095252
 20
179.5257915217
 30
0.0
 10
183.1401056972
 20
179.4871861235
 30
0.0
 10
183.1195505013
 20
179.4198020222
 30
0.0
 10
183.1060669031
 20
179.3239712943
 30
0.0
 10
183.1078419513
 20
179.2245802876
 30
0.0
 10
183.1299017296
 20
179.1540343996
 30
0.0
 10
183.1548095391
 20
179.1174052599
 30
0.0
  0
SPLINE
  5
3AC
100
AcDbEntity
  8
0
100
AcDbSpline
 62
7
  6
BYLAYER
 70
0
 71
3
 72
10
 73
6
 74
0
 42
0.0000001
 43
0.0000001
 44
0.0000000001
 40
0.0
 40
0.0
 40
0.0
 40
0.0
 40
0.2033193358
 40
0.5683664729
 40
1.0
 40
1.0
 40
1.0
 40
1.0
 10
186.3368033022
 20
177.2803218646
 30
0.0
 10
186.3207317471
 20
177.3039565097
 30
0.0
 10
186.2885704236
 20
177.3789912674
 30
0.0
 10
186.2853853418
 20
177.5229480853
 30
0.0
 10
186.3152066673
 20
177.6320054668
 30
0.0
 10
186.3368032884
 20
177.6887081264
 30
0.0
  0
SPLINE
  5
3AD
100
AcDbEntity
  8
0
100
AcDbSpline
 62
7
  6
BYLAYER
 70
0
 71
3
 72
15
 73
11
 74
0
 42
0.0000001
 43
0.0000001
 44
0.0000000001
 40
0.0
 40
0.0
 40
0.0
 40
0.0
 40
0.1250146944
 40
0.2499860296
 40
0.374995614
 40
0.5000038133
 40
0.6249955607
 40
0.7499858346
 40
0.8750152009
 40
1.0
 40
1.0
 40
1.0
 40
1.0
 10
186.3368032884
 20
177.6887081264
 30
0.0
 10
186.5594872896
 20
178.2581164253
 30
0.0
 10
187.0011011342
 20
179.3981703084
 30
0.0
 10
187.6623793064
 20
181.108773828
 30
0.0
 10
188.3268635764
 20
182.8181022429
 30
0.0
 10
188.9906826645
 20
184.5277951247
 30
0.0
 10
189.6536485409
 20
186.2377177451
 30
0.0
 10
190.3159518487
 20
187.9480091763
 30
0.0
 10
190.9814557999
 20
189.6570194176
 30
0.0
 10
191.4243719678
 20
190.7967156164
 30
0.0
 10
191.6439453674
 20
191.3671739724
 30
0.0
  0
SPLINE
  5
3AE
100
AcDbEntity
  8
0
100
AcDbSpline
 62
7
  6
BYLAYER
 70
0
 71
3
 72
9
 73
5
 74
0
 42
0.0000001
 43
0.0000001
 44
0.0000000001
 40
0.0
 40
0.0
 40
0.0
 40
0.0
 40
0.2630211995
 40
1.0
 40
1.0
 40
1.0
 40
1.0
 10
191.6439453674
 20
191.3671739724
 30
0.0
 10
191.6598408676
 20
191.4074073697
 30
0.0
 10
191.7308264414
 20
191.5554382455
 30
0.0
 10
191.8457818306
 20
191.6866617952
 30
0.0
 10
191.9502173293
 20
191.7481894563
 30
0.0
  0
SPLINE
  5
3AF
100
AcDbEntity
  8
0
100
AcDbSpline
 62
7
  6
BYLAYER
 70
0
 71
3
 72
12
 73
8
 74
0
 42
0.0000001
 43
0.0000001
 44
0.0000000001
 40
0.0
 40
0.0
 40
0.0
 40
0.0
 40
0.2499456825
 40
0.4375161999
 40
0.6249886938
 40
0.8126042431
 40
1.0
 40
1.0
 40
1.0
 40
1.0
 10
191.9502173293
 20
191.7481894563
 30
0.0
 10
192.3934041298
 20
192.0016983066
 30
0.0
 10
193.1666461468
 20
192.4498629486
 30
0.0
 10
194.2717438896
 20
193.0891292333
 30
0.0
 10
195.2677178518
 20
193.6627641512
 30
0.0
 10
196.261732445
 20
194.2390710434
 30
0.0
 10
196.9251013274
 20
194.6221780804
 30
0.0
 10
197.2573736979
 20
194.8122542709
 30
0.0
  0
SPLINE
  5
3B0
100
AcDbEntity
  8
0
100
AcDbSpline
 62
7
  6
BYLAYER
 70
0
 71
3
 72
11
 73
7
 74
0
 42
0.0000001
 43
0.0000001
 44
0.0000000001
 40
0.0
 40
0.0
 40
0.0
 40
0.0
 40
0.2500209513
 40
0.4999981422
 40
0.7499863769
 40
1.0
 40
1.0
 40
1.0
 40
1.0
 10
197.2573736979
 20
194.8122542709
 30
0.0
 10
197.6993194614
 20
195.0682303427
 30
0.0
 10
198.5841537679
 20
195.5783741204
 30
0.0
 10
199.9109945038
 20
196.34425429
 30
0.0
 10
201.2377239893
 20
197.1102975716
 30
0.0
 10
202.1225262698
 20
197.6205113953
 30
0.0
 10
202.5645433943
 20
197.8763343387
 30
0.0
  0
SPLINE
  5
3B1
100
AcDbEntity
  8
0
100
AcDbSpline
 62
7
  6
BYLAYER
 70
0
 71
3
 72
11
 73
7
 74
0
 42
0.0000001
 43
0.0000001
 44
0.0000000001
 40
0.0
 40
0.0
 40
0.0
 40
0.0
 40
0.2888230298
 40
0.5488983511
 40
0.7823116778
 40
1.0
 40
1.0
 40
1.0
 40
1.0
 10
202.5645433943
 20
197.8763343387
 30
0.0
 10
202.5864171689
 20
197.8887013114
 30
0.0
 10
202.6298215452
 20
197.9092337243
 30
0.0
 10
202.6964035253
 20
197.9259597287
 30
0.0
 10
202.7591475508
 20
197.9247578005
 30
0.0
 10
202.796893093
 20
197.91109279
 30
0.0
 10
202.8132948362
 20
197.9016234478
 30
0.0
  0
SPLINE
  5
3B2
100
AcDbEntity
  8
0
100
AcDbSpline
 62
7
  6
BYLAYER
 70
0
 71
3
 72
17
 73
13
 74
0
 42
0.0000001
 43
0.0000001
 44
0.0000000001
 40
0.0
 40
0.0
 40
0.0
 40
0.0
 40
0.1250374973
 40
0.1874885498
 40
0.2499646702
 40
0.3749889415
 40
0.5000096375
 40
0.6249887498
 40
0.7499642115
 40
0.8124883255
 40
0.8750380639
 40
1.0
 40
1.0
 40
1.0
 40
1.0
 10
191.6439456765
 20
169.7299789719
 30
0.0
 10
191.424882575
 20
170.0461606912
 30
0.0
 10
191.0927019698
 20
170.5176885181
 30
0.0
 10
190.6484110293
 20
171.1453174662
 30
0.0
 10
190.2054248636
 20
171.7738225612
 30
0.0
 10
189.6536505737
 20
172.561136273
 30
0.0
 10
188.9908660834
 20
173.5054483112
 30
0.0
 10
188.3268652129
 20
174.4487218191
 30
0.0
 10
187.7729848159
 20
175.234395711
 30
0.0
 10
187.3314456078
 20
175.8642858931
 30
0.0
 10
186.8912135718
 20
176.4950352576
 30
0.0
 10
186.5599983575
 20
176.9673287064
 30
0.0
 10
186.3368033022
 20
177.2803218646
 30
0.0
  0
SPLINE
  5
3B3
100
AcDbEntity
  8
0
100
AcDbSpline
 62
7
  6
BYLAYER
 70
0
 71
3
 72
14
 73
10
 74
0
 42
0.0000001
 43
0.0000001
 44
0.0000000001
 40
0.0
 40
0.0
 40
0.0
 40
0.0
 40
0.1844914103
 40
0.3182575764
 40
0.4113787398
 40
0.5130591483
 40
0.6352671247
 40
0.8022497042
 40
1.0
 40
1.0
 40
1.0
 40
1.0
 10
216.4609812517
 20
216.5265532663
 30
0.0
 10
216.9219522741
 20
216.5002082972
 30
0.0
 10
217.7169738706
 20
216.4120987856
 30
0.0
 10
218.7069278604
 20
216.0851221304
 30
0.0
 10
219.3185060861
 20
215.4301445621
 30
0.0
 10
219.182635708
 20
214.5620667274
 30
0.0
 10
218.5741915298
 20
213.7864020029
 30
0.0
 10
217.6546588707
 20
212.97871681
 30
0.0
 10
216.8890362432
 20
212.4771514837
 30
0.0
 10
216.4630781833
 20
212.2251759357
 30
0.0
  0
SPLINE
  5
3B4
100
AcDbEntity
  8
0
100
AcDbSpline
 62
7
  6
BYLAYER
 70
0
 71
3
 72
14
 73
10
 74
0
 42
0.0000001
 43
0.0000001
 44
0.0000000001
 40
0.0
 40
0.0
 40
0.0
 40
0.0
 40
0.2072923149
 40
0.3828540037
 40
0.4975879815
 40
0.5905730699
 40
0.6853222708
 40
0.810699265
 40
1.0
 40
1.0
 40
1.0
 40
1.0
 10
202.4948753305
 20
236.4186786634
 30
0.0
 10
202.9461735961
 20
236.674892424
 30
0.0
 10
203.8063100862
 20
237.1050277109
 30
0.0
 10
204.9957568958
 20
237.4929336495
 30
0.0
 10
205.9633285264
 20
237.5927769014
 30
0.0
 10
206.7197397878
 20
237.2512107768
 30
0.0
 10
206.952235438
 20
236.4297914071
 30
0.0
 10
206.7494958722
 20
235.4161020992
 30
0.0
 10
206.4325858849
 20
234.6890975165
 30
0.0
 10
206.2190363355
 20
234.2660237536
 30
0.0
  0
SPLINE
  5
3B5
100
AcDbEntity
  8
0
100
AcDbSpline
 62
7
  6
BYLAYER
 70
0
 71
3
 72
10
 73
6
 74
0
 42
0.0000001
 43
0.0000001
 44
0.0000000001
 40
0.0
 40
0.0
 40
0.0
 40
0.0
 40
0.3522508387
 40
0.6898505975
 40
1.0
 40
1.0
 40
1.0
 40
1.0
 10
216.3697321644
 20
212.1709995399
 30
0.0
 10
216.4124953844
 20
212.0957152313
 30
0.0
 10
216.4849597812
 20
211.9414703206
 30
0.0
 10
216.5527673818
 20
211.704167324
 30
0.0
 10
216.5681347381
 20
211.5443373672
 30
0.0
 10
216.5663747143
 20
211.4681241849
 30
0.0
  0
SPLINE
  5
3B6
100
AcDbEntity
  8
0
100
AcDbSpline
 62
7
  6
BYLAYER
 70
0
 71
3
 72
10
 73
6
 74
0
 42
0.0000001
 43
0.0000001
 44
0.0000000001
 40
0.0
 40
0.0
 40
0.0
 40
0.0
 40
0.3101494025
 40
0.6477491613
 40
1.0
 40
1.0
 40
1.0
 40
1.0
 10
200.4112229008
 20
202.37669875
 30
0.0
 10
200.4129829245
 20
202.4529119323
 30
0.0
 10
200.3976155683
 20
202.6127418892
 30
0.0
 10
200.3298079676
 20
202.8500448858
 30
0.0
 10
200.2573435709
 20
203.0042897965
 30
0.0
 10
200.2145803509
 20
203.0795741051
 30
0.0
  0
SPLINE
  5
3B7
100
AcDbEntity
  8
0
100
AcDbSpline
 62
7
  6
BYLAYER
 70
0
 71
3
 72
12
 73
8
 74
0
 42
0.0000001
 43
0.0000001
 44
0.0000000001
 40
0.0
 40
0.0
 40
0.0
 40
0.0
 40
0.3015365137
 40
0.5097585045
 40
0.6827195358
 40
0.8421428626
 40
1.0
 40
1.0
 40
1.0
 40
1.0
 10
199.060054489
 20
203.8574275609
 30
0.0
 10
199.0683936794
 20
203.6075271949
 30
0.0
 10
199.0973844766
 20
203.1809987633
 30
0.0
 10
199.3008843678
 20
202.645330974
 30
0.0
 10
199.6172619301
 20
202.2974285258
 30
0.0
 10
200.0416151455
 20
202.2155129566
 30
0.0
 10
200.3001556382
 20
202.3074287012
 30
0.0
 10
200.4112228989
 20
202.376698749
 30
0.0
  0
SPLINE
  5
3B8
100
AcDbEntity
  8
0
100
AcDbSpline
 62
7
  6
BYLAYER
 70
0
 71
3
 72
13
 73
9
 74
0
 42
0.0000001
 43
0.0000001
 44
0.0000000001
 40
0.0
 40
0.0
 40
0.0
 40
0.0
 40
0.1423650455
 40
0.2910998388
 40
0.4564768215
 40
0.6240418281
 40
0.7744554869
 40
1.0
 40
1.0
 40
1.0
 40
1.0
 10
200.411222897
 20
100.2488956829
 30
0.0
 10
200.2745617356
 20
100.1557951862
 30
0.0
 10
200.0160615572
 20
99.9328279136
 30
0.0
 10
199.696877592
 20
99.5045467646
 30
0.0
 10
199.4537728685
 20
98.9992477154
 30
0.0
 10
199.2398722709
 20
98.4784638302
 30
0.0
 10
199.1096605129
 20
97.8579000781
 30
0.0
 10
199.0767028407
 20
97.4218716106
 30
0.0
 10
199.060054489
 20
97.1604262179
 30
0.0
  0
SPLINE
  5
3B9
100
AcDbEntity
  8
0
100
AcDbSpline
 62
7
  6
BYLAYER
 70
0
 71
3
 72
10
 73
6
 74
0
 42
0.0000001
 43
0.0000001
 44
0.0000000001
 40
0.0
 40
0.0
 40
0.0
 40
0.0
 40
0.2752717884
 40
0.6138569187
 40
1.0
 40
1.0
 40
1.0
 40
1.0
 10
177.4584280038
 20
188.6525639932
 30
0.0
 10
177.4489508899
 20
188.8807759146
 30
0.0
 10
177.3646419346
 20
189.3874724287
 30
0.0
 10
177.0921284702
 20
190.172217494
 30
0.0
 10
176.8821985365
 20
190.7356789118
 30
0.0
 10
176.7618358165
 20
191.0326167231
 30
0.0
  0
SPLINE
  5
3BA
100
AcDbEntity
  8
0
100
AcDbSpline
 62
7
  6
BYLAYER
 70
0
 71
3
 72
10
 73
6
 74
0
 42
0.0000001
 43
0.0000001
 44
0.0000000001
 40
0.0
 40
0.0
 40
0.0
 40
0.0
 40
0.3847510784
 40
0.7232773495
 40
1.0
 40
1.0
 40
1.0
 40
1.0
 10
164.2909664183
 20
212.6327415864
 30
0.0
 10
164.0946968027
 20
212.8845562761
 30
0.0
 10
163.7123834584
 20
213.3471305332
 30
0.0
 10
163.1693529641
 20
213.975907195
 30
0.0
 10
162.7717058932
 20
214.3028865667
 30
0.0
 10
162.577974757
 20
214.4261599582
 30
0.0
  0
SPLINE
  5
3BB
100
AcDbEntity
  8
0
100
AcDbSpline
 62
7
  6
BYLAYER
 70
0
 71
3
 72
12
 73
8
 74
0
 42
0.0000001
 43
0.0000001
 44
0.0000000001
 40
0.0
 40
0.0
 40
0.0
 40
0.0
 40
0.2554469497
 40
0.4499934547
 40
0.6693897454
 40
0.8563982161
 40
1.0
 40
1.0
 40
1.0
 40
1.0
 10
136.5711619384
 20
254.3839072507
 30
0.0
 10
136.8348019889
 20
254.2480396848
 30
0.0
 10
137.3083277184
 20
254.0197073621
 30
0.0
 10
138.06580827
 20
253.8323003435
 30
0.0
 10
138.7634926902
 20
253.7588372579
 30
0.0
 10
139.402218215
 20
253.8140574926
 30
0.0
 10
139.7763062937
 20
253.9277663644
 30
0.0
 10
139.9214375569
 20
254.0098406518
 30
0.0
  0
SPLINE
  5
3BC
100
AcDbEntity
  8
0
100
AcDbSpline
 62
7
  6
BYLAYER
 70
0
 71
3
 72
12
 73
8
 74
0
 42
0.0000001
 43
0.0000001
 44
0.0000000001
 40
0.0
 40
0.0
 40
0.0
 40
0.0
 40
0.1553476904
 40
0.3135653029
 40
0.4835895963
 40
0.692019299
 40
1.0
 40
1.0
 40
1.0
 40
1.0
 10
185.9398619748
 20
227.4416919784
 30
0.0
 10
185.8264556842
 20
227.3805227626
 30
0.0
 10
185.6231318331
 20
227.20441277
 30
0.0
 10
185.4676449487
 20
226.8055924193
 30
0.0
 10
185.6178425232
 20
226.361896183
 30
0.0
 10
185.9642285162
 20
225.9039651239
 30
0.0
 10
186.3292708134
 20
225.6654393545
 30
0.0
 10
186.5466175681
 20
225.5312172251
 30
0.0
  0
SPLINE
  5
3BD
100
AcDbEntity
  8
0
100
AcDbSpline
 62
7
  6
BYLAYER
 70
0
 71
3
 72
10
 73
6
 74
0
 42
0.0000001
 43
0.0000001
 44
0.0000000001
 40
0.0
 40
0.0
 40
0.0
 40
0.0
 40
0.3662181245
 40
0.6838611922
 40
1.0
 40
1.0
 40
1.0
 40
1.0
 10
116.2476929763
 20
240.3580562375
 30
0.0
 10
116.3239502374
 20
240.4048940532
 30
0.0
 10
116.459871052
 20
240.5050140407
 30
0.0
 10
116.6126599258
 20
240.7003907492
 30
0.0
 10
116.6637495957
 20
240.8499251476
 30
0.0
 10
116.6781716375
 20
240.9258219037
 30
0.0
  0
SPLINE
  5
3BE
100
AcDbEntity
  8
0
100
AcDbSpline
 62
7
  6
BYLAYER
 70
0
 71
3
 72
10
 73
6
 74
0
 42
0.0000001
 43
0.0000001
 44
0.0000000001
 40
0.0
 40
0.0
 40
0.0
 40
0.0
 40
0.387348946
 40
0.7204269108
 40
1.0
 40
1.0
 40
1.0
 40
1.0
 10
162.5779729803
 20
214.426158891
 30
0.0
 10
162.4485875701
 20
214.4165009067
 30
0.0
 10
162.2081131263
 20
214.3877034097
 30
0.0
 10
161.8843400033
 20
214.2981913817
 30
0.0
 10
161.6955392673
 20
214.2140817783
 30
0.0
 10
161.6154409484
 20
214.1655672866
 30
0.0
  0
SPLINE
  5
3BF
100
AcDbEntity
  8
0
100
AcDbSpline
 62
7
  6
BYLAYER
 70
0
 71
3
 72
10
 73
6
 74
0
 42
0.0000001
 43
0.0000001
 44
0.0000000001
 40
0.0
 40
0.0
 40
0.0
 40
0.0
 40
0.3261640588
 40
0.6511041682
 40
1.0
 40
1.0
 40
1.0
 40
1.0
 10
116.6781735386
 20
240.9258230571
 30
0.0
 10
116.5094230801
 20
241.0134042886
 30
0.0
 10
116.1469461906
 20
241.150694384
 30
0.0
 10
115.5588126129
 20
241.159515684
 30
0.0
 10
115.167014676
 20
241.1361638294
 30
0.0
 10
114.9652807623
 20
241.1103820443
 30
0.0
  0
SPLINE
  5
3C0
100
AcDbEntity
  8
0
100
AcDbSpline
 62
7
  6
BYLAYER
 70
0
 71
3
 72
10
 73
6
 74
0
 42
0.0000001
 43
0.0000001
 44
0.0000000001
 40
0.0
 40
0.0
 40
0.0
 40
0.0
 40
0.3473668498
 40
0.6729593547
 40
1.0
 40
1.0
 40
1.0
 40
1.0
 10
102.4943547006
 20
233.910149029
 30
0.0
 10
102.3716173338
 20
233.7490926809
 30
0.0
 10
102.1558954676
 20
233.4217876831
 30
0.0
 10
101.8689404449
 20
232.9082923669
 30
0.0
 10
101.8063396627
 20
232.5248108134
 30
0.0
 10
101.7976873841
 20
232.3343627012
 30
0.0
  0
SPLINE
  5
3C1
100
AcDbEntity
  8
0
100
AcDbSpline
 62
7
  6
BYLAYER
 70
0
 71
3
 72
12
 73
8
 74
0
 42
0.0000001
 43
0.0000001
 44
0.0000000001
 40
0.0
 40
0.0
 40
0.0
 40
0.0
 40
0.254911808
 40
0.4488900858
 40
0.6678710067
 40
0.8551724521
 40
1.0
 40
1.0
 40
1.0
 40
1.0
 10
124.0577250174
 20
140.4620617411
 30
0.0
 10
124.0722983495
 20
140.7578544092
 30
0.0
 10
124.1124288176
 20
141.2812744549
 30
0.0
 10
124.3356408829
 20
142.0278936184
 30
0.0
 10
124.6300421877
 20
142.664488032
 30
0.0
 10
125.0090050123
 20
143.1840332012
 30
0.0
 10
125.3029451693
 20
143.4451273496
 30
0.0
 10
125.4500766346
 20
143.5267545802
 30
0.0
  0
SPLINE
  5
3C2
100
AcDbEntity
  8
0
100
AcDbSpline
 62
7
  6
BYLAYER
 70
0
 71
3
 72
13
 73
9
 74
0
 42
0.0000001
 43
0.0000001
 44
0.0000000001
 40
0.0
 40
0.0
 40
0.0
 40
0.0
 40
0.1600683644
 40
0.2886165739
 40
0.4227183208
 40
0.5683959292
 40
0.7249084248
 40
1.0
 40
1.0
 40
1.0
 40
1.0
 10
125.4500766346
 20
245.6545576452
 30
0.0
 10
125.3280877903
 20
245.5964279676
 30
0.0
 10
125.0943553043
 20
245.5101348737
 30
0.0
 10
124.7206660381
 20
245.5543401839
 30
0.0
 10
124.4537535704
 20
245.7892692499
 30
0.0
 10
124.2264216647
 20
246.0844418335
 30
0.0
 10
124.1032087978
 20
246.5652932477
 30
0.0
 10
124.0741520948
 20
246.9274120492
 30
0.0
 10
124.0577250174
 20
247.1590645401
 30
0.0
  0
SPLINE
  5
3C3
100
AcDbEntity
  8
0
100
AcDbSpline
 62
7
  6
BYLAYER
 70
0
 71
3
 72
10
 73
6
 74
0
 42
0.0000001
 43
0.0000001
 44
0.0000000001
 40
0.0
 40
0.0
 40
0.0
 40
0.0
 40
0.368664351
 40
0.6858668672
 40
1.0
 40
1.0
 40
1.0
 40
1.0
 10
101.1116517477
 20
130.2425445246
 30
0.0
 10
101.1877428453
 20
130.2863519859
 30
0.0
 10
101.3371184443
 20
130.3564867675
 30
0.0
 10
101.5758286396
 20
130.3956735106
 30
0.0
 10
101.7268991897
 20
130.3677481065
 30
0.0
 10
101.7976855262
 20
130.3435332406
 30
0.0
  0
SPLINE
  5
3C4
100
AcDbEntity
  8
0
100
AcDbSpline
 62
7
  6
BYLAYER
 70
0
 71
3
 72
10
 73
6
 74
0
 42
0.0000001
 43
0.0000001
 44
0.0000000001
 40
0.0
 40
0.0
 40
0.0
 40
0.0
 40
0.3888302289
 40
0.7219036508
 40
1.0
 40
1.0
 40
1.0
 40
1.0
 10
101.7976856498
 20
232.3343616587
 30
0.0
 10
101.7268799268
 20
232.2260290443
 30
0.0
 10
101.5863522492
 20
232.0300943523
 30
0.0
 10
101.3541552109
 20
231.7903591634
 30
0.0
 10
101.1915808429
 20
231.6656903847
 30
0.0
 10
101.1116517877
 20
231.6190089291
 30
0.0
  0
SPLINE
  5
3C5
100
AcDbEntity
  8
0
100
AcDbSpline
 62
7
  6
BYLAYER
 70
0
 71
3
 72
10
 73
6
 74
0
 42
0.0000001
 43
0.0000001
 44
0.0000000001
 40
0.0
 40
0.0
 40
0.0
 40
0.0
 40
0.2927594095
 40
0.6201121047
 40
1.0
 40
1.0
 40
1.0
 40
1.0
 10
97.0596966673
 20
229.5118060118
 30
0.0
 10
97.0154575349
 20
229.4862639155
 30
0.0
 10
96.9342003506
 20
229.4086216742
 30
0.0
 10
96.8654053248
 20
229.2446272586
 30
0.0
 10
96.8526163759
 20
229.1203603439
 30
0.0
 10
96.8526123536
 20
229.0540741316
 30
0.0
  0
SPLINE
  5
3C6
100
AcDbEntity
  8
0
100
AcDbSpline
 62
7
  6
BYLAYER
 70
0
 71
3
 72
10
 73
6
 74
0
 42
0.0000001
 43
0.0000001
 44
0.0000000001
 40
0.0
 40
0.0
 40
0.0
 40
0.0
 40
0.3786065357
 40
0.7057540523
 40
1.0
 40
1.0
 40
1.0
 40
1.0
 10
101.1116518278
 20
231.6190089532
 30
0.0
 10
101.1113001996
 20
231.6851116887
 30
0.0
 10
101.1236176429
 20
231.809290524
 30
0.0
 10
101.1925853039
 20
231.9734181579
 30
0.0
 10
101.2742489141
 20
232.0510458898
 30
0.0
 10
101.3187361415
 20
232.0767408334
 30
0.0
  0
SPLINE
  5
3C7
100
AcDbEntity
  8
0
100
AcDbSpline
 62
7
  6
BYLAYER
 70
0
 71
3
 72
10
 73
6
 74
0
 42
0.0000001
 43
0.0000001
 44
0.0000000001
 40
0.0
 40
0.0
 40
0.0
 40
0.0
 40
0.2752652512
 40
0.6138695175
 40
1.0
 40
1.0
 40
1.0
 40
1.0
 10
101.7976873734
 20
130.3435343628
 30
0.0
 10
101.8071604224
 20
130.1153277132
 30
0.0
 10
101.8914763811
 20
129.6086211013
 30
0.0
 10
102.1639883327
 20
128.8238762865
 30
0.0
 10
102.3739195737
 20
128.2604093443
 30
0.0
 10
102.4942795208
 20
127.9634817069
 30
0.0
  0
SPLINE
  5
3C8
100
AcDbEntity
  8
0
100
AcDbSpline
 62
7
  6
BYLAYER
 70
0
 71
3
 72
10
 73
6
 74
0
 42
0.0000001
 43
0.0000001
 44
0.0000000001
 40
0.0
 40
0.0
 40
0.0
 40
0.0
 40
0.3847403735
 40
0.723281584
 40
1.0
 40
1.0
 40
1.0
 40
1.0
 10
114.9651490336
 20
106.3633566479
 30
0.0
 10
115.1614124047
 20
106.1115483664
 30
0.0
 10
115.5437285512
 20
105.6489716645
 30
0.0
 10
116.0867592256
 20
105.0201958531
 30
0.0
 10
116.4844110289
 20
104.6932074797
 30
0.0
 10
116.6781406897
 20
104.5699383281
 30
0.0
  0
SPLINE
  5
3C9
100
AcDbEntity
  8
0
100
AcDbSpline
 62
7
  6
BYLAYER
 70
0
 71
3
 72
12
 73
8
 74
0
 42
0.0000001
 43
0.0000001
 44
0.0000000001
 40
0.0
 40
0.0
 40
0.0
 40
0.0
 40
0.3094610101
 40
0.4982708934
 40
0.6801508444
 40
0.838273017
 40
1.0
 40
1.0
 40
1.0
 40
1.0
 10
186.546617568
 20
89.9355835073
 30
0.0
 10
186.3279547017
 20
90.0775011864
 30
0.0
 10
185.9717168272
 20
90.3109134069
 30
0.0
 10
185.6155375046
 20
90.7675981496
 30
0.0
 10
185.4744025657
 20
91.212911438
 30
0.0
 10
185.6125805946
 20
91.6382722709
 30
0.0
 10
185.822480017
 20
91.8244673522
 30
0.0
 10
185.9398619747
 20
91.8936126763
 30
0.0
  0
SPLINE
  5
3CA
100
AcDbEntity
  8
0
100
AcDbSpline
 62
7
  6
BYLAYER
 70
0
 71
3
 72
13
 73
9
 74
0
 42
0.0000001
 43
0.0000001
 44
0.0000000001
 40
0.0
 40
0.0
 40
0.0
 40
0.0
 40
0.1435781556
 40
0.2926418146
 40
0.4577995425
 40
0.6249417819
 40
0.774919006
 40
1.0
 40
1.0
 40
1.0
 40
1.0
 10
139.9214375569
 20
118.4617613498
 30
0.0
 10
139.7730391044
 20
118.3854383324
 30
0.0
 10
139.4517322064
 20
118.2640442712
 30
0.0
 10
138.9205943312
 20
118.190143131
 30
0.0
 10
138.3607841102
 20
118.2236713638
 30
0.0
 10
137.8026497251
 20
118.2912896159
 30
0.0
 10
137.1996754894
 20
118.4843627537
 30
0.0
 10
136.8058044493
 20
118.6726068129
 30
0.0
 10
136.5711619151
 20
118.7882735463
 30
0.0
  0
SPLINE
  5
3CB
100
AcDbEntity
  8
0
100
AcDbSpline
 62
7
  6
BYLAYER
 70
0
 71
3
 72
10
 73
6
 74
0
 42
0.0000001
 43
0.0000001
 44
0.0000000001
 40
0.0
 40
0.0
 40
0.0
 40
0.0
 40
0.3010274797
 40
0.6252141124
 40
1.0
 40
1.0
 40
1.0
 40
1.0
 10
161.6154409483
 20
77.8338086727
 30
0.0
 10
161.7035377385
 20
77.8815269304
 30
0.0
 10
161.8963549089
 20
77.9632309634
 30
0.0
 10
162.2212809567
 20
78.0403792009
 30
0.0
 10
162.453387573
 20
78.0634526838
 30
0.0
 10
162.5779399321
 20
78.0702742484
 30
0.0
  0
SPLINE
  5
3CC
100
AcDbEntity
  8
0
100
AcDbSpline
 62
7
  6
BYLAYER
 70
0
 71
3
 72
10
 73
6
 74
0
 42
0.0000001
 43
0.0000001
 44
0.0000000001
 40
0.0
 40
0.0
 40
0.0
 40
0.0
 40
0.3266060237
 40
0.656337532
 40
1.0
 40
1.0
 40
1.0
 40
1.0
 10
116.678138931
 20
104.5699373537
 30
0.0
 10
116.6630095789
 20
104.4936454058
 30
0.0
 10
116.6088612408
 20
104.342975798
 30
0.0
 10
116.4512937584
 20
104.159581542
 30
0.0
 10
116.3194163147
 20
104.0657115111
 30
0.0
 10
116.2476929763
 20
104.0262976236
 30
0.0
  0
SPLINE
  5
3CD
100
AcDbEntity
  8
0
100
AcDbSpline
 62
7
  6
BYLAYER
 70
0
 71
3
 72
10
 73
6
 74
0
 42
0.0000001
 43
0.0000001
 44
0.0000000001
 40
0.0
 40
0.0
 40
0.0
 40
0.0
 40
0.3473529947
 40
0.6729662946
 40
1.0
 40
1.0
 40
1.0
 40
1.0
 10
176.7617607023
 20
85.0859493355
 30
0.0
 10
176.8844950331
 20
85.2469978124
 30
0.0
 10
177.1002175188
 20
85.5743076492
 30
0.0
 10
177.3871723179
 20
86.087802309
 30
0.0
 10
177.4497796066
 20
86.4712914627
 30
0.0
 10
177.4584279929
 20
86.6617356793
 30
0.0
  0
SPLINE
  5
3CE
100
AcDbEntity
  8
0
100
AcDbSpline
 62
7
  6
BYLAYER
 70
0
 71
3
 72
10
 73
6
 74
0
 42
0.0000001
 43
0.0000001
 44
0.0000000001
 40
0.0
 40
0.0
 40
0.0
 40
0.0
 40
0.3261978029
 40
0.6511069509
 40
1.0
 40
1.0
 40
1.0
 40
1.0
 10
162.5779418174
 20
78.0702752813
 30
0.0
 10
162.7467147845
 20
77.9826947638
 30
0.0
 10
163.1091898496
 20
77.8453970641
 30
0.0
 10
163.697324788
 20
77.8365848167
 30
0.0
 10
164.0891022186
 20
77.8599373315
 30
0.0
 10
164.2908348354
 20
77.8857162999
 30
0.0
  0
SPLINE
  5
3CF
100
AcDbEntity
  8
0
100
AcDbSpline
 62
7
  6
BYLAYER
 70
0
 71
3
 72
13
 73
9
 74
0
 42
0.0000001
 43
0.0000001
 44
0.0000000001
 40
0.0
 40
0.0
 40
0.0
 40
0.0
 40
0.1899557023
 40
0.3536260571
 40
0.4999930168
 40
0.6463608384
 40
0.8100357933
 40
1.0
 40
1.0
 40
1.0
 40
1.0
 10
173.2162290461
 20
71.92839622
 30
0.0
 10
173.5606933854
 20
71.7295232724
 30
0.0
 10
174.2445540227
 20
71.4230416751
 30
0.0
 10
175.3040746421
 20
71.2890726726
 30
0.0
 10
176.2536433629
 20
71.5658924524
 30
0.0
 10
176.9681719815
 20
72.2498362921
 30
0.0
 10
177.3819227989
 20
73.234421605
 30
0.0
 10
177.4584280031
 20
73.9799317497
 30
0.0
 10
177.4584280031
 20
74.3777008994
 30
0.0
  0
SPLINE
  5
3D0
100
AcDbEntity
  8
0
100
AcDbSpline
 62
7
  6
BYLAYER
 70
0
 71
3
 72
13
 73
9
 74
0
 42
0.0000001
 43
0.0000001
 44
0.0000000001
 40
0.0
 40
0.0
 40
0.0
 40
0.0
 40
0.1903131697
 40
0.3542495367
 40
0.5006887904
 40
0.6469804961
 40
0.8104168941
 40
1.0
 40
1.0
 40
1.0
 40
1.0
 10
194.8178649818
 20
85.1602848368
 30
0.0
 10
195.1633999534
 20
84.9617965832
 30
0.0
 10
195.8490352017
 20
84.6561918051
 30
0.0
 10
196.9100501656
 20
84.5234191535
 30
0.0
 10
197.8599576102
 20
84.8006607804
 30
0.0
 10
198.5739701738
 20
85.4844534519
 30
0.0
 10
198.9859775345
 20
86.4682547899
 30
0.0
 10
199.0609147384
 20
87.2126158693
 30
0.0
 10
199.0600545113
 20
87.6095734369
 30
0.0
  0
SPLINE
  5
3D1
100
AcDbEntity
  8
0
100
AcDbSpline
 62
7
  6
BYLAYER
 70
0
 71
3
 72
11
 73
7
 74
0
 42
0.0000001
 43
0.0000001
 44
0.0000000001
 40
0.0
 40
0.0
 40
0.0
 40
0.0
 40
0.2738732252
 40
0.4982221966
 40
0.7237631109
 40
1.0
 40
1.0
 40
1.0
 40
1.0
 10
199.060054489
 20
97.160426191
 30
0.0
 10
199.1407396464
 20
97.2084293441
 30
0.0
 10
199.2792821004
 20
97.3177575793
 30
0.0
 10
199.3723161627
 20
97.5676800962
 30
0.0
 10
199.2723714341
 20
97.8155648102
 30
0.0
 10
199.1315241392
 20
97.923390822
 30
0.0
 10
199.0495151426
 20
97.9707376671
 30
0.0
  0
SPLINE
  5
3D2
100
AcDbEntity
  8
0
100
AcDbSpline
 62
7
  6
BYLAYER
 70
0
 71
3
 72
11
 73
7
 74
0
 42
0.0000001
 43
0.0000001
 44
0.0000000001
 40
0.0
 40
0.0
 40
0.0
 40
0.0
 40
0.2762357926
 40
0.5017704812
 40
0.7261183985
 40
1.0
 40
1.0
 40
1.0
 40
1.0
 10
199.0495151426
 20
88.4198574175
 30
0.0
 10
199.1315237944
 20
88.3725162589
 30
0.0
 10
199.2723709582
 20
88.2647017184
 30
0.0
 10
199.372316421
 20
88.0168269368
 30
0.0
 10
199.2792794873
 20
87.7669124645
 30
0.0
 10
199.140739383
 20
87.6575868738
 30
0.0
 10
199.060054489
 20
87.6095830253
 30
0.0
  0
SPLINE
  5
3D3
100
AcDbEntity
  8
0
100
AcDbSpline
 62
7
  6
BYLAYER
 70
0
 71
3
 72
13
 73
9
 74
0
 42
0.0000001
 43
0.0000001
 44
0.0000000001
 40
0.0
 40
0.0
 40
0.0
 40
0.0
 40
0.1904503666
 40
0.3539638792
 40
0.4999845337
 40
0.6460065039
 40
0.8095259161
 40
1.0
 40
1.0
 40
1.0
 40
1.0
 10
195.5140709578
 20
86.3789786125
 30
0.0
 10
195.8018998587
 20
86.2127873923
 30
0.0
 10
196.3724972115
 20
85.957179419
 30
0.0
 10
197.255639876
 20
85.8463119824
 30
0.0
 10
198.0453201506
 20
86.077010425
 30
0.0
 10
198.639987976
 20
86.6455245663
 30
0.0
 10
198.9855837841
 20
87.465827236
 30
0.0
 10
199.0495328685
 20
88.087836317
 30
0.0
 10
199.0495151426
 20
88.420240457
 30
0.0
  0
SPLINE
  5
3D4
100
AcDbEntity
  8
0
100
AcDbSpline
 62
7
  6
BYLAYER
 70
0
 71
3
 72
11
 73
7
 74
0
 42
0.0000001
 43
0.0000001
 44
0.0000000001
 40
0.0
 40
0.0
 40
0.0
 40
0.0
 40
0.2381423248
 40
0.500939481
 40
0.7632258376
 40
1.0
 40
1.0
 40
1.0
 40
1.0
 10
194.8178650939
 20
85.1602845534
 30
0.0
 10
194.9170463735
 20
85.219266639
 30
0.0
 10
195.1043220882
 20
85.3796165041
 30
0.0
 10
195.3227747523
 20
85.6813649612
 30
0.0
 10
195.4717496684
 20
86.0220768648
 30
0.0
 10
195.5143823721
 20
86.2640632089
 30
0.0
 10
195.5143878855
 20
86.3787944146
 30
0.0
  0
SPLINE
  5
3D5
100
AcDbEntity
  8
0
100
AcDbSpline
 62
7
  6
BYLAYER
 70
0
 71
3
 72
11
 73
7
 74
0
 42
0.0000001
 43
0.0000001
 44
0.0000000001
 40
0.0
 40
0.0
 40
0.0
 40
0.0
 40
0.2367765178
 40
0.4990618496
 40
0.7618571472
 40
1.0
 40
1.0
 40
1.0
 40
1.0
 10
187.2431082942
 20
91.154111881
 30
0.0
 10
187.2431084432
 20
91.0393790326
 30
0.0
 10
187.2004862731
 20
90.7973888133
 30
0.0
 10
187.0515226457
 20
90.4566701503
 30
0.0
 10
186.8330758312
 20
90.1549163748
 30
0.0
 10
186.6457999156
 20
89.9945652837
 30
0.0
 10
186.546617568
 20
89.9355835073
 30
0.0
  0
SPLINE
  5
3D6
100
AcDbEntity
  8
0
100
AcDbSpline
 62
7
  6
BYLAYER
 70
0
 71
3
 72
14
 73
10
 74
0
 42
0.0000001
 43
0.0000001
 44
0.0000000001
 40
0.0
 40
0.0
 40
0.0
 40
0.0
 40
0.1212406281
 40
0.2588930399
 40
0.4121721424
 40
0.5683537208
 40
0.7211809596
 40
0.8706071578
 40
1.0
 40
1.0
 40
1.0
 40
1.0
 10
166.3747855539
 20
138.6183028835
 30
0.0
 10
166.1561909344
 20
138.0779150628
 30
0.0
 10
165.6062187956
 20
136.9568474584
 30
0.0
 10
164.5355957539
 20
135.2857570313
 30
0.0
 10
163.2224813148
 20
133.5806115512
 30
0.0
 10
161.7310375357
 20
131.929740766
 30
0.0
 10
160.1354091196
 20
130.4062375068
 30
0.0
 10
158.5263837494
 20
129.0916946387
 30
0.0
 10
157.4139729837
 20
128.3393575936
 30
0.0
 10
156.8811233159
 20
128.0182551525
 30
0.0
  0
LINE
  5
3D7
100
AcDbEntity
  8
0
100
AcDbLine
 62
7
  6
BYLAYER
 10
201.890896351
 20
101.9071590223
 11
201.9950984569
 21
101.9722785193
  0
SPLINE
  5
3D8
100
AcDbEntity
  8
0
100
AcDbSpline
 62
7
  6
BYLAYER
 70
0
 71
3
 72
14
 73
10
 74
0
 42
0.0000001
 43
0.0000001
 44
0.0000000001
 40
0.0
 40
0.0
 40
0.0
 40
0.0
 40
0.1224798149
 40
0.2566622887
 40
0.3950363513
 40
0.5424765575
 40
0.6955832092
 40
0.8458694283
 40
1.0
 40
1.0
 40
1.0
 40
1.0
 10
201.9950984569
 20
101.9722785193
 30
0.0
 10
202.5200844139
 20
102.3004691477
 30
0.0
 10
203.5317217959
 20
103.1357231163
 30
0.0
 10
204.7644272391
 20
104.7233949122
 30
0.0
 10
205.7339191665
 20
106.6246126331
 30
0.0
 10
206.397736294
 20
108.7519915774
 30
0.0
 10
206.7233790382
 20
111.017558685
 30
0.0
 10
206.6917984264
 20
113.3383062657
 30
0.0
 10
206.4259323183
 20
114.8635867119
 30
0.0
 10
206.2190363355
 20
115.6147343794
 30
0.0
  0
SPLINE
  5
3D9
100
AcDbEntity
  8
0
100
AcDbSpline
 62
7
  6
BYLAYER
 70
0
 71
3
 72
11
 73
7
 74
0
 42
0.0000001
 43
0.0000001
 44
0.0000000001
 40
0.0
 40
0.0
 40
0.0
 40
0.0
 40
0.2381430509
 40
0.5009385671
 40
0.7632241171
 40
1.0
 40
1.0
 40
1.0
 40
1.0
 10
136.5711618919
 20
118.7882735597
 30
0.0
 10
136.6703442395
 20
118.8472553362
 30
0.0
 10
136.8576201553
 20
119.0076064277
 30
0.0
 10
137.0760669686
 20
119.3093602007
 30
0.0
 10
137.2250304378
 20
119.6500785009
 30
0.0
 10
137.2676526181
 20
119.8920682644
 30
0.0
 10
137.2676526181
 20
120.0068007097
 30
0.0
  0
SPLINE
  5
3DA
100
AcDbEntity
  8
0
100
AcDbSpline
 62
7
  6
BYLAYER
 70
0
 71
3
 72
11
 73
7
 74
0
 42
0.0000001
 43
0.0000001
 44
0.0000000001
 40
0.0
 40
0.0
 40
0.0
 40
0.0
 40
0.2367803155
 40
0.4990646789
 40
0.7618574035
 40
1.0
 40
1.0
 40
1.0
 40
1.0
 10
128.9963723787
 20
124.7821185503
 30
0.0
 10
128.9963781364
 20
124.6673834424
 30
0.0
 10
128.9537661277
 20
124.4253888089
 30
0.0
 10
128.8048132638
 20
124.0846634967
 30
0.0
 10
128.5863724398
 20
123.7829054957
 30
0.0
 10
128.3990968315
 20
123.6225540139
 30
0.0
 10
128.299913768
 20
123.5635728589
 30
0.0
  0
SPLINE
  5
3DB
100
AcDbEntity
  8
0
100
AcDbSpline
 62
7
  6
BYLAYER
 70
0
 71
3
 72
13
 73
9
 74
0
 42
0.0000001
 43
0.0000001
 44
0.0000000001
 40
0.0
 40
0.0
 40
0.0
 40
0.0
 40
0.1547579151
 40
0.3235933126
 40
0.4999847899
 40
0.6763792816
 40
0.8452229605
 40
1.0
 40
1.0
 40
1.0
 40
1.0
 10
125.4612477903
 20
130.9054614085
 30
0.0
 10
125.4612311282
 20
130.5267923711
 30
0.0
 10
125.5550125342
 20
129.7341027747
 30
0.0
 10
125.9120823527
 20
128.5588937878
 30
0.0
 10
126.4688227363
 20
127.4049405751
 30
0.0
 10
127.1897969025
 20
126.3457816754
 30
0.0
 10
128.0290617356
 20
125.448880211
 30
0.0
 10
128.668710819
 20
124.9712702978
 30
0.0
 10
128.9966986326
 20
124.7819301919
 30
0.0
  0
SPLINE
  5
3DC
100
AcDbEntity
  8
0
100
AcDbSpline
 62
7
  6
BYLAYER
 70
0
 71
3
 72
11
 73
7
 74
0
 42
0.0000001
 43
0.0000001
 44
0.0000000001
 40
0.0
 40
0.0
 40
0.0
 40
0.0
 40
0.2381404764
 40
0.5009348083
 40
0.7632208913
 40
1.0
 40
1.0
 40
1.0
 40
1.0
 10
124.0577250174
 20
130.9112192659
 30
0.0
 10
124.1583950998
 20
130.9676226338
 30
0.0
 10
124.3909008448
 20
131.0496319354
 30
0.0
 10
124.7614515092
 20
131.0879299281
 30
0.0
 10
125.1310057837
 20
131.0465669015
 30
0.0
 10
125.3618861831
 20
130.9624748912
 30
0.0
 10
125.4612468033
 20
130.9051036099
 30
0.0
  0
SPLINE
  5
3DD
100
AcDbEntity
  8
0
100
AcDbSpline
 62
7
  6
BYLAYER
 70
0
 71
3
 72
11
 73
7
 74
0
 42
0.0000001
 43
0.0000001
 44
0.0000000001
 40
0.0
 40
0.0
 40
0.0
 40
0.0
 40
0.2367754274
 40
0.4990607197
 40
0.7618565755
 40
1.0
 40
1.0
 40
1.0
 40
1.0
 10
125.4612468033
 20
140.4559831111
 30
0.0
 10
125.3618853312
 20
140.5133483461
 30
0.0
 10
125.1310045846
 20
140.5974289639
 30
0.0
 10
124.7614523094
 20
140.6387793628
 30
0.0
 10
124.3909026255
 20
140.6004746039
 30
0.0
 10
124.1583963027
 20
140.5184648525
 30
0.0
 10
124.0577250174
 20
140.4620617411
 30
0.0
  0
SPLINE
  5
3DE
100
AcDbEntity
  8
0
100
AcDbSpline
 62
7
  6
BYLAYER
 70
0
 71
3
 72
13
 73
9
 74
0
 42
0.0000001
 43
0.0000001
 44
0.0000000001
 40
0.0
 40
0.0
 40
0.0
 40
0.0
 40
0.1543207207
 40
0.323309263
 40
0.5001404044
 40
0.6769882131
 40
0.8458695766
 40
1.0
 40
1.0
 40
1.0
 40
1.0
 10
124.0577252097
 20
130.9112191534
 30
0.0
 10
124.0587139326
 20
130.458303813
 30
0.0
 10
124.1727209944
 20
129.5086153216
 30
0.0
 10
124.602375369
 20
128.098971892
 30
0.0
 10
125.2719872444
 20
126.712344228
 30
0.0
 10
126.1381733691
 20
125.4396011852
 30
0.0
 10
127.1438290012
 20
124.3635381338
 30
0.0
 10
127.9086447431
 20
123.790607897
 30
0.0
 10
128.2999054761
 20
123.5635776735
 30
0.0
  0
SPLINE
  5
3DF
100
AcDbEntity
  8
0
100
AcDbSpline
 62
7
  6
BYLAYER
 70
0
 71
3
 72
13
 73
9
 74
0
 42
0.0000001
 43
0.0000001
 44
0.0000000001
 40
0.0
 40
0.0
 40
0.0
 40
0.0
 40
0.1543034252
 40
0.3232083291
 40
0.4999951591
 40
0.6767829832
 40
0.8456918496
 40
1.0
 40
1.0
 40
1.0
 40
1.0
 10
101.7976873612
 20
118.0594606044
 30
0.0
 10
101.7976865506
 20
117.6064305906
 30
0.0
 10
101.9098075318
 20
116.6564261736
 30
0.0
 10
102.3377174749
 20
115.2460787664
 30
0.0
 10
103.0066455831
 20
113.8590477999
 30
0.0
 10
103.8733860433
 20
112.5862097869
 30
0.0
 10
104.8808443519
 20
111.5104310899
 30
0.0
 10
105.6475355551
 20
110.9383170881
 30
0.0
 10
106.0398852893
 20
110.711798988
 30
0.0
  0
SPLINE
  5
3E0
100
AcDbEntity
  8
0
100
AcDbSpline
 62
7
  6
BYLAYER
 70
0
 71
3
 72
14
 73
10
 74
0
 42
0.0000001
 43
0.0000001
 44
0.0000000001
 40
0.0
 40
0.0
 40
0.0
 40
0.0
 40
0.1507721336
 40
0.3032942523
 40
0.458940042
 40
0.6076675171
 40
0.747262154
 40
0.8815090559
 40
1.0
 40
1.0
 40
1.0
 40
1.0
 10
156.1328406377
 20
251.3562335369
 30
0.0
 10
155.5978340494
 20
251.8990399475
 30
0.0
 10
154.416247931
 20
252.8900638713
 30
0.0
 10
152.4185686265
 20
254.0863992501
 30
0.0
 10
150.2646623841
 20
254.9484019358
 30
0.0
 10
148.0641181715
 20
255.4378850828
 30
0.0
 10
145.9189622703
 20
255.5408548583
 30
0.0
 10
143.9430482192
 20
255.2560812664
 30
0.0
 10
142.7343207447
 20
254.8018293464
 30
0.0
 10
142.2061293302
 20
254.5193812866
 30
0.0
  0
LINE
  5
3E1
100
AcDbEntity
  8
0
100
AcDbLine
 62
7
  6
BYLAYER
 10
142.2061293302
 20
254.5193812866
 11
142.0976326505
 21
254.4616998135
  0
SPLINE
  5
3E2
100
AcDbEntity
  8
0
100
AcDbSpline
 62
7
  6
BYLAYER
 70
0
 71
3
 72
14
 73
10
 74
0
 42
0.0000001
 43
0.0000001
 44
0.0000000001
 40
0.0
 40
0.0
 40
0.0
 40
0.0
 40
0.1338384625
 40
0.2831846558
 40
0.4345664979
 40
0.5892810088
 40
0.7400473053
 40
0.8758801776
 40
1.0
 40
1.0
 40
1.0
 40
1.0
 10
142.2061291742
 20
153.4359491458
 30
0.0
 10
142.768557707
 20
153.7486119249
 30
0.0
 10
143.997633132
 20
154.3406915756
 30
0.0
 10
145.9549325249
 20
155.0779471003
 30
0.0
 10
148.0594763274
 20
155.6901324471
 30
0.0
 10
150.2097677203
 20
156.1485781625
 30
0.0
 10
152.3153510291
 20
156.4292795543
 30
0.0
 10
154.2905452905
 20
156.5227040767
 30
0.0
 10
155.5418897745
 20
156.4408830136
 30
0.0
 10
156.1328406377
 20
156.3577733709
 30
0.0
  0
SPLINE
  5
3E3
100
AcDbEntity
  8
0
100
AcDbSpline
 62
7
  6
BYLAYER
 70
0
 71
3
 72
10
 73
6
 74
0
 42
0.0000001
 43
0.0000001
 44
0.0000000001
 40
0.0
 40
0.0
 40
0.0
 40
0.0
 40
0.3793408872
 40
0.7073663249
 40
1.0
 40
1.0
 40
1.0
 40
1.0
 10
142.0976326505
 20
254.4616998168
 30
0.0
 10
142.0992354717
 20
254.5290254906
 30
0.0
 10
142.1151247926
 20
254.6551020967
 30
0.0
 10
142.1876156311
 20
254.820650414
 30
0.0
 10
142.2704938791
 20
254.8993091302
 30
0.0
 10
142.3154966402
 20
254.9252651234
 30
0.0
  0
SPLINE
  5
3E4
100
AcDbEntity
  8
0
100
AcDbSpline
 62
7
  6
BYLAYER
 70
0
 71
3
 72
10
 73
6
 74
0
 42
0.0000001
 43
0.0000001
 44
0.0000000001
 40
0.0
 40
0.0
 40
0.0
 40
0.0
 40
0.2926336751
 40
0.6206591128
 40
1.0
 40
1.0
 40
1.0
 40
1.0
 10
125.6679406244
 20
246.1181229519
 30
0.0
 10
125.6229378633
 20
246.0921669586
 30
0.0
 10
125.5400596153
 20
246.0135082424
 30
0.0
 10
125.4675687768
 20
245.8479599252
 30
0.0
 10
125.4516794559
 20
245.721883319
 30
0.0
 10
125.4500766346
 20
245.6545576452
 30
0.0
  0
LINE
  5
3E5
100
AcDbEntity
  8
0
100
AcDbLine
 62
7
  6
BYLAYER
 10
142.3154966401
 20
254.9252651233
 11
142.4131435801
 21
254.9769584378
  0
LINE
  5
3E6
100
AcDbEntity
  8
0
100
AcDbLine
 62
7
  6
BYLAYER
 10
156.3813464329
 20
263.0417346918
 11
156.2839449337
 21
262.9901830867
  0
SPLINE
  5
3E7
100
AcDbEntity
  8
0
100
AcDbSpline
 62
7
  6
BYLAYER
 70
0
 71
3
 72
14
 73
10
 74
0
 42
0.0000001
 43
0.0000001
 44
0.0000000001
 40
0.0
 40
0.0
 40
0.0
 40
0.0
 40
0.122202794
 40
0.2551039545
 40
0.3919569751
 40
0.5383411604
 40
0.6916925765
 40
0.8435305306
 40
1.0
 40
1.0
 40
1.0
 40
1.0
 10
142.4131435801
 20
254.9769584378
 30
0.0
 10
142.9582296773
 20
255.265689281
 30
0.0
 10
144.1817661857
 20
255.7146268378
 30
0.0
 10
146.1605248822
 20
255.9526306067
 30
0.0
 10
148.2664678275
 20
255.7863164856
 30
0.0
 10
150.4090465311
 20
255.2267251048
 30
0.0
 10
152.4978958312
 20
254.2889654063
 30
0.0
 10
154.4532667838
 20
253.0042556294
 30
0.0
 10
155.6010954149
 20
251.9402115573
 30
0.0
 10
156.1328406377
 20
251.3562335369
 30
0.0
  0
SPLINE
  5
3E8
100
AcDbEntity
  8
0
100
AcDbSpline
 62
7
  6
BYLAYER
 70
0
 71
3
 72
14
 73
10
 74
0
 42
0.0000001
 43
0.0000001
 44
0.0000000001
 40
0.0
 40
0.0
 40
0.0
 40
0.0
 40
0.1690547873
 40
0.3265062091
 40
0.4768410316
 40
0.6147971118
 40
0.743825686
 40
0.8739682328
 40
1.0
 40
1.0
 40
1.0
 40
1.0
 10
166.3747855539
 20
257.2695922578
 30
0.0
 10
166.1487403981
 20
257.9791557673
 30
0.0
 10
165.5868163252
 20
259.3135239619
 30
0.0
 10
164.4208044327
 20
261.0760921754
 30
0.0
 10
162.9996386945
 20
262.4572411695
 30
0.0
 10
161.3873021177
 20
263.3842834607
 30
0.0
 10
159.6646696192
 20
263.8089576339
 30
0.0
 10
157.9445655665
 20
263.7028017746
 30
0.0
 10
156.8720763294
 20
263.3013659864
 30
0.0
 10
156.3813464329
 20
263.0417346918
 30
0.0
  0
SPLINE
  5
3E9
100
AcDbEntity
  8
0
100
AcDbSpline
 62
7
  6
BYLAYER
 70
0
 71
3
 72
11
 73
7
 74
0
 42
0.0000001
 43
0.0000001
 44
0.0000000001
 40
0.0
 40
0.0
 40
0.0
 40
0.0
 40
0.238143609
 40
0.5009396684
 40
0.7632251639
 40
1.0
 40
1.0
 40
1.0
 40
1.0
 10
124.0577250174
 20
247.159064567
 30
0.0
 10
124.1583963027
 20
247.2154676785
 30
0.0
 10
124.3909026261
 20
247.2974774298
 30
0.0
 10
124.7614523073
 20
247.3357821889
 30
0.0
 10
125.1310042162
 20
247.2944318313
 30
0.0
 10
125.3618845999
 20
247.210351434
 30
0.0
 10
125.4612458162
 20
247.1529865068
 30
0.0
  0
SPLINE
  5
3EA
100
AcDbEntity
  8
0
100
AcDbSpline
 62
7
  6
BYLAYER
 70
0
 71
3
 72
11
 73
7
 74
0
 42
0.0000001
 43
0.0000001
 44
0.0000000001
 40
0.0
 40
0.0
 40
0.0
 40
0.0
 40
0.2367731724
 40
0.4990577635
 40
0.7618544678
 40
1.0
 40
1.0
 40
1.0
 40
1.0
 10
125.4612458162
 20
256.7038667564
 30
0.0
 10
125.3618828659
 20
256.7612260362
 30
0.0
 10
125.1310010663
 20
256.8452949008
 30
0.0
 10
124.7614506653
 20
256.8866319738
 30
0.0
 10
124.3909030477
 20
256.8483201526
 30
0.0
 10
124.1583971032
 20
256.766310261
 30
0.0
 10
124.0577250174
 20
256.7099077327
 30
0.0
  0
SPLINE
  5
3EB
100
AcDbEntity
  8
0
100
AcDbSpline
 62
7
  6
BYLAYER
 70
0
 71
3
 72
13
 73
9
 74
0
 42
0.0000001
 43
0.0000001
 44
0.0000000001
 40
0.0
 40
0.0
 40
0.0
 40
0.0
 40
0.1904499349
 40
0.3539636792
 40
0.4999845756
 40
0.6460068104
 40
0.80952651
 40
1.0
 40
1.0
 40
1.0
 40
1.0
 10
128.9966834286
 20
258.744749524
 30
0.0
 10
128.708857207
 20
258.9109422939
 30
0.0
 10
128.1382592258
 20
259.1665453868
 30
0.0
 10
127.2551192121
 20
259.2774129479
 30
0.0
 10
126.4654395021
 20
259.0467138297
 30
0.0
 10
125.8707726742
 20
258.4781999453
 30
0.0
 10
125.5251761795
 20
257.657899348
 30
0.0
 10
125.4612310235
 20
257.0358923412
 30
0.0
 10
125.4612458163
 20
256.7034900297
 30
0.0
  0
SPLINE
  5
3EC
100
AcDbEntity
  8
0
100
AcDbSpline
 62
7
  6
BYLAYER
 70
0
 71
3
 72
11
 73
7
 74
0
 42
0.0000001
 43
0.0000001
 44
0.0000000001
 40
0.0
 40
0.0
 40
0.0
 40
0.0
 40
0.2738765062
 40
0.4982258159
 40
0.7237636458
 40
1.0
 40
1.0
 40
1.0
 40
1.0
 10
128.2999144125
 20
259.1592062046
 30
0.0
 10
128.3818291016
 20
259.2050787766
 30
0.0
 10
128.5457792601
 20
259.2703942762
 30
0.0
 10
128.8087324166
 20
259.2260068613
 30
0.0
 10
128.9734289126
 20
259.0155108716
 30
0.0
 10
128.9963778612
 20
258.8396233486
 30
0.0
 10
128.9963730734
 20
258.7449298434
 30
0.0
  0
SPLINE
  5
3ED
100
AcDbEntity
  8
0
100
AcDbSpline
 62
7
  6
BYLAYER
 70
0
 71
3
 72
11
 73
7
 74
0
 42
0.0000001
 43
0.0000001
 44
0.0000000001
 40
0.0
 40
0.0
 40
0.0
 40
0.0
 40
0.2762379946
 40
0.5017803227
 40
0.7261293901
 40
1.0
 40
1.0
 40
1.0
 40
1.0
 10
137.2676526646
 20
253.969612377
 30
0.0
 10
137.2676527791
 20
254.0643092105
 30
0.0
 10
137.2446940199
 20
254.2402022679
 30
0.0
 10
137.0799893355
 20
254.4507016858
 30
0.0
 10
136.8170312588
 20
254.4950969095
 30
0.0
 10
136.6530769337
 20
254.429780751
 30
0.0
 10
136.5711619384
 20
254.3839072507
 30
0.0
  0
SPLINE
  5
3EE
100
AcDbEntity
  8
0
100
AcDbSpline
 62
7
  6
BYLAYER
 70
0
 71
3
 72
13
 73
9
 74
0
 42
0.0000001
 43
0.0000001
 44
0.0000000001
 40
0.0
 40
0.0
 40
0.0
 40
0.0
 40
0.1897857324
 40
0.3532741784
 40
0.4995304598
 40
0.6460057609
 40
0.8098901128
 40
1.0
 40
1.0
 40
1.0
 40
1.0
 10
128.2999144113
 20
259.1592064208
 30
0.0
 10
127.9562002725
 20
259.3586396921
 30
0.0
 10
127.2735482428
 20
259.6660825825
 30
0.0
 10
126.2149667197
 20
259.8007190457
 30
0.0
 10
125.2658814113
 20
259.5234824364
 30
0.0
 10
124.5514507207
 20
258.8389803741
 30
0.0
 10
124.1366104083
 20
257.8540028551
 30
0.0
 10
124.0585922866
 20
257.1079778705
 30
0.0
 10
124.0577250412
 20
256.7099173477
 30
0.0
  0
SPLINE
  5
3EF
100
AcDbEntity
  8
0
100
AcDbSpline
 62
7
  6
BYLAYER
 70
0
 71
3
 72
13
 73
9
 74
0
 42
0.0000001
 43
0.0000001
 44
0.0000000001
 40
0.0
 40
0.0
 40
0.0
 40
0.0
 40
0.189955766
 40
0.3536262156
 40
0.4999932758
 40
0.6463611862
 40
0.8100360769
 40
1.0
 40
1.0
 40
1.0
 40
1.0
 10
106.0398853524
 20
247.0677026714
 30
0.0
 10
105.6954210009
 20
247.2665755801
 30
0.0
 10
105.0115601995
 20
247.5730570008
 30
0.0
 10
103.9520393298
 20
247.7070256319
 30
0.0
 10
103.0024705177
 20
247.4302050616
 30
0.0
 10
102.2879425615
 20
246.7462606533
 30
0.0
 10
101.8741926313
 20
245.7616760756
 30
0.0
 10
101.7976873738
 20
245.0161669702
 30
0.0
 10
101.7976873738
 20
244.6183985565
 30
0.0
  0
LINE
  5
3F0
100
AcDbEntity
  8
0
100
AcDbLine
 62
7
  6
BYLAYER
 10
156.7731110136
 20
262.9348334555
 11
156.8811231569
 21
262.992235181
  0
SPLINE
  5
3F1
100
AcDbEntity
  8
0
100
AcDbSpline
 62
7
  6
BYLAYER
 70
0
 71
3
 72
14
 73
10
 74
0
 42
0.0000001
 43
0.0000001
 44
0.0000000001
 40
0.0
 40
0.0
 40
0.0
 40
0.0
 40
0.1327824022
 40
0.2629655453
 40
0.3896753334
 40
0.5246963332
 40
0.6714340461
 40
0.8264095996
 40
1.0
 40
1.0
 40
1.0
 40
1.0
 10
156.8811231569
 20
262.992235181
 30
0.0
 10
157.3832857294
 20
263.2586744325
 30
0.0
 10
158.4534099176
 20
263.6608821447
 30
0.0
 10
160.1453621417
 20
263.7603057827
 30
0.0
 10
161.7948606001
 20
263.3363738579
 30
0.0
 10
163.3118194242
 20
262.4221841077
 30
0.0
 10
164.6242242925
 20
261.0648832288
 30
0.0
 10
165.6917179265
 20
259.316471709
 30
0.0
 10
166.1774344895
 20
257.9860865548
 30
0.0
 10
166.3747855539
 20
257.2695922578
 30
0.0
  0
SPLINE
  5
3F2
100
AcDbEntity
  8
0
100
AcDbSpline
 62
7
  6
BYLAYER
 70
0
 71
3
 72
14
 73
10
 74
0
 42
0.0000001
 43
0.0000001
 44
0.0000000001
 40
0.0
 40
0.0
 40
0.0
 40
0.0
 40
0.182342691
 40
0.3206752355
 40
0.4240920497
 40
0.5331543801
 40
0.6546604224
 40
0.8139493636
 40
1.0
 40
1.0
 40
1.0
 40
1.0
 10
206.2190363355
 20
234.2660237536
 30
0.0
 10
206.4017019026
 20
234.7173263685
 30
0.0
 10
206.6578132848
 20
235.5401347931
 30
0.0
 10
206.7498228808
 20
236.6846727503
 30
0.0
 10
206.3834572203
 20
237.6125295937
 30
0.0
 10
205.5136828438
 20
238.0272843159
 30
0.0
 10
204.457558376
 20
237.963792505
 30
0.0
 10
203.2593260184
 20
237.5963591727
 30
0.0
 10
202.4299650187
 20
237.1864054408
 30
0.0
 10
201.9950986036
 20
236.9462587243
 30
0.0
  0
SPLINE
  5
3F3
100
AcDbEntity
  8
0
100
AcDbSpline
 62
7
  6
BYLAYER
 70
0
 71
3
 72
11
 73
7
 74
0
 42
0.0000001
 43
0.0000001
 44
0.0000000001
 40
0.0
 40
0.0
 40
0.0
 40
0.0
 40
0.2762418902
 40
0.5017888922
 40
0.7261369435
 40
1.0
 40
1.0
 40
1.0
 40
1.0
 10
195.5143898173
 20
220.3416049095
 30
0.0
 10
195.5143846819
 20
220.4363057811
 30
0.0
 10
195.4914149398
 20
220.6122050134
 30
0.0
 10
195.3267005514
 20
220.8227070887
 30
0.0
 10
195.0637384941
 20
220.8671089471
 30
0.0
 10
194.8997811186
 20
220.8017918931
 30
0.0
 10
194.817866563
 20
220.7559174231
 30
0.0
  0
SPLINE
  5
3F4
100
AcDbEntity
  8
0
100
AcDbSpline
 62
7
  6
BYLAYER
 70
0
 71
3
 72
11
 73
7
 74
0
 42
0.0000001
 43
0.0000001
 44
0.0000000001
 40
0.0
 40
0.0
 40
0.0
 40
0.0
 40
0.2738709081
 40
0.4982202199
 40
0.7237627935
 40
1.0
 40
1.0
 40
1.0
 40
1.0
 10
186.5466175682
 20
225.531217225
 30
0.0
 10
186.6285325636
 20
225.5770907254
 30
0.0
 10
186.7924868891
 20
225.6424068838
 30
0.0
 10
187.055444964
 20
225.5980116604
 30
0.0
 10
187.2201494083
 20
225.3875125568
 30
0.0
 10
187.2431082944
 20
225.2116199513
 30
0.0
 10
187.2431082944
 20
225.1169234911
 30
0.0
  0
SPLINE
  5
3F5
100
AcDbEntity
  8
0
100
AcDbSpline
 62
7
  6
BYLAYER
 70
0
 71
3
 72
13
 73
9
 74
0
 42
0.0000001
 43
0.0000001
 44
0.0000000001
 40
0.0
 40
0.0
 40
0.0
 40
0.0
 40
0.15478128
 40
0.3236124694
 40
0.4999999229
 40
0.6763905059
 40
0.8452303061
 40
1.0
 40
1.0
 40
1.0
 40
1.0
 10
199.0495123414
 20
214.218051442
 30
0.0
 10
199.0495374824
 20
214.596788132
 30
0.0
 10
198.9557551354
 20
215.3895487333
 30
0.0
 10
198.5986774949
 20
216.5648291026
 30
0.0
 10
198.0419367788
 20
217.7187890768
 30
0.0
 10
197.3209604653
 20
218.7779544953
 30
0.0
 10
196.4816956836
 20
219.674851345
 30
0.0
 10
195.8420506485
 20
220.1524584718
 30
0.0
 10
195.5140665198
 20
220.3417899763
 30
0.0
  0
SPLINE
  5
3F6
100
AcDbEntity
  8
0
100
AcDbSpline
 62
7
  6
BYLAYER
 70
0
 71
3
 72
11
 73
7
 74
0
 42
0.0000001
 43
0.0000001
 44
0.0000000001
 40
0.0
 40
0.0
 40
0.0
 40
0.0
 40
0.2762368927
 40
0.5017778101
 40
0.7261267845
 40
1.0
 40
1.0
 40
1.0
 40
1.0
 10
199.0495151427
 20
204.6677375795
 30
0.0
 10
199.1315241392
 20
204.6203907344
 30
0.0
 10
199.2723714341
 20
204.5125647226
 30
0.0
 10
199.3723161627
 20
204.2646800087
 30
0.0
 10
199.2792821021
 20
204.0147574963
 30
0.0
 10
199.1407396537
 20
203.9054292626
 30
0.0
 10
199.060054501
 20
203.8574261106
 30
0.0
  0
SPLINE
  5
3F7
100
AcDbEntity
  8
0
100
AcDbSpline
 62
7
  6
BYLAYER
 70
0
 71
3
 72
11
 73
7
 74
0
 42
0.0000001
 43
0.0000001
 44
0.0000000001
 40
0.0
 40
0.0
 40
0.0
 40
0.0
 40
0.2738616637
 40
0.4982105241
 40
0.7237581804
 40
1.0
 40
1.0
 40
1.0
 40
1.0
 10
199.060054501
 20
213.4082736832
 30
0.0
 10
199.1407394139
 20
213.4562750099
 30
0.0
 10
199.2792838835
 20
213.5656041915
 30
0.0
 10
199.3723158048
 20
213.8155331435
 30
0.0
 10
199.272373128
 20
214.0634296576
 30
0.0
 10
199.131525271
 20
214.1712693671
 30
0.0
 10
199.0495151427
 20
214.2186233201
 30
0.0
  0
SPLINE
  5
3F8
100
AcDbEntity
  8
0
100
AcDbSpline
 62
7
  6
BYLAYER
 70
0
 71
3
 72
13
 73
9
 74
0
 42
0.0000001
 43
0.0000001
 44
0.0000000001
 40
0.0
 40
0.0
 40
0.0
 40
0.0
 40
0.1543726506
 40
0.3232650759
 40
0.4999985749
 40
0.6767323097
 40
0.8456252556
 40
1.0
 40
1.0
 40
1.0
 40
1.0
 10
194.8178739432
 20
220.7559130342
 30
0.0
 10
195.211014056
 20
220.5300727845
 30
0.0
 10
195.9791764108
 20
219.9590527526
 30
0.0
 10
196.9882245366
 20
218.8840127468
 30
0.0
 10
197.8555721031
 20
217.6113124385
 30
0.0
 10
198.5240960978
 20
216.2238186847
 30
0.0
 10
198.9505924218
 20
214.812431722
 30
0.0
 10
199.0610396896
 20
213.8616667443
 30
0.0
 10
199.060054474
 20
213.4082711418
 30
0.0
  0
SPLINE
  5
3F9
100
AcDbEntity
  8
0
100
AcDbSpline
 62
7
  6
BYLAYER
 70
0
 71
3
 72
13
 73
9
 74
0
 42
0.0000001
 43
0.0000001
 44
0.0000000001
 40
0.0
 40
0.0
 40
0.0
 40
0.0
 40
0.1543033518
 40
0.3232081321
 40
0.4999948333
 40
0.6767825975
 40
0.8456916006
 40
1.0
 40
1.0
 40
1.0
 40
1.0
 10
177.458428016
 20
200.9366365901
 30
0.0
 10
177.4584288719
 20
201.3896665044
 30
0.0
 10
177.3463081746
 20
202.3396706078
 30
0.0
 10
176.9183986528
 20
203.7500175372
 30
0.0
 10
176.2494711227
 20
205.1370481917
 30
0.0
 10
175.3827308773
 20
206.4098866313
 30
0.0
 10
174.3752719518
 20
207.4856666128
 30
0.0
 10
173.6085795744
 20
208.0577813814
 30
0.0
 10
173.2162291067
 20
208.284299905
 30
0.0
  0
SPLINE
  5
3FA
100
AcDbEntity
  8
0
100
AcDbSpline
 62
7
  6
BYLAYER
 70
0
 71
3
 72
14
 73
10
 74
0
 42
0.0000001
 43
0.0000001
 44
0.0000000001
 40
0.0
 40
0.0
 40
0.0
 40
0.0
 40
0.1699813689
 40
0.3274570254
 40
0.4766196525
 40
0.6127727808
 40
0.7406845853
 40
0.871280486
 40
1.0
 40
1.0
 40
1.0
 40
1.0
 10
216.4609812517
 20
121.5280931003
 30
0.0
 10
216.9718182806
 20
121.0098086154
 30
0.0
 10
217.8798075985
 20
119.9298791557
 30
0.0
 10
218.8689213173
 20
118.129009127
 30
0.0
 10
219.3957019566
 20
116.2880420792
 30
0.0
 10
219.4225770315
 20
114.4960352716
 30
0.0
 10
218.9497739741
 20
112.84669102
 30
0.0
 10
218.0098462966
 20
111.4493318459
 30
0.0
 10
217.1379051924
 20
110.7363860478
 30
0.0
 10
216.6700925884
 20
110.4451325897
 30
0.0
  0
LINE
  5
3FB
100
AcDbEntity
  8
0
100
AcDbLine
 62
7
  6
BYLAYER
 10
216.6700925884
 20
110.4451325897
 11
216.5663747142
 21
110.3802926643
  0
SPLINE
  5
3FC
100
AcDbEntity
  8
0
100
AcDbSpline
 62
7
  6
BYLAYER
 70
0
 71
3
 72
14
 73
10
 74
0
 42
0.0000001
 43
0.0000001
 44
0.0000000001
 40
0.0
 40
0.0
 40
0.0
 40
0.0
 40
0.1951352987
 40
0.3629148018
 40
0.4779053608
 40
0.5777010076
 40
0.6831606497
 40
0.8129090418
 40
1.0
 40
1.0
 40
1.0
 40
1.0
 10
216.6700924395
 20
211.5285645544
 30
0.0
 10
217.1157601391
 20
211.7987292076
 30
0.0
 10
217.9236875582
 20
212.3398449101
 30
0.0
 10
218.8537317531
 20
213.2274593204
 30
0.0
 10
219.3891796726
 20
214.1217069359
 30
0.0
 10
219.4186199133
 20
215.0369519174
 30
0.0
 10
218.8150782532
 20
215.7740193708
 30
0.0
 10
217.7884705171
 20
216.2701386735
 30
0.0
 10
216.9557771851
 20
216.4568869992
 30
0.0
 10
216.4609812517
 20
216.5265532663
 30
0.0
  0
SPLINE
  5
3FD
100
AcDbEntity
  8
0
100
AcDbSpline
 62
7
  6
BYLAYER
 70
0
 71
3
 72
10
 73
6
 74
0
 42
0.0000001
 43
0.0000001
 44
0.0000000001
 40
0.0
 40
0.0
 40
0.0
 40
0.0
 40
0.3025330963
 40
0.6266542523
 40
1.0
 40
1.0
 40
1.0
 40
1.0
 10
176.751482177
 20
187.9493203856
 30
0.0
 10
176.8391782073
 20
188.0000878376
 30
0.0
 10
177.0110747825
 20
188.1228788476
 30
0.0
 10
177.2475741848
 20
188.361732239
 30
0.0
 10
177.3880771348
 20
188.5491789617
 30
0.0
 10
177.4584260633
 20
188.6525629286
 30
0.0
  0
SPLINE
  5
3FE
100
AcDbEntity
  8
0
100
AcDbSpline
 62
7
  6
BYLAYER
 70
0
 71
3
 72
10
 73
6
 74
0
 42
0.0000001
 43
0.0000001
 44
0.0000000001
 40
0.0
 40
0.0
 40
0.0
 40
0.0
 40
0.3286780796
 40
0.6587174734
 40
1.0
 40
1.0
 40
1.0
 40
1.0
 10
177.4584261939
 20
86.6617346816
 30
0.0
 10
177.382553333
 20
86.6880722825
 30
0.0
 10
177.2209045211
 20
86.7192404928
 30
0.0
 10
176.9762873953
 20
86.6790034579
 30
0.0
 10
176.8239063569
 20
86.614199846
 30
0.0
 10
176.751482177
 20
86.5728560052
 30
0.0
  0
SPLINE
  5
3FF
100
AcDbEntity
  8
0
100
AcDbSpline
 62
7
  6
BYLAYER
 70
0
 71
3
 72
10
 73
6
 74
0
 42
0.0000001
 43
0.0000001
 44
0.0000000001
 40
0.0
 40
0.0
 40
0.0
 40
0.0
 40
0.308583124
 40
0.6464016994
 40
1.0
 40
1.0
 40
1.0
 40
1.0
 10
172.3626285352
 20
185.4593322075
 30
0.0
 10
172.3626332562
 20
185.5348309345
 30
0.0
 10
172.34393237
 20
185.6931697918
 30
0.0
 10
172.2726373652
 20
185.9281797916
 30
0.0
 10
172.1988049265
 20
186.0812598804
 30
0.0
 10
172.1555442214
 20
186.1561790467
 30
0.0
  0
SPLINE
  5
400
100
AcDbEntity
  8
0
100
AcDbSpline
 62
7
  6
BYLAYER
 70
0
 71
3
 72
10
 73
6
 74
0
 42
0.0000001
 43
0.0000001
 44
0.0000000001
 40
0.0
 40
0.0
 40
0.0
 40
0.0
 40
0.3538281762
 40
0.6917808431
 40
1.0
 40
1.0
 40
1.0
 40
1.0
 10
176.5443978633
 20
188.6461672248
 30
0.0
 10
176.5872798934
 20
188.5710060545
 30
0.0
 10
176.6605702288
 20
188.4176808061
 30
0.0
 10
176.7318080312
 20
188.1828007068
 30
0.0
 10
176.7510690261
 20
188.0246985642
 30
0.0
 10
176.751482177
 20
187.9493203856
 30
0.0
  0
SPLINE
  5
401
100
AcDbEntity
  8
0
100
AcDbSpline
 62
7
  6
BYLAYER
 70
0
 71
3
 72
14
 73
10
 74
0
 42
0.0000001
 43
0.0000001
 44
0.0000000001
 40
0.0
 40
0.0
 40
0.0
 40
0.0
 40
0.1352818651
 40
0.2858530273
 40
0.4379610336
 40
0.592989884
 40
0.7437642787
 40
0.8787146739
 40
1.0
 40
1.0
 40
1.0
 40
1.0
 10
156.3813464328
 20
128.5458351232
 30
0.0
 10
156.9365180206
 20
128.8763379165
 30
0.0
 10
158.075134666
 20
129.6330792395
 30
0.0
 10
159.7281026012
 20
130.9172091346
 30
0.0
 10
161.3656744522
 20
132.367504295
 30
0.0
 10
162.9109492503
 20
133.9169159952
 30
0.0
 10
164.2995126678
 20
135.501767943
 30
0.0
 10
165.4661430304
 20
137.0580361312
 30
0.0
 10
166.1138989511
 20
138.1011236815
 30
0.0
 10
166.3747855539
 20
138.6183028835
 30
0.0
  0
SPLINE
  5
402
100
AcDbEntity
  8
0
100
AcDbSpline
 62
7
  6
BYLAYER
 70
0
 71
3
 72
14
 73
10
 74
0
 42
0.0000001
 43
0.0000001
 44
0.0000000001
 40
0.0
 40
0.0
 40
0.0
 40
0.0
 40
0.1185167724
 40
0.2543728167
 40
0.4070556433
 40
0.5640406456
 40
0.7183363361
 40
0.8695355972
 40
1.0
 40
1.0
 40
1.0
 40
1.0
 10
156.1328406377
 20
156.3577733709
 30
0.0
 10
155.5677205026
 20
156.3898980908
 30
0.0
 10
154.3494936658
 20
156.352303991
 30
0.0
 10
152.4177867328
 20
156.1228756484
 30
0.0
 10
150.3284204619
 20
155.7089957615
 30
0.0
 10
148.1862809037
 20
155.1369752347
 30
0.0
 10
146.0904844139
 20
154.4344730879
 30
0.0
 10
144.1631430096
 20
153.6432282194
 30
0.0
 10
142.9556184239
 20
153.0458784989
 30
0.0
 10
142.4131435801
 20
152.739337851
 30
0.0
  0
SPLINE
  5
403
100
AcDbEntity
  8
0
100
AcDbSpline
 62
7
  6
BYLAYER
 70
0
 71
3
 72
14
 73
10
 74
0
 42
0.0000001
 43
0.0000001
 44
0.0000000001
 40
0.0
 40
0.0
 40
0.0
 40
0.0
 40
0.1303341313
 40
0.2596576012
 40
0.386890464
 40
0.5232003386
 40
0.6715241193
 40
0.8274305426
 40
1.0
 40
1.0
 40
1.0
 40
1.0
 10
216.4630781833
 20
109.9875553489
 30
0.0
 10
216.9493150248
 20
110.2928411572
 30
0.0
 10
217.8430066316
 20
111.035753551
 30
0.0
 10
218.7852892816
 20
112.4871556119
 30
0.0
 10
219.2636432468
 20
114.1750315259
 30
0.0
 10
219.2641790284
 20
116.0100253611
 30
0.0
 10
218.7875333998
 20
117.9092994992
 30
0.0
 10
217.8511707426
 20
119.8034503143
 30
0.0
 10
216.9727844787
 20
120.9660159579
 30
0.0
 10
216.4609812517
 20
121.5280931003
 30
0.0
  0
SPLINE
  5
404
100
AcDbEntity
  8
0
100
AcDbSpline
 62
7
  6
BYLAYER
 70
0
 71
3
 72
14
 73
10
 74
0
 42
0.0000001
 43
0.0000001
 44
0.0000000001
 40
0.0
 40
0.0
 40
0.0
 40
0.0
 40
0.1531596235
 40
0.3063245962
 40
0.4617020437
 40
0.6098724765
 40
0.7485941347
 40
0.8820483591
 40
1.0
 40
1.0
 40
1.0
 40
1.0
 10
206.2190363355
 20
115.6147343794
 30
0.0
 10
206.4537015215
 20
114.8781122988
 30
0.0
 10
206.8020309153
 20
113.3629684772
 30
0.0
 10
206.9432691218
 20
111.0270786132
 30
0.0
 10
206.710824889
 20
108.7227699158
 30
0.0
 10
206.1141973829
 20
106.5599833075
 30
0.0
 10
205.1889718161
 20
104.6367143639
 30
0.0
 10
203.9884284626
 20
103.056785325
 30
0.0
 10
202.999263777
 20
102.2391163282
 30
0.0
 10
202.4948753305
 20
101.9227790949
 30
0.0
  0
LINE
  5
405
100
AcDbEntity
  8
0
100
AcDbLine
 62
7
  6
BYLAYER
 10
216.3697321645
 20
109.9289794854
 11
216.4630781833
 21
109.9875553489
  0
LINE
  5
406
100
AcDbEntity
  8
0
100
AcDbLine
 62
7
  6
BYLAYER
 10
202.4948753305
 20
101.9227790949
 11
202.4012838708
 21
101.864061522
  0
SPLINE
  5
407
100
AcDbEntity
  8
0
100
AcDbSpline
 62
7
  6
BYLAYER
 70
0
 71
3
 72
12
 73
8
 74
0
 42
0.0000001
 43
0.0000001
 44
0.0000000001
 40
0.0
 40
0.0
 40
0.0
 40
0.0
 40
0.2350618948
 40
0.4520345549
 40
0.6496589954
 40
0.8317075422
 40
1.0
 40
1.0
 40
1.0
 40
1.0
 10
199.342352513
 20
88.0116885246
 30
0.0
 10
199.3423685629
 20
87.7293982794
 30
0.0
 10
199.3022894302
 20
87.1851417591
 30
0.0
 10
199.1069155351
 20
86.4250373955
 30
0.0
 10
198.7893757898
 20
85.776482128
 30
0.0
 10
198.3734288219
 20
85.2595501545
 30
0.0
 10
198.0386030486
 20
84.9976904466
 30
0.0
 10
197.8662136551
 20
84.8921088121
 30
0.0
  0
SPLINE
  5
408
100
AcDbEntity
  8
0
100
AcDbSpline
 62
7
  6
BYLAYER
 70
0
 71
3
 72
12
 73
8
 74
0
 42
0.0000001
 43
0.0000001
 44
0.0000000001
 40
0.0
 40
0.0
 40
0.0
 40
0.0
 40
0.1676910804
 40
0.3498218969
 40
0.5478482279
 40
0.765171795
 40
1.0
 40
1.0
 40
1.0
 40
1.0
 10
125.3496863412
 20
259.4840309976
 30
0.0
 10
125.5266783835
 20
259.5801841614
 30
0.0
 10
125.920177379
 20
259.7391300754
 30
0.0
 10
126.5756094962
 20
259.8413245413
 30
0.0
 10
127.2970743564
 20
259.7922129901
 30
0.0
 10
128.0536151562
 20
259.5811475479
 30
0.0
 10
128.5450849278
 20
259.3436479096
 30
0.0
 10
128.7892988838
 20
259.2026361003
 30
0.0
  0
SPLINE
  5
409
100
AcDbEntity
  8
0
100
AcDbSpline
 62
7
  6
BYLAYER
 70
0
 71
3
 72
16
 73
12
 74
0
 42
0.0000001
 43
0.0000001
 44
0.0000000001
 40
0.0
 40
0.0
 40
0.0
 40
0.0
 40
0.1052627367
 40
0.2152926849
 40
0.3283408305
 40
0.4432599192
 40
0.5587426333
 40
0.6734153575
 40
0.785980758
 40
0.8952437857
 40
1.0
 40
1.0
 40
1.0
 40
1.0
 10
199.3423212458
 20
213.8103569496
 30
0.0
 10
199.3423427143
 20
214.1047969987
 30
0.0
 10
199.2959968222
 20
214.7075781204
 30
0.0
 10
199.1081379363
 20
215.6086851919
 30
0.0
 10
198.8106593258
 20
216.5081147065
 30
0.0
 10
198.4146219991
 20
217.3851918146
 30
0.0
 10
197.9304755248
 20
218.2220893586
 30
0.0
 10
197.3688187569
 20
219.0010088698
 30
0.0
 10
196.7403943026
 20
219.7042904456
 30
0.0
 10
196.0570182616
 20
220.3135499476
 30
0.0
 10
195.5610103723
 20
220.6528652477
 30
0.0
 10
195.3072339849
 20
220.7993580687
 30
0.0
  0
SPLINE
  5
40A
100
AcDbEntity
  8
0
100
AcDbSpline
 62
7
  6
BYLAYER
 70
0
 71
3
 72
23
 73
19
 74
0
 42
0.0000001
 43
0.0000001
 44
0.0000000001
 40
0.0
 40
0.0
 40
0.0
 40
0.0
 40
0.0665866894
 40
0.1384329561
 40
0.2140579727
 40
0.2916512786
 40
0.3692444968
 40
0.444869257
 40
0.5167151198
 40
0.583301295
 40
0.6436803028
 40
0.6976944282
 40
0.7462770243
 40
0.7916498208
 40
0.8370227673
 40
0.8856057626
 40
0.9396204252
 40
1.0
 40
1.0
 40
1.0
 40
1.0
 10
206.3080849603
 20
199.6288804084
 30
0.0
 10
206.3080849603
 20
200.9144830379
 30
0.0
 10
206.0726153185
 20
203.5897328448
 30
0.0
 10
205.133901588
 20
207.6256488438
 30
0.0
 10
203.6301166179
 20
211.7137274786
 30
0.0
 10
201.6174837744
 20
215.7002166158
 30
0.0
 10
199.171308113
 20
219.4365066483
 30
0.0
 10
196.3830830352
 20
222.7826647765
 30
0.0
 10
193.3562993622
 20
225.6141098028
 30
0.0
 10
190.2011404257
 20
227.8260864109
 30
0.0
 10
187.0280188624
 20
229.3360545257
 30
0.0
 10
183.9418736587
 20
230.0810144187
 30
0.0
 10
181.0449745631
 20
230.0072696383
 30
0.0
 10
178.4664299832
 20
229.0722003417
 30
0.0
 10
176.3674118442
 20
227.3066293887
 30
0.0
 10
174.8551398268
 20
224.8344886846
 30
0.0
 10
173.9572415627
 20
221.7900667779
 30
0.0
 10
173.7810376036
 20
219.5737157335
 30
0.0
 10
173.7810376036
 20
218.4079551163
 30
0.0
  0
SPLINE
  5
40B
100
AcDbEntity
  8
0
100
AcDbSpline
 62
7
  6
BYLAYER
 70
0
 71
3
 72
23
 73
19
 74
0
 42
0.0000001
 43
0.0000001
 44
0.0000000001
 40
0.0
 40
0.0
 40
0.0
 40
0.0
 40
0.0665866894
 40
0.1384329561
 40
0.2140579727
 40
0.2916512786
 40
0.3692444968
 40
0.444869257
 40
0.5167151198
 40
0.583301295
 40
0.6436803028
 40
0.6976944282
 40
0.7462770243
 40
0.7916498208
 40
0.8370227673
 40
0.8856057626
 40
0.9396204252
 40
1.0
 40
1.0
 40
1.0
 40
1.0
 10
173.7810376036
 20
218.4079551163
 30
0.0
 10
173.7810376036
 20
217.1223524868
 30
0.0
 10
174.0165072454
 20
214.4471026799
 30
0.0
 10
174.9552209759
 20
210.4111866809
 30
0.0
 10
176.459005946
 20
206.3231080461
 30
0.0
 10
178.4716387895
 20
202.3366189089
 30
0.0
 10
180.9178144509
 20
198.6003288764
 30
0.0
 10
183.7060395286
 20
195.2541707482
 30
0.0
 10
186.7328232017
 20
192.4227257219
 30
0.0
 10
189.8879821382
 20
190.2107491138
 30
0.0
 10
193.0611037015
 20
188.700780999
 30
0.0
 10
196.1472489051
 20
187.955821106
 30
0.0
 10
199.0441480008
 20
188.0295658864
 30
0.0
 10
201.6226925807
 20
188.964635183
 30
0.0
 10
203.7217107197
 20
190.730206136
 30
0.0
 10
205.2339827371
 20
193.2023468401
 30
0.0
 10
206.1318810012
 20
196.2467687468
 30
0.0
 10
206.3080849603
 20
198.4631197912
 30
0.0
 10
206.3080849603
 20
199.6288804084
 30
0.0
  0
SPLINE
  5
40C
100
AcDbEntity
  8
0
100
AcDbSpline
 62
7
  6
BYLAYER
 70
0
 71
3
 72
10
 73
6
 74
0
 42
0.0000001
 43
0.0000001
 44
0.0000000001
 40
0.0
 40
0.0
 40
0.0
 40
0.0
 40
0.3185365067
 40
0.6520855559
 40
1.0
 40
1.0
 40
1.0
 40
1.0
 10
198.6358905679
 20
193.1756998227
 30
0.0
 10
198.1559182728
 20
193.3788369286
 30
0.0
 10
197.191698287
 20
193.8391370443
 30
0.0
 10
195.7748644239
 20
194.6603353648
 30
0.0
 10
194.8526969329
 20
195.2890699474
 30
0.0
 10
194.393232217
 20
195.6251443498
 30
0.0
  0
SPLINE
  5
40D
100
AcDbEntity
  8
0
100
AcDbSpline
 62
7
  6
BYLAYER
 70
0
 71
3
 72
10
 73
6
 74
0
 42
0.0000001
 43
0.0000001
 44
0.0000000001
 40
0.0
 40
0.0
 40
0.0
 40
0.0
 40
0.3332898238
 40
0.6666227087
 40
1.0
 40
1.0
 40
1.0
 40
1.0
 10
194.393232217
 20
195.6251443498
 30
0.0
 10
194.8017921544
 20
196.0145387741
 30
0.0
 10
195.6188670674
 20
196.793480484
 30
0.0
 10
196.8445405547
 20
197.9619907537
 30
0.0
 10
197.6615965196
 20
198.7411669777
 30
0.0
 10
198.0701721705
 20
199.1307595823
 30
0.0
  0
SPLINE
  5
40E
100
AcDbEntity
  8
0
100
AcDbSpline
 62
7
  6
BYLAYER
 70
0
 71
3
 72
14
 73
10
 74
0
 42
0.0000001
 43
0.0000001
 44
0.0000000001
 40
0.0
 40
0.0
 40
0.0
 40
0.0
 40
0.1370712845
 40
0.2825175762
 40
0.432667292
 40
0.583436674
 40
0.7306896638
 40
0.8705930493
 40
1.0
 40
1.0
 40
1.0
 40
1.0
 10
198.0701721705
 20
199.1307595823
 30
0.0
 10
197.0325576252
 20
199.9027493406
 30
0.0
 10
195.0187103032
 20
201.6656801702
 30
0.0
 10
192.3211072249
 20
204.7427559286
 30
0.0
 10
189.9401892765
 20
208.2288463207
 30
0.0
 10
187.9728183008
 20
211.9826282543
 30
0.0
 10
186.4979108438
 20
215.8537343476
 30
0.0
 10
185.5748877229
 20
219.6853393689
 30
0.0
 10
185.3421971179
 20
222.2287966748
 30
0.0
 10
185.3421971179
 20
223.4497772153
 30
0.0
  0
SPLINE
  5
40F
100
AcDbEntity
  8
0
100
AcDbSpline
 62
7
  6
BYLAYER
 70
0
 71
3
 72
23
 73
19
 74
0
 42
0.0000001
 43
0.0000001
 44
0.0000000001
 40
0.0
 40
0.0
 40
0.0
 40
0.0
 40
0.0665866894
 40
0.1384329561
 40
0.2140579727
 40
0.2916512786
 40
0.3692444968
 40
0.444869257
 40
0.5167151198
 40
0.583301295
 40
0.6436803028
 40
0.6976944282
 40
0.7462770243
 40
0.7916498208
 40
0.8370227673
 40
0.8856057626
 40
0.9396204252
 40
1.0
 40
1.0
 40
1.0
 40
1.0
 10
179.5439338768
 20
221.7351449704
 30
0.0
 10
179.5439338768
 20
220.4495423408
 30
0.0
 10
179.7794035187
 20
217.7742925339
 30
0.0
 10
180.7181172492
 20
213.7383765349
 30
0.0
 10
182.2219022193
 20
209.6502979002
 30
0.0
 10
184.2345350628
 20
205.663808763
 30
0.0
 10
186.6807107242
 20
201.9275187304
 30
0.0
 10
189.4689358019
 20
198.5813606023
 30
0.0
 10
192.495719475
 20
195.7499155759
 30
0.0
 10
195.6508784115
 20
193.5379389678
 30
0.0
 10
198.8239999748
 20
192.027970853
 30
0.0
 10
201.9101451784
 20
191.2830109601
 30
0.0
 10
204.8070442741
 20
191.3567557405
 30
0.0
 10
207.385588854
 20
192.291825037
 30
0.0
 10
209.484606993
 20
194.05739599
 30
0.0
 10
210.9968790104
 20
196.5295366941
 30
0.0
 10
211.8947772745
 20
199.5739586009
 30
0.0
 10
212.0709812336
 20
201.7903096452
 30
0.0
 10
212.0709812336
 20
202.9560702624
 30
0.0
  0
SPLINE
  5
410
100
AcDbEntity
  8
0
100
AcDbSpline
 62
7
  6
BYLAYER
 70
0
 71
3
 72
14
 73
10
 74
0
 42
0.0000001
 43
0.0000001
 44
0.0000000001
 40
0.0
 40
0.0
 40
0.0
 40
0.0
 40
0.1682507103
 40
0.3180939531
 40
0.4525608118
 40
0.5786974691
 40
0.7063551163
 40
0.844832798
 40
1.0
 40
1.0
 40
1.0
 40
1.0
 10
215.040805574
 20
206.3036655255
 30
0.0
 10
215.040805574
 20
205.2006440301
 30
0.0
 10
214.8685472768
 20
203.107294508
 30
0.0
 10
213.985512664
 20
200.2448711452
 30
0.0
 10
212.4951599152
 20
197.9522901577
 30
0.0
 10
210.4293453891
 20
196.3727214372
 30
0.0
 10
207.9124833565
 20
195.6282165836
 30
0.0
 10
205.1143913705
 20
195.7303963807
 30
0.0
 10
203.2538200451
 20
196.2948788461
 30
0.0
 10
202.3128305214
 20
196.6813150552
 30
0.0
  0
SPLINE
  5
411
100
AcDbEntity
  8
0
100
AcDbSpline
 62
7
  6
BYLAYER
 70
0
 71
3
 72
10
 73
6
 74
0
 42
0.0000001
 43
0.0000001
 44
0.0000000001
 40
0.0
 40
0.0
 40
0.0
 40
0.0
 40
0.3333741029
 40
0.6667071465
 40
1.0
 40
1.0
 40
1.0
 40
1.0
 10
202.3128305214
 20
196.6813150552
 30
0.0
 10
201.9043164462
 20
196.2916657059
 30
0.0
 10
201.0872290197
 20
195.5125299004
 30
0.0
 10
199.8615961984
 20
194.3439769706
 30
0.0
 10
199.0444364921
 20
193.565116387
 30
0.0
 10
198.6358905679
 20
193.1756998227
 30
0.0
  0
SPLINE
  5
412
100
AcDbEntity
  8
0
100
AcDbSpline
 62
7
  6
BYLAYER
 70
0
 71
3
 72
10
 73
6
 74
0
 42
0.0000001
 43
0.0000001
 44
0.0000000001
 40
0.0
 40
0.0
 40
0.0
 40
0.0
 40
0.3185365067
 40
0.6520855559
 40
1.0
 40
1.0
 40
1.0
 40
1.0
 10
194.393232217
 20
232.3320037179
 30
0.0
 10
194.8732045121
 20
232.1288666119
 30
0.0
 10
195.8374244979
 20
231.6685664962
 30
0.0
 10
197.254258361
 20
230.8473681758
 30
0.0
 10
198.176425852
 20
230.2186335931
 30
0.0
 10
198.6358905679
 20
229.8825591908
 30
0.0
  0
SPLINE
  5
413
100
AcDbEntity
  8
0
100
AcDbSpline
 62
7
  6
BYLAYER
 70
0
 71
3
 72
10
 73
6
 74
0
 42
0.0000001
 43
0.0000001
 44
0.0000000001
 40
0.0
 40
0.0
 40
0.0
 40
0.0
 40
0.3333383819
 40
0.6666726946
 40
1.0
 40
1.0
 40
1.0
 40
1.0
 10
198.6358905679
 20
229.8825591908
 30
0.0
 10
199.0444223748
 20
229.9649119444
 30
0.0
 10
199.8615078268
 20
230.1294833497
 30
0.0
 10
201.0871479663
 20
230.3762237665
 30
0.0
 10
201.9042730406
 20
230.5405280858
 30
0.0
 10
202.3128305214
 20
230.6226831585
 30
0.0
  0
SPLINE
  5
414
100
AcDbEntity
  8
0
100
AcDbSpline
 62
7
  6
BYLAYER
 70
0
 71
3
 72
14
 73
10
 74
0
 42
0.0000001
 43
0.0000001
 44
0.0000000001
 40
0.0
 40
0.0
 40
0.0
 40
0.0
 40
0.1370712845
 40
0.2825175762
 40
0.432667292
 40
0.583436674
 40
0.7306896638
 40
0.8705930493
 40
1.0
 40
1.0
 40
1.0
 40
1.0
 10
202.3128305214
 20
230.6226831585
 30
0.0
 10
203.3504450667
 20
229.8506934002
 30
0.0
 10
205.3642923887
 20
228.0877625706
 30
0.0
 10
208.0618954671
 20
225.0106868122
 30
0.0
 10
210.4428134154
 20
221.5245964201
 30
0.0
 10
212.4101843911
 20
217.7708144866
 30
0.0
 10
213.8850918481
 20
213.8997083932
 30
0.0
 10
214.808114969
 20
210.0681033719
 30
0.0
 10
215.040805574
 20
207.524646066
 30
0.0
 10
215.040805574
 20
206.3036655255
 30
0.0
  0
SPLINE
  5
415
100
AcDbEntity
  8
0
100
AcDbSpline
 62
7
  6
BYLAYER
 70
0
 71
3
 72
23
 73
19
 74
0
 42
0.0000001
 43
0.0000001
 44
0.0000000001
 40
0.0
 40
0.0
 40
0.0
 40
0.0
 40
0.0665866894
 40
0.1384329561
 40
0.2140579727
 40
0.2916512786
 40
0.3692444968
 40
0.444869257
 40
0.5167151198
 40
0.583301295
 40
0.6436803028
 40
0.6976944282
 40
0.7462770243
 40
0.7916498208
 40
0.8370227673
 40
0.8856057626
 40
0.9396204252
 40
1.0
 40
1.0
 40
1.0
 40
1.0
 10
212.0709812336
 20
202.9560702624
 30
0.0
 10
212.0709812336
 20
204.241672892
 30
0.0
 10
211.8355115918
 20
206.9169226989
 30
0.0
 10
210.8967978613
 20
210.9528386979
 30
0.0
 10
209.3930128912
 20
215.0409173326
 30
0.0
 10
207.3803800477
 20
219.0274064698
 30
0.0
 10
204.9342043863
 20
222.7636965024
 30
0.0
 10
202.1459793085
 20
226.1098546305
 30
0.0
 10
199.1191956355
 20
228.9412996569
 30
0.0
 10
195.964036699
 20
231.153276265
 30
0.0
 10
192.7909151357
 20
232.6632443798
 30
0.0
 10
189.704769932
 20
233.4082042727
 30
0.0
 10
186.8078708364
 20
233.3344594923
 30
0.0
 10
184.2293262565
 20
232.3993901958
 30
0.0
 10
182.1303081175
 20
230.6338192428
 30
0.0
 10
180.6180361001
 20
228.1616785387
 30
0.0
 10
179.720137836
 20
225.1172566319
 30
0.0
 10
179.5439338768
 20
222.9009055876
 30
0.0
 10
179.5439338768
 20
221.7351449704
 30
0.0
  0
SPLINE
  5
416
100
AcDbEntity
  8
0
100
AcDbSpline
 62
7
  6
BYLAYER
 70
0
 71
3
 72
14
 73
10
 74
0
 42
0.0000001
 43
0.0000001
 44
0.0000000001
 40
0.0
 40
0.0
 40
0.0
 40
0.0
 40
0.1682507103
 40
0.3180939531
 40
0.4525608118
 40
0.5786974691
 40
0.7063551163
 40
0.844832798
 40
1.0
 40
1.0
 40
1.0
 40
1.0
 10
185.3421971179
 20
223.4497772153
 30
0.0
 10
185.3421971179
 20
224.5527987107
 30
0.0
 10
185.5144554151
 20
226.6461482328
 30
0.0
 10
186.3974900279
 20
229.5085715956
 30
0.0
 10
187.8878427767
 20
231.8011525831
 30
0.0
 10
189.9536573028
 20
233.3807213036
 30
0.0
 10
192.4705193354
 20
234.1252261572
 30
0.0
 10
195.2686113214
 20
234.0230463601
 30
0.0
 10
197.1291826468
 20
233.4585638947
 30
0.0
 10
198.0701721705
 20
233.0721276856
 30
0.0
  0
SPLINE
  5
417
100
AcDbEntity
  8
0
100
AcDbSpline
 62
7
  6
BYLAYER
 70
0
 71
3
 72
10
 73
6
 74
0
 42
0.0000001
 43
0.0000001
 44
0.0000000001
 40
0.0
 40
0.0
 40
0.0
 40
0.0
 40
0.333338807
 40
0.6666725437
 40
1.0
 40
1.0
 40
1.0
 40
1.0
 10
198.0701721705
 20
233.0721276856
 30
0.0
 10
197.6615892481
 20
232.9900262051
 30
0.0
 10
196.8444576955
 20
232.8256847789
 30
0.0
 10
195.6188095372
 20
232.5789841705
 30
0.0
 10
194.8017541341
 20
232.4143364141
 30
0.0
 10
194.393232217
 20
232.3320037179
 30
0.0
  0
SPLINE
  5
418
100
AcDbEntity
  8
0
100
AcDbSpline
 62
7
  6
BYLAYER
 70
0
 71
3
 72
17
 73
13
 74
0
 42
0.0000001
 43
0.0000001
 44
0.0000000001
 40
0.0
 40
0.0
 40
0.0
 40
0.0
 40
0.0970778944
 40
0.1764281282
 40
0.2481863741
 40
0.3257086346
 40
0.4181990738
 40
0.5260120625
 40
0.6439875665
 40
0.7666808684
 40
0.8880720137
 40
1.0
 40
1.0
 40
1.0
 40
1.0
 10
200.686474032
 20
284.5651977341
 30
0.0
 10
200.8890829757
 20
284.4447190422
 30
0.0
 10
201.2402600038
 20
284.1859359583
 30
0.0
 10
201.5555604023
 20
283.6430602052
 30
0.0
 10
201.5345127343
 20
283.0584967978
 30
0.0
 10
201.204685818
 20
282.5481633941
 30
0.0
 10
200.6535937697
 20
282.1430713563
 30
0.0
 10
199.9297437273
 20
281.8543582696
 30
0.0
 10
199.0925518791
 20
281.7017800284
 30
0.0
 10
198.2090206299
 20
281.699131488
 30
0.0
 10
197.3523163643
 20
281.8480068651
 30
0.0
 10
196.8221188354
 20
282.0640811712
 30
0.0
 10
196.5852717762
 20
282.1973816417
 30
0.0
  0
SPLINE
  5
419
100
AcDbEntity
  8
0
100
AcDbSpline
 62
7
  6
BYLAYER
 70
0
 71
3
 72
17
 73
13
 74
0
 42
0.0000001
 43
0.0000001
 44
0.0000000001
 40
0.0
 40
0.0
 40
0.0
 40
0.0
 40
0.0970778944
 40
0.1764281282
 40
0.2481863741
 40
0.3257086346
 40
0.4181990738
 40
0.5260120625
 40
0.6439875665
 40
0.7666808684
 40
0.8880720137
 40
1.0
 40
1.0
 40
1.0
 40
1.0
 10
196.5852717762
 20
282.1973816417
 30
0.0
 10
196.3826628325
 20
282.3178603336
 30
0.0
 10
196.0314858044
 20
282.5766434175
 30
0.0
 10
195.7161854059
 20
283.1195191706
 30
0.0
 10
195.7372330739
 20
283.704082578
 30
0.0
 10
196.0670599901
 20
284.2144159817
 30
0.0
 10
196.6181520385
 20
284.6195080195
 30
0.0
 10
197.3420020808
 20
284.9082211062
 30
0.0
 10
198.1791939291
 20
285.0607993474
 30
0.0
 10
199.0627251783
 20
285.0634478878
 30
0.0
 10
199.9194294439
 20
284.9145725107
 30
0.0
 10
200.4496269727
 20
284.6984982046
 30
0.0
 10
200.686474032
 20
284.5651977341
 30
0.0
  0
SPLINE
  5
41A
100
AcDbEntity
  8
0
100
AcDbSpline
 62
7
  6
BYLAYER
 70
0
 71
3
 72
14
 73
10
 74
0
 42
0.0000001
 43
0.0000001
 44
0.0000000001
 40
0.0
 40
0.0
 40
0.0
 40
0.0
 40
0.142625072
 40
0.2903652138
 40
0.4401975532
 40
0.588986763
 40
0.7336701145
 40
0.8714467278
 40
1.0
 40
1.0
 40
1.0
 40
1.0
 10
187.5746249715
 20
219.19007382
 30
0.0
 10
187.8390878501
 20
218.0015689604
 30
0.0
 10
188.5327031753
 20
215.6145552967
 30
0.0
 10
189.9812438246
 20
212.1396142608
 30
0.0
 10
191.8146744333
 20
208.790992311
 30
0.0
 10
193.9736458735
 20
205.6742628672
 30
0.0
 10
196.3907878457
 20
202.8868237774
 30
0.0
 10
198.9904105295
 20
200.5180096232
 30
0.0
 10
200.8674205028
 20
199.2178448026
 30
0.0
 10
201.8178401715
 20
198.6691321646
 30
0.0
  0
SPLINE
  5
41B
100
AcDbEntity
  8
0
100
AcDbSpline
 62
7
  6
BYLAYER
 70
0
 71
3
 72
14
 73
10
 74
0
 42
0.0000001
 43
0.0000001
 44
0.0000000001
 40
0.0
 40
0.0
 40
0.0
 40
0.0
 40
0.1716743103
 40
0.3258971203
 40
0.4650028856
 40
0.5941696142
 40
0.721061601
 40
0.8540657878
 40
1.0
 40
1.0
 40
1.0
 40
1.0
 10
201.8178401715
 20
198.6691321646
 30
0.0
 10
202.6849283958
 20
198.1685298701
 30
0.0
 10
204.4073143454
 20
197.3390679482
 30
0.0
 10
207.049330073
 20
196.6446419575
 30
0.0
 10
209.5415590465
 20
196.5964487948
 30
0.0
 10
211.7981705012
 20
197.2222602088
 30
0.0
 10
213.7107796913
 20
198.5160923619
 30
0.0
 10
215.1861832704
 20
200.408965351
 30
0.0
 10
215.8168977004
 20
201.9284676503
 30
0.0
 10
216.0610553716
 20
202.7437976248
 30
0.0
  0
SPLINE
  5
41C
100
AcDbEntity
  8
0
100
AcDbSpline
 62
7
  6
BYLAYER
 70
0
 71
3
 72
14
 73
10
 74
0
 42
0.0000001
 43
0.0000001
 44
0.0000000001
 40
0.0
 40
0.0
 40
0.0
 40
0.0
 40
0.1421461065
 40
0.2898726019
 40
0.4399994792
 40
0.589181375
 40
0.7341373699
 40
0.8718854469
 40
1.0
 40
1.0
 40
1.0
 40
1.0
 10
186.5139692157
 20
218.5777075892
 30
0.0
 10
186.7775441289
 20
217.3931932748
 30
0.0
 10
187.4694637454
 20
215.0101258583
 30
0.0
 10
188.9161128072
 20
211.5362185257
 30
0.0
 10
190.7515125816
 20
208.1820732121
 30
0.0
 10
192.9151670547
 20
205.0585507957
 30
0.0
 10
195.3366024127
 20
202.26757788
 30
0.0
 10
197.9359832103
 20
199.9009377247
 30
0.0
 10
199.8100077177
 20
198.6036062842
 30
0.0
 10
200.7571844157
 20
198.0567659338
 30
0.0
  0
SPLINE
  5
41D
100
AcDbEntity
  8
0
100
AcDbSpline
 62
7
  6
BYLAYER
 70
0
 71
3
 72
14
 73
10
 74
0
 42
0.0000001
 43
0.0000001
 44
0.0000000001
 40
0.0
 40
0.0
 40
0.0
 40
0.0
 40
0.171140294
 40
0.3254171432
 40
0.4648280467
 40
0.5943358838
 40
0.7214832542
 40
0.8545191845
 40
1.0
 40
1.0
 40
1.0
 40
1.0
 10
200.7571844157
 20
198.0567659338
 30
0.0
 10
201.6215745561
 20
197.5577213435
 30
0.0
 10
203.3411520717
 20
196.7291325248
 30
0.0
 10
205.981645941
 20
196.0331157391
 30
0.0
 10
208.4780536453
 20
195.9831726154
 30
0.0
 10
210.7400425677
 20
196.6103680627
 30
0.0
 10
212.6548668313
 20
197.9078608235
 30
0.0
 10
214.1277821026
 20
199.801377388
 30
0.0
 10
214.7570007575
 20
201.3186353678
 30
0.0
 10
215.0003996158
 20
202.131431394
 30
0.0
  0
SPLINE
  5
41E
100
AcDbEntity
  8
0
100
AcDbSpline
 62
7
  6
BYLAYER
 70
0
 71
3
 72
11
 73
7
 74
0
 42
0.0000001
 43
0.0000001
 44
0.0000000001
 40
0.0
 40
0.0
 40
0.0
 40
0.0
 40
0.2935538466
 40
0.5616906478
 40
0.7971277813
 40
1.0
 40
1.0
 40
1.0
 40
1.0
 10
212.1416150741
 20
206.6416168234
 30
0.0
 10
211.9337884525
 20
206.8987759083
 30
0.0
 10
211.5000970189
 20
207.3639114662
 30
0.0
 10
210.7753838961
 20
207.9032797143
 30
0.0
 10
210.0427680584
 20
208.2336911734
 30
0.0
 10
209.540900772
 20
208.2934123811
 30
0.0
 10
209.3131761737
 20
208.2745798414
 30
0.0
  0
SPLINE
  5
41F
100
AcDbEntity
  8
0
100
AcDbSpline
 62
7
  6
BYLAYER
 70
0
 71
3
 72
10
 73
6
 74
0
 42
0.0000001
 43
0.0000001
 44
0.0000000001
 40
0.0
 40
0.0
 40
0.0
 40
0.0
 40
0.3151408063
 40
0.6343336578
 40
1.0
 40
1.0
 40
1.0
 40
1.0
 10
209.3131761737
 20
208.2745798414
 30
0.0
 10
209.0915954096
 20
208.2527923914
 30
0.0
 10
208.643072905
 20
208.1143627475
 30
0.0
 10
208.1480730135
 20
207.5716833433
 30
0.0
 10
207.9971398221
 20
207.0998735746
 30
0.0
 10
207.9491202106
 20
206.8460295737
 30
0.0
  0
SPLINE
  5
420
100
AcDbEntity
  8
0
100
AcDbSpline
 62
7
  6
BYLAYER
 70
0
 71
3
 72
10
 73
6
 74
0
 42
0.0000001
 43
0.0000001
 44
0.0000000001
 40
0.0
 40
0.0
 40
0.0
 40
0.0
 40
0.3198649437
 40
0.6590622398
 40
1.0
 40
1.0
 40
1.0
 40
1.0
 10
213.5056710373
 20
203.6380260328
 30
0.0
 10
213.4511817262
 20
203.9889879407
 30
0.0
 10
213.2657685104
 20
204.7020763844
 30
0.0
 10
212.8018413494
 20
205.7160687948
 30
0.0
 10
212.3777569097
 20
206.3457306857
 30
0.0
 10
212.1416150741
 20
206.6416168234
 30
0.0
  0
SPLINE
  5
421
100
AcDbEntity
  8
0
100
AcDbSpline
 62
7
  6
BYLAYER
 70
0
 71
3
 72
11
 73
7
 74
0
 42
0.0000001
 43
0.0000001
 44
0.0000000001
 40
0.0
 40
0.0
 40
0.0
 40
0.0
 40
0.2935538466
 40
0.5616906478
 40
0.7971277813
 40
1.0
 40
1.0
 40
1.0
 40
1.0
 10
200.8278594718
 20
213.1734688957
 30
0.0
 10
200.6200328501
 20
213.4306279806
 30
0.0
 10
200.1863414166
 20
213.8957635386
 30
0.0
 10
199.4616282937
 20
214.4351317866
 30
0.0
 10
198.7290124561
 20
214.7655432457
 30
0.0
 10
198.2271451696
 20
214.8252644534
 30
0.0
 10
197.9994205714
 20
214.8064319137
 30
0.0
  0
SPLINE
  5
422
100
AcDbEntity
  8
0
100
AcDbSpline
 62
7
  6
BYLAYER
 70
0
 71
3
 72
10
 73
6
 74
0
 42
0.0000001
 43
0.0000001
 44
0.0000000001
 40
0.0
 40
0.0
 40
0.0
 40
0.0
 40
0.3151408063
 40
0.6343336578
 40
1.0
 40
1.0
 40
1.0
 40
1.0
 10
197.9994205714
 20
214.8064319137
 30
0.0
 10
197.7778398072
 20
214.7846444638
 30
0.0
 10
197.3293173027
 20
214.6462148198
 30
0.0
 10
196.8343174112
 20
214.1035354156
 30
0.0
 10
196.6833842197
 20
213.6317256469
 30
0.0
 10
196.6353646082
 20
213.377881646
 30
0.0
  0
SPLINE
  5
423
100
AcDbEntity
  8
0
100
AcDbSpline
 62
7
  6
BYLAYER
 70
0
 71
3
 72
10
 73
6
 74
0
 42
0.0000001
 43
0.0000001
 44
0.0000000001
 40
0.0
 40
0.0
 40
0.0
 40
0.0
 40
0.3198649437
 40
0.6590622398
 40
1.0
 40
1.0
 40
1.0
 40
1.0
 10
202.1919154349
 20
210.1698781052
 30
0.0
 10
202.1374261238
 20
210.520840013
 30
0.0
 10
201.9520129081
 20
211.2339284567
 30
0.0
 10
201.4880857471
 20
212.2479208671
 30
0.0
 10
201.0640013074
 20
212.877582758
 30
0.0
 10
200.8278594718
 20
213.1734688957
 30
0.0
  0
SPLINE
  5
424
100
AcDbEntity
  8
0
100
AcDbSpline
 62
7
  6
BYLAYER
 70
0
 71
3
 72
11
 73
7
 74
0
 42
0.0000001
 43
0.0000001
 44
0.0000000001
 40
0.0
 40
0.0
 40
0.0
 40
0.0
 40
0.2935538466
 40
0.5616906478
 40
0.7971277813
 40
1.0
 40
1.0
 40
1.0
 40
1.0
 10
200.8278594718
 20
232.7695269068
 30
0.0
 10
200.6200328501
 20
233.0266859918
 30
0.0
 10
200.1863414166
 20
233.4918215497
 30
0.0
 10
199.4616282937
 20
234.0311897977
 30
0.0
 10
198.7290124561
 20
234.3616012568
 30
0.0
 10
198.2271451696
 20
234.4213224645
 30
0.0
 10
197.9994205714
 20
234.4024899248
 30
0.0
  0
SPLINE
  5
425
100
AcDbEntity
  8
0
100
AcDbSpline
 62
7
  6
BYLAYER
 70
0
 71
3
 72
10
 73
6
 74
0
 42
0.0000001
 43
0.0000001
 44
0.0000000001
 40
0.0
 40
0.0
 40
0.0
 40
0.0
 40
0.3151408063
 40
0.6343336578
 40
1.0
 40
1.0
 40
1.0
 40
1.0
 10
197.9994205714
 20
234.4024899248
 30
0.0
 10
197.7778398072
 20
234.3807024749
 30
0.0
 10
197.3293173027
 20
234.2422728309
 30
0.0
 10
196.8343174112
 20
233.6995934267
 30
0.0
 10
196.6833842197
 20
233.227783658
 30
0.0
 10
196.6353646082
 20
232.9739396571
 30
0.0
  0
SPLINE
  5
426
100
AcDbEntity
  8
0
100
AcDbSpline
 62
7
  6
BYLAYER
 70
0
 71
3
 72
10
 73
6
 74
0
 42
0.0000001
 43
0.0000001
 44
0.0000000001
 40
0.0
 40
0.0
 40
0.0
 40
0.0
 40
0.3198649437
 40
0.6590622398
 40
1.0
 40
1.0
 40
1.0
 40
1.0
 10
202.1919154349
 20
229.7659361163
 30
0.0
 10
202.1374261238
 20
230.1168980241
 30
0.0
 10
201.9520129081
 20
230.8299864678
 30
0.0
 10
201.4880857471
 20
231.8439788782
 30
0.0
 10
201.0640013074
 20
232.4736407691
 30
0.0
 10
200.8278594718
 20
232.7695269068
 30
0.0
  0
SPLINE
  5
427
100
AcDbEntity
  8
0
100
AcDbSpline
 62
7
  6
BYLAYER
 70
0
 71
3
 72
11
 73
7
 74
0
 42
0.0000001
 43
0.0000001
 44
0.0000000001
 40
0.0
 40
0.0
 40
0.0
 40
0.0
 40
0.2935538466
 40
0.5616906478
 40
0.7971277813
 40
1.0
 40
1.0
 40
1.0
 40
1.0
 10
212.1416150741
 20
226.2376748345
 30
0.0
 10
211.9337884525
 20
226.4948339194
 30
0.0
 10
211.5000970189
 20
226.9599694773
 30
0.0
 10
210.7753838961
 20
227.4993377254
 30
0.0
 10
210.0427680584
 20
227.8297491845
 30
0.0
 10
209.540900772
 20
227.8894703922
 30
0.0
 10
209.3131761737
 20
227.8706378525
 30
0.0
  0
SPLINE
  5
428
100
AcDbEntity
  8
0
100
AcDbSpline
 62
7
  6
BYLAYER
 70
0
 71
3
 72
10
 73
6
 74
0
 42
0.0000001
 43
0.0000001
 44
0.0000000001
 40
0.0
 40
0.0
 40
0.0
 40
0.0
 40
0.3151408063
 40
0.6343336578
 40
1.0
 40
1.0
 40
1.0
 40
1.0
 10
209.3131761737
 20
227.8706378525
 30
0.0
 10
209.0915954096
 20
227.8488504026
 30
0.0
 10
208.643072905
 20
227.7104207586
 30
0.0
 10
208.1480730135
 20
227.1677413544
 30
0.0
 10
207.9971398221
 20
226.6959315857
 30
0.0
 10
207.9491202106
 20
226.4420875848
 30
0.0
  0
SPLINE
  5
429
100
AcDbEntity
  8
0
100
AcDbSpline
 62
7
  6
BYLAYER
 70
0
 71
3
 72
10
 73
6
 74
0
 42
0.0000001
 43
0.0000001
 44
0.0000000001
 40
0.0
 40
0.0
 40
0.0
 40
0.0
 40
0.3198649437
 40
0.6590622398
 40
1.0
 40
1.0
 40
1.0
 40
1.0
 10
213.5056710373
 20
223.2340840439
 30
0.0
 10
213.4511817262
 20
223.5850459518
 30
0.0
 10
213.2657685104
 20
224.2981343955
 30
0.0
 10
212.8018413494
 20
225.3121268059
 30
0.0
 10
212.3777569097
 20
225.9417886968
 30
0.0
 10
212.1416150741
 20
226.2376748345
 30
0.0
  0
SPLINE
  5
42A
100
AcDbEntity
  8
0
100
AcDbSpline
 62
7
  6
BYLAYER
 70
0
 71
3
 72
22
 73
18
 74
0
 42
0.0000001
 43
0.0000001
 44
0.0000000001
 40
0.0
 40
0.0
 40
0.0
 40
0.0
 40
0.0649999522
 40
0.1223357451
 40
0.1734144172
 40
0.2209851309
 40
0.269804416
 40
0.3232949405
 40
0.3834711487
 40
0.4508095778
 40
0.5246495295
 40
0.6036038484
 40
0.6855922195
 40
0.7680086215
 40
0.8497487932
 40
0.9278170006
 40
1.0
 40
1.0
 40
1.0
 40
1.0
 10
194.0753840055
 20
119.4898613671
 30
0.0
 10
194.8798549068
 20
119.9512223149
 30
0.0
 10
196.4707292506
 20
120.7013721105
 30
0.0
 10
198.916532743
 20
121.2236353427
 30
0.0
 10
201.1744469193
 20
121.0410010105
 30
0.0
 10
203.1244236021
 20
120.1309832743
 30
0.0
 10
204.6340498311
 20
118.5546137714
 30
0.0
 10
205.6392012974
 20
116.4305779333
 30
0.0
 10
206.1292812771
 20
113.8735647807
 30
0.0
 10
206.1051648288
 20
110.9859437025
 30
0.0
 10
205.5750026194
 20
107.8787704319
 30
0.0
 10
204.5611724673
 20
104.6762439647
 30
0.0
 10
203.1067029877
 20
101.5141145187
 30
0.0
 10
201.2663292059
 20
98.5134321054
 30
0.0
 10
199.1102478441
 20
95.8008089707
 30
0.0
 10
196.7240307654
 20
93.4925809047
 30
0.0
 10
194.9660809294
 20
92.2457514337
 30
0.0
 10
194.0753799343
 20
91.7287770426
 30
0.0
  0
SPLINE
  5
42B
100
AcDbEntity
  8
0
100
AcDbSpline
 62
7
  6
BYLAYER
 70
0
 71
3
 72
22
 73
18
 74
0
 42
0.0000001
 43
0.0000001
 44
0.0000000001
 40
0.0
 40
0.0
 40
0.0
 40
0.0
 40
0.0642228322
 40
0.1212348136
 40
0.1722724964
 40
0.2200024244
 40
0.2690313022
 40
0.3227815044
 40
0.3831930566
 40
0.450747545
 40
0.5248347726
 40
0.6040164664
 40
0.6861994508
 40
0.7688182295
 40
0.8504614607
 40
0.9282306744
 40
1.0
 40
1.0
 40
1.0
 40
1.0
 10
194.0753799343
 20
91.7287770426
 30
0.0
 10
193.2829799849
 20
91.2712874493
 30
0.0
 10
191.707998722
 20
90.5306986395
 30
0.0
 10
189.2855791208
 20
90.0004299988
 30
0.0
 10
187.0331309328
 20
90.164042319
 30
0.0
 10
185.0720899136
 20
91.0539103667
 30
0.0
 10
183.5437245377
 20
92.6216568991
 30
0.0
 10
182.523600328
 20
94.7469032487
 30
0.0
 10
182.0238896302
 20
97.3089855706
 30
0.0
 10
182.0423374978
 20
100.2026996679
 30
0.0
 10
182.5695584026
 20
103.3159204663
 30
0.0
 10
183.582113348
 20
106.5238988902
 30
0.0
 10
185.036380205
 20
109.6905236832
 30
0.0
 10
186.8750511325
 20
112.6913412919
 30
0.0
 10
189.0243649355
 20
115.3996320201
 30
0.0
 10
191.396810249
 20
117.697960786
 30
0.0
 10
193.138733142
 20
118.944481617
 30
0.0
 10
194.022300723
 20
119.4590795073
 30
0.0
  0
SPLINE
  5
42C
100
AcDbEntity
  8
0
100
AcDbSpline
 62
7
  6
BYLAYER
 70
0
 71
3
 72
22
 73
18
 74
0
 42
0.0000001
 43
0.0000001
 44
0.0000000001
 40
0.0
 40
0.0
 40
0.0
 40
0.0
 40
0.0641749557
 40
0.1211436658
 40
0.1721928434
 40
0.2202629947
 40
0.269361397
 40
0.3231060113
 40
0.3836172463
 40
0.4514136371
 40
0.5257848779
 40
0.6051837363
 40
0.6875364337
 40
0.7704932403
 40
0.8516505328
 40
0.9287676798
 40
1.0
 40
1.0
 40
1.0
 40
1.0
 10
193.8986025029
 20
91.6267116492
 30
0.0
 10
193.0940022522
 20
91.1621782507
 30
0.0
 10
191.4947227465
 20
90.4102629442
 30
0.0
 10
189.0341181801
 20
89.8723242895
 30
0.0
 10
186.7407172647
 20
90.0405155264
 30
0.0
 10
184.7440358883
 20
90.9534425291
 30
0.0
 10
183.1944530513
 20
92.5582173284
 30
0.0
 10
182.1656697256
 20
94.7238825568
 30
0.0
 10
181.6655547933
 20
97.3337509873
 30
0.0
 10
181.6933738739
 20
100.2832372634
 30
0.0
 10
182.2405782634
 20
103.4557521609
 30
0.0
 10
183.2825230453
 20
106.7216472342
 30
0.0
 10
184.7750729304
 20
109.9442130979
 30
0.0
 10
186.6548715724
 20
112.9869943386
 30
0.0
 10
188.8426145735
 20
115.7211912662
 30
0.0
 10
191.2447873212
 20
118.030489341
 30
0.0
 10
193.0055198025
 20
119.2804265805
 30
0.0
 10
193.8986025032
 20
119.7960450403
 30
0.0
  0
SPLINE
  5
42D
100
AcDbEntity
  8
0
100
AcDbSpline
 62
7
  6
BYLAYER
 70
0
 71
3
 72
10
 73
6
 74
0
 42
0.0000001
 43
0.0000001
 44
0.0000000001
 40
0.0
 40
0.0
 40
0.0
 40
0.0
 40
0.3230746812
 40
0.6769840417
 40
1.0
 40
1.0
 40
1.0
 40
1.0
 10
193.8986025032
 20
119.7960450403
 30
0.0
 10
193.9327071683
 20
119.7763551481
 30
0.0
 10
193.9943731651
 20
119.718174052
 30
0.0
 10
194.0558311833
 20
119.6117202044
 30
0.0
 10
194.0753799307
 20
119.5292325642
 30
0.0
 10
194.0753799345
 20
119.4898592696
 30
0.0
  0
SPLINE
  5
42E
100
AcDbEntity
  8
0
100
AcDbSpline
 62
7
  6
BYLAYER
 70
0
 71
3
 72
10
 73
6
 74
0
 42
0.0000001
 43
0.0000001
 44
0.0000000001
 40
0.0
 40
0.0
 40
0.0
 40
0.0
 40
0.3550522013
 40
0.6449513185
 40
1.0
 40
1.0
 40
1.0
 40
1.0
 10
194.0753799342
 20
91.7287770425
 30
0.0
 10
194.0753799313
 20
91.6982746046
 30
0.0
 10
194.0663560876
 20
91.6376573625
 30
0.0
 10
193.982026565
 20
91.5889679883
 30
0.0
 10
193.9250182766
 20
91.6114608401
 30
0.0
 10
193.8986025029
 20
91.6267116492
 30
0.0
  0
SPLINE
  5
42F
100
AcDbEntity
  8
0
100
AcDbSpline
 62
7
  6
BYLAYER
 70
0
 71
3
 72
13
 73
9
 74
0
 42
0.0000001
 43
0.0000001
 44
0.0000000001
 40
0.0
 40
0.0
 40
0.0
 40
0.0
 40
0.1440261462
 40
0.2930395248
 40
0.4510885463
 40
0.6208617549
 40
0.8037324369
 40
1.0
 40
1.0
 40
1.0
 40
1.0
 10
185.2737488437
 20
90.7723556406
 30
0.0
 10
185.6560588047
 20
90.5516338751
 30
0.0
 10
186.4876240946
 20
90.1895439645
 30
0.0
 10
187.8545990667
 20
89.9248346821
 30
0.0
 10
189.3248665985
 20
89.9382055285
 30
0.0
 10
190.870194639
 20
90.2282565358
 30
0.0
 10
192.4627783534
 20
90.7872554843
 30
0.0
 10
193.5026220103
 20
91.3135444703
 30
0.0
 10
194.0236019433
 20
91.6143305794
 30
0.0
  0
SPLINE
  5
430
100
AcDbEntity
  8
0
100
AcDbSpline
 62
7
  6
BYLAYER
 70
0
 71
3
 72
22
 73
18
 74
0
 42
0.0000001
 43
0.0000001
 44
0.0000000001
 40
0.0
 40
0.0
 40
0.0
 40
0.0
 40
0.0649999522
 40
0.1223357451
 40
0.1734144172
 40
0.2209851309
 40
0.269804416
 40
0.3232949405
 40
0.3834711487
 40
0.4508095778
 40
0.5246495295
 40
0.6036038484
 40
0.6855922195
 40
0.7680086215
 40
0.8497487932
 40
0.9278170006
 40
1.0
 40
1.0
 40
1.0
 40
1.0
 10
194.0753840055
 20
199.5070982458
 30
0.0
 10
194.8798549068
 20
199.9684591936
 30
0.0
 10
196.4707292506
 20
200.7186089892
 30
0.0
 10
198.916532743
 20
201.2408722214
 30
0.0
 10
201.1744469193
 20
201.0582378892
 30
0.0
 10
203.1244236021
 20
200.148220153
 30
0.0
 10
204.6340498311
 20
198.5718506501
 30
0.0
 10
205.6392012974
 20
196.447814812
 30
0.0
 10
206.1292812771
 20
193.8908016594
 30
0.0
 10
206.1051648288
 20
191.0031805812
 30
0.0
 10
205.5750026194
 20
187.8960073106
 30
0.0
 10
204.5611724673
 20
184.6934808434
 30
0.0
 10
203.1067029877
 20
181.5313513974
 30
0.0
 10
201.2663292059
 20
178.5306689841
 30
0.0
 10
199.1102478441
 20
175.8180458494
 30
0.0
 10
196.7240307654
 20
173.5098177834
 30
0.0
 10
194.9660809294
 20
172.2629883124
 30
0.0
 10
194.0753799343
 20
171.7460139213
 30
0.0
  0
SPLINE
  5
431
100
AcDbEntity
  8
0
100
AcDbSpline
 62
7
  6
BYLAYER
 70
0
 71
3
 72
22
 73
18
 74
0
 42
0.0000001
 43
0.0000001
 44
0.0000000001
 40
0.0
 40
0.0
 40
0.0
 40
0.0
 40
0.0642228322
 40
0.1212348136
 40
0.1722724964
 40
0.2200024244
 40
0.2690313022
 40
0.3227815044
 40
0.3831930566
 40
0.450747545
 40
0.5248347726
 40
0.6040164664
 40
0.6861994508
 40
0.7688182295
 40
0.8504614607
 40
0.9282306744
 40
1.0
 40
1.0
 40
1.0
 40
1.0
 10
194.0753799343
 20
171.7460139213
 30
0.0
 10
193.2829799849
 20
171.288524328
 30
0.0
 10
191.707998722
 20
170.5479355182
 30
0.0
 10
189.2855791208
 20
170.0176668775
 30
0.0
 10
187.0331309328
 20
170.1812791977
 30
0.0
 10
185.0720899136
 20
171.0711472454
 30
0.0
 10
183.5437245377
 20
172.6388937778
 30
0.0
 10
182.523600328
 20
174.7641401274
 30
0.0
 10
182.0238896302
 20
177.3262224493
 30
0.0
 10
182.0423374978
 20
180.2199365466
 30
0.0
 10
182.5695584026
 20
183.333157345
 30
0.0
 10
183.582113348
 20
186.5411357689
 30
0.0
 10
185.036380205
 20
189.7077605619
 30
0.0
 10
186.8750511325
 20
192.7085781706
 30
0.0
 10
189.0243649355
 20
195.4168688988
 30
0.0
 10
191.396810249
 20
197.7151976647
 30
0.0
 10
193.138733142
 20
198.9617184957
 30
0.0
 10
194.022300723
 20
199.476316386
 30
0.0
  0
SPLINE
  5
432
100
AcDbEntity
  8
0
100
AcDbSpline
 62
7
  6
BYLAYER
 70
0
 71
3
 72
22
 73
18
 74
0
 42
0.0000001
 43
0.0000001
 44
0.0000000001
 40
0.0
 40
0.0
 40
0.0
 40
0.0
 40
0.0641749557
 40
0.1211436658
 40
0.1721928434
 40
0.2202629947
 40
0.269361397
 40
0.3231060113
 40
0.3836172463
 40
0.4514136371
 40
0.5257848779
 40
0.6051837363
 40
0.6875364337
 40
0.7704932403
 40
0.8516505328
 40
0.9287676798
 40
1.0
 40
1.0
 40
1.0
 40
1.0
 10
193.8986025029
 20
171.6439485279
 30
0.0
 10
193.0940022522
 20
171.1794151294
 30
0.0
 10
191.4947227465
 20
170.4274998228
 30
0.0
 10
189.0341181801
 20
169.8895611682
 30
0.0
 10
186.7407172647
 20
170.0577524051
 30
0.0
 10
184.7440358883
 20
170.9706794078
 30
0.0
 10
183.1944530513
 20
172.5754542071
 30
0.0
 10
182.1656697256
 20
174.7411194355
 30
0.0
 10
181.6655547933
 20
177.350987866
 30
0.0
 10
181.6933738739
 20
180.3004741421
 30
0.0
 10
182.2405782634
 20
183.4729890396
 30
0.0
 10
183.2825230453
 20
186.7388841129
 30
0.0
 10
184.7750729304
 20
189.9614499766
 30
0.0
 10
186.6548715724
 20
193.0042312173
 30
0.0
 10
188.8426145735
 20
195.7384281449
 30
0.0
 10
191.2447873212
 20
198.0477262197
 30
0.0
 10
193.0055198025
 20
199.2976634592
 30
0.0
 10
193.8986025032
 20
199.813281919
 30
0.0
  0
SPLINE
  5
433
100
AcDbEntity
  8
0
100
AcDbSpline
 62
7
  6
BYLAYER
 70
0
 71
3
 72
10
 73
6
 74
0
 42
0.0000001
 43
0.0000001
 44
0.0000000001
 40
0.0
 40
0.0
 40
0.0
 40
0.0
 40
0.3230746812
 40
0.6769840417
 40
1.0
 40
1.0
 40
1.0
 40
1.0
 10
193.8986025032
 20
199.813281919
 30
0.0
 10
193.9327071683
 20
199.7935920268
 30
0.0
 10
193.9943731651
 20
199.7354109307
 30
0.0
 10
194.0558311833
 20
199.6289570831
 30
0.0
 10
194.0753799307
 20
199.5464694429
 30
0.0
 10
194.0753799345
 20
199.5070961483
 30
0.0
  0
SPLINE
  5
434
100
AcDbEntity
  8
0
100
AcDbSpline
 62
7
  6
BYLAYER
 70
0
 71
3
 72
10
 73
6
 74
0
 42
0.0000001
 43
0.0000001
 44
0.0000000001
 40
0.0
 40
0.0
 40
0.0
 40
0.0
 40
0.3550522013
 40
0.6449513185
 40
1.0
 40
1.0
 40
1.0
 40
1.0
 10
194.0753799342
 20
171.7460139212
 30
0.0
 10
194.0753799313
 20
171.7155114833
 30
0.0
 10
194.0663560876
 20
171.6548942412
 30
0.0
 10
193.982026565
 20
171.606204867
 30
0.0
 10
193.9250182766
 20
171.6286977188
 30
0.0
 10
193.8986025029
 20
171.6439485279
 30
0.0
  0
SPLINE
  5
435
100
AcDbEntity
  8
0
100
AcDbSpline
 62
7
  6
BYLAYER
 70
0
 71
3
 72
13
 73
9
 74
0
 42
0.0000001
 43
0.0000001
 44
0.0000000001
 40
0.0
 40
0.0
 40
0.0
 40
0.0
 40
0.1440261462
 40
0.2930395248
 40
0.4510885463
 40
0.6208617549
 40
0.8037324369
 40
1.0
 40
1.0
 40
1.0
 40
1.0
 10
185.2737488437
 20
170.7895925193
 30
0.0
 10
185.6560588047
 20
170.5688707538
 30
0.0
 10
186.4876240946
 20
170.2067808432
 30
0.0
 10
187.8545990667
 20
169.9420715608
 30
0.0
 10
189.3248665985
 20
169.9554424072
 30
0.0
 10
190.870194639
 20
170.2454934145
 30
0.0
 10
192.4627783534
 20
170.804492363
 30
0.0
 10
193.5026220103
 20
171.330781349
 30
0.0
 10
194.0236019433
 20
171.6315674581
 30
0.0
  0
SPLINE
  5
436
100
AcDbEntity
  8
0
100
AcDbSpline
 62
7
  6
BYLAYER
 70
0
 71
3
 72
12
 73
8
 74
0
 42
0.0000001
 43
0.0000001
 44
0.0000000001
 40
0.0
 40
0.0
 40
0.0
 40
0.0
 40
0.1922104812
 40
0.3970667372
 40
0.606236165
 40
0.8099220064
 40
1.0
 40
1.0
 40
1.0
 40
1.0
 10
78.5760852741
 20
134.6511812579
 30
0.0
 10
78.2607370337
 20
134.4551857465
 30
0.0
 10
77.6548595251
 20
133.9728577096
 30
0.0
 10
76.906543458
 20
133.0633784721
 30
0.0
 10
76.3140679638
 20
132.0212939676
 30
0.0
 10
75.9181109268
 20
130.9188103695
 30
0.0
 10
75.8167384341
 20
130.1572842723
 30
0.0
 10
75.8119354969
 20
129.7901416652
 30
0.0
  0
SPLINE
  5
437
100
AcDbEntity
  8
0
100
AcDbSpline
 62
7
  6
BYLAYER
 70
0
 71
3
 72
12
 73
8
 74
0
 42
0.0000001
 43
0.0000001
 44
0.0000000001
 40
0.0
 40
0.0
 40
0.0
 40
0.0
 40
0.2298408614
 40
0.417514757
 40
0.5879794088
 40
0.7734791893
 40
1.0
 40
1.0
 40
1.0
 40
1.0
 10
75.8119354969
 20
115.7628323597
 30
0.0
 10
75.8161949494
 20
115.4482719413
 30
0.0
 10
75.8789533794
 20
114.8705861159
 30
0.0
 10
76.2762241491
 20
114.1371442491
 30
0.0
 10
76.9446194569
 20
113.7325309074
 30
0.0
 10
77.7723611461
 20
113.7275183153
 30
0.0
 10
78.3025364902
 20
113.947597271
 30
0.0
 10
78.576085274
 20
114.0935389507
 30
0.0
  0
SPLINE
  5
438
100
AcDbEntity
  8
0
100
AcDbSpline
 62
7
  6
BYLAYER
 70
0
 71
3
 72
12
 73
8
 74
0
 42
0.0000001
 43
0.0000001
 44
0.0000000001
 40
0.0
 40
0.0
 40
0.0
 40
0.0
 40
0.224848111
 40
0.4135483732
 40
0.5864572498
 40
0.7751551273
 40
1.0
 40
1.0
 40
1.0
 40
1.0
 10
73.0188756343
 20
108.0896785258
 30
0.0
 10
73.0188756343
 20
107.7764842638
 30
0.0
 10
73.0876086291
 20
107.1946251774
 30
0.0
 10
73.4906185025
 20
106.4490415294
 30
0.0
 10
74.1906010802
 20
106.0448927429
 30
0.0
 10
75.0377945788
 20
106.068651773
 30
0.0
 10
75.5760602975
 20
106.3000512981
 30
0.0
 10
75.8472909831
 20
106.4566454728
 30
0.0
  0
SPLINE
  5
439
100
AcDbEntity
  8
0
100
AcDbSpline
 62
7
  6
BYLAYER
 70
0
 71
3
 72
12
 73
8
 74
0
 42
0.0000001
 43
0.0000001
 44
0.0000000001
 40
0.0
 40
0.0
 40
0.0
 40
0.0
 40
0.2248448727
 40
0.4135427502
 40
0.5864516268
 40
0.775151889
 40
1.0
 40
1.0
 40
1.0
 40
1.0
 10
73.5845398626
 20
107.7630158872
 30
0.0
 10
73.313309177
 20
107.6064217126
 30
0.0
 10
72.7750434584
 20
107.3750221874
 30
0.0
 10
71.9278499597
 20
107.3512631574
 30
0.0
 10
71.2278673821
 20
107.7554119438
 30
0.0
 10
70.8248575087
 20
108.5009955918
 30
0.0
 10
70.7561245138
 20
109.0828546783
 30
0.0
 10
70.7561245138
 20
109.3960489403
 30
0.0
  0
SPLINE
  5
43A
100
AcDbEntity
  8
0
100
AcDbSpline
 62
7
  6
BYLAYER
 70
0
 71
3
 72
10
 73
6
 74
0
 42
0.0000001
 43
0.0000001
 44
0.0000000001
 40
0.0
 40
0.0
 40
0.0
 40
0.0
 40
0.3777324942
 40
0.7064766427
 40
1.0
 40
1.0
 40
1.0
 40
1.0
 10
54.2803750073
 20
129.5222964425
 30
0.0
 10
54.1197399111
 20
129.4288806126
 30
0.0
 10
53.8336263753
 20
129.2254760826
 30
0.0
 10
53.5181864905
 20
128.8377481534
 30
0.0
 10
53.4211108804
 20
128.5375752786
 30
0.0
 10
53.406344442
 20
128.3939354951
 30
0.0
  0
SPLINE
  5
43B
100
AcDbEntity
  8
0
100
AcDbSpline
 62
7
  6
BYLAYER
 70
0
 71
3
 72
16
 73
12
 74
0
 42
0.0000001
 43
0.0000001
 44
0.0000000001
 40
0.0
 40
0.0
 40
0.0
 40
0.0
 40
0.1281965524
 40
0.2653751032
 40
0.4017263713
 40
0.5288093648
 40
0.6392771046
 40
0.7312645645
 40
0.8111287356
 40
0.8956231344
 40
1.0
 40
1.0
 40
1.0
 40
1.0
 10
57.8153677667
 20
127.4814052967
 30
0.0
 10
57.6289487848
 20
127.3833381556
 30
0.0
 10
57.2154688977
 20
127.2296272716
 30
0.0
 10
56.5560923995
 20
127.1463623744
 30
0.0
 10
55.8952934032
 20
127.1874714225
 30
0.0
 10
55.2970530354
 20
127.3478660922
 30
0.0
 10
54.8169657691
 20
127.611028139
 30
0.0
 10
54.4944217526
 20
127.9640457389
 30
0.0
 10
54.4010836117
 20
128.4007341951
 30
0.0
 10
54.5929044431
 20
128.8257616294
 30
0.0
 10
54.843129051
 20
129.0219868585
 30
0.0
 10
54.9880262302
 20
129.1137347656
 30
0.0
  0
SPLINE
  5
43C
100
AcDbEntity
  8
0
100
AcDbSpline
 62
7
  6
BYLAYER
 70
0
 71
3
 72
12
 73
8
 74
0
 42
0.0000001
 43
0.0000001
 44
0.0000000001
 40
0.0
 40
0.0
 40
0.0
 40
0.0
 40
0.3032408568
 40
0.4713968911
 40
0.4864270566
 40
0.6490289012
 40
1.0
 40
1.0
 40
1.0
 40
1.0
 10
53.406344442
 20
128.3939354951
 30
0.0
 10
53.3400809235
 20
128.2939590021
 30
0.0
 10
53.2925361899
 20
128.1349424667
 30
0.0
 10
53.050758579
 20
127.9924135783
 30
0.0
 10
53.1266480126
 20
127.8650927704
 30
0.0
 10
53.3176884045
 20
128.1803216077
 30
0.0
 10
53.4616079919
 20
128.2151337647
 30
0.0
 10
53.5732812185
 20
128.2975984988
 30
0.0
  0
SPLINE
  5
43D
100
AcDbEntity
  8
0
100
AcDbSpline
 62
7
  6
BYLAYER
 70
0
 71
3
 72
10
 73
6
 74
0
 42
0.0000001
 43
0.0000001
 44
0.0000000001
 40
0.0
 40
0.0
 40
0.0
 40
0.0
 40
0.2444835218
 40
0.5832491618
 40
1.0
 40
1.0
 40
1.0
 40
1.0
 10
80.0737167572
 20
112.326016913
 30
0.0
 10
80.1708360933
 20
112.2825744414
 30
0.0
 10
80.4198282351
 20
112.2201777291
 30
0.0
 10
80.855066984
 20
112.1857457396
 30
0.0
 10
81.1841154486
 20
112.2219996995
 30
0.0
 10
81.362682072
 20
112.2537015798
 30
0.0
  0
SPLINE
  5
43E
100
AcDbEntity
  8
0
100
AcDbSpline
 62
7
  6
BYLAYER
 70
0
 71
3
 72
11
 73
7
 74
0
 42
0.0000001
 43
0.0000001
 44
0.0000000001
 40
0.0
 40
0.0
 40
0.0
 40
0.0
 40
0.299801714
 40
0.5846497865
 40
0.8227881718
 40
1.0
 40
1.0
 40
1.0
 40
1.0
 10
53.573281221
 20
157.6304478328
 30
0.0
 10
53.4091672771
 20
157.9384933233
 30
0.0
 10
53.1692810294
 20
158.5837258142
 30
0.0
 10
53.0378565468
 20
159.5408149435
 30
0.0
 10
53.1173568935
 20
160.3586338523
 30
0.0
 10
53.2918546554
 20
160.8211631281
 30
0.0
 10
53.4063444421
 20
160.992794499
 30
0.0
  0
SPLINE
  5
43F
100
AcDbEntity
  8
0
100
AcDbSpline
 62
7
  6
BYLAYER
 70
0
 71
3
 72
10
 73
6
 74
0
 42
0.0000001
 43
0.0000001
 44
0.0000000001
 40
0.0
 40
0.0
 40
0.0
 40
0.0
 40
0.3723662172
 40
0.6990114665
 40
1.0
 40
1.0
 40
1.0
 40
1.0
 10
81.362682072
 20
144.8525605837
 30
0.0
 10
81.1766075336
 20
144.819317549
 30
0.0
 10
80.8344723527
 20
144.7145099192
 30
0.0
 10
80.3833207525
 20
144.4710033836
 30
0.0
 10
80.1597933284
 20
144.2346073327
 30
0.0
 10
80.0737167572
 20
144.1083734997
 30
0.0
  0
SPLINE
  5
440
100
AcDbEntity
  8
0
100
AcDbSpline
 62
7
  6
BYLAYER
 70
0
 71
3
 72
16
 73
12
 74
0
 42
0.0000001
 43
0.0000001
 44
0.0000000001
 40
0.0
 40
0.0
 40
0.0
 40
0.0
 40
0.104701816
 40
0.1893693772
 40
0.2694266291
 40
0.3616532148
 40
0.4722953011
 40
0.5993781683
 40
0.7355031288
 40
0.8722743145
 40
1.0
 40
1.0
 40
1.0
 40
1.0
 10
54.9880262302
 20
161.7125937695
 30
0.0
 10
54.842708702
 20
161.6205152748
 30
0.0
 10
54.5917684703
 20
161.4237208078
 30
0.0
 10
54.4005283442
 20
160.9968768735
 30
0.0
 10
54.4961824412
 20
160.5595633517
 30
0.0
 10
54.8206594079
 20
160.2070816021
 30
0.0
 10
55.3019760299
 20
159.9448266327
 30
0.0
 10
55.9003976534
 20
159.7855725494
 30
0.0
 10
56.5601877509
 20
159.7454484864
 30
0.0
 10
57.2176279902
 20
159.829173088
 30
0.0
 10
57.62966377
 20
159.9825048828
 30
0.0
 10
57.8153677667
 20
160.0802643006
 30
0.0
  0
SPLINE
  5
441
100
AcDbEntity
  8
0
100
AcDbSpline
 62
7
  6
BYLAYER
 70
0
 71
3
 72
10
 73
6
 74
0
 42
0.0000001
 43
0.0000001
 44
0.0000000001
 40
0.0
 40
0.0
 40
0.0
 40
0.0
 40
0.2935233573
 40
0.6222675056
 40
1.0
 40
1.0
 40
1.0
 40
1.0
 10
53.4063444421
 20
160.992794499
 30
0.0
 10
53.4211108804
 20
161.1364342825
 30
0.0
 10
53.5181864905
 20
161.4366071573
 30
0.0
 10
53.8336263754
 20
161.8243350866
 30
0.0
 10
54.1197399113
 20
162.0277396166
 30
0.0
 10
54.2803750076
 20
162.1211554466
 30
0.0
  0
SPLINE
  5
442
100
AcDbEntity
  8
0
100
AcDbSpline
 62
7
  6
BYLAYER
 70
0
 71
3
 72
12
 73
8
 74
0
 42
0.0000001
 43
0.0000001
 44
0.0000000001
 40
0.0
 40
0.0
 40
0.0
 40
0.0
 40
0.1870622221
 40
0.3933866665
 40
0.6066102549
 40
0.8129358049
 40
1.0
 40
1.0
 40
1.0
 40
1.0
 10
75.8472909831
 20
139.0555044767
 30
0.0
 10
75.5303464287
 20
138.8725175451
 30
0.0
 10
74.9178115763
 20
138.3924638716
 30
0.0
 10
74.1468841358
 20
137.4821809922
 30
0.0
 10
73.5312081956
 20
136.4157925005
 30
0.0
 10
73.1283467356
 20
135.2930009324
 30
0.0
 10
73.0188756343
 20
134.5224975542
 30
0.0
 10
73.0188756343
 20
134.1565181926
 30
0.0
  0
SPLINE
  5
443
100
AcDbEntity
  8
0
100
AcDbSpline
 62
7
  6
BYLAYER
 70
0
 71
3
 72
12
 73
8
 74
0
 42
0.0000001
 43
0.0000001
 44
0.0000000001
 40
0.0
 40
0.0
 40
0.0
 40
0.0
 40
0.1870641951
 40
0.3933897451
 40
0.6066133335
 40
0.8129377779
 40
1.0
 40
1.0
 40
1.0
 40
1.0
 10
70.7561245138
 20
135.4628886071
 30
0.0
 10
70.7561245138
 20
135.8288679686
 30
0.0
 10
70.8655956151
 20
136.5993713469
 30
0.0
 10
71.2684570751
 20
137.7221629149
 30
0.0
 10
71.8841330153
 20
138.7885514067
 30
0.0
 10
72.6550604558
 20
139.698834286
 30
0.0
 10
73.2675953082
 20
140.1788879596
 30
0.0
 10
73.5845398626
 20
140.3618748911
 30
0.0
  0
SPLINE
  5
444
100
AcDbEntity
  8
0
100
AcDbSpline
 62
7
  6
BYLAYER
 70
0
 71
3
 72
12
 73
8
 74
0
 42
0.0000001
 43
0.0000001
 44
0.0000000001
 40
0.0
 40
0.0
 40
0.0
 40
0.0
 40
0.1910771423
 40
0.3955903087
 40
0.6050310655
 40
0.8093096241
 40
1.0
 40
1.0
 40
1.0
 40
1.0
 10
73.2309910927
 20
140.1577475774
 30
0.0
 10
72.9500155418
 20
139.9902808796
 30
0.0
 10
72.4086306307
 20
139.572016913
 30
0.0
 10
71.7394483695
 20
138.7734267486
 30
0.0
 10
71.2080236564
 20
137.8524318217
 30
0.0
 10
70.8518968112
 20
136.8744467363
 30
0.0
 10
70.7605703279
 20
136.1975284789
 30
0.0
 10
70.7561215698
 20
135.8711240251
 30
0.0
  0
SPLINE
  5
445
100
AcDbEntity
  8
0
100
AcDbSpline
 62
7
  6
BYLAYER
 70
0
 71
3
 72
12
 73
8
 74
0
 42
0.0000001
 43
0.0000001
 44
0.0000000001
 40
0.0
 40
0.0
 40
0.0
 40
0.0
 40
0.2289443008
 40
0.4153423433
 40
0.5851754615
 40
0.7714559715
 40
1.0
 40
1.0
 40
1.0
 40
1.0
 10
70.7561215698
 20
109.8042984267
 30
0.0
 10
70.7600606967
 20
109.5252794119
 30
0.0
 10
70.8160837973
 20
109.0132959535
 30
0.0
 10
71.1749570106
 20
108.365484536
 30
0.0
 10
71.7773919321
 20
108.0183695967
 30
0.0
 10
72.5170575571
 20
108.0322857559
 30
0.0
 10
72.9878461988
 20
108.2394658243
 30
0.0
 10
73.2309910908
 20
108.3753909895
 30
0.0
  0
SPLINE
  5
446
100
AcDbEntity
  8
0
100
AcDbSpline
 62
7
  6
BYLAYER
 70
0
 71
3
 72
10
 73
6
 74
0
 42
0.0000001
 43
0.0000001
 44
0.0000000001
 40
0.0
 40
0.0
 40
0.0
 40
0.0
 40
0.292798872
 40
0.6182300522
 40
1.0
 40
1.0
 40
1.0
 40
1.0
 10
80.0737167572
 20
112.326016913
 30
0.0
 10
79.9738893201
 20
112.3700422952
 30
0.0
 10
79.7849815802
 20
112.5200756735
 30
0.0
 10
79.6240482891
 20
112.8663815041
 30
0.0
 10
79.594919535
 20
113.1320812807
 30
0.0
 10
79.594919535
 20
113.2743384836
 30
0.0
  0
SPLINE
  5
447
100
AcDbEntity
  8
0
100
AcDbSpline
 62
7
  6
BYLAYER
 70
0
 71
3
 72
12
 73
8
 74
0
 42
0.0000001
 43
0.0000001
 44
0.0000000001
 40
0.0
 40
0.0
 40
0.0
 40
0.0
 40
0.2269031858
 40
0.4125171475
 40
0.5829853041
 40
0.7705467204
 40
1.0
 40
1.0
 40
1.0
 40
1.0
 10
75.9951347773
 20
115.5836177047
 30
0.0
 10
75.7210856548
 20
115.4375021722
 30
0.0
 10
75.1902384101
 20
115.2171227344
 30
0.0
 10
74.3616614922
 20
115.2230519729
 30
0.0
 10
73.6939480513
 20
115.6287986641
 30
0.0
 10
73.2978540412
 20
116.3619279469
 30
0.0
 10
73.235156142
 20
116.9388801321
 30
0.0
 10
73.2309850001
 20
117.2529111137
 30
0.0
  0
SPLINE
  5
448
100
AcDbEntity
  8
0
100
AcDbSpline
 62
7
  6
BYLAYER
 70
0
 71
3
 72
12
 73
8
 74
0
 42
0.0000001
 43
0.0000001
 44
0.0000000001
 40
0.0
 40
0.0
 40
0.0
 40
0.0
 40
0.1904540183
 40
0.394367957
 40
0.603538809
 40
0.8081682024
 40
1.0
 40
1.0
 40
1.0
 40
1.0
 10
73.2309850001
 20
131.2802204192
 30
0.0
 10
73.2358895979
 20
131.6480880949
 30
0.0
 10
73.3374861946
 20
132.410784374
 30
0.0
 10
73.7343936066
 20
133.5141989696
 30
0.0
 10
74.327372783
 20
134.5560023495
 30
0.0
 10
75.0753738889
 20
135.4641936554
 30
0.0
 10
75.6803599121
 20
135.9457277823
 30
0.0
 10
75.9951347773
 20
136.1412600119
 30
0.0
  0
SPLINE
  5
449
100
AcDbEntity
  8
0
100
AcDbSpline
 62
7
  6
BYLAYER
 70
0
 71
3
 72
10
 73
6
 74
0
 42
0.0000001
 43
0.0000001
 44
0.0000000001
 40
0.0
 40
0.0
 40
0.0
 40
0.0
 40
0.308287855
 40
0.6470186086
 40
1.0
 40
1.0
 40
1.0
 40
1.0
 10
79.594919535
 20
142.607187819
 30
0.0
 10
79.594919535
 20
142.770885438
 30
0.0
 10
79.6388358397
 20
143.1148610721
 30
0.0
 10
79.8039093462
 20
143.6218897474
 30
0.0
 10
79.974187468
 20
143.9495537673
 30
0.0
 10
80.0737167572
 20
144.1083734997
 30
0.0
  0
SPLINE
  5
44A
100
AcDbEntity
  8
0
100
AcDbSpline
 62
7
  6
BYLAYER
 70
0
 71
3
 72
19
 73
15
 74
0
 42
0.0000001
 43
0.0000001
 44
0.0000000001
 40
0.0
 40
0.0
 40
0.0
 40
0.0
 40
0.0931520224
 40
0.1939865225
 40
0.2981129381
 40
0.4008374996
 40
0.497211202
 40
0.5854906685
 40
0.6632320452
 40
0.7304953705
 40
0.7910096021
 40
0.8516949785
 40
0.9198711067
 40
1.0
 40
1.0
 40
1.0
 40
1.0
 10
191.5949237418
 20
142.9665433
 30
0.0
 10
191.5912388042
 20
143.5126325219
 30
0.0
 10
191.45791175
 20
144.6512091937
 30
0.0
 10
190.933996976
 20
146.3266727136
 30
0.0
 10
190.1343583167
 20
147.9511382898
 30
0.0
 10
189.1168837093
 20
149.4170445668
 30
0.0
 10
187.9504005001
 20
150.6427061835
 30
0.0
 10
186.7043489122
 20
151.5610580876
 30
0.0
 10
185.4412373425
 20
152.1204805682
 30
0.0
 10
184.2221234953
 20
152.2741114766
 30
0.0
 10
183.1235309377
 20
151.9593497226
 30
0.0
 10
182.2879776988
 20
151.1710689567
 30
0.0
 10
181.7957705422
 20
150.0211828318
 30
0.0
 10
181.708990383
 20
149.1455301229
 30
0.0
 10
181.7060019848
 20
148.6757857781
 30
0.0
  0
SPLINE
  5
44B
100
AcDbEntity
  8
0
100
AcDbSpline
 62
7
  6
BYLAYER
 70
0
 71
3
 72
19
 73
15
 74
0
 42
0.0000001
 43
0.0000001
 44
0.0000000001
 40
0.0
 40
0.0
 40
0.0
 40
0.0
 40
0.0931520224
 40
0.1939865225
 40
0.2981129381
 40
0.4008374996
 40
0.497211202
 40
0.5854906685
 40
0.6632320452
 40
0.7304953705
 40
0.7910096021
 40
0.8516949785
 40
0.9198711067
 40
1.0
 40
1.0
 40
1.0
 40
1.0
 10
181.7060019848
 20
148.6757857781
 30
0.0
 10
181.7096869225
 20
148.1296965562
 30
0.0
 10
181.8430139767
 20
146.9911198844
 30
0.0
 10
182.3669287506
 20
145.3156563645
 30
0.0
 10
183.1665674099
 20
143.6911907883
 30
0.0
 10
184.1840420174
 20
142.2252845113
 30
0.0
 10
185.3505252265
 20
140.9996228946
 30
0.0
 10
186.5965768144
 20
140.0812709905
 30
0.0
 10
187.8596883842
 20
139.5218485099
 30
0.0
 10
189.0788022313
 20
139.3682176015
 30
0.0
 10
190.1773947889
 20
139.6829793555
 30
0.0
 10
191.0129480278
 20
140.4712601214
 30
0.0
 10
191.5051551844
 20
141.6211462463
 30
0.0
 10
191.5919353436
 20
142.4967989552
 30
0.0
 10
191.5949237418
 20
142.9665433
 30
0.0
  0
SPLINE
  5
44C
100
AcDbEntity
  8
0
100
AcDbSpline
 62
7
  6
BYLAYER
 70
0
 71
3
 72
23
 73
19
 74
0
 42
0.0000001
 43
0.0000001
 44
0.0000000001
 40
0.0
 40
0.0
 40
0.0
 40
0.0
 40
0.0665861753
 40
0.1384320381
 40
0.2140567982
 40
0.2916500164
 40
0.3692433223
 40
0.4448683389
 40
0.5167146057
 40
0.583301295
 40
0.6436808698
 40
0.6976955324
 40
0.7462785277
 40
0.7916514742
 40
0.8370242707
 40
0.8856068668
 40
0.9396209922
 40
1.0
 40
1.0
 40
1.0
 40
1.0
 10
189.0546159098
 20
227.1786312525
 30
0.0
 10
190.1651442652
 20
226.5374819123
 30
0.0
 10
192.3586447026
 20
224.9998860606
 30
0.0
 10
195.3767933402
 20
222.1762182357
 30
0.0
 10
198.1581915485
 20
218.8384061283
 30
0.0
 10
200.5980648668
 20
215.111696044
 30
0.0
 10
202.60559736
 20
211.1352531293
 30
0.0
 10
204.1055415806
 20
207.0578994733
 30
0.0
 10
205.0418943811
 20
203.0311650202
 30
0.0
 10
205.3791163088
 20
199.2024736521
 30
0.0
 10
205.1009724817
 20
195.7083684039
 30
0.0
 10
204.2053780755
 20
192.6709186959
 30
0.0
 10
202.6969537307
 20
190.2052467611
 30
0.0
 10
200.6032696298
 20
188.4441327558
 30
0.0
 10
198.0313247137
 20
187.5114325202
 30
0.0
 10
195.1416472657
 20
187.437964974
 30
0.0
 10
192.0640209573
 20
188.1806243124
 30
0.0
 10
190.061620742
 20
189.133739283
 30
0.0
 10
189.0546159098
 20
189.7151206414
 30
0.0
  0
SPLINE
  5
44D
100
AcDbEntity
  8
0
100
AcDbSpline
 62
7
  6
BYLAYER
 70
0
 71
3
 72
23
 73
19
 74
0
 42
0.0000001
 43
0.0000001
 44
0.0000000001
 40
0.0
 40
0.0
 40
0.0
 40
0.0
 40
0.0603790078
 40
0.1143931332
 40
0.1629757293
 40
0.2083485258
 40
0.2537214723
 40
0.3023044676
 40
0.3563191302
 40
0.416698705
 40
0.4832853943
 40
0.5551316611
 40
0.6307566777
 40
0.7083499836
 40
0.7859432018
 40
0.8615679619
 40
0.9334138247
 40
1.0
 40
1.0
 40
1.0
 40
1.0
 10
186.2969109447
 20
188.0751681529
 30
0.0
 10
187.3064854838
 20
187.4923032071
 30
0.0
 10
189.3139954876
 20
186.5367560474
 30
0.0
 10
192.3994753806
 20
185.7922015673
 30
0.0
 10
195.2965267994
 20
185.8658565903
 30
0.0
 10
197.8750348862
 20
186.8009369201
 30
0.0
 10
199.9740617167
 20
188.5665449919
 30
0.0
 10
201.4863353067
 20
191.0385089067
 30
0.0
 10
202.3842151191
 20
194.0837096754
 30
0.0
 10
202.6630687225
 20
197.5867312925
 30
0.0
 10
202.3249862612
 20
201.4251928368
 30
0.0
 10
201.3862440459
 20
205.4622028389
 30
0.0
 10
199.8824722199
 20
209.5499612155
 30
0.0
 10
197.8698168415
 20
213.5365513436
 30
0.0
 10
195.423717377
 20
217.2727713651
 30
0.0
 10
192.6352215083
 20
220.6191010075
 30
0.0
 10
189.6093710631
 20
223.4499743578
 30
0.0
 10
187.4102731816
 20
224.9914938954
 30
0.0
 10
186.2969109447
 20
225.6342793408
 30
0.0
  0
SPLINE
  5
44E
100
AcDbEntity
  8
0
100
AcDbSpline
 62
7
  6
BYLAYER
 70
0
 71
3
 72
23
 73
19
 74
0
 42
0.0000001
 43
0.0000001
 44
0.0000000001
 40
0.0
 40
0.0
 40
0.0
 40
0.0
 40
0.0665861753
 40
0.1384320381
 40
0.2140567982
 40
0.2916500164
 40
0.3692433223
 40
0.4448683389
 40
0.5167146057
 40
0.583301295
 40
0.6436808698
 40
0.6976955324
 40
0.7462785277
 40
0.7916514742
 40
0.8370242707
 40
0.8856068668
 40
0.9396209922
 40
1.0
 40
1.0
 40
1.0
 40
1.0
 10
189.0546159098
 20
189.7151206414
 30
0.0
 10
187.9440875545
 20
190.3562699815
 30
0.0
 10
185.7505871171
 20
191.8938658332
 30
0.0
 10
182.7324384795
 20
194.7175336582
 30
0.0
 10
179.9510402711
 20
198.0553457656
 30
0.0
 10
177.5111669529
 20
201.7820558498
 30
0.0
 10
175.5036344597
 20
205.7584987646
 30
0.0
 10
174.0036902391
 20
209.8358524205
 30
0.0
 10
173.0673374385
 20
213.8625868737
 30
0.0
 10
172.7301155109
 20
217.6912782418
 30
0.0
 10
173.008259338
 20
221.18538349
 30
0.0
 10
173.9038537442
 20
224.222833198
 30
0.0
 10
175.412278089
 20
226.6885051328
 30
0.0
 10
177.5059621899
 20
228.449619138
 30
0.0
 10
180.0779071059
 20
229.3823193737
 30
0.0
 10
182.967584554
 20
229.4557869198
 30
0.0
 10
186.0452108624
 20
228.7131275814
 30
0.0
 10
188.0476110777
 20
227.7600126108
 30
0.0
 10
189.0546159098
 20
227.1786312525
 30
0.0
  0
SPLINE
  5
44F
100
AcDbEntity
  8
0
100
AcDbSpline
 62
7
  6
BYLAYER
 70
0
 71
3
 72
23
 73
19
 74
0
 42
0.0000001
 43
0.0000001
 44
0.0000000001
 40
0.0
 40
0.0
 40
0.0
 40
0.0
 40
0.0603790078
 40
0.1143931332
 40
0.1629757293
 40
0.2083485258
 40
0.2537214723
 40
0.3023044676
 40
0.3563191302
 40
0.416698705
 40
0.4832853943
 40
0.5551316611
 40
0.6307566777
 40
0.7083499836
 40
0.7859432018
 40
0.8615679619
 40
0.9334138247
 40
1.0
 40
1.0
 40
1.0
 40
1.0
 10
186.2969109447
 20
225.6342793408
 30
0.0
 10
185.2873364056
 20
226.2171442866
 30
0.0
 10
183.2798264018
 20
227.1726914462
 30
0.0
 10
180.1943465089
 20
227.9172459263
 30
0.0
 10
177.29729509
 20
227.8435909034
 30
0.0
 10
174.7187870032
 20
226.9085105736
 30
0.0
 10
172.6197601727
 20
225.1429025017
 30
0.0
 10
171.1074865827
 20
222.6709385869
 30
0.0
 10
170.2096067703
 20
219.6257378182
 30
0.0
 10
169.9307531669
 20
216.1227162012
 30
0.0
 10
170.2688356282
 20
212.2842546568
 30
0.0
 10
171.2075778435
 20
208.2472446547
 30
0.0
 10
172.7113496695
 20
204.1594862781
 30
0.0
 10
174.7240050479
 20
200.17289615
 30
0.0
 10
177.1701045124
 20
196.4366761285
 30
0.0
 10
179.9586003811
 20
193.0903464862
 30
0.0
 10
182.9844508263
 20
190.2594731359
 30
0.0
 10
185.1835487078
 20
188.7179535983
 30
0.0
 10
186.2969109447
 20
188.0751681529
 30
0.0
  0
SPLINE
  5
450
100
AcDbEntity
  8
0
100
AcDbSpline
 62
7
  6
BYLAYER
 70
0
 71
3
 72
15
 73
11
 74
0
 42
0.0000001
 43
0.0000001
 44
0.0000000001
 40
0.0
 40
0.0
 40
0.0
 40
0.0
 40
0.11415488
 40
0.2373266737
 40
0.36697668
 40
0.500001082
 40
0.6330253335
 40
0.7626749002
 40
0.8858460013
 40
1.0
 40
1.0
 40
1.0
 40
1.0
 10
174.7320990302
 20
216.7157978546
 30
0.0
 10
174.7320990302
 20
215.5836283613
 30
0.0
 10
174.9394657775
 20
213.2276624045
 30
0.0
 10
175.7661477829
 20
209.6734211562
 30
0.0
 10
177.0904555134
 20
206.073246293
 30
0.0
 10
178.8629040735
 20
202.562522724
 30
0.0
 10
181.0170688188
 20
199.2721893027
 30
0.0
 10
183.4727652436
 20
196.3252403321
 30
0.0
 10
186.1374887985
 20
193.8322225495
 30
0.0
 10
188.0741303921
 20
192.4746794089
 30
0.0
 10
189.0546159096
 20
191.9086086376
 30
0.0
  0
SPLINE
  5
451
100
AcDbEntity
  8
0
100
AcDbSpline
 62
7
  6
BYLAYER
 70
0
 71
3
 72
15
 73
11
 74
0
 42
0.0000001
 43
0.0000001
 44
0.0000000001
 40
0.0
 40
0.0
 40
0.0
 40
0.0
 40
0.1448984772
 40
0.274522411
 40
0.391111677
 40
0.499998016
 40
0.6088847151
 40
0.725474939
 40
0.8551001622
 40
1.0
 40
1.0
 40
1.0
 40
1.0
 10
189.0546159096
 20
191.9086086376
 30
0.0
 10
189.9437005055
 20
191.3953070193
 30
0.0
 10
191.7116197202
 20
190.5538015486
 30
0.0
 10
194.428856055
 20
189.8981085313
 30
0.0
 10
196.980152432
 20
189.9629700779
 30
0.0
 10
199.2509224238
 20
190.7864612137
 30
0.0
 10
201.0994371202
 20
192.3413108798
 30
0.0
 10
202.4312211136
 20
194.518409933
 30
0.0
 10
203.2219584882
 20
197.1994879752
 30
0.0
 10
203.377132789
 20
199.1513237437
 30
0.0
 10
203.377132789
 20
200.177954039
 30
0.0
  0
SPLINE
  5
452
100
AcDbEntity
  8
0
100
AcDbSpline
 62
7
  6
BYLAYER
 70
0
 71
3
 72
22
 73
18
 74
0
 42
0.0000001
 43
0.0000001
 44
0.0000000001
 40
0.0
 40
0.0
 40
0.0
 40
0.0
 40
0.0712323775
 40
0.1483494805
 40
0.2295066421
 40
0.3124632511
 40
0.3948157096
 40
0.474214317
 40
0.5485853282
 40
0.6163815471
 40
0.6768927067
 40
0.730637376
 40
0.7797359739
 40
0.8278064211
 40
0.8788559127
 40
0.935824881
 40
1.0
 40
1.0
 40
1.0
 40
1.0
 10
192.6608454796
 20
226.8584269653
 30
0.0
 10
193.696277051
 20
226.2606337927
 30
0.0
 10
195.7376540964
 20
224.8114903197
 30
0.0
 10
198.5227131556
 20
222.1341454987
 30
0.0
 10
201.0591641136
 20
218.9641793736
 30
0.0
 10
203.2385869398
 20
215.4364444019
 30
0.0
 10
204.9690368006
 20
211.7002681447
 30
0.0
 10
206.1770588779
 20
207.9138541208
 30
0.0
 10
206.8114830338
 20
204.2357003877
 30
0.0
 10
206.8437360022
 20
200.8161188272
 30
0.0
 10
206.2639062472
 20
197.7902810268
 30
0.0
 10
205.071142313
 20
195.279442295
 30
0.0
 10
203.2745690682
 20
193.4188888591
 30
0.0
 10
200.9596362861
 20
192.3604485728
 30
0.0
 10
198.3006892886
 20
192.1654375728
 30
0.0
 10
195.447885985
 20
192.7890992048
 30
0.0
 10
193.5936929656
 20
193.660847735
 30
0.0
 10
192.6608454796
 20
194.1994152981
 30
0.0
  0
SPLINE
  5
453
100
AcDbEntity
  8
0
100
AcDbSpline
 62
7
  6
BYLAYER
 70
0
 71
3
 72
15
 73
11
 74
0
 42
0.0000001
 43
0.0000001
 44
0.0000000001
 40
0.0
 40
0.0
 40
0.0
 40
0.0
 40
0.11415488
 40
0.2373266737
 40
0.36697668
 40
0.500001082
 40
0.6330253335
 40
0.7626749002
 40
0.8858460013
 40
1.0
 40
1.0
 40
1.0
 40
1.0
 10
203.377132789
 20
200.177954039
 30
0.0
 10
203.377132789
 20
201.3101235323
 30
0.0
 10
203.1697660417
 20
203.6660894891
 30
0.0
 10
202.3430840364
 20
207.2203307374
 30
0.0
 10
201.0187763058
 20
210.8205056006
 30
0.0
 10
199.2463277457
 20
214.3312291696
 30
0.0
 10
197.0921630004
 20
217.6215625909
 30
0.0
 10
194.6364665757
 20
220.5685115615
 30
0.0
 10
191.9717430207
 20
223.0615293441
 30
0.0
 10
190.0351014272
 20
224.4190724847
 30
0.0
 10
189.0546159096
 20
224.985143256
 30
0.0
  0
SPLINE
  5
454
100
AcDbEntity
  8
0
100
AcDbSpline
 62
7
  6
BYLAYER
 70
0
 71
3
 72
15
 73
11
 74
0
 42
0.0000001
 43
0.0000001
 44
0.0000000001
 40
0.0
 40
0.0
 40
0.0
 40
0.0
 40
0.1448984772
 40
0.274522411
 40
0.391111677
 40
0.499998016
 40
0.6088847151
 40
0.725474939
 40
0.8551001622
 40
1.0
 40
1.0
 40
1.0
 40
1.0
 10
189.0546159096
 20
224.985143256
 30
0.0
 10
188.1655313137
 20
225.4984448743
 30
0.0
 10
186.397612099
 20
226.3399503449
 30
0.0
 10
183.6803757642
 20
226.9956433623
 30
0.0
 10
181.1290793872
 20
226.9307818157
 30
0.0
 10
178.8583093954
 20
226.1072906799
 30
0.0
 10
177.009794699
 20
224.5524410138
 30
0.0
 10
175.6780107056
 20
222.3753419606
 30
0.0
 10
174.887273331
 20
219.6942639184
 30
0.0
 10
174.7320990302
 20
217.7424281499
 30
0.0
 10
174.7320990302
 20
216.7157978546
 30
0.0
  0
SPLINE
  5
455
100
AcDbEntity
  8
0
100
AcDbSpline
 62
7
  6
BYLAYER
 70
0
 71
3
 72
22
 73
18
 74
0
 42
0.0000001
 43
0.0000001
 44
0.0000000001
 40
0.0
 40
0.0
 40
0.0
 40
0.0
 40
0.0712323775
 40
0.1483494805
 40
0.2295066421
 40
0.3124632511
 40
0.3948157096
 40
0.474214317
 40
0.5485853282
 40
0.6163815471
 40
0.6768927067
 40
0.730637376
 40
0.7797359739
 40
0.8278064211
 40
0.8788559127
 40
0.935824881
 40
1.0
 40
1.0
 40
1.0
 40
1.0
 10
192.6608454796
 20
194.1994152981
 30
0.0
 10
191.6254139082
 20
194.7972084707
 30
0.0
 10
189.5840368629
 20
196.2463519437
 30
0.0
 10
186.7989778037
 20
198.9236967646
 30
0.0
 10
184.2625268457
 20
202.0936628898
 30
0.0
 10
182.0831040195
 20
205.6213978614
 30
0.0
 10
180.3526541587
 20
209.3575741187
 30
0.0
 10
179.1446320813
 20
213.1439881426
 30
0.0
 10
178.5102079255
 20
216.8221418757
 30
0.0
 10
178.477954957
 20
220.2417234362
 30
0.0
 10
179.057784712
 20
223.2675612366
 30
0.0
 10
180.2505486463
 20
225.7783999684
 30
0.0
 10
182.0471218911
 20
227.6389534043
 30
0.0
 10
184.3620546732
 20
228.6973936905
 30
0.0
 10
187.0210016706
 20
228.8924046905
 30
0.0
 10
189.8738049743
 20
228.2687430586
 30
0.0
 10
191.7279979937
 20
227.3969945283
 30
0.0
 10
192.6608454796
 20
226.8584269653
 30
0.0
  0
SPLINE
  5
456
100
AcDbEntity
  8
0
100
AcDbSpline
 62
7
  6
BYLAYER
 70
0
 71
3
 72
17
 73
13
 74
0
 42
0.0000001
 43
0.0000001
 44
0.0000000001
 40
0.0
 40
0.0
 40
0.0
 40
0.0
 40
0.1141770056
 40
0.2374183075
 40
0.361643512
 40
0.4793784486
 40
0.5864260337
 40
0.6782579614
 40
0.7551285597
 40
0.8259656546
 40
0.9045576316
 40
1.0
 40
1.0
 40
1.0
 40
1.0
 10
196.5852717762
 20
118.8968982158
 30
0.0
 10
196.827122396
 20
118.7613310035
 30
0.0
 10
197.3671137261
 20
118.5422530003
 30
0.0
 10
198.2383605365
 20
118.3955612697
 30
0.0
 10
199.1296443653
 20
118.4044795909
 30
0.0
 10
199.9668623122
 20
118.5645389987
 30
0.0
 10
200.6839785131
 20
118.8593560643
 30
0.0
 10
201.2256598318
 20
119.269250301
 30
0.0
 10
201.5418316492
 20
119.7824347889
 30
0.0
 10
201.5487336111
 20
120.3607081333
 30
0.0
 10
201.2321517907
 20
120.8916089303
 30
0.0
 10
200.8858877097
 20
121.146614185
 30
0.0
 10
200.686474032
 20
121.2647143082
 30
0.0
  0
SPLINE
  5
457
100
AcDbEntity
  8
0
100
AcDbSpline
 62
7
  6
BYLAYER
 70
0
 71
3
 72
17
 73
13
 74
0
 42
0.0000001
 43
0.0000001
 44
0.0000000001
 40
0.0
 40
0.0
 40
0.0
 40
0.0
 40
0.1141770056
 40
0.2374183075
 40
0.361643512
 40
0.4793784486
 40
0.5864260337
 40
0.6782579614
 40
0.7551285597
 40
0.8259656546
 40
0.9045576316
 40
1.0
 40
1.0
 40
1.0
 40
1.0
 10
200.686474032
 20
121.2647143082
 30
0.0
 10
200.4446234122
 20
121.4002815205
 30
0.0
 10
199.9046320821
 20
121.6193595237
 30
0.0
 10
199.0333852717
 20
121.7660512542
 30
0.0
 10
198.1421014429
 20
121.7571329331
 30
0.0
 10
197.304883496
 20
121.5970735253
 30
0.0
 10
196.5877672951
 20
121.3022564597
 30
0.0
 10
196.0460859764
 20
120.892362223
 30
0.0
 10
195.7299141589
 20
120.3791777351
 30
0.0
 10
195.7230121971
 20
119.8009043906
 30
0.0
 10
196.0395940175
 20
119.2700035936
 30
0.0
 10
196.3858580985
 20
119.014998339
 30
0.0
 10
196.5852717762
 20
118.8968982158
 30
0.0
  0
SPLINE
  5
458
100
AcDbEntity
  8
0
100
AcDbSpline
 62
7
  6
BYLAYER
 70
0
 71
3
 72
10
 73
6
 74
0
 42
0.0000001
 43
0.0000001
 44
0.0000000001
 40
0.0
 40
0.0
 40
0.0
 40
0.0
 40
0.3455171025
 40
0.6667843467
 40
1.0
 40
1.0
 40
1.0
 40
1.0
 10
198.6358905679
 20
118.2642829506
 30
0.0
 10
198.3801674764
 20
118.2894823187
 30
0.0
 10
197.8888587785
 20
118.3648998938
 30
0.0
 10
197.1705633393
 20
118.5676413955
 30
0.0
 10
196.7299513367
 20
118.780664631
 30
0.0
 10
196.5145613924
 20
118.9032145894
 30
0.0
  0
SPLINE
  5
459
100
AcDbEntity
  8
0
100
AcDbSpline
 62
7
  6
BYLAYER
 70
0
 71
3
 72
10
 73
6
 74
0
 42
0.0000001
 43
0.0000001
 44
0.0000000001
 40
0.0
 40
0.0
 40
0.0
 40
0.0
 40
0.2901261372
 40
0.6149975987
 40
1.0
 40
1.0
 40
1.0
 40
1.0
 10
196.5145613924
 20
118.9032145894
 30
0.0
 10
196.2811446443
 20
119.0399045794
 30
0.0
 10
195.8071249283
 20
119.3661323994
 30
0.0
 10
195.1071858234
 20
119.9837619728
 30
0.0
 10
194.6400257682
 20
120.4530761211
 30
0.0
 10
194.393232217
 20
120.7137274777
 30
0.0
  0
SPLINE
  5
45A
100
AcDbEntity
  8
0
100
AcDbSpline
 62
7
  6
BYLAYER
 70
0
 71
3
 72
10
 73
6
 74
0
 42
0.0000001
 43
0.0000001
 44
0.0000000001
 40
0.0
 40
0.0
 40
0.0
 40
0.0
 40
0.3449730197
 40
0.6661799708
 40
1.0
 40
1.0
 40
1.0
 40
1.0
 10
194.393232217
 20
282.7483480761
 30
0.0
 10
194.6485579065
 20
282.7232463743
 30
0.0
 10
195.1394210862
 20
282.6479059165
 30
0.0
 10
195.8577552762
 20
282.4452978086
 30
0.0
 10
196.2987285123
 20
282.2320959349
 30
0.0
 10
196.5145613924
 20
282.1094164373
 30
0.0
  0
SPLINE
  5
45B
100
AcDbEntity
  8
0
100
AcDbSpline
 62
7
  6
BYLAYER
 70
0
 71
3
 72
10
 73
6
 74
0
 42
0.0000001
 43
0.0000001
 44
0.0000000001
 40
0.0
 40
0.0
 40
0.0
 40
0.0
 40
0.2894491525
 40
0.6143335914
 40
1.0
 40
1.0
 40
1.0
 40
1.0
 10
196.5145613924
 20
282.1094164373
 30
0.0
 10
196.7474986495
 20
281.9731559708
 30
0.0
 10
197.2210015587
 20
281.6472581706
 30
0.0
 10
197.9210338458
 20
281.0297418555
 30
0.0
 10
198.3886399255
 20
280.5599753813
 30
0.0
 10
198.6358905679
 20
280.298903549
 30
0.0
  0
SPLINE
  5
45C
100
AcDbEntity
  8
0
100
AcDbSpline
 62
7
  6
BYLAYER
 70
0
 71
3
 72
11
 73
7
 74
0
 42
0.0000001
 43
0.0000001
 44
0.0000000001
 40
0.0
 40
0.0
 40
0.0
 40
0.0
 40
0.2275596939
 40
0.4435969591
 40
0.689664586
 40
1.0
 40
1.0
 40
1.0
 40
1.0
 10
194.393232217
 20
120.7137274777
 30
0.0
 10
194.7729108719
 20
120.7468136289
 30
0.0
 10
195.5099776409
 20
120.8794014568
 30
0.0
 10
196.5834495015
 20
121.335720992
 30
0.0
 10
197.6163153772
 20
122.1292555536
 30
0.0
 10
198.2806907965
 20
122.7837206457
 30
0.0
 10
198.6358552403
 20
123.1631924009
 30
0.0
  0
SPLINE
  5
45D
100
AcDbEntity
  8
0
100
AcDbSpline
 62
7
  6
BYLAYER
 70
0
 71
3
 72
11
 73
7
 74
0
 42
0.0000001
 43
0.0000001
 44
0.0000000001
 40
0.0
 40
0.0
 40
0.0
 40
0.0
 40
0.2270298728
 40
0.4435921854
 40
0.6889860636
 40
1.0
 40
1.0
 40
1.0
 40
1.0
 10
198.6358552403
 20
285.1978129993
 30
0.0
 10
198.2570317759
 20
285.1651363312
 30
0.0
 10
197.5200324798
 20
285.0322024565
 30
0.0
 10
196.4474020299
 20
284.5768650433
 30
0.0
 10
195.4135320493
 20
283.7831583015
 30
0.0
 10
194.7493312714
 20
283.1285014708
 30
0.0
 10
194.393232217
 20
282.7483480761
 30
0.0
  0
SPLINE
  5
45E
100
AcDbEntity
  8
0
100
AcDbSpline
 62
7
  6
BYLAYER
 70
0
 71
3
 72
10
 73
6
 74
0
 42
0.0000001
 43
0.0000001
 44
0.0000000001
 40
0.0
 40
0.0
 40
0.0
 40
0.0
 40
0.3328594359
 40
0.6541719252
 40
1.0
 40
1.0
 40
1.0
 40
1.0
 10
200.7571844157
 20
121.3526795126
 30
0.0
 10
200.9723345577
 20
121.2302441242
 30
0.0
 10
201.412756952
 20
121.0173864928
 30
0.0
 10
202.1309723654
 20
120.8143758922
 30
0.0
 10
202.6225600493
 20
120.7389651867
 30
0.0
 10
202.8785135912
 20
120.7137478738
 30
0.0
  0
SPLINE
  5
45F
100
AcDbEntity
  8
0
100
AcDbSpline
 62
7
  6
BYLAYER
 70
0
 71
3
 72
10
 73
6
 74
0
 42
0.0000001
 43
0.0000001
 44
0.0000000001
 40
0.0
 40
0.0
 40
0.0
 40
0.0
 40
0.3840884143
 40
0.7089643601
 40
1.0
 40
1.0
 40
1.0
 40
1.0
 10
202.8785135912
 20
282.7483684722
 30
0.0
 10
202.6323320343
 20
283.0084252982
 30
0.0
 10
202.1657419623
 20
283.4770990009
 30
0.0
 10
201.4660198101
 20
284.094986518
 30
0.0
 10
200.9912643393
 20
284.421646386
 30
0.0
 10
200.7571844157
 20
284.5588813605
 30
0.0
  0
SPLINE
  5
460
100
AcDbEntity
  8
0
100
AcDbSpline
 62
7
  6
BYLAYER
 70
0
 71
3
 72
10
 73
6
 74
0
 42
0.0000001
 43
0.0000001
 44
0.0000000001
 40
0.0
 40
0.0
 40
0.0
 40
0.0
 40
0.3321603299
 40
0.6535418054
 40
1.0
 40
1.0
 40
1.0
 40
1.0
 10
200.7571844157
 20
284.5588813605
 30
0.0
 10
200.5425447178
 20
284.681163319
 30
0.0
 10
200.1025390513
 20
284.8938083687
 30
0.0
 10
199.3843738709
 20
285.0969906604
 30
0.0
 10
198.8922692808
 20
285.1724857268
 30
0.0
 10
198.6358552403
 20
285.1978129993
 30
0.0
  0
SPLINE
  5
461
100
AcDbEntity
  8
0
100
AcDbSpline
 62
7
  6
BYLAYER
 70
0
 71
3
 72
10
 73
6
 74
0
 42
0.0000001
 43
0.0000001
 44
0.0000000001
 40
0.0
 40
0.0
 40
0.0
 40
0.0
 40
0.3846607778
 40
0.7095516671
 40
1.0
 40
1.0
 40
1.0
 40
1.0
 10
198.6358552403
 20
123.1631924009
 30
0.0
 10
198.8824321926
 20
122.9027743952
 30
0.0
 10
199.3494119214
 20
122.433711407
 30
0.0
 10
200.0492065015
 20
121.8159122134
 30
0.0
 10
200.5235187162
 20
121.4895390418
 30
0.0
 10
200.7571844157
 20
121.3526795126
 30
0.0
  0
SPLINE
  5
462
100
AcDbEntity
  8
0
100
AcDbSpline
 62
7
  6
BYLAYER
 70
0
 71
3
 72
11
 73
7
 74
0
 42
0.0000001
 43
0.0000001
 44
0.0000000001
 40
0.0
 40
0.0
 40
0.0
 40
0.0
 40
0.3110127874
 40
0.5564077609
 40
0.7729725896
 40
1.0
 40
1.0
 40
1.0
 40
1.0
 10
202.8785135912
 20
120.7137478738
 30
0.0
 10
202.522416133
 20
120.3335956281
 30
0.0
 10
201.8582151302
 20
119.6789392656
 30
0.0
 10
200.8243423734
 20
118.8852290335
 30
0.0
 10
199.7517091579
 20
118.4298931868
 30
0.0
 10
199.0147100572
 20
118.2969576653
 30
0.0
 10
198.6358905679
 20
118.2642829506
 30
0.0
  0
SPLINE
  5
463
100
AcDbEntity
  8
0
100
AcDbSpline
 62
7
  6
BYLAYER
 70
0
 71
3
 72
11
 73
7
 74
0
 42
0.0000001
 43
0.0000001
 44
0.0000000001
 40
0.0
 40
0.0
 40
0.0
 40
0.0
 40
0.3103385445
 40
0.5564030026
 40
0.7724393983
 40
1.0
 40
1.0
 40
1.0
 40
1.0
 10
198.6358905679
 20
280.298903549
 30
0.0
 10
198.9910593514
 20
280.6783784309
 30
0.0
 10
199.6554338821
 20
281.3328444511
 30
0.0
 10
200.6882999063
 20
282.1263760497
 30
0.0
 10
201.761766532
 20
282.582694309
 30
0.0
 10
202.4988334691
 20
282.7152816013
 30
0.0
 10
202.8785135912
 20
282.7483684722
 30
0.0
  0
SPLINE
  5
464
100
AcDbEntity
  8
0
100
AcDbSpline
 62
7
  6
BYLAYER
 70
0
 71
3
 72
14
 73
10
 74
0
 42
0.0000001
 43
0.0000001
 44
0.0000000001
 40
0.0
 40
0.0
 40
0.0
 40
0.0
 40
0.142625072
 40
0.2903652138
 40
0.4401975532
 40
0.588986763
 40
0.7336701145
 40
0.8714467278
 40
1.0
 40
1.0
 40
1.0
 40
1.0
 10
216.0610553716
 20
212.4412920286
 30
0.0
 10
215.796592493
 20
213.6297968882
 30
0.0
 10
215.1029771678
 20
216.0168105519
 30
0.0
 10
213.6544365185
 20
219.4917515878
 30
0.0
 10
211.8210059097
 20
222.8403735376
 30
0.0
 10
209.6620344696
 20
225.9571029814
 30
0.0
 10
207.2448924974
 20
228.7445420712
 30
0.0
 10
204.6452698136
 20
231.1133562254
 30
0.0
 10
202.7682598403
 20
232.413521046
 30
0.0
 10
201.8178401715
 20
232.962233684
 30
0.0
  0
SPLINE
  5
465
100
AcDbEntity
  8
0
100
AcDbSpline
 62
7
  6
BYLAYER
 70
0
 71
3
 72
14
 73
10
 74
0
 42
0.0000001
 43
0.0000001
 44
0.0000000001
 40
0.0
 40
0.0
 40
0.0
 40
0.0
 40
0.1716743103
 40
0.3258971203
 40
0.4650028856
 40
0.5941696142
 40
0.721061601
 40
0.8540657878
 40
1.0
 40
1.0
 40
1.0
 40
1.0
 10
201.8178401715
 20
232.962233684
 30
0.0
 10
200.9507519473
 20
233.4628359786
 30
0.0
 10
199.2283659977
 20
234.2922979004
 30
0.0
 10
196.5863502701
 20
234.9867238911
 30
0.0
 10
194.0941212965
 20
235.0349170539
 30
0.0
 10
191.8375098419
 20
234.4091056398
 30
0.0
 10
189.9249006518
 20
233.1152734867
 30
0.0
 10
188.4494970727
 20
231.2224004976
 30
0.0
 10
187.8187826427
 20
229.7028981983
 30
0.0
 10
187.5746249715
 20
228.8875682239
 30
0.0
  0
SPLINE
  5
466
100
AcDbEntity
  8
0
100
AcDbSpline
 62
7
  6
BYLAYER
 70
0
 71
3
 72
14
 73
10
 74
0
 42
0.0000001
 43
0.0000001
 44
0.0000000001
 40
0.0
 40
0.0
 40
0.0
 40
0.0
 40
0.1421461065
 40
0.2898726019
 40
0.4399994792
 40
0.589181375
 40
0.7341373699
 40
0.8718854469
 40
1.0
 40
1.0
 40
1.0
 40
1.0
 10
215.0003996158
 20
211.8289257978
 30
0.0
 10
214.7368247025
 20
213.0134401122
 30
0.0
 10
214.0449050861
 20
215.3965075287
 30
0.0
 10
212.5982560242
 20
218.8704148613
 30
0.0
 10
210.7628562499
 20
222.2245601749
 30
0.0
 10
208.5992017767
 20
225.3480825913
 30
0.0
 10
206.1777664187
 20
228.139055507
 30
0.0
 10
203.5783856212
 20
230.5056956623
 30
0.0
 10
201.7043611138
 20
231.8030271028
 30
0.0
 10
200.7571844157
 20
232.3498674532
 30
0.0
  0
SPLINE
  5
467
100
AcDbEntity
  8
0
100
AcDbSpline
 62
7
  6
BYLAYER
 70
0
 71
3
 72
14
 73
10
 74
0
 42
0.0000001
 43
0.0000001
 44
0.0000000001
 40
0.0
 40
0.0
 40
0.0
 40
0.0
 40
0.171140294
 40
0.3254171432
 40
0.4648280467
 40
0.5943358838
 40
0.7214832542
 40
0.8545191845
 40
1.0
 40
1.0
 40
1.0
 40
1.0
 10
200.7571844157
 20
232.3498674532
 30
0.0
 10
199.8927942754
 20
232.8489120435
 30
0.0
 10
198.1732167598
 20
233.6775008622
 30
0.0
 10
195.5327228905
 20
234.3735176479
 30
0.0
 10
193.0363151862
 20
234.4234607716
 30
0.0
 10
190.7743262637
 20
233.7962653243
 30
0.0
 10
188.8595020002
 20
232.4987725635
 30
0.0
 10
187.3865867288
 20
230.605255999
 30
0.0
 10
186.7573680739
 20
229.0879980192
 30
0.0
 10
186.5139692157
 20
228.275201993
 30
0.0
  0
SPLINE
  5
468
100
AcDbEntity
  8
0
100
AcDbSpline
 62
7
  6
BYLAYER
 70
0
 71
3
 72
10
 73
6
 74
0
 42
0.0000001
 43
0.0000001
 44
0.0000000001
 40
0.0
 40
0.0
 40
0.0
 40
0.0
 40
0.3200239891
 40
0.6535361768
 40
1.0
 40
1.0
 40
1.0
 40
1.0
 10
220.6627465087
 20
207.6301540229
 30
0.0
 10
220.7105830334
 20
208.0637151005
 30
0.0
 10
220.773201834
 20
208.9532805136
 30
0.0
 10
220.7713232783
 20
210.3172411462
 30
0.0
 10
220.7087419331
 20
211.2426819009
 30
0.0
 10
220.6627465087
 20
211.7126661086
 30
0.0
  0
SPLINE
  5
469
100
AcDbEntity
  8
0
100
AcDbSpline
 62
7
  6
BYLAYER
 70
0
 71
3
 72
10
 73
6
 74
0
 42
0.0000001
 43
0.0000001
 44
0.0000000001
 40
0.0
 40
0.0
 40
0.0
 40
0.0
 40
0.3200239891
 40
0.6535361768
 40
1.0
 40
1.0
 40
1.0
 40
1.0
 10
191.1753383461
 20
228.7368440106
 30
0.0
 10
191.1275018214
 20
228.303282933
 30
0.0
 10
191.0648830208
 20
227.41371752
 30
0.0
 10
191.0667615765
 20
226.0497568873
 30
0.0
 10
191.1293429217
 20
225.1243161326
 30
0.0
 10
191.1753383461
 20
224.6543319249
 30
0.0
  0
SPLINE
  5
46A
100
AcDbEntity
  8
0
100
AcDbSpline
 62
7
  6
BYLAYER
 70
0
 71
3
 72
12
 73
8
 74
0
 42
0.0000001
 43
0.0000001
 44
0.0000000001
 40
0.0
 40
0.0
 40
0.0
 40
0.0
 40
0.2250130766
 40
0.4158722639
 40
0.5908181437
 40
0.7788947427
 40
1.0
 40
1.0
 40
1.0
 40
1.0
 10
220.6627464584
 20
211.7126661376
 30
0.0
 10
220.6582983418
 20
211.8726276352
 30
0.0
 10
220.6146414084
 20
212.1702813171
 30
0.0
 10
220.3998094316
 20
212.5482550277
 30
0.0
 10
220.041784327
 20
212.7560819523
 30
0.0
 10
219.6109731517
 20
212.7501519316
 30
0.0
 10
219.3379499088
 20
212.6346608925
 30
0.0
 10
219.2016482355
 20
212.5562543225
 30
0.0
  0
SPLINE
  5
46B
100
AcDbEntity
  8
0
100
AcDbSpline
 62
7
  6
BYLAYER
 70
0
 71
3
 72
12
 73
8
 74
0
 42
0.0000001
 43
0.0000001
 44
0.0000000001
 40
0.0
 40
0.0
 40
0.0
 40
0.0
 40
0.2285673635
 40
0.4178604029
 40
0.5886025485
 40
0.7750938744
 40
1.0
 40
1.0
 40
1.0
 40
1.0
 10
189.807836205
 20
229.5263956949
 30
0.0
 10
189.9426859969
 20
229.6045561936
 30
0.0
 10
190.2078466178
 20
229.7203789254
 30
0.0
 10
190.6240225962
 20
229.7383815873
 30
0.0
 10
190.9661803963
 20
229.5421918102
 30
0.0
 10
191.1543502075
 20
229.1744260978
 30
0.0
 10
191.1795418025
 20
228.8902538311
 30
0.0
 10
191.1751558042
 20
228.7369493988
 30
0.0
  0
SPLINE
  5
46C
100
AcDbEntity
  8
0
100
AcDbSpline
 62
7
  6
BYLAYER
 70
0
 71
3
 72
12
 73
8
 74
0
 42
0.0000001
 43
0.0000001
 44
0.0000000001
 40
0.0
 40
0.0
 40
0.0
 40
0.0
 40
0.1878118043
 40
0.3950340331
 40
0.6087039914
 40
0.8145758077
 40
1.0
 40
1.0
 40
1.0
 40
1.0
 10
219.2018333014
 20
205.2076257229
 30
0.0
 10
219.3607932314
 20
205.2990421685
 30
0.0
 10
219.668918087
 20
205.5376675452
 30
0.0
 10
220.0609645156
 20
205.9880679528
 30
0.0
 10
220.3788383172
 20
206.5147533316
 30
0.0
 10
220.5929636863
 20
207.0683362907
 30
0.0
 10
220.6577516681
 20
207.4490819926
 30
0.0
 10
220.6629291084
 20
207.6300486013
 30
0.0
  0
SPLINE
  5
46D
100
AcDbEntity
  8
0
100
AcDbSpline
 62
7
  6
BYLAYER
 70
0
 71
3
 72
12
 73
8
 74
0
 42
0.0000001
 43
0.0000001
 44
0.0000000001
 40
0.0
 40
0.0
 40
0.0
 40
0.0
 40
0.1888684816
 40
0.3957265254
 40
0.6085023883
 40
0.8138490901
 40
1.0
 40
1.0
 40
1.0
 40
1.0
 10
191.1753383966
 20
224.6543318958
 30
0.0
 10
191.1804857532
 20
224.4692253173
 30
0.0
 10
191.1357564634
 20
224.0793701586
 30
0.0
 10
190.9469895479
 20
223.510045556
 30
0.0
 10
190.6491632387
 20
222.9703496303
 30
0.0
 10
190.2703091044
 20
222.5105912449
 30
0.0
 10
189.9659382267
 20
222.2692735648
 30
0.0
 10
189.8080210942
 20
222.1777671973
 30
0.0
  0
SPLINE
  5
46E
100
AcDbEntity
  8
0
100
AcDbSpline
 62
7
  6
BYLAYER
 70
0
 71
3
 72
10
 73
6
 74
0
 42
0.0000001
 43
0.0000001
 44
0.0000000001
 40
0.0
 40
0.0
 40
0.0
 40
0.0
 40
0.3198649437
 40
0.6590622398
 40
1.0
 40
1.0
 40
1.0
 40
1.0
 10
207.9491202106
 20
205.621275948
 30
0.0
 10
208.0036095216
 20
205.2703140401
 30
0.0
 10
208.1890227374
 20
204.5572255964
 30
0.0
 10
208.6529498984
 20
203.5432331861
 30
0.0
 10
209.0770343381
 20
202.9135712951
 30
0.0
 10
209.3131761737
 20
202.6176851574
 30
0.0
  0
SPLINE
  5
46F
100
AcDbEntity
  8
0
100
AcDbSpline
 62
7
  6
BYLAYER
 70
0
 71
3
 72
11
 73
7
 74
0
 42
0.0000001
 43
0.0000001
 44
0.0000000001
 40
0.0
 40
0.0
 40
0.0
 40
0.0
 40
0.2935538466
 40
0.5616906478
 40
0.7971277813
 40
1.0
 40
1.0
 40
1.0
 40
1.0
 10
209.3131761737
 20
202.6176851574
 30
0.0
 10
209.5210027954
 20
202.3605260725
 30
0.0
 10
209.9546942289
 20
201.8953905146
 30
0.0
 10
210.6794073517
 20
201.3560222665
 30
0.0
 10
211.4120231894
 20
201.0256108074
 30
0.0
 10
211.9138904758
 20
200.9658895997
 30
0.0
 10
212.1416150741
 20
200.9847221394
 30
0.0
  0
SPLINE
  5
470
100
AcDbEntity
  8
0
100
AcDbSpline
 62
7
  6
BYLAYER
 70
0
 71
3
 72
10
 73
6
 74
0
 42
0.0000001
 43
0.0000001
 44
0.0000000001
 40
0.0
 40
0.0
 40
0.0
 40
0.0
 40
0.3151408063
 40
0.6343336578
 40
1.0
 40
1.0
 40
1.0
 40
1.0
 10
212.1416150741
 20
200.9847221394
 30
0.0
 10
212.3631958383
 20
201.0065095894
 30
0.0
 10
212.8117183428
 20
201.1449392333
 30
0.0
 10
213.3067182343
 20
201.6876186375
 30
0.0
 10
213.4576514257
 20
202.1594284062
 30
0.0
 10
213.5056710373
 20
202.4132724071
 30
0.0
  0
SPLINE
  5
471
100
AcDbEntity
  8
0
100
AcDbSpline
 62
7
  6
BYLAYER
 70
0
 71
3
 72
10
 73
6
 74
0
 42
0.0000001
 43
0.0000001
 44
0.0000000001
 40
0.0
 40
0.0
 40
0.0
 40
0.0
 40
0.3114565966
 40
0.6405543141
 40
1.0
 40
1.0
 40
1.0
 40
1.0
 10
209.3131761734
 20
202.6176851578
 30
0.0
 10
209.1621658375
 20
202.8059009435
 30
0.0
 10
208.8335651659
 20
203.1788014617
 30
0.0
 10
208.2750563747
 20
203.7167492535
 30
0.0
 10
207.8650827474
 20
204.0587821736
 30
0.0
 10
207.6463328538
 20
204.2311308587
 30
0.0
  0
SPLINE
  5
472
100
AcDbEntity
  8
0
100
AcDbSpline
 62
7
  6
BYLAYER
 70
0
 71
3
 72
10
 73
6
 74
0
 42
0.0000001
 43
0.0000001
 44
0.0000000001
 40
0.0
 40
0.0
 40
0.0
 40
0.0
 40
0.3521241889
 40
0.6814132794
 40
1.0
 40
1.0
 40
1.0
 40
1.0
 10
210.4747717544
 20
200.7125362794
 30
0.0
 10
210.364381079
 20
200.9506894361
 30
0.0
 10
210.1356021362
 20
201.4048369096
 30
0.0
 10
209.7480865045
 20
202.04256241
 30
0.0
 10
209.4622050429
 20
202.4327706924
 30
0.0
 10
209.3131761734
 20
202.6176851578
 30
0.0
  0
SPLINE
  5
473
100
AcDbEntity
  8
0
100
AcDbSpline
 62
7
  6
BYLAYER
 70
0
 71
3
 72
10
 73
6
 74
0
 42
0.0000001
 43
0.0000001
 44
0.0000000001
 40
0.0
 40
0.0
 40
0.0
 40
0.0
 40
0.3198649437
 40
0.6590622398
 40
1.0
 40
1.0
 40
1.0
 40
1.0
 10
196.6353646082
 20
212.1531280203
 30
0.0
 10
196.6898539193
 20
211.8021661125
 30
0.0
 10
196.875267135
 20
211.0890776687
 30
0.0
 10
197.339194296
 20
210.0750852584
 30
0.0
 10
197.7632787358
 20
209.4454233674
 30
0.0
 10
197.9994205713
 20
209.1495372297
 30
0.0
  0
SPLINE
  5
474
100
AcDbEntity
  8
0
100
AcDbSpline
 62
7
  6
BYLAYER
 70
0
 71
3
 72
11
 73
7
 74
0
 42
0.0000001
 43
0.0000001
 44
0.0000000001
 40
0.0
 40
0.0
 40
0.0
 40
0.0
 40
0.2935538466
 40
0.5616906478
 40
0.7971277813
 40
1.0
 40
1.0
 40
1.0
 40
1.0
 10
197.9994205713
 20
209.1495372297
 30
0.0
 10
198.207247193
 20
208.8923781448
 30
0.0
 10
198.6409386266
 20
208.4272425869
 30
0.0
 10
199.3656517494
 20
207.8878743389
 30
0.0
 10
200.098267587
 20
207.5574628798
 30
0.0
 10
200.6001348735
 20
207.4977416721
 30
0.0
 10
200.8278594717
 20
207.5165742117
 30
0.0
  0
SPLINE
  5
475
100
AcDbEntity
  8
0
100
AcDbSpline
 62
7
  6
BYLAYER
 70
0
 71
3
 72
10
 73
6
 74
0
 42
0.0000001
 43
0.0000001
 44
0.0000000001
 40
0.0
 40
0.0
 40
0.0
 40
0.0
 40
0.3151408063
 40
0.6343336578
 40
1.0
 40
1.0
 40
1.0
 40
1.0
 10
200.8278594717
 20
207.5165742117
 30
0.0
 10
201.0494402359
 20
207.5383616617
 30
0.0
 10
201.4979627404
 20
207.6767913057
 30
0.0
 10
201.9929626319
 20
208.2194707098
 30
0.0
 10
202.1438958234
 20
208.6912804786
 30
0.0
 10
202.1919154349
 20
208.9451244795
 30
0.0
  0
SPLINE
  5
476
100
AcDbEntity
  8
0
100
AcDbSpline
 62
7
  6
BYLAYER
 70
0
 71
3
 72
10
 73
6
 74
0
 42
0.0000001
 43
0.0000001
 44
0.0000000001
 40
0.0
 40
0.0
 40
0.0
 40
0.0
 40
0.3114565966
 40
0.6405543141
 40
1.0
 40
1.0
 40
1.0
 40
1.0
 10
197.999420571
 20
209.1495372301
 30
0.0
 10
197.8484102351
 20
209.3377530158
 30
0.0
 10
197.5198095635
 20
209.710653534
 30
0.0
 10
196.9613007724
 20
210.2486013259
 30
0.0
 10
196.551327145
 20
210.5906342459
 30
0.0
 10
196.3325772514
 20
210.7629829311
 30
0.0
  0
SPLINE
  5
477
100
AcDbEntity
  8
0
100
AcDbSpline
 62
7
  6
BYLAYER
 70
0
 71
3
 72
10
 73
6
 74
0
 42
0.0000001
 43
0.0000001
 44
0.0000000001
 40
0.0
 40
0.0
 40
0.0
 40
0.0
 40
0.3521241889
 40
0.6814132794
 40
1.0
 40
1.0
 40
1.0
 40
1.0
 10
199.161016152
 20
207.2443883517
 30
0.0
 10
199.0506254767
 20
207.4825415085
 30
0.0
 10
198.8218465338
 20
207.936688982
 30
0.0
 10
198.4343309021
 20
208.5744144823
 30
0.0
 10
198.1484494406
 20
208.9646227647
 30
0.0
 10
197.999420571
 20
209.1495372301
 30
0.0
  0
SPLINE
  5
478
100
AcDbEntity
  8
0
100
AcDbSpline
 62
7
  6
BYLAYER
 70
0
 71
3
 72
10
 73
6
 74
0
 42
0.0000001
 43
0.0000001
 44
0.0000000001
 40
0.0
 40
0.0
 40
0.0
 40
0.0
 40
0.3198649437
 40
0.6590622398
 40
1.0
 40
1.0
 40
1.0
 40
1.0
 10
196.6353646082
 20
231.7491860314
 30
0.0
 10
196.6898539193
 20
231.3982241236
 30
0.0
 10
196.875267135
 20
230.6851356798
 30
0.0
 10
197.339194296
 20
229.6711432695
 30
0.0
 10
197.7632787358
 20
229.0414813785
 30
0.0
 10
197.9994205713
 20
228.7455952408
 30
0.0
  0
SPLINE
  5
479
100
AcDbEntity
  8
0
100
AcDbSpline
 62
7
  6
BYLAYER
 70
0
 71
3
 72
11
 73
7
 74
0
 42
0.0000001
 43
0.0000001
 44
0.0000000001
 40
0.0
 40
0.0
 40
0.0
 40
0.0
 40
0.2935538466
 40
0.5616906478
 40
0.7971277813
 40
1.0
 40
1.0
 40
1.0
 40
1.0
 10
197.9994205713
 20
228.7455952408
 30
0.0
 10
198.207247193
 20
228.4884361559
 30
0.0
 10
198.6409386266
 20
228.023300598
 30
0.0
 10
199.3656517494
 20
227.48393235
 30
0.0
 10
200.098267587
 20
227.1535208909
 30
0.0
 10
200.6001348735
 20
227.0937996832
 30
0.0
 10
200.8278594717
 20
227.1126322228
 30
0.0
  0
SPLINE
  5
47A
100
AcDbEntity
  8
0
100
AcDbSpline
 62
7
  6
BYLAYER
 70
0
 71
3
 72
10
 73
6
 74
0
 42
0.0000001
 43
0.0000001
 44
0.0000000001
 40
0.0
 40
0.0
 40
0.0
 40
0.0
 40
0.3151408063
 40
0.6343336578
 40
1.0
 40
1.0
 40
1.0
 40
1.0
 10
200.8278594717
 20
227.1126322228
 30
0.0
 10
201.0494402359
 20
227.1344196728
 30
0.0
 10
201.4979627404
 20
227.2728493168
 30
0.0
 10
201.9929626319
 20
227.8155287209
 30
0.0
 10
202.1438958234
 20
228.2873384897
 30
0.0
 10
202.1919154349
 20
228.5411824906
 30
0.0
  0
SPLINE
  5
47B
100
AcDbEntity
  8
0
100
AcDbSpline
 62
7
  6
BYLAYER
 70
0
 71
3
 72
10
 73
6
 74
0
 42
0.0000001
 43
0.0000001
 44
0.0000000001
 40
0.0
 40
0.0
 40
0.0
 40
0.0
 40
0.3637022987
 40
0.6928281207
 40
1.0
 40
1.0
 40
1.0
 40
1.0
 10
197.9994205715
 20
234.4024899248
 30
0.0
 10
198.1400095636
 20
234.4151380249
 30
0.0
 10
198.4086404648
 20
234.4315803039
 30
0.0
 10
198.7971010232
 20
234.4265628012
 30
0.0
 10
199.0432155412
 20
234.4012931745
 30
0.0
 10
199.161016152
 20
234.382972608
 30
0.0
  0
SPLINE
  5
47C
100
AcDbEntity
  8
0
100
AcDbSpline
 62
7
  6
BYLAYER
 70
0
 71
3
 72
10
 73
6
 74
0
 42
0.0000001
 43
0.0000001
 44
0.0000000001
 40
0.0
 40
0.0
 40
0.0
 40
0.0
 40
0.386544656
 40
0.7162728763
 40
1.0
 40
1.0
 40
1.0
 40
1.0
 10
196.3325772514
 20
234.1303040648
 30
0.0
 10
196.5455885505
 20
234.1753591161
 30
0.0
 10
196.9412661359
 20
234.2544947281
 30
0.0
 10
197.4970236017
 20
234.3467478552
 30
0.0
 10
197.8402309659
 20
234.3884066713
 30
0.0
 10
197.9994205715
 20
234.4024899248
 30
0.0
  0
SPLINE
  5
47D
100
AcDbEntity
  8
0
100
AcDbSpline
 62
7
  6
BYLAYER
 70
0
 71
3
 72
10
 73
6
 74
0
 42
0.0000001
 43
0.0000001
 44
0.0000000001
 40
0.0
 40
0.0
 40
0.0
 40
0.0
 40
0.3198649437
 40
0.6590622398
 40
1.0
 40
1.0
 40
1.0
 40
1.0
 10
207.9491202106
 20
225.2173339591
 30
0.0
 10
208.0036095216
 20
224.8663720513
 30
0.0
 10
208.1890227374
 20
224.1532836075
 30
0.0
 10
208.6529498984
 20
223.1392911972
 30
0.0
 10
209.0770343381
 20
222.5096293062
 30
0.0
 10
209.3131761737
 20
222.2137431685
 30
0.0
  0
SPLINE
  5
47E
100
AcDbEntity
  8
0
100
AcDbSpline
 62
7
  6
BYLAYER
 70
0
 71
3
 72
11
 73
7
 74
0
 42
0.0000001
 43
0.0000001
 44
0.0000000001
 40
0.0
 40
0.0
 40
0.0
 40
0.0
 40
0.2935538466
 40
0.5616906478
 40
0.7971277813
 40
1.0
 40
1.0
 40
1.0
 40
1.0
 10
209.3131761737
 20
222.2137431685
 30
0.0
 10
209.5210027954
 20
221.9565840836
 30
0.0
 10
209.9546942289
 20
221.4914485257
 30
0.0
 10
210.6794073517
 20
220.9520802777
 30
0.0
 10
211.4120231894
 20
220.6216688185
 30
0.0
 10
211.9138904758
 20
220.5619476108
 30
0.0
 10
212.1416150741
 20
220.5807801505
 30
0.0
  0
SPLINE
  5
47F
100
AcDbEntity
  8
0
100
AcDbSpline
 62
7
  6
BYLAYER
 70
0
 71
3
 72
10
 73
6
 74
0
 42
0.0000001
 43
0.0000001
 44
0.0000000001
 40
0.0
 40
0.0
 40
0.0
 40
0.0
 40
0.3151408063
 40
0.6343336578
 40
1.0
 40
1.0
 40
1.0
 40
1.0
 10
212.1416150741
 20
220.5807801505
 30
0.0
 10
212.3631958383
 20
220.6025676005
 30
0.0
 10
212.8117183428
 20
220.7409972444
 30
0.0
 10
213.3067182343
 20
221.2836766486
 30
0.0
 10
213.4576514257
 20
221.7554864174
 30
0.0
 10
213.5056710373
 20
222.0093304182
 30
0.0
  0
SPLINE
  5
480
100
AcDbEntity
  8
0
100
AcDbSpline
 62
7
  6
BYLAYER
 70
0
 71
3
 72
10
 73
6
 74
0
 42
0.0000001
 43
0.0000001
 44
0.0000000001
 40
0.0
 40
0.0
 40
0.0
 40
0.0
 40
0.3637022987
 40
0.6928281207
 40
1.0
 40
1.0
 40
1.0
 40
1.0
 10
209.3131761739
 20
227.8706378525
 30
0.0
 10
209.453765166
 20
227.8832859526
 30
0.0
 10
209.7223960672
 20
227.8997282316
 30
0.0
 10
210.1108566256
 20
227.8947107288
 30
0.0
 10
210.3569711436
 20
227.8694411022
 30
0.0
 10
210.4747717544
 20
227.8511205356
 30
0.0
  0
SPLINE
  5
481
100
AcDbEntity
  8
0
100
AcDbSpline
 62
7
  6
BYLAYER
 70
0
 71
3
 72
10
 73
6
 74
0
 42
0.0000001
 43
0.0000001
 44
0.0000000001
 40
0.0
 40
0.0
 40
0.0
 40
0.0
 40
0.386544656
 40
0.7162728763
 40
1.0
 40
1.0
 40
1.0
 40
1.0
 10
207.6463328538
 20
227.5984519924
 30
0.0
 10
207.8593441529
 20
227.6435070438
 30
0.0
 10
208.2550217382
 20
227.7226426558
 30
0.0
 10
208.810779204
 20
227.8148957828
 30
0.0
 10
209.1539865682
 20
227.856554599
 30
0.0
 10
209.3131761739
 20
227.8706378525
 30
0.0
  0
SPLINE
  5
482
100
AcDbEntity
  8
0
100
AcDbSpline
 62
7
  6
BYLAYER
 70
0
 71
3
 72
10
 73
6
 74
0
 42
0.0000001
 43
0.0000001
 44
0.0000000001
 40
0.0
 40
0.0
 40
0.0
 40
0.0
 40
0.3477246279
 40
0.6865049488
 40
1.0
 40
1.0
 40
1.0
 40
1.0
 10
191.0578971055
 20
111.688284561
 30
0.0
 10
191.0762573345
 20
111.7431867098
 30
0.0
 10
191.1247537988
 20
111.8479753669
 30
0.0
 10
191.228962901
 20
111.9798525972
 30
0.0
 10
191.3178662528
 20
112.0452146428
 30
0.0
 10
191.364168414
 20
112.0693004222
 30
0.0
  0
SPLINE
  5
483
100
AcDbEntity
  8
0
100
AcDbSpline
 62
7
  6
BYLAYER
 70
0
 71
3
 72
11
 73
7
 74
0
 42
0.0000001
 43
0.0000001
 44
0.0000000001
 40
0.0
 40
0.0
 40
0.0
 40
0.0
 40
0.2590752383
 40
0.5122055285
 40
0.758355424
 40
1.0
 40
1.0
 40
1.0
 40
1.0
 10
191.364168414
 20
112.0693004222
 30
0.0
 10
191.849809442
 20
112.3012709814
 30
0.0
 10
192.788986018
 20
112.802469028
 30
0.0
 10
194.1814573341
 20
113.5388869207
 30
0.0
 10
195.5305564992
 20
114.2801911714
 30
0.0
 10
196.4082119598
 20
114.786777519
 30
0.0
 10
196.8459072367
 20
115.0325722897
 30
0.0
  0
SPLINE
  5
484
100
AcDbEntity
  8
0
100
AcDbSpline
 62
7
  6
BYLAYER
 70
0
 71
3
 72
19
 73
15
 74
0
 42
0.0000001
 43
0.0000001
 44
0.0000000001
 40
0.0
 40
0.0
 40
0.0
 40
0.0
 40
0.1072652834
 40
0.2132855397
 40
0.3154668864
 40
0.4145501015
 40
0.5099341522
 40
0.5962305972
 40
0.6713171217
 40
0.7362947497
 40
0.7952670121
 40
0.8554222042
 40
0.9227899095
 40
1.0
 40
1.0
 40
1.0
 40
1.0
 10
197.2573736975
 20
109.4877516807
 30
0.0
 10
196.712176411
 20
109.1729837595
 30
0.0
 10
195.714270611
 20
108.394669101
 30
0.0
 10
194.4913838134
 20
106.9949228066
 30
0.0
 10
193.5253387538
 20
105.4639507208
 30
0.0
 10
192.8167604373
 20
103.866910368
 30
0.0
 10
192.3849970353
 20
102.2689324756
 30
0.0
 10
192.2562197927
 20
100.7575868823
 30
0.0
 10
192.4411984826
 20
99.4278647767
 30
0.0
 10
192.9442970781
 20
98.3471715113
 30
0.0
 10
193.7770439342
 20
97.6031747083
 30
0.0
 10
194.8696148893
 20
97.3109647885
 30
0.0
 10
196.0825829478
 20
97.4774677762
 30
0.0
 10
196.8649379485
 20
97.8301463079
 30
0.0
 10
197.2573736975
 20
98.0567178408
 30
0.0
  0
SPLINE
  5
485
100
AcDbEntity
  8
0
100
AcDbSpline
 62
7
  6
BYLAYER
 70
0
 71
3
 72
10
 73
6
 74
0
 42
0.0000001
 43
0.0000001
 44
0.0000000001
 40
0.0
 40
0.0
 40
0.0
 40
0.0
 40
0.3413270714
 40
0.6747415835
 40
1.0
 40
1.0
 40
1.0
 40
1.0
 10
196.8459072367
 20
92.9870070272
 30
0.0
 10
196.2333345522
 20
92.6299003519
 30
0.0
 10
195.0101946559
 20
91.9450052719
 30
0.0
 10
193.1834309633
 20
90.9556601483
 30
0.0
 10
191.9657980445
 20
90.3312768673
 30
0.0
 10
191.3641680374
 20
90.0237248949
 30
0.0
  0
SPLINE
  5
486
100
AcDbEntity
  8
0
100
AcDbSpline
 62
7
  6
BYLAYER
 70
0
 71
3
 72
10
 73
6
 74
0
 42
0.0000001
 43
0.0000001
 44
0.0000000001
 40
0.0
 40
0.0
 40
0.0
 40
0.0
 40
0.3985083636
 40
0.7164069995
 40
1.0
 40
1.0
 40
1.0
 40
1.0
 10
191.3641680374
 20
90.0237248949
 30
0.0
 10
191.3243219204
 20
90.0039707283
 30
0.0
 10
191.2485796525
 20
89.9752880375
 30
0.0
 10
191.1314927513
 20
89.9787166395
 30
0.0
 10
191.0755597893
 20
90.0248270524
 30
0.0
 10
191.0578973869
 20
90.0510895765
 30
0.0
  0
SPLINE
  5
487
100
AcDbEntity
  8
0
100
AcDbSpline
 62
7
  6
BYLAYER
 70
0
 71
3
 72
11
 73
7
 74
0
 42
0.0000001
 43
0.0000001
 44
0.0000000001
 40
0.0
 40
0.0
 40
0.0
 40
0.0
 40
0.2400380933
 40
0.4872406444
 40
0.740766232
 40
1.0
 40
1.0
 40
1.0
 40
1.0
 10
191.0578973869
 20
90.0510895765
 30
0.0
 10
190.6666183685
 20
90.6775169686
 30
0.0
 10
189.8248894927
 20
91.9187706759
 30
0.0
 10
188.5382798656
 20
93.8000803733
 30
0.0
 10
187.1718083181
 20
95.6979907522
 30
0.0
 10
186.2281891343
 20
96.9624457571
 30
0.0
 10
185.7507550403
 20
97.6014324532
 30
0.0
  0
SPLINE
  5
488
100
AcDbEntity
  8
0
100
AcDbSpline
 62
7
  6
BYLAYER
 70
0
 71
3
 72
10
 73
6
 74
0
 42
0.0000001
 43
0.0000001
 44
0.0000000001
 40
0.0
 40
0.0
 40
0.0
 40
0.0
 40
0.2866851571
 40
0.6190029242
 40
1.0
 40
1.0
 40
1.0
 40
1.0
 10
185.7507550403
 20
97.6014324532
 30
0.0
 10
185.7267557244
 20
97.6342206504
 30
0.0
 10
185.6928916728
 20
97.7189245994
 30
0.0
 10
185.6970687028
 20
97.8632573688
 30
0.0
 10
185.7289146549
 20
97.9604324253
 30
0.0
 10
185.7507550247
 20
98.0098187161
 30
0.0
  0
SPLINE
  5
489
100
AcDbEntity
  8
0
100
AcDbSpline
 62
7
  6
BYLAYER
 70
0
 71
3
 72
13
 73
9
 74
0
 42
0.0000001
 43
0.0000001
 44
0.0000000001
 40
0.0
 40
0.0
 40
0.0
 40
0.0
 40
0.1824739027
 40
0.358663965
 40
0.5285001864
 40
0.6922225504
 40
0.849004018
 40
1.0
 40
1.0
 40
1.0
 40
1.0
 10
185.7507550247
 20
98.0098187161
 30
0.0
 10
186.1264986944
 20
98.8197466538
 30
0.0
 10
186.8223514712
 20
100.4312409086
 30
0.0
 10
187.8211261486
 20
102.8164902983
 30
0.0
 10
188.7377507351
 20
105.1363834446
 30
0.0
 10
189.5758426023
 20
107.3845863876
 30
0.0
 10
190.3486246171
 20
109.5584273472
 30
0.0
 10
190.8298881976
 20
110.9855269557
 30
0.0
 10
191.0578971055
 20
111.688284561
 30
0.0
  0
SPLINE
  5
48A
100
AcDbEntity
  8
0
100
AcDbSpline
 62
7
  6
BYLAYER
 70
0
 71
3
 72
10
 73
6
 74
0
 42
0.0000001
 43
0.0000001
 44
0.0000000001
 40
0.0
 40
0.0
 40
0.0
 40
0.0
 40
0.3500195517
 40
0.6923324802
 40
1.0
 40
1.0
 40
1.0
 40
1.0
 10
202.2847643565
 20
96.5328992532
 30
0.0
 10
202.2607306408
 20
96.4805035634
 30
0.0
 10
202.2048831252
 20
96.3804351358
 30
0.0
 10
202.1021220565
 20
96.250843192
 30
0.0
 10
202.0205231018
 20
96.180102327
 30
0.0
 10
201.9784616594
 20
96.1518486389
 30
0.0
  0
SPLINE
  5
48B
100
AcDbEntity
  8
0
100
AcDbSpline
 62
7
  6
BYLAYER
 70
0
 71
3
 72
10
 73
6
 74
0
 42
0.0000001
 43
0.0000001
 44
0.0000000001
 40
0.0
 40
0.0
 40
0.0
 40
0.0
 40
0.3037970747
 40
0.6365614964
 40
1.0
 40
1.0
 40
1.0
 40
1.0
 10
201.9784616594
 20
96.1518486389
 30
0.0
 10
201.4658915508
 20
95.8198496473
 30
0.0
 10
200.3954395773
 20
95.1185123092
 30
0.0
 10
198.6814047424
 20
94.0680299295
 30
0.0
 10
197.4813334562
 20
93.3475548164
 30
0.0
 10
196.8459072367
 20
92.9870070272
 30
0.0
  0
SPLINE
  5
48C
100
AcDbEntity
  8
0
100
AcDbSpline
 62
7
  6
BYLAYER
 70
0
 71
3
 72
11
 73
7
 74
0
 42
0.0000001
 43
0.0000001
 44
0.0000000001
 40
0.0
 40
0.0
 40
0.0
 40
0.0
 40
0.2450986789
 40
0.4927673158
 40
0.7447586084
 40
1.0
 40
1.0
 40
1.0
 40
1.0
 10
196.8459072367
 20
115.0325722897
 30
0.0
 10
197.2703700378
 20
115.2827575282
 30
0.0
 10
198.127514598
 20
115.7793284454
 30
0.0
 10
199.4081308382
 20
116.5551906516
 30
0.0
 10
200.6918302707
 20
117.3642281248
 30
0.0
 10
201.5560230102
 20
117.9062628958
 30
0.0
 10
201.9784938626
 20
118.1974456605
 30
0.0
  0
SPLINE
  5
48D
100
AcDbEntity
  8
0
100
AcDbSpline
 62
7
  6
BYLAYER
 70
0
 71
3
 72
10
 73
6
 74
0
 42
0.0000001
 43
0.0000001
 44
0.0000000001
 40
0.0
 40
0.0
 40
0.0
 40
0.0
 40
0.3697793169
 40
0.6833453774
 40
1.0
 40
1.0
 40
1.0
 40
1.0
 10
201.9784938626
 20
118.1974456605
 30
0.0
 10
202.0136760186
 20
118.2200572955
 30
0.0
 10
202.0854494328
 20
118.2546456365
 30
0.0
 10
202.2048424489
 20
118.247315466
 30
0.0
 10
202.2627907518
 20
118.1983729382
 30
0.0
 10
202.2847475475
 20
118.1700797186
 30
0.0
  0
SPLINE
  5
48E
100
AcDbEntity
  8
0
100
AcDbSpline
 62
7
  6
BYLAYER
 70
0
 71
3
 72
13
 73
9
 74
0
 42
0.0000001
 43
0.0000001
 44
0.0000000001
 40
0.0
 40
0.0
 40
0.0
 40
0.0
 40
0.157353139
 40
0.3183332049
 40
0.4836888676
 40
0.6538046776
 40
0.825257235
 40
1.0
 40
1.0
 40
1.0
 40
1.0
 10
202.2847475475
 20
118.1700797186
 30
0.0
 10
202.5709503749
 20
117.7795503383
 30
0.0
 10
203.1570234006
 20
116.9947126329
 30
0.0
 10
204.0461000514
 20
115.8010868233
 30
0.0
 10
204.9318860763
 20
114.5564190629
 30
0.0
 10
205.8228396342
 20
113.2761543751
 30
0.0
 10
206.720913174
 20
111.9654659557
 30
0.0
 10
207.2926108759
 20
111.0664232798
 30
0.0
 10
207.591895264
 20
110.619733852
 30
0.0
  0
SPLINE
  5
48F
100
AcDbEntity
  8
0
100
AcDbSpline
 62
7
  6
BYLAYER
 70
0
 71
3
 72
10
 73
6
 74
0
 42
0.0000001
 43
0.0000001
 44
0.0000000001
 40
0.0
 40
0.0
 40
0.0
 40
0.0
 40
0.2677363406
 40
0.6051222962
 40
1.0
 40
1.0
 40
1.0
 40
1.0
 10
207.591895264
 20
110.619733852
 30
0.0
 10
207.611571216
 20
110.5879811956
 30
0.0
 10
207.636668256
 20
110.5044812926
 30
0.0
 10
207.6326520854
 20
110.3638488256
 30
0.0
 10
207.6087342987
 20
110.2638276738
 30
0.0
 10
207.591901189
 20
110.2113686982
 30
0.0
  0
SPLINE
  5
490
100
AcDbEntity
  8
0
100
AcDbSpline
 62
7
  6
BYLAYER
 70
0
 71
3
 72
11
 73
7
 74
0
 42
0.0000001
 43
0.0000001
 44
0.0000000001
 40
0.0
 40
0.0
 40
0.0
 40
0.0
 40
0.2341411394
 40
0.4744295653
 40
0.7346896327
 40
1.0
 40
1.0
 40
1.0
 40
1.0
 10
207.591901189
 20
110.2113686982
 30
0.0
 10
207.236083585
 20
109.1223932307
 30
0.0
 10
206.4886587387
 20
106.9243300255
 30
0.0
 10
205.2383343561
 20
103.5536309015
 30
0.0
 10
203.8474507711
 20
100.0734256987
 30
0.0
 10
202.8156053808
 20
97.7175415527
 30
0.0
 10
202.2847643565
 20
96.5328992532
 30
0.0
  0
SPLINE
  5
491
100
AcDbEntity
  8
0
100
AcDbSpline
 62
7
  6
BYLAYER
 70
0
 71
3
 72
19
 73
15
 74
0
 42
0.0000001
 43
0.0000001
 44
0.0000000001
 40
0.0
 40
0.0
 40
0.0
 40
0.0
 40
0.0792598429
 40
0.1474850099
 40
0.2082951795
 40
0.2687307911
 40
0.336521165
 40
0.4150245155
 40
0.5043442784
 40
0.6024371209
 40
0.705439971
 40
0.8095564604
 40
0.9093460498
 40
1.0
 40
1.0
 40
1.0
 40
1.0
 10
197.2573736975
 20
109.4877516807
 30
0.0
 10
197.6602135246
 20
109.720329975
 30
0.0
 10
198.4597380621
 20
110.0784292046
 30
0.0
 10
199.6972397439
 20
110.2334286191
 30
0.0
 10
200.801412574
 20
109.9093942312
 30
0.0
 10
201.6311163682
 20
109.1167469307
 30
0.0
 10
202.113884868
 20
107.9767216485
 30
0.0
 10
202.2614659316
 20
106.5875860371
 30
0.0
 10
202.0829243254
 20
105.0272751055
 30
0.0
 10
201.5922575906
 20
103.3870963605
 30
0.0
 10
200.817336621
 20
101.7647606608
 30
0.0
 10
199.8045032799
 20
100.2667241314
 30
0.0
 10
198.6206838403
 20
98.9973187647
 30
0.0
 10
197.7181243158
 20
98.3227307464
 30
0.0
 10
197.2573736975
 20
98.0567178408
 30
0.0
  0
SPLINE
  5
492
100
AcDbEntity
  8
0
100
AcDbSpline
 62
7
  6
BYLAYER
 70
0
 71
3
 72
10
 73
6
 74
0
 42
0.0000001
 43
0.0000001
 44
0.0000000001
 40
0.0
 40
0.0
 40
0.0
 40
0.0
 40
0.3477246279
 40
0.6865049488
 40
1.0
 40
1.0
 40
1.0
 40
1.0
 10
191.0578971055
 20
191.7055214397
 30
0.0
 10
191.0762573345
 20
191.7604235885
 30
0.0
 10
191.1247537988
 20
191.8652122455
 30
0.0
 10
191.228962901
 20
191.9970894759
 30
0.0
 10
191.3178662528
 20
192.0624515215
 30
0.0
 10
191.364168414
 20
192.0865373009
 30
0.0
  0
SPLINE
  5
493
100
AcDbEntity
  8
0
100
AcDbSpline
 62
7
  6
BYLAYER
 70
0
 71
3
 72
11
 73
7
 74
0
 42
0.0000001
 43
0.0000001
 44
0.0000000001
 40
0.0
 40
0.0
 40
0.0
 40
0.0
 40
0.2590752383
 40
0.5122055285
 40
0.758355424
 40
1.0
 40
1.0
 40
1.0
 40
1.0
 10
191.364168414
 20
192.0865373009
 30
0.0
 10
191.849809442
 20
192.3185078601
 30
0.0
 10
192.788986018
 20
192.8197059067
 30
0.0
 10
194.1814573341
 20
193.5561237994
 30
0.0
 10
195.5305564992
 20
194.2974280501
 30
0.0
 10
196.4082119598
 20
194.8040143977
 30
0.0
 10
196.8459072367
 20
195.0498091684
 30
0.0
  0
SPLINE
  5
494
100
AcDbEntity
  8
0
100
AcDbSpline
 62
7
  6
BYLAYER
 70
0
 71
3
 72
19
 73
15
 74
0
 42
0.0000001
 43
0.0000001
 44
0.0000000001
 40
0.0
 40
0.0
 40
0.0
 40
0.0
 40
0.1072652834
 40
0.2132855397
 40
0.3154668864
 40
0.4145501015
 40
0.5099341522
 40
0.5962305972
 40
0.6713171217
 40
0.7362947497
 40
0.7952670121
 40
0.8554222042
 40
0.9227899095
 40
1.0
 40
1.0
 40
1.0
 40
1.0
 10
197.2573736975
 20
189.5049885594
 30
0.0
 10
196.712176411
 20
189.1902206382
 30
0.0
 10
195.714270611
 20
188.4119059797
 30
0.0
 10
194.4913838134
 20
187.0121596853
 30
0.0
 10
193.5253387538
 20
185.4811875995
 30
0.0
 10
192.8167604373
 20
183.8841472467
 30
0.0
 10
192.3849970353
 20
182.2861693543
 30
0.0
 10
192.2562197927
 20
180.774823761
 30
0.0
 10
192.4411984826
 20
179.4451016554
 30
0.0
 10
192.9442970781
 20
178.36440839
 30
0.0
 10
193.7770439342
 20
177.620411587
 30
0.0
 10
194.8696148893
 20
177.3282016672
 30
0.0
 10
196.0825829478
 20
177.4947046549
 30
0.0
 10
196.8649379485
 20
177.8473831866
 30
0.0
 10
197.2573736975
 20
178.0739547195
 30
0.0
  0
SPLINE
  5
495
100
AcDbEntity
  8
0
100
AcDbSpline
 62
7
  6
BYLAYER
 70
0
 71
3
 72
10
 73
6
 74
0
 42
0.0000001
 43
0.0000001
 44
0.0000000001
 40
0.0
 40
0.0
 40
0.0
 40
0.0
 40
0.3413270714
 40
0.6747415835
 40
1.0
 40
1.0
 40
1.0
 40
1.0
 10
196.8459072367
 20
173.0042439059
 30
0.0
 10
196.2333345522
 20
172.6471372306
 30
0.0
 10
195.0101946559
 20
171.9622421506
 30
0.0
 10
193.1834309633
 20
170.972897027
 30
0.0
 10
191.9657980445
 20
170.348513746
 30
0.0
 10
191.3641680374
 20
170.0409617736
 30
0.0
  0
SPLINE
  5
496
100
AcDbEntity
  8
0
100
AcDbSpline
 62
7
  6
BYLAYER
 70
0
 71
3
 72
10
 73
6
 74
0
 42
0.0000001
 43
0.0000001
 44
0.0000000001
 40
0.0
 40
0.0
 40
0.0
 40
0.0
 40
0.3985083636
 40
0.7164069995
 40
1.0
 40
1.0
 40
1.0
 40
1.0
 10
191.3641680374
 20
170.0409617736
 30
0.0
 10
191.3243219204
 20
170.021207607
 30
0.0
 10
191.2485796525
 20
169.9925249162
 30
0.0
 10
191.1314927513
 20
169.9959535182
 30
0.0
 10
191.0755597893
 20
170.0420639311
 30
0.0
 10
191.0578973869
 20
170.0683264552
 30
0.0
  0
SPLINE
  5
497
100
AcDbEntity
  8
0
100
AcDbSpline
 62
7
  6
BYLAYER
 70
0
 71
3
 72
11
 73
7
 74
0
 42
0.0000001
 43
0.0000001
 44
0.0000000001
 40
0.0
 40
0.0
 40
0.0
 40
0.0
 40
0.2400380933
 40
0.4872406444
 40
0.740766232
 40
1.0
 40
1.0
 40
1.0
 40
1.0
 10
191.0578973869
 20
170.0683264552
 30
0.0
 10
190.6666183685
 20
170.6947538473
 30
0.0
 10
189.8248894927
 20
171.9360075546
 30
0.0
 10
188.5382798656
 20
173.817317252
 30
0.0
 10
187.1718083181
 20
175.7152276309
 30
0.0
 10
186.2281891343
 20
176.9796826358
 30
0.0
 10
185.7507550403
 20
177.6186693319
 30
0.0
  0
SPLINE
  5
498
100
AcDbEntity
  8
0
100
AcDbSpline
 62
7
  6
BYLAYER
 70
0
 71
3
 72
10
 73
6
 74
0
 42
0.0000001
 43
0.0000001
 44
0.0000000001
 40
0.0
 40
0.0
 40
0.0
 40
0.0
 40
0.2866851571
 40
0.6190029242
 40
1.0
 40
1.0
 40
1.0
 40
1.0
 10
185.7507550403
 20
177.6186693319
 30
0.0
 10
185.7267557244
 20
177.6514575291
 30
0.0
 10
185.6928916728
 20
177.7361614781
 30
0.0
 10
185.6970687028
 20
177.8804942475
 30
0.0
 10
185.7289146549
 20
177.977669304
 30
0.0
 10
185.7507550247
 20
178.0270555948
 30
0.0
  0
SPLINE
  5
499
100
AcDbEntity
  8
0
100
AcDbSpline
 62
7
  6
BYLAYER
 70
0
 71
3
 72
13
 73
9
 74
0
 42
0.0000001
 43
0.0000001
 44
0.0000000001
 40
0.0
 40
0.0
 40
0.0
 40
0.0
 40
0.1824739027
 40
0.358663965
 40
0.5285001864
 40
0.6922225504
 40
0.849004018
 40
1.0
 40
1.0
 40
1.0
 40
1.0
 10
185.7507550247
 20
178.0270555948
 30
0.0
 10
186.1264986944
 20
178.8369835325
 30
0.0
 10
186.8223514712
 20
180.4484777873
 30
0.0
 10
187.8211261486
 20
182.833727177
 30
0.0
 10
188.7377507351
 20
185.1536203233
 30
0.0
 10
189.5758426023
 20
187.4018232663
 30
0.0
 10
190.3486246171
 20
189.5756642259
 30
0.0
 10
190.8298881976
 20
191.0027638344
 30
0.0
 10
191.0578971055
 20
191.7055214397
 30
0.0
  0
SPLINE
  5
49A
100
AcDbEntity
  8
0
100
AcDbSpline
 62
7
  6
BYLAYER
 70
0
 71
3
 72
10
 73
6
 74
0
 42
0.0000001
 43
0.0000001
 44
0.0000000001
 40
0.0
 40
0.0
 40
0.0
 40
0.0
 40
0.3500195517
 40
0.6923324802
 40
1.0
 40
1.0
 40
1.0
 40
1.0
 10
202.2847643565
 20
176.5501361319
 30
0.0
 10
202.2607306408
 20
176.4977404421
 30
0.0
 10
202.2048831252
 20
176.3976720145
 30
0.0
 10
202.1021220565
 20
176.2680800707
 30
0.0
 10
202.0205231018
 20
176.1973392057
 30
0.0
 10
201.9784616594
 20
176.1690855176
 30
0.0
  0
SPLINE
  5
49B
100
AcDbEntity
  8
0
100
AcDbSpline
 62
7
  6
BYLAYER
 70
0
 71
3
 72
10
 73
6
 74
0
 42
0.0000001
 43
0.0000001
 44
0.0000000001
 40
0.0
 40
0.0
 40
0.0
 40
0.0
 40
0.3037970747
 40
0.6365614964
 40
1.0
 40
1.0
 40
1.0
 40
1.0
 10
201.9784616594
 20
176.1690855176
 30
0.0
 10
201.4658915508
 20
175.837086526
 30
0.0
 10
200.3954395773
 20
175.1357491879
 30
0.0
 10
198.6814047424
 20
174.0852668082
 30
0.0
 10
197.4813334562
 20
173.3647916951
 30
0.0
 10
196.8459072367
 20
173.0042439059
 30
0.0
  0
SPLINE
  5
49C
100
AcDbEntity
  8
0
100
AcDbSpline
 62
7
  6
BYLAYER
 70
0
 71
3
 72
11
 73
7
 74
0
 42
0.0000001
 43
0.0000001
 44
0.0000000001
 40
0.0
 40
0.0
 40
0.0
 40
0.0
 40
0.2450986789
 40
0.4927673158
 40
0.7447586084
 40
1.0
 40
1.0
 40
1.0
 40
1.0
 10
196.8459072367
 20
195.0498091684
 30
0.0
 10
197.2703700378
 20
195.2999944069
 30
0.0
 10
198.127514598
 20
195.7965653241
 30
0.0
 10
199.4081308382
 20
196.5724275303
 30
0.0
 10
200.6918302707
 20
197.3814650035
 30
0.0
 10
201.5560230102
 20
197.9234997745
 30
0.0
 10
201.9784938626
 20
198.2146825392
 30
0.0
  0
SPLINE
  5
49D
100
AcDbEntity
  8
0
100
AcDbSpline
 62
7
  6
BYLAYER
 70
0
 71
3
 72
10
 73
6
 74
0
 42
0.0000001
 43
0.0000001
 44
0.0000000001
 40
0.0
 40
0.0
 40
0.0
 40
0.0
 40
0.3697793169
 40
0.6833453774
 40
1.0
 40
1.0
 40
1.0
 40
1.0
 10
201.9784938626
 20
198.2146825392
 30
0.0
 10
202.0136760186
 20
198.2372941742
 30
0.0
 10
202.0854494328
 20
198.2718825152
 30
0.0
 10
202.2048424489
 20
198.2645523447
 30
0.0
 10
202.2627907518
 20
198.2156098169
 30
0.0
 10
202.2847475475
 20
198.1873165973
 30
0.0
  0
SPLINE
  5
49E
100
AcDbEntity
  8
0
100
AcDbSpline
 62
7
  6
BYLAYER
 70
0
 71
3
 72
13
 73
9
 74
0
 42
0.0000001
 43
0.0000001
 44
0.0000000001
 40
0.0
 40
0.0
 40
0.0
 40
0.0
 40
0.157353139
 40
0.3183332049
 40
0.4836888676
 40
0.6538046776
 40
0.825257235
 40
1.0
 40
1.0
 40
1.0
 40
1.0
 10
202.2847475475
 20
198.1873165973
 30
0.0
 10
202.5709503749
 20
197.7967872169
 30
0.0
 10
203.1570234006
 20
197.0119495116
 30
0.0
 10
204.0461000514
 20
195.818323702
 30
0.0
 10
204.9318860763
 20
194.5736559416
 30
0.0
 10
205.8228396342
 20
193.2933912538
 30
0.0
 10
206.720913174
 20
191.9827028344
 30
0.0
 10
207.2926108759
 20
191.0836601585
 30
0.0
 10
207.591895264
 20
190.6369707307
 30
0.0
  0
SPLINE
  5
49F
100
AcDbEntity
  8
0
100
AcDbSpline
 62
7
  6
BYLAYER
 70
0
 71
3
 72
10
 73
6
 74
0
 42
0.0000001
 43
0.0000001
 44
0.0000000001
 40
0.0
 40
0.0
 40
0.0
 40
0.0
 40
0.2677363406
 40
0.6051222962
 40
1.0
 40
1.0
 40
1.0
 40
1.0
 10
207.591895264
 20
190.6369707307
 30
0.0
 10
207.611571216
 20
190.6052180743
 30
0.0
 10
207.636668256
 20
190.5217181713
 30
0.0
 10
207.6326520854
 20
190.3810857043
 30
0.0
 10
207.6087342987
 20
190.2810645525
 30
0.0
 10
207.591901189
 20
190.2286055769
 30
0.0
  0
SPLINE
  5
4A0
100
AcDbEntity
  8
0
100
AcDbSpline
 62
7
  6
BYLAYER
 70
0
 71
3
 72
11
 73
7
 74
0
 42
0.0000001
 43
0.0000001
 44
0.0000000001
 40
0.0
 40
0.0
 40
0.0
 40
0.0
 40
0.2341411394
 40
0.4744295653
 40
0.7346896327
 40
1.0
 40
1.0
 40
1.0
 40
1.0
 10
207.591901189
 20
190.2286055769
 30
0.0
 10
207.236083585
 20
189.1396301094
 30
0.0
 10
206.4886587387
 20
186.9415669042
 30
0.0
 10
205.2383343561
 20
183.5708677802
 30
0.0
 10
203.8474507711
 20
180.0906625774
 30
0.0
 10
202.8156053808
 20
177.7347784314
 30
0.0
 10
202.2847643565
 20
176.5501361319
 30
0.0
  0
SPLINE
  5
4A1
100
AcDbEntity
  8
0
100
AcDbSpline
 62
7
  6
BYLAYER
 70
0
 71
3
 72
19
 73
15
 74
0
 42
0.0000001
 43
0.0000001
 44
0.0000000001
 40
0.0
 40
0.0
 40
0.0
 40
0.0
 40
0.0792598429
 40
0.1474850099
 40
0.2082951795
 40
0.2687307911
 40
0.336521165
 40
0.4150245155
 40
0.5043442784
 40
0.6024371209
 40
0.705439971
 40
0.8095564604
 40
0.9093460498
 40
1.0
 40
1.0
 40
1.0
 40
1.0
 10
197.2573736975
 20
189.5049885594
 30
0.0
 10
197.6602135246
 20
189.7375668537
 30
0.0
 10
198.4597380621
 20
190.0956660833
 30
0.0
 10
199.6972397439
 20
190.2506654978
 30
0.0
 10
200.801412574
 20
189.9266311099
 30
0.0
 10
201.6311163682
 20
189.1339838094
 30
0.0
 10
202.113884868
 20
187.9939585272
 30
0.0
 10
202.2614659316
 20
186.6048229158
 30
0.0
 10
202.0829243254
 20
185.0445119842
 30
0.0
 10
201.5922575906
 20
183.4043332392
 30
0.0
 10
200.817336621
 20
181.7819975395
 30
0.0
 10
199.8045032799
 20
180.2839610101
 30
0.0
 10
198.6206838403
 20
179.0145556434
 30
0.0
 10
197.7181243158
 20
178.3399676251
 30
0.0
 10
197.2573736975
 20
178.0739547195
 30
0.0
  0
SPLINE
  5
4A2
100
AcDbEntity
  8
0
100
AcDbSpline
 62
7
  6
BYLAYER
 70
0
 71
3
 72
13
 73
9
 74
0
 42
0.0000001
 43
0.0000001
 44
0.0000000001
 40
0.0
 40
0.0
 40
0.0
 40
0.0
 40
0.1931234005
 40
0.3557405792
 40
0.5002432292
 40
0.6447244814
 40
0.8072075495
 40
1.0
 40
1.0
 40
1.0
 40
1.0
 10
73.0894158567
 20
185.5854574836
 30
0.0
 10
72.7374398507
 20
185.7846385853
 30
0.0
 10
72.0508603068
 20
186.0963550775
 30
0.0
 10
70.9890645163
 20
186.2224700274
 30
0.0
 10
70.0513192175
 20
185.945374431
 30
0.0
 10
69.3437583937
 20
185.2709522694
 30
0.0
 10
68.9233729466
 20
184.2890510787
 30
0.0
 10
68.8501713946
 20
183.5396058118
 30
0.0
 10
68.8467575058
 20
183.135887508
 30
0.0
  0
SPLINE
  5
4A3
100
AcDbEntity
  8
0
100
AcDbSpline
 62
7
  6
BYLAYER
 70
0
 71
3
 72
15
 73
11
 74
0
 42
0.0000001
 43
0.0000001
 44
0.0000000001
 40
0.0
 40
0.0
 40
0.0
 40
0.0
 40
0.1451634905
 40
0.2747919025
 40
0.3912660261
 40
0.5000034937
 40
0.6087410124
 40
0.72521485
 40
0.8548416633
 40
1.0
 40
1.0
 40
1.0
 40
1.0
 10
67.0789151172
 20
189.4637969939
 30
0.0
 10
67.8924524992
 20
188.9941115931
 30
0.0
 10
69.5089350542
 20
188.2249546993
 30
0.0
 10
71.9920462148
 20
187.6270052189
 30
0.0
 10
74.3205284835
 20
187.6874926899
 30
0.0
 10
76.3916832018
 20
188.4392132089
 30
0.0
 10
78.0782003855
 20
189.8571024697
 30
0.0
 10
79.2947468013
 20
191.8434139515
 30
0.0
 10
80.0183945612
 20
194.292795412
 30
0.0
 10
80.1605086296
 20
196.0772450602
 30
0.0
 10
80.1605086296
 20
197.0165984495
 30
0.0
  0
SPLINE
  5
4A4
100
AcDbEntity
  8
0
100
AcDbSpline
 62
7
  6
BYLAYER
 70
0
 71
3
 72
15
 73
11
 74
0
 42
0.0000001
 43
0.0000001
 44
0.0000000001
 40
0.0
 40
0.0
 40
0.0
 40
0.0
 40
0.1143843183
 40
0.237605792
 40
0.3671586962
 40
0.5000062172
 40
0.6328527471
 40
0.7624028058
 40
0.8856199458
 40
1.0
 40
1.0
 40
1.0
 40
1.0
 10
107.0306871423
 20
181.5034446065
 30
0.0
 10
107.0306871423
 20
180.4672935783
 30
0.0
 10
107.2206875143
 20
178.3129236021
 30
0.0
 10
107.9770078679
 20
175.0652448349
 30
0.0
 10
109.1865537912
 20
171.7791871672
 30
0.0
 10
110.8038250657
 20
168.5764577678
 30
0.0
 10
112.7688647058
 20
165.5745457012
 30
0.0
 10
115.009893132
 20
162.8841094088
 30
0.0
 10
117.4442613637
 20
160.6053823722
 30
0.0
 10
119.2149532291
 20
159.3637223103
 30
0.0
 10
120.1122579655
 20
158.8456748989
 30
0.0
  0
SPLINE
  5
4A5
100
AcDbEntity
  8
0
100
AcDbSpline
 62
7
  6
BYLAYER
 70
0
 71
3
 72
15
 73
11
 74
0
 42
0.0000001
 43
0.0000001
 44
0.0000000001
 40
0.0
 40
0.0
 40
0.0
 40
0.0
 40
0.1451634905
 40
0.2747919025
 40
0.3912660261
 40
0.5000034937
 40
0.6087410124
 40
0.72521485
 40
0.8548416633
 40
1.0
 40
1.0
 40
1.0
 40
1.0
 10
120.1122806547
 20
76.3789124982
 30
0.0
 10
119.2987432727
 20
76.848597899
 30
0.0
 10
117.6822607178
 20
77.6177547928
 30
0.0
 10
115.1991495571
 20
78.2157042732
 30
0.0
 10
112.8706672885
 20
78.1552168021
 30
0.0
 10
110.7995125701
 20
77.4034962831
 30
0.0
 10
109.1129953864
 20
75.9856070223
 30
0.0
 10
107.8964489707
 20
73.9992955406
 30
0.0
 10
107.1728012107
 20
71.5499140801
 30
0.0
 10
107.0306871423
 20
69.7654644319
 30
0.0
 10
107.0306871423
 20
68.8261110426
 30
0.0
  0
SPLINE
  5
4A6
100
AcDbEntity
  8
0
100
AcDbSpline
 62
7
  6
BYLAYER
 70
0
 71
3
 72
15
 73
11
 74
0
 42
0.0000001
 43
0.0000001
 44
0.0000000001
 40
0.0
 40
0.0
 40
0.0
 40
0.0
 40
0.1143843183
 40
0.237605792
 40
0.3671586962
 40
0.5000062172
 40
0.6328527471
 40
0.7624028058
 40
0.8856199458
 40
1.0
 40
1.0
 40
1.0
 40
1.0
 10
80.1605086296
 20
84.3392648856
 30
0.0
 10
80.1605086296
 20
85.3754159138
 30
0.0
 10
79.9705082576
 20
87.5297858899
 30
0.0
 10
79.214187904
 20
90.7774646572
 30
0.0
 10
78.0046419808
 20
94.0635223249
 30
0.0
 10
76.3873707063
 20
97.2662517243
 30
0.0
 10
74.4223310661
 20
100.2681637909
 30
0.0
 10
72.1813026399
 20
102.9586000832
 30
0.0
 10
69.7469344082
 20
105.2373271198
 30
0.0
 10
67.9762425428
 20
106.4789871818
 30
0.0
 10
67.0789378064
 20
106.9970345931
 30
0.0
  0
SPLINE
  5
4A7
100
AcDbEntity
  8
0
100
AcDbSpline
 62
7
  6
BYLAYER
 70
0
 71
3
 72
13
 73
9
 74
0
 42
0.0000001
 43
0.0000001
 44
0.0000000001
 40
0.0
 40
0.0
 40
0.0
 40
0.0
 40
0.1572501678
 40
0.3256519955
 40
0.5003086368
 40
0.674888346
 40
0.8430605164
 40
1.0
 40
1.0
 40
1.0
 40
1.0
 10
68.8467575058
 20
111.2836748005
 30
0.0
 10
68.8507005228
 20
110.821966295
 30
0.0
 10
68.9598805856
 20
109.8646222149
 30
0.0
 10
69.3943496516
 20
108.4546043154
 30
0.0
 10
70.057771345
 20
107.0809717797
 30
0.0
 10
70.9159013708
 20
105.8205916868
 30
0.0
 10
71.9190164565
 20
104.741128112
 30
0.0
 10
72.6922811824
 20
104.1689522901
 30
0.0
 10
73.0894158567
 20
103.9352157706
 30
0.0
  0
SPLINE
  5
4A8
100
AcDbEntity
  8
0
100
AcDbSpline
 62
7
  6
BYLAYER
 70
0
 71
3
 72
13
 73
9
 74
0
 42
0.0000001
 43
0.0000001
 44
0.0000000001
 40
0.0
 40
0.0
 40
0.0
 40
0.0
 40
0.1931234005
 40
0.3557405792
 40
0.5002432292
 40
0.6447244814
 40
0.8072075495
 40
1.0
 40
1.0
 40
1.0
 40
1.0
 10
114.1017799152
 20
80.2572520085
 30
0.0
 10
114.4537559212
 20
80.0580709068
 30
0.0
 10
115.1403354651
 20
79.7463544146
 30
0.0
 10
116.2021312557
 20
79.6202394647
 30
0.0
 10
117.1398765544
 20
79.8973350611
 30
0.0
 10
117.8474373783
 20
80.5717572226
 30
0.0
 10
118.2678228254
 20
81.5536584134
 30
0.0
 10
118.3410243773
 20
82.3031036802
 30
0.0
 10
118.3444382661
 20
82.7068219841
 30
0.0
  0
SPLINE
  5
4A9
100
AcDbEntity
  8
0
100
AcDbSpline
 62
7
  6
BYLAYER
 70
0
 71
3
 72
13
 73
9
 74
0
 42
0.0000001
 43
0.0000001
 44
0.0000000001
 40
0.0
 40
0.0
 40
0.0
 40
0.0
 40
0.1572501678
 40
0.3256519955
 40
0.5003086368
 40
0.674888346
 40
0.8430605164
 40
1.0
 40
1.0
 40
1.0
 40
1.0
 10
118.3444382661
 20
154.5590346915
 30
0.0
 10
118.3404952491
 20
155.0207431971
 30
0.0
 10
118.2313151863
 20
155.9780872771
 30
0.0
 10
117.7968461203
 20
157.3881051767
 30
0.0
 10
117.1334244269
 20
158.7617377123
 30
0.0
 10
116.2752944011
 20
160.0221178053
 30
0.0
 10
115.2721793154
 20
161.10158138
 30
0.0
 10
114.4989145895
 20
161.673757202
 30
0.0
 10
114.1017799152
 20
161.9074937214
 30
0.0
  0
SPLINE
  5
4AA
100
AcDbEntity
  8
0
100
AcDbSpline
 62
7
  6
BYLAYER
 70
0
 71
3
 72
11
 73
7
 74
0
 42
0.0000001
 43
0.0000001
 44
0.0000000001
 40
0.0
 40
0.0
 40
0.0
 40
0.0
 40
0.2426980785
 40
0.5040665571
 40
0.7629968693
 40
1.0
 40
1.0
 40
1.0
 40
1.0
 10
64.1746221561
 20
132.5913031874
 30
0.0
 10
64.1763983986
 20
132.4729948646
 30
0.0
 10
64.2027897412
 20
132.2271771793
 30
0.0
 10
64.3036158307
 20
131.8677481685
 30
0.0
 10
64.4564793465
 20
131.529438964
 30
0.0
 10
64.607264982
 20
131.3360305987
 30
0.0
 10
64.6910625383
 20
131.2564776764
 30
0.0
  0
SPLINE
  5
4AB
100
AcDbEntity
  8
0
100
AcDbSpline
 62
7
  6
BYLAYER
 70
0
 71
3
 72
10
 73
6
 74
0
 42
0.0000001
 43
0.0000001
 44
0.0000000001
 40
0.0
 40
0.0
 40
0.0
 40
0.0
 40
0.320514804
 40
0.6538825311
 40
1.0
 40
1.0
 40
1.0
 40
1.0
 10
64.6910625383
 20
131.2564776764
 30
0.0
 10
64.8212447534
 20
131.1402001476
 30
0.0
 10
65.0962080812
 20
130.9133066075
 30
0.0
 10
65.5400386593
 20
130.597067229
 30
0.0
 10
65.8550774797
 20
130.4023844792
 30
0.0
 10
66.0183186052
 20
130.3081393035
 30
0.0
  0
SPLINE
  5
4AC
100
AcDbEntity
  8
0
100
AcDbSpline
 62
7
  6
BYLAYER
 70
0
 71
3
 72
10
 73
6
 74
0
 42
0.0000001
 43
0.0000001
 44
0.0000000001
 40
0.0
 40
0.0
 40
0.0
 40
0.0
 40
0.3461174689
 40
0.679485196
 40
1.0
 40
1.0
 40
1.0
 40
1.0
 10
66.0183186052
 20
167.3773490412
 30
0.0
 10
65.8550774797
 20
167.4715942169
 30
0.0
 10
65.5400386593
 20
167.6662769667
 30
0.0
 10
65.0962080812
 20
167.9825163451
 30
0.0
 10
64.8212447534
 20
168.2094098853
 30
0.0
 10
64.6910625383
 20
168.3256874141
 30
0.0
  0
SPLINE
  5
4AD
100
AcDbEntity
  8
0
100
AcDbSpline
 62
7
  6
BYLAYER
 70
0
 71
3
 72
11
 73
7
 74
0
 42
0.0000001
 43
0.0000001
 44
0.0000000001
 40
0.0
 40
0.0
 40
0.0
 40
0.0
 40
0.2915605536
 40
0.4807675056
 40
0.6894664579
 40
1.0
 40
1.0
 40
1.0
 40
1.0
 10
64.6910625383
 20
168.3256874141
 30
0.0
 10
64.6265936795
 20
168.3802120788
 30
0.0
 10
64.5172935621
 20
168.4749010459
 30
0.0
 10
64.2890928415
 20
168.4702157277
 30
0.0
 10
64.1836212613
 20
168.2650203102
 30
0.0
 10
64.1755670238
 20
168.1174320354
 30
0.0
 10
64.1746221561
 20
168.0275080909
 30
0.0
  0
SPLINE
  5
4AE
100
AcDbEntity
  8
0
100
AcDbSpline
 62
7
  6
BYLAYER
 70
0
 71
3
 72
19
 73
15
 74
0
 42
0.0000001
 43
0.0000001
 44
0.0000000001
 40
0.0
 40
0.0
 40
0.0
 40
0.0
 40
0.0761164011
 40
0.1539624857
 40
0.2353434099
 40
0.3208005552
 40
0.4076211407
 40
0.4974976564
 40
0.5881560357
 40
0.6771072771
 40
0.7626719565
 40
0.8436883814
 40
0.9217430649
 40
1.0
 40
1.0
 40
1.0
 40
1.0
 10
73.0893569774
 20
103.5267894747
 30
0.0
 10
72.6449931855
 20
103.2763846063
 30
0.0
 10
71.6539353289
 20
102.9211463409
 30
0.0
 10
70.0567070308
 20
102.8601027046
 30
0.0
 10
68.4460986078
 20
103.2604104922
 30
0.0
 10
66.9368360814
 20
104.0771660462
 30
0.0
 10
65.6096864728
 20
105.2490979787
 30
0.0
 10
64.5399624794
 20
106.7029078659
 30
0.0
 10
63.7918136788
 20
108.3615111847
 30
0.0
 10
63.4222190977
 20
110.1144819527
 30
0.0
 10
63.4596895289
 20
111.8430828407
 30
0.0
 10
63.9078267262
 20
113.4394253092
 30
0.0
 10
64.751578989
 20
114.8148693238
 30
0.0
 10
65.5704506273
 20
115.5013347764
 30
0.0
 10
66.0182597259
 20
115.7742211912
 30
0.0
  0
SPLINE
  5
4AF
100
AcDbEntity
  8
0
100
AcDbSpline
 62
7
  6
BYLAYER
 70
0
 71
3
 72
14
 73
10
 74
0
 42
0.0000001
 43
0.0000001
 44
0.0000000001
 40
0.0
 40
0.0
 40
0.0
 40
0.0
 40
0.1644000333
 40
0.3090731404
 40
0.438344315
 40
0.561653825
 40
0.6909254245
 40
0.8355992159
 40
1.0
 40
1.0
 40
1.0
 40
1.0
 10
66.0182597259
 20
115.7742211912
 30
0.0
 10
65.5206844802
 20
115.4869477039
 30
0.0
 10
64.6294205378
 20
114.8599632606
 30
0.0
 10
63.6138025293
 20
113.6874850084
 30
0.0
 10
63.0697890494
 20
112.3771247687
 30
0.0
 10
63.0697994751
 20
111.0064520789
 30
0.0
 10
63.6138319538
 20
109.6960959448
 30
0.0
 10
64.6294661152
 20
108.5236235282
 30
0.0
 10
65.5207390154
 20
107.8966433185
 30
0.0
 10
66.0183186052
 20
107.6093721073
 30
0.0
  0
SPLINE
  5
4B0
100
AcDbEntity
  8
0
100
AcDbSpline
 62
7
  6
BYLAYER
 70
0
 71
3
 72
14
 73
10
 74
0
 42
0.0000001
 43
0.0000001
 44
0.0000000001
 40
0.0
 40
0.0
 40
0.0
 40
0.0
 40
0.1644007487
 40
0.3090751478
 40
0.4383477115
 40
0.5616580086
 40
0.6909292654
 40
0.8356015604
 40
1.0
 40
1.0
 40
1.0
 40
1.0
 10
66.0183186052
 20
107.6093721073
 30
0.0
 10
66.0183186052
 20
107.0348137994
 30
0.0
 10
66.1156751358
 20
105.9494459062
 30
0.0
 10
66.6232683267
 20
104.4836282715
 30
0.0
 10
67.4860706357
 20
103.3572887112
 30
0.0
 10
68.6731161618
 20
102.6719261398
 30
0.0
 10
70.0799413155
 20
102.4878578528
 30
0.0
 10
71.6031581782
 20
102.7811559217
 30
0.0
 10
72.5917811328
 20
103.2395156417
 30
0.0
 10
73.0893569774
 20
103.5267894747
 30
0.0
  0
SPLINE
  5
4B1
100
AcDbEntity
  8
0
100
AcDbSpline
 62
7
  6
BYLAYER
 70
0
 71
3
 72
19
 73
15
 74
0
 42
0.0000001
 43
0.0000001
 44
0.0000000001
 40
0.0
 40
0.0
 40
0.0
 40
0.0
 40
0.0558519379
 40
0.1142046293
 40
0.174822525
 40
0.237405906
 40
0.3670155918
 40
0.4999989199
 40
0.6329823985
 40
0.7625925237
 40
0.8251762221
 40
0.8857944916
 40
0.9441476043
 40
1.0
 40
1.0
 40
1.0
 40
1.0
 10
73.0893275376
 20
107.6092140166
 30
0.0
 10
72.9708324055
 20
107.6777230983
 30
0.0
 10
72.7346699183
 20
107.8279770802
 30
0.0
 10
72.3919894768
 20
108.0853438087
 30
0.0
 10
72.0560762984
 20
108.3771704367
 30
0.0
 10
71.6163272595
 20
108.8135329339
 30
0.0
 10
71.1052229357
 20
109.426975935
 30
0.0
 10
70.5734769881
 20
110.2391582186
 30
0.0
 10
70.1359748785
 20
111.1057537415
 30
0.0
 10
69.8602651247
 20
111.8551051846
 30
0.0
 10
69.7022342501
 20
112.4541219714
 30
0.0
 10
69.6174580385
 20
112.890946716
 30
0.0
 10
69.565908432
 20
113.31640268
 30
0.0
 10
69.55386329
 20
113.5960544225
 30
0.0
 10
69.5537789119
 20
113.7329298749
 30
0.0
  0
SPLINE
  5
4B2
100
AcDbEntity
  8
0
100
AcDbSpline
 62
7
  6
BYLAYER
 70
0
 71
3
 72
23
 73
19
 74
0
 42
0.0000001
 43
0.0000001
 44
0.0000000001
 40
0.0
 40
0.0
 40
0.0
 40
0.0
 40
0.0707466153
 40
0.1379441507
 40
0.2022416933
 40
0.2642430999
 40
0.3245030651
 40
0.3835272317
 40
0.4417767841
 40
0.4996772605
 40
0.5576307088
 40
0.6160298945
 40
0.6752730792
 40
0.7357778881
 40
0.7979929466
 40
0.8624062641
 40
0.9295497789
 40
1.0
 40
1.0
 40
1.0
 40
1.0
 10
73.0893275376
 20
107.6092140166
 30
0.0
 10
72.9867497768
 20
107.5500610495
 30
0.0
 10
72.7932138572
 20
107.4228390939
 30
0.0
 10
72.5347490127
 20
107.2028775172
 30
0.0
 10
72.31638582
 20
106.9623894831
 30
0.0
 10
72.1381156746
 20
106.704863723
 30
0.0
 10
71.9998591377
 20
106.4336908011
 30
0.0
 10
71.9015260098
 20
106.1522807693
 30
0.0
 10
71.8430089812
 20
105.8640228281
 30
0.0
 10
71.8241974588
 20
105.5722918923
 30
0.0
 10
71.8449851346
 20
105.2804502686
 30
0.0
 10
71.9052747575
 20
104.9918554066
 30
0.0
 10
72.0049773401
 20
104.7098683056
 30
0.0
 10
72.1440080119
 20
104.4378576637
 30
0.0
 10
72.3222753937
 20
104.1792096082
 30
0.0
 10
72.5396856816
 20
103.9372953125
 30
0.0
 10
72.7960910457
 20
103.7155815167
 30
0.0
 10
72.9878307617
 20
103.5867782339
 30
0.0
 10
73.0893569774
 20
103.5267894747
 30
0.0
  0
SPLINE
  5
4B3
100
AcDbEntity
  8
0
100
AcDbSpline
 62
7
  6
BYLAYER
 70
0
 71
3
 72
13
 73
9
 74
0
 42
0.0000001
 43
0.0000001
 44
0.0000000001
 40
0.0
 40
0.0
 40
0.0
 40
0.0
 40
0.1542909013
 40
0.3231997389
 40
0.4999989154
 40
0.6767983586
 40
0.8457079586
 40
1.0
 40
1.0
 40
1.0
 40
1.0
 10
98.5450656774
 20
122.306003556
 30
0.0
 10
98.2181100653
 20
122.4947671963
 30
0.0
 10
97.5791754962
 20
122.9715631421
 30
0.0
 10
96.739556424
 20
123.868133603
 30
0.0
 10
96.0171644569
 20
124.9289905968
 30
0.0
 10
95.4596251101
 20
126.0850279276
 30
0.0
 10
95.1029737607
 20
127.2604476436
 30
0.0
 10
95.0095170517
 20
128.0521829384
 30
0.0
 10
95.0095170517
 20
128.4297194143
 30
0.0
  0
SPLINE
  5
4B4
100
AcDbEntity
  8
0
100
AcDbSpline
 62
7
  6
BYLAYER
 70
0
 71
3
 72
25
 73
21
 74
0
 42
0.0000001
 43
0.0000001
 44
0.0000000001
 40
0.0
 40
0.0
 40
0.0
 40
0.0
 40
0.0255628287
 40
0.0521040336
 40
0.1080081347
 40
0.1674174284
 40
0.2298875977
 40
0.294889445
 40
0.3618386713
 40
0.4301157619
 40
0.4990800422
 40
0.5680804701
 40
0.6364649153
 40
0.7035893088
 40
0.7688280196
 40
0.8315871227
 40
0.8913229631
 40
0.9475698131
 40
0.9742785803
 40
1.0
 40
1.0
 40
1.0
 40
1.0
 10
69.5537789119
 20
204.3646981762
 30
0.0
 10
69.4999740356
 20
204.3336159287
 30
0.0
 10
69.3922397664
 20
204.2670412643
 30
0.0
 10
69.1765402814
 20
204.1173531967
 30
0.0
 10
68.9079125918
 20
203.9006293359
 30
0.0
 10
68.5935774592
 20
203.6038216806
 30
0.0
 10
68.2845285752
 20
203.2707397699
 30
0.0
 10
67.9835610026
 20
202.9063213105
 30
0.0
 10
67.6934755105
 20
202.5155031242
 30
0.0
 10
67.4170971683
 20
202.1032559477
 30
0.0
 10
67.157253878
 20
201.6745640678
 30
0.0
 10
66.9167732672
 20
201.2344220579
 30
0.0
 10
66.6984778574
 20
200.7878281358
 30
0.0
 10
66.5051816288
 20
200.3397769654
 30
0.0
 10
66.3396885735
 20
199.895255512
 30
0.0
 10
66.2047854186
 20
199.4592163075
 30
0.0
 10
66.1032611163
 20
199.0366086989
 30
0.0
 10
66.0478375716
 20
198.6939040806
 30
0.0
 10
66.0239352902
 20
198.4308189992
 30
0.0
 10
66.0189279371
 20
198.3034829983
 30
0.0
 10
66.0182597259
 20
198.2409653213
 30
0.0
  0
SPLINE
  5
4B5
100
AcDbEntity
  8
0
100
AcDbSpline
 62
7
  6
BYLAYER
 70
0
 71
3
 72
23
 73
19
 74
0
 42
0.0000001
 43
0.0000001
 44
0.0000000001
 40
0.0
 40
0.0
 40
0.0
 40
0.0
 40
0.0701248849
 40
0.1371852087
 40
0.2016840683
 40
0.2640837853
 40
0.3248101214
 40
0.3842599815
 40
0.4428122637
 40
0.5008411233
 40
0.5587305794
 40
0.6168891226
 40
0.6757628193
 40
0.7358454083
 40
0.7976841534
 40
0.8618807802
 40
0.9290876314
 40
1.0
 40
1.0
 40
1.0
 40
1.0
 10
66.0182597259
 20
115.7742211912
 30
0.0
 10
66.0214964568
 20
115.6572936749
 30
0.0
 10
66.040842709
 20
115.4286645171
 30
0.0
 10
66.1087912022
 20
115.0983893028
 30
0.0
 10
66.2124035553
 20
114.7910179686
 30
0.0
 10
66.3489094402
 20
114.5084720345
 30
0.0
 10
66.5155954303
 20
114.2525947157
 30
0.0
 10
66.7097399717
 20
114.0252385854
 30
0.0
 10
66.9286341054
 20
113.8282505681
 30
0.0
 10
67.1695755897
 20
113.6634846343
 30
0.0
 10
67.4298645426
 20
113.5328062215
 30
0.0
 10
67.7067945428
 20
113.4380947368
 30
0.0
 10
67.997642324
 20
113.3812401711
 30
0.0
 10
68.2996629361
 20
113.3641337196
 30
0.0
 10
68.6100788318
 20
113.3886553327
 30
0.0
 10
68.9261240835
 20
113.4566579313
 30
0.0
 10
69.2449086184
 20
113.5699712037
 30
0.0
 10
69.4513917555
 20
113.6737458321
 30
0.0
 10
69.5537789119
 20
113.7329298749
 30
0.0
  0
SPLINE
  5
4B6
100
AcDbEntity
  8
0
100
AcDbSpline
 62
7
  6
BYLAYER
 70
0
 71
3
 72
13
 73
9
 74
0
 42
0.0000001
 43
0.0000001
 44
0.0000000001
 40
0.0
 40
0.0
 40
0.0
 40
0.0
 40
0.1899446276
 40
0.353621692
 40
0.5000020004
 40
0.6463816757
 40
0.8100571932
 40
1.0
 40
1.0
 40
1.0
 40
1.0
 10
95.0095170517
 20
219.0614877157
 30
0.0
 10
95.0095170517
 20
219.3929557082
 30
0.0
 10
95.0732853529
 20
220.014235279
 30
0.0
 10
95.4181181515
 20
220.8347766854
 30
0.0
 10
96.0136422933
 20
221.4048098363
 30
0.0
 10
96.8050594714
 20
221.6355518728
 30
0.0
 10
97.6880813346
 20
221.5239316389
 30
0.0
 10
98.2580071036
 20
221.2685256243
 30
0.0
 10
98.5450656774
 20
221.1027960287
 30
0.0
  0
SPLINE
  5
4B7
100
AcDbEntity
  8
0
100
AcDbSpline
 62
7
  6
BYLAYER
 70
0
 71
3
 72
23
 73
19
 74
0
 42
0.0000001
 43
0.0000001
 44
0.0000000001
 40
0.0
 40
0.0
 40
0.0
 40
0.0
 40
0.0701249962
 40
0.1371852747
 40
0.2016839557
 40
0.2640833895
 40
0.3248093707
 40
0.3842588404
 40
0.4428107343
 40
0.5008392455
 40
0.5587284289
 40
0.6168868081
 40
0.6757604768
 40
0.7358431949
 40
0.7976822389
 40
0.8618793385
 40
0.929086832
 40
1.0
 40
1.0
 40
1.0
 40
1.0
 10
73.0893569774
 20
202.3235819474
 30
0.0
 10
72.9897135815
 20
202.3848471863
 30
0.0
 10
72.8013889088
 20
202.5159127724
 30
0.0
 10
72.5493375289
 20
202.7398904124
 30
0.0
 10
72.3349535067
 20
202.9833017947
 30
0.0
 10
72.158515763
 20
203.2427870427
 30
0.0
 10
72.0202638469
 20
203.5150747077
 30
0.0
 10
71.9204413488
 20
203.7968816198
 30
0.0
 10
71.8592932616
 20
204.0849383381
 30
0.0
 10
71.8370740354
 20
204.375977714
 30
0.0
 10
71.8540492265
 20
204.6667289085
 30
0.0
 10
71.9104932153
 20
204.9539084355
 30
0.0
 10
72.0066811207
 20
205.2342129322
 30
0.0
 10
72.1428782601
 20
205.5043196596
 30
0.0
 10
72.3193239136
 20
205.7608832787
 30
0.0
 10
72.5362397685
 20
206.0005820319
 30
0.0
 10
72.7937653165
 20
206.2199982766
 30
0.0
 10
72.9868788468
 20
206.346929195
 30
0.0
 10
73.0893275376
 20
206.4060064893
 30
0.0
  0
SPLINE
  5
4B8
100
AcDbEntity
  8
0
100
AcDbSpline
 62
7
  6
BYLAYER
 70
0
 71
3
 72
14
 73
10
 74
0
 42
0.0000001
 43
0.0000001
 44
0.0000000001
 40
0.0
 40
0.0
 40
0.0
 40
0.0
 40
0.1643984226
 40
0.3090710104
 40
0.4383427318
 40
0.5616534082
 40
0.6909260115
 40
0.8356000193
 40
1.0
 40
1.0
 40
1.0
 40
1.0
 10
103.1412788905
 20
218.4492311245
 30
0.0
 10
103.5642222962
 20
218.2050501595
 30
0.0
 10
104.4045598206
 20
217.8154481906
 30
0.0
 10
105.6993045745
 20
217.5661515619
 30
0.0
 10
106.8951145303
 20
217.7226153767
 30
0.0
 10
107.9041106147
 20
218.3051772959
 30
0.0
 10
108.6374991517
 20
219.2625687995
 30
0.0
 10
109.0689575941
 20
220.5085162608
 30
0.0
 10
109.1517115546
 20
221.4310804115
 30
0.0
 10
109.1517115546
 20
221.9194552565
 30
0.0
  0
SPLINE
  5
4B9
100
AcDbEntity
  8
0
100
AcDbSpline
 62
7
  6
BYLAYER
 70
0
 71
3
 72
23
 73
19
 74
0
 42
0.0000001
 43
0.0000001
 44
0.0000000001
 40
0.0
 40
0.0
 40
0.0
 40
0.0
 40
0.0255671235
 40
0.0520857333
 40
0.1078766594
 40
0.1671036446
 40
0.2293471486
 40
0.2941013774
 40
0.360803985
 40
0.4975997819
 40
0.6347710254
 40
0.7019305434
 40
0.7673024726
 40
0.8302992945
 40
0.8903775715
 40
0.9470623146
 40
0.9740183156
 40
1.0
 40
1.0
 40
1.0
 40
1.0
 10
83.6959734148
 20
211.3051778027
 30
0.0
 10
83.6421994324
 20
211.2741144093
 30
0.0
 10
83.5345839182
 20
211.2076116282
 30
0.0
 10
83.3193288279
 20
211.0581871474
 30
0.0
 10
83.0515975224
 20
210.8419870468
 30
0.0
 10
82.7387060241
 20
210.5459620021
 30
0.0
 10
82.4314566809
 20
210.2138479475
 30
0.0
 10
82.1324815742
 20
209.8505037924
 30
0.0
 10
81.745258479
 20
209.32650601
 30
0.0
 10
81.3021663148
 20
208.6266150057
 30
0.0
 10
80.921543693
 20
207.8896906446
 30
0.0
 10
80.6621837051
 20
207.2881739055
 30
0.0
 10
80.4960320487
 20
206.8432306879
 30
0.0
 10
80.3595103809
 20
206.4062593559
 30
0.0
 10
80.2552713646
 20
205.982127005
 30
0.0
 10
80.1965224899
 20
205.6377498752
 30
0.0
 10
80.1691775886
 20
205.3729021886
 30
0.0
 10
80.1621858828
 20
205.2445249862
 30
0.0
 10
80.1604542289
 20
205.1814449478
 30
0.0
  0
SPLINE
  5
4BA
100
AcDbEntity
  8
0
100
AcDbSpline
 62
7
  6
BYLAYER
 70
0
 71
3
 72
13
 73
9
 74
0
 42
0.0000001
 43
0.0000001
 44
0.0000000001
 40
0.0
 40
0.0
 40
0.0
 40
0.0
 40
0.1899446276
 40
0.353621692
 40
0.5000020004
 40
0.6463816757
 40
0.8100571932
 40
1.0
 40
1.0
 40
1.0
 40
1.0
 10
109.1517115546
 20
226.0019673422
 30
0.0
 10
109.1517115546
 20
226.3334353347
 30
0.0
 10
109.2154798558
 20
226.9547149055
 30
0.0
 10
109.5603126544
 20
227.7752563119
 30
0.0
 10
110.1558367963
 20
228.3452894628
 30
0.0
 10
110.9472539743
 20
228.5760314993
 30
0.0
 10
111.8302758375
 20
228.4644112654
 30
0.0
 10
112.4002016066
 20
228.2090052508
 30
0.0
 10
112.6872601803
 20
228.0432756552
 30
0.0
  0
SPLINE
  5
4BB
100
AcDbEntity
  8
0
100
AcDbSpline
 62
7
  6
BYLAYER
 70
0
 71
3
 72
25
 73
21
 74
0
 42
0.0000001
 43
0.0000001
 44
0.0000000001
 40
0.0
 40
0.0
 40
0.0
 40
0.0
 40
0.0255628613
 40
0.0521041113
 40
0.1080083296
 40
0.1674177611
 40
0.2298880749
 40
0.2948900628
 40
0.3618394173
 40
0.4301166168
 40
0.4990809805
 40
0.5680814605
 40
0.6364659213
 40
0.7035902886
 40
0.7688289255
 40
0.831587901
 40
0.8913235532
 40
0.9475701467
 40
0.9742787572
 40
1.0
 40
1.0
 40
1.0
 40
1.0
 10
121.1727888476
 20
193.7509298988
 30
0.0
 10
121.1189682189
 20
193.7198749032
 30
0.0
 10
121.0074454015
 20
193.6598621117
 30
0.0
 10
120.7699613906
 20
193.5479056985
 30
0.0
 10
120.4479585488
 20
193.4236298367
 30
0.0
 10
120.033747417
 20
193.2998116167
 30
0.0
 10
119.5907650888
 20
193.1987080111
 30
0.0
 10
119.124685278
 20
193.1202707933
 30
0.0
 10
118.6411837856
 20
193.0644571199
 30
0.0
 10
118.1459779326
 20
193.0312282333
 30
0.0
 10
117.6447981909
 20
193.0205410539
 30
0.0
 10
117.1433838027
 20
193.0323471203
 30
0.0
 10
116.6474746136
 20
193.0665917271
 30
0.0
 10
116.1628031204
 20
193.1232145485
 30
0.0
 10
115.6950901588
 20
193.2021504574
 30
0.0
 10
115.2500181112
 20
193.3033365905
 30
0.0
 10
114.8332677138
 20
193.4267136032
 30
0.0
 10
114.5087655801
 20
193.550064034
 30
0.0
 10
114.2689765475
 20
193.6609035625
 30
0.0
 10
114.1561969097
 20
193.7202335273
 30
0.0
 10
114.1017210359
 20
193.7509129021
 30
0.0
  0
SPLINE
  5
4BC
100
AcDbEntity
  8
0
100
AcDbSpline
 62
7
  6
BYLAYER
 70
0
 71
3
 72
23
 73
19
 74
0
 42
0.0000001
 43
0.0000001
 44
0.0000000001
 40
0.0
 40
0.0
 40
0.0
 40
0.0
 40
0.0704502211
 40
0.1375937359
 40
0.2020070534
 40
0.2642221119
 40
0.3247269208
 40
0.3839701055
 40
0.4423692912
 40
0.5003227395
 40
0.5582232159
 40
0.6164727683
 40
0.6754969349
 40
0.7357569001
 40
0.7977583067
 40
0.8620558493
 40
0.9292533847
 40
1.0
 40
1.0
 40
1.0
 40
1.0
 10
87.2315514804
 20
209.2640615739
 30
0.0
 10
87.1300252647
 20
209.3240503331
 30
0.0
 10
86.9382855487
 20
209.4528536159
 30
0.0
 10
86.6818801845
 20
209.6745674117
 30
0.0
 10
86.4644698966
 20
209.9164817073
 30
0.0
 10
86.2862025149
 20
210.1751297629
 30
0.0
 10
86.1471718431
 20
210.4471404048
 30
0.0
 10
86.0474692604
 20
210.7291275058
 30
0.0
 10
85.9871796375
 20
211.0177223678
 30
0.0
 10
85.9663919618
 20
211.3095639915
 30
0.0
 10
85.9852034841
 20
211.6012949273
 30
0.0
 10
86.0437205127
 20
211.8895528684
 30
0.0
 10
86.1420536406
 20
212.1709629003
 30
0.0
 10
86.2803101775
 20
212.4421358222
 30
0.0
 10
86.4585803229
 20
212.6996615823
 30
0.0
 10
86.6769435156
 20
212.9401496163
 30
0.0
 10
86.9354083602
 20
213.1601111931
 30
0.0
 10
87.1289442797
 20
213.2873331487
 30
0.0
 10
87.2315220406
 20
213.3464861158
 30
0.0
  0
SPLINE
  5
4BD
100
AcDbEntity
  8
0
100
AcDbSpline
 62
7
  6
BYLAYER
 70
0
 71
3
 72
13
 73
9
 74
0
 42
0.0000001
 43
0.0000001
 44
0.0000000001
 40
0.0
 40
0.0
 40
0.0
 40
0.0
 40
0.1542909013
 40
0.3231997389
 40
0.4999989154
 40
0.6767983586
 40
0.8457079586
 40
1.0
 40
1.0
 40
1.0
 40
1.0
 10
146.6285269874
 20
208.4477194382
 30
0.0
 10
146.9554825995
 20
208.258955798
 30
0.0
 10
147.5944171686
 20
207.7821598522
 30
0.0
 10
148.4340362408
 20
206.8855893912
 30
0.0
 10
149.1564282079
 20
205.8247323975
 30
0.0
 10
149.7139675547
 20
204.6686950667
 30
0.0
 10
150.0706189041
 20
203.4932753507
 30
0.0
 10
150.1640756131
 20
202.7015400559
 30
0.0
 10
150.1640756131
 20
202.32400358
 30
0.0
  0
SPLINE
  5
4BE
100
AcDbEntity
  8
0
100
AcDbSpline
 62
7
  6
BYLAYER
 70
0
 71
3
 72
23
 73
19
 74
0
 42
0.0000001
 43
0.0000001
 44
0.0000000001
 40
0.0
 40
0.0
 40
0.0
 40
0.0
 40
0.0259816844
 40
0.0529376854
 40
0.1096224285
 40
0.1697007055
 40
0.2326975274
 40
0.2980694566
 40
0.3652289746
 40
0.5024002181
 40
0.639196015
 40
0.7058986226
 40
0.7706528514
 40
0.8328963554
 40
0.8921233406
 40
0.9479142667
 40
0.9744328765
 40
1.0
 40
1.0
 40
1.0
 40
1.0
 10
121.1728182874
 20
181.5034811856
 30
0.0
 10
121.1745499413
 20
181.566561224
 30
0.0
 10
121.1815416472
 20
181.6949384265
 30
0.0
 10
121.2088865484
 20
181.9597861131
 30
0.0
 10
121.2676354231
 20
182.3041632428
 30
0.0
 10
121.3718744394
 20
182.7282955937
 30
0.0
 10
121.5083961073
 20
183.1652669257
 30
0.0
 10
121.6745477636
 20
183.6102101433
 30
0.0
 10
121.9339077516
 20
184.2117268824
 30
0.0
 10
122.3145303734
 20
184.9486512436
 30
0.0
 10
122.7576225375
 20
185.6485422478
 30
0.0
 10
123.1448456327
 20
186.1725400303
 30
0.0
 10
123.4438207395
 20
186.5358841853
 30
0.0
 10
123.7510700826
 20
186.86799824
 30
0.0
 10
124.0639615809
 20
187.1640232846
 30
0.0
 10
124.3316928864
 20
187.3802233852
 30
0.0
 10
124.5469479767
 20
187.529647866
 30
0.0
 10
124.6545634909
 20
187.5961506471
 30
0.0
 10
124.7083374733
 20
187.6272140405
 30
0.0
  0
SPLINE
  5
4BF
100
AcDbEntity
  8
0
100
AcDbSpline
 62
7
  6
BYLAYER
 70
0
 71
3
 72
14
 73
10
 74
0
 42
0.0000001
 43
0.0000001
 44
0.0000000001
 40
0.0
 40
0.0
 40
0.0
 40
0.0
 40
0.1312392067
 40
0.2738260066
 40
0.4237635326
 40
0.576238584
 40
0.7261757224
 40
0.868761788
 40
1.0
 40
1.0
 40
1.0
 40
1.0
 10
150.1640756131
 20
198.2414914943
 30
0.0
 10
150.1640756131
 20
197.6953908022
 30
0.0
 10
150.2791351684
 20
196.5547780443
 30
0.0
 10
150.7293932062
 20
194.8440995197
 30
0.0
 10
151.4436774514
 20
193.1296804023
 30
0.0
 10
152.3873464043
 20
191.49520659
 30
0.0
 10
153.5149393159
 20
190.0194180052
 30
0.0
 10
154.7713026241
 20
188.7741575291
 30
0.0
 10
155.7015721152
 20
188.1042181785
 30
0.0
 10
156.1745082776
 20
187.8311745349
 30
0.0
  0
SPLINE
  5
4C0
100
AcDbEntity
  8
0
100
AcDbSpline
 62
7
  6
BYLAYER
 70
0
 71
3
 72
25
 73
21
 74
0
 42
0.0000001
 43
0.0000001
 44
0.0000000001
 40
0.0
 40
0.0
 40
0.0
 40
0.0
 40
0.0255628613
 40
0.0521041113
 40
0.1080083296
 40
0.1674177611
 40
0.2298880749
 40
0.2948900628
 40
0.3618394173
 40
0.4301166168
 40
0.4990809805
 40
0.5680814605
 40
0.6364659213
 40
0.7035902886
 40
0.7688289255
 40
0.831587901
 40
0.8913235532
 40
0.9475701467
 40
0.9742787572
 40
1.0
 40
1.0
 40
1.0
 40
1.0
 10
135.3149833505
 20
170.4808200915
 30
0.0
 10
135.2611627218
 20
170.4497650959
 30
0.0
 10
135.1496399045
 20
170.3897523044
 30
0.0
 10
134.9121558936
 20
170.2777958912
 30
0.0
 10
134.5901530518
 20
170.1535200294
 30
0.0
 10
134.17594192
 20
170.0297018094
 30
0.0
 10
133.7329595918
 20
169.9285982038
 30
0.0
 10
133.2668797809
 20
169.850160986
 30
0.0
 10
132.7833782885
 20
169.7943473126
 30
0.0
 10
132.2881724356
 20
169.761118426
 30
0.0
 10
131.7869926938
 20
169.7504312466
 30
0.0
 10
131.2855783056
 20
169.762237313
 30
0.0
 10
130.7896691166
 20
169.7964819198
 30
0.0
 10
130.3049976233
 20
169.8531047412
 30
0.0
 10
129.8372846617
 20
169.9320406501
 30
0.0
 10
129.3922126141
 20
170.0332267832
 30
0.0
 10
128.9754622168
 20
170.1566037959
 30
0.0
 10
128.6509600831
 20
170.2799542267
 30
0.0
 10
128.4111710505
 20
170.3907937552
 30
0.0
 10
128.2983914126
 20
170.45012372
 30
0.0
 10
128.2439155389
 20
170.4808030948
 30
0.0
  0
SPLINE
  5
4C1
100
AcDbEntity
  8
0
100
AcDbSpline
 62
7
  6
BYLAYER
 70
0
 71
3
 72
13
 73
9
 74
0
 42
0.0000001
 43
0.0000001
 44
0.0000000001
 40
0.0
 40
0.0
 40
0.0
 40
0.0
 40
0.1542909013
 40
0.3231997389
 40
0.4999989154
 40
0.6767983586
 40
0.8457079586
 40
1.0
 40
1.0
 40
1.0
 40
1.0
 10
160.7707214903
 20
185.1776096309
 30
0.0
 10
161.0976771024
 20
184.9888459907
 30
0.0
 10
161.7366116715
 20
184.5120500448
 30
0.0
 10
162.5762307437
 20
183.6154795839
 30
0.0
 10
163.2986227109
 20
182.5546225902
 30
0.0
 10
163.8561620576
 20
181.3985852594
 30
0.0
 10
164.212813407
 20
180.2231655434
 30
0.0
 10
164.3062701161
 20
179.4314302486
 30
0.0
 10
164.3062701161
 20
179.0538937727
 30
0.0
  0
SPLINE
  5
4C2
100
AcDbEntity
  8
0
100
AcDbSpline
 62
7
  6
BYLAYER
 70
0
 71
3
 72
23
 73
19
 74
0
 42
0.0000001
 43
0.0000001
 44
0.0000000001
 40
0.0
 40
0.0
 40
0.0
 40
0.0
 40
0.070745824
 40
0.1379427227
 40
0.2022397955
 40
0.2642409043
 40
0.3245007402
 40
0.3835249342
 40
0.4417746506
 40
0.4996754009
 40
0.5576292004
 40
0.6160287782
 40
0.6752723574
 40
0.735777524
 40
0.7979928657
 40
0.8624063572
 40
0.929549907
 40
1.0
 40
1.0
 40
1.0
 40
1.0
 10
138.8505319763
 20
73.7253359319
 30
0.0
 10
138.7480147496
 20
73.6660779486
 30
0.0
 10
138.5410683717
 20
73.5620830417
 30
0.0
 10
138.2213419153
 20
73.4482289857
 30
0.0
 10
137.9038894542
 20
73.3793676021
 30
0.0
 10
137.5917280689
 20
73.3537470104
 30
0.0
 10
137.2877543998
 20
73.3696030772
 30
0.0
 10
136.9948765782
 20
73.4251526033
 30
0.0
 10
136.7159761173
 20
73.5186080007
 30
0.0
 10
136.4539205132
 20
73.6481859849
 30
0.0
 10
136.2115684845
 20
73.8121132912
 30
0.0
 10
135.9917790724
 20
74.008626932
 30
0.0
 10
135.7974185264
 20
74.2359693051
 30
0.0
 10
135.6313618249
 20
74.4923825274
 30
0.0
 10
135.4964957908
 20
74.7760943665
 30
0.0
 10
135.3956930886
 20
75.0853379648
 30
0.0
 10
135.3318821406
 20
75.4182518991
 30
0.0
 10
135.3162026364
 20
75.6487074089
 30
0.0
 10
135.3150127903
 20
75.7666272482
 30
0.0
  0
SPLINE
  5
4C3
100
AcDbEntity
  8
0
100
AcDbSpline
 62
7
  6
BYLAYER
 70
0
 71
3
 72
23
 73
19
 74
0
 42
0.0000001
 43
0.0000001
 44
0.0000000001
 40
0.0
 40
0.0
 40
0.0
 40
0.0
 40
0.0259816844
 40
0.0529376854
 40
0.1096224285
 40
0.1697007055
 40
0.2326975274
 40
0.2980694566
 40
0.3652289746
 40
0.5024002181
 40
0.639196015
 40
0.7058986226
 40
0.7706528514
 40
0.8328963554
 40
0.8921233406
 40
0.9479142667
 40
0.9744328765
 40
1.0
 40
1.0
 40
1.0
 40
1.0
 10
135.3150127904
 20
158.2333713783
 30
0.0
 10
135.3167444443
 20
158.2964514167
 30
0.0
 10
135.3237361501
 20
158.4248286192
 30
0.0
 10
135.3510810513
 20
158.6896763058
 30
0.0
 10
135.4098299261
 20
159.0340534355
 30
0.0
 10
135.5140689424
 20
159.4581857864
 30
0.0
 10
135.6505906102
 20
159.8951571184
 30
0.0
 10
135.8167422665
 20
160.340100336
 30
0.0
 10
136.0761022545
 20
160.9416170751
 30
0.0
 10
136.4567248763
 20
161.6785414363
 30
0.0
 10
136.8998170404
 20
162.3784324405
 30
0.0
 10
137.2870401357
 20
162.902430223
 30
0.0
 10
137.5860152424
 20
163.265774378
 30
0.0
 10
137.8932645856
 20
163.5978884327
 30
0.0
 10
138.2061560839
 20
163.8939134773
 30
0.0
 10
138.4738873893
 20
164.1101135779
 30
0.0
 10
138.6891424797
 20
164.2595380587
 30
0.0
 10
138.7967579939
 20
164.3260408398
 30
0.0
 10
138.8505319763
 20
164.3571042332
 30
0.0
  0
SPLINE
  5
4C4
100
AcDbEntity
  8
0
100
AcDbSpline
 62
7
  6
BYLAYER
 70
0
 71
3
 72
13
 73
9
 74
0
 42
0.0000001
 43
0.0000001
 44
0.0000000001
 40
0.0
 40
0.0
 40
0.0
 40
0.0
 40
0.1899446276
 40
0.353621692
 40
0.5000020004
 40
0.6463816757
 40
0.8100571932
 40
1.0
 40
1.0
 40
1.0
 40
1.0
 10
164.3062701161
 20
88.4221254713
 30
0.0
 10
164.3062701161
 20
88.0906574787
 30
0.0
 10
164.2425018149
 20
87.469377908
 30
0.0
 10
163.8976690163
 20
86.6488365016
 30
0.0
 10
163.3021448744
 20
86.0788033507
 30
0.0
 10
162.5107276964
 20
85.8480613141
 30
0.0
 10
161.6277058332
 20
85.959681548
 30
0.0
 10
161.0577800641
 20
86.2150875627
 30
0.0
 10
160.7707214903
 20
86.3808171583
 30
0.0
  0
SPLINE
  5
4C5
100
AcDbEntity
  8
0
100
AcDbSpline
 62
7
  6
BYLAYER
 70
0
 71
3
 72
23
 73
19
 74
0
 42
0.0000001
 43
0.0000001
 44
0.0000000001
 40
0.0
 40
0.0
 40
0.0
 40
0.0
 40
0.025981513
 40
0.0529373619
 40
0.1096218549
 40
0.1696999472
 40
0.2326966426
 40
0.2980684976
 40
0.3652279878
 40
0.5023992952
 40
0.6391952797
 40
0.705898013
 40
0.7706523801
 40
0.8328960267
 40
0.8921231481
 40
0.9479141901
 40
0.9744328444
 40
1.0
 40
1.0
 40
1.0
 40
1.0
 10
128.2439155389
 20
71.6840106221
 30
0.0
 10
128.2994101552
 20
71.6539710302
 30
0.0
 10
128.4140836802
 20
71.5958389549
 30
0.0
 10
128.6571204898
 20
71.487099502
 30
0.0
 10
128.9847337327
 20
71.3657926153
 30
0.0
 10
129.4041619638
 20
71.2440042255
 30
0.0
 10
129.8508505214
 20
71.143753692
 30
0.0
 10
130.319258046
 20
71.0651772624
 30
0.0
 10
130.9698665892
 20
70.9890356661
 30
0.0
 10
131.7983730298
 20
70.9502070336
 30
0.0
 10
132.6260424215
 20
70.9839940145
 30
0.0
 10
133.2734496038
 20
71.0573419949
 30
0.0
 10
133.7376028004
 20
71.1345908502
 30
0.0
 10
134.1788471646
 20
71.2346199459
 30
0.0
 10
134.5916587137
 20
71.3575792554
 30
0.0
 10
134.9127597708
 20
71.4813407103
 30
0.0
 10
135.1497933102
 20
71.593044062
 30
0.0
 10
135.261194497
 20
71.6529899509
 30
0.0
 10
135.3149833505
 20
71.6840276188
 30
0.0
  0
SPLINE
  5
4C6
100
AcDbEntity
  8
0
100
AcDbSpline
 62
7
  6
BYLAYER
 70
0
 71
3
 72
14
 73
10
 74
0
 42
0.0000001
 43
0.0000001
 44
0.0000000001
 40
0.0
 40
0.0
 40
0.0
 40
0.0
 40
0.1643984226
 40
0.3090710104
 40
0.4383427318
 40
0.5616534082
 40
0.6909260115
 40
0.8356000193
 40
1.0
 40
1.0
 40
1.0
 40
1.0
 10
156.1745082769
 20
89.0343820626
 30
0.0
 10
155.7515648712
 20
89.2785630276
 30
0.0
 10
154.9112273469
 20
89.6681649965
 30
0.0
 10
153.616482593
 20
89.9174616251
 30
0.0
 10
152.4206726373
 20
89.7609978102
 30
0.0
 10
151.411676553
 20
89.178435891
 30
0.0
 10
150.678288016
 20
88.2210443874
 30
0.0
 10
150.2468295736
 20
86.9750969261
 30
0.0
 10
150.1640756131
 20
86.0525327754
 30
0.0
 10
150.1640756131
 20
85.5641579305
 30
0.0
  0
SPLINE
  5
4C7
100
AcDbEntity
  8
0
100
AcDbSpline
 62
7
  6
BYLAYER
 70
0
 71
3
 72
23
 73
19
 74
0
 42
0.0000001
 43
0.0000001
 44
0.0000000001
 40
0.0
 40
0.0
 40
0.0
 40
0.0
 40
0.070745824
 40
0.1379427227
 40
0.2022397955
 40
0.2642409043
 40
0.3245007402
 40
0.3835249342
 40
0.4417746506
 40
0.4996754009
 40
0.5576292004
 40
0.6160287782
 40
0.6752723574
 40
0.735777524
 40
0.7979928657
 40
0.8624063572
 40
0.929549907
 40
1.0
 40
1.0
 40
1.0
 40
1.0
 10
124.7083374733
 20
66.7848563054
 30
0.0
 10
124.6058202467
 20
66.7255983222
 30
0.0
 10
124.3988738688
 20
66.6216034152
 30
0.0
 10
124.0791474123
 20
66.5077493592
 30
0.0
 10
123.7616949513
 20
66.4388879757
 30
0.0
 10
123.449533566
 20
66.413267384
 30
0.0
 10
123.1455598968
 20
66.4291234507
 30
0.0
 10
122.8526820752
 20
66.4846729768
 30
0.0
 10
122.5737816143
 20
66.5781283742
 30
0.0
 10
122.3117260102
 20
66.7077063584
 30
0.0
 10
122.0693739815
 20
66.8716336647
 30
0.0
 10
121.8495845695
 20
67.0681473055
 30
0.0
 10
121.6552240234
 20
67.2954896786
 30
0.0
 10
121.489167322
 20
67.5519029009
 30
0.0
 10
121.3543012879
 20
67.83561474
 30
0.0
 10
121.2534985857
 20
68.1448583383
 30
0.0
 10
121.1896876377
 20
68.4777722726
 30
0.0
 10
121.1740081335
 20
68.7082277824
 30
0.0
 10
121.1728182874
 20
68.8261476218
 30
0.0
  0
SPLINE
  5
4C8
100
AcDbEntity
  8
0
100
AcDbSpline
 62
7
  6
BYLAYER
 70
0
 71
3
 72
13
 73
9
 74
0
 42
0.0000001
 43
0.0000001
 44
0.0000000001
 40
0.0
 40
0.0
 40
0.0
 40
0.0
 40
0.1899446276
 40
0.353621692
 40
0.5000020004
 40
0.6463816757
 40
0.8100571932
 40
1.0
 40
1.0
 40
1.0
 40
1.0
 10
150.1640756131
 20
81.4816458448
 30
0.0
 10
150.1640756131
 20
81.1501778523
 30
0.0
 10
150.1003073119
 20
80.5288982815
 30
0.0
 10
149.7554745133
 20
79.7083568751
 30
0.0
 10
149.1599503715
 20
79.1383237242
 30
0.0
 10
148.3685331934
 20
78.9075816876
 30
0.0
 10
147.4855113302
 20
79.0192019215
 30
0.0
 10
146.9155855612
 20
79.2746079362
 30
0.0
 10
146.6285269874
 20
79.4403375318
 30
0.0
  0
SPLINE
  5
4C9
100
AcDbEntity
  8
0
100
AcDbSpline
 62
7
  6
BYLAYER
 70
0
 71
3
 72
23
 73
19
 74
0
 42
0.0000001
 43
0.0000001
 44
0.0000000001
 40
0.0
 40
0.0
 40
0.0
 40
0.0
 40
0.0707466153
 40
0.1379441507
 40
0.2022416933
 40
0.2642430999
 40
0.3245030651
 40
0.3835272317
 40
0.4417767841
 40
0.4996772605
 40
0.5576307088
 40
0.6160298945
 40
0.6752730792
 40
0.7357778881
 40
0.7979929466
 40
0.8624062641
 40
0.9295497789
 40
1.0
 40
1.0
 40
1.0
 40
1.0
 10
87.2315220406
 20
84.3391042093
 30
0.0
 10
87.1289442798
 20
84.2799512422
 30
0.0
 10
86.9354083602
 20
84.1527292866
 30
0.0
 10
86.6769435157
 20
83.9327677099
 30
0.0
 10
86.4585803229
 20
83.6922796758
 30
0.0
 10
86.2803101775
 20
83.4347539157
 30
0.0
 10
86.1420536406
 20
83.1635809938
 30
0.0
 10
86.0437205127
 20
82.882170962
 30
0.0
 10
85.9852034841
 20
82.5939130208
 30
0.0
 10
85.9663919618
 20
82.302182085
 30
0.0
 10
85.9871796375
 20
82.0103404613
 30
0.0
 10
86.0474692604
 20
81.7217455993
 30
0.0
 10
86.1471718431
 20
81.4397584983
 30
0.0
 10
86.2862025149
 20
81.1677478564
 30
0.0
 10
86.4644698966
 20
80.9090998009
 30
0.0
 10
86.6818801845
 20
80.6671855052
 30
0.0
 10
86.9382855487
 20
80.4454717094
 30
0.0
 10
87.1300252647
 20
80.3166684266
 30
0.0
 10
87.2315514804
 20
80.2566796674
 30
0.0
  0
SPLINE
  5
4CA
100
AcDbEntity
  8
0
100
AcDbSpline
 62
7
  6
BYLAYER
 70
0
 71
3
 72
23
 73
19
 74
0
 42
0.0000001
 43
0.0000001
 44
0.0000000001
 40
0.0
 40
0.0
 40
0.0
 40
0.0
 40
0.025981513
 40
0.0529373619
 40
0.1096218549
 40
0.1696999472
 40
0.2326966426
 40
0.2980684976
 40
0.3652279878
 40
0.5023992952
 40
0.6391952797
 40
0.705898013
 40
0.7706523801
 40
0.8328960267
 40
0.8921231481
 40
0.9479141901
 40
0.9744328444
 40
1.0
 40
1.0
 40
1.0
 40
1.0
 10
114.1017210359
 20
64.7435309957
 30
0.0
 10
114.1572156523
 20
64.7134914037
 30
0.0
 10
114.2718891773
 20
64.6553593284
 30
0.0
 10
114.5149259868
 20
64.5466198755
 30
0.0
 10
114.8425392298
 20
64.4253129889
 30
0.0
 10
115.2619674608
 20
64.303524599
 30
0.0
 10
115.7086560185
 20
64.2032740655
 30
0.0
 10
116.1770635431
 20
64.1246976359
 30
0.0
 10
116.8276720862
 20
64.0485560396
 30
0.0
 10
117.6561785269
 20
64.0097274071
 30
0.0
 10
118.4838479186
 20
64.043514388
 30
0.0
 10
119.1312551009
 20
64.1168623684
 30
0.0
 10
119.5954082975
 20
64.1941112237
 30
0.0
 10
120.0366526617
 20
64.2941403194
 30
0.0
 10
120.4494642107
 20
64.4170996289
 30
0.0
 10
120.7705652679
 20
64.5408610838
 30
0.0
 10
121.0075988072
 20
64.6525644355
 30
0.0
 10
121.118999994
 20
64.7125103245
 30
0.0
 10
121.1727888476
 20
64.7435479923
 30
0.0
  0
SPLINE
  5
4CB
100
AcDbEntity
  8
0
100
AcDbSpline
 62
7
  6
BYLAYER
 70
0
 71
3
 72
13
 73
9
 74
0
 42
0.0000001
 43
0.0000001
 44
0.0000000001
 40
0.0
 40
0.0
 40
0.0
 40
0.0
 40
0.1542909013
 40
0.3231997389
 40
0.4999989154
 40
0.6767983586
 40
0.8457079586
 40
1.0
 40
1.0
 40
1.0
 40
1.0
 10
112.6872601803
 20
99.0358937487
 30
0.0
 10
112.3603045683
 20
99.224657389
 30
0.0
 10
111.7213699992
 20
99.7014533348
 30
0.0
 10
110.881750927
 20
100.5980237957
 30
0.0
 10
110.1593589598
 20
101.6588807895
 30
0.0
 10
109.6018196131
 20
102.8149181203
 30
0.0
 10
109.2451682637
 20
103.9903378363
 30
0.0
 10
109.1517115546
 20
104.7820731311
 30
0.0
 10
109.1517115546
 20
105.159609607
 30
0.0
  0
SPLINE
  5
4CC
100
AcDbEntity
  8
0
100
AcDbSpline
 62
7
  6
BYLAYER
 70
0
 71
3
 72
23
 73
19
 74
0
 42
0.0000001
 43
0.0000001
 44
0.0000000001
 40
0.0
 40
0.0
 40
0.0
 40
0.0
 40
0.0701248849
 40
0.1371852087
 40
0.2016840683
 40
0.2640837853
 40
0.3248101214
 40
0.3842599815
 40
0.4428122637
 40
0.5008411233
 40
0.5587305794
 40
0.6168891226
 40
0.6757628193
 40
0.7358454083
 40
0.7976841534
 40
0.8618807802
 40
0.9290876314
 40
1.0
 40
1.0
 40
1.0
 40
1.0
 10
80.1604542289
 20
92.5041113839
 30
0.0
 10
80.1636909598
 20
92.3871838676
 30
0.0
 10
80.183037212
 20
92.1585547098
 30
0.0
 10
80.2509857051
 20
91.8282794955
 30
0.0
 10
80.3545980582
 20
91.5209081613
 30
0.0
 10
80.4911039431
 20
91.2383622272
 30
0.0
 10
80.6577899332
 20
90.9824849084
 30
0.0
 10
80.8519344746
 20
90.7551287781
 30
0.0
 10
81.0708286083
 20
90.5581407608
 30
0.0
 10
81.3117700927
 20
90.393374827
 30
0.0
 10
81.5720590455
 20
90.2626964142
 30
0.0
 10
81.8489890457
 20
90.1679849295
 30
0.0
 10
82.139836827
 20
90.1111303638
 30
0.0
 10
82.441857439
 20
90.0940239123
 30
0.0
 10
82.7522733347
 20
90.1185455254
 30
0.0
 10
83.0683185864
 20
90.186548124
 30
0.0
 10
83.3871031214
 20
90.2998613964
 30
0.0
 10
83.5935862584
 20
90.4036360248
 30
0.0
 10
83.6959734148
 20
90.4628200676
 30
0.0
  0
SPLINE
  5
4CD
100
AcDbEntity
  8
0
100
AcDbSpline
 62
7
  6
BYLAYER
 70
0
 71
3
 72
14
 73
10
 74
0
 42
0.0000001
 43
0.0000001
 44
0.0000000001
 40
0.0
 40
0.0
 40
0.0
 40
0.0
 40
0.1312392067
 40
0.2738260066
 40
0.4237635326
 40
0.576238584
 40
0.7261757224
 40
0.8687617881
 40
1.0
 40
1.0
 40
1.0
 40
1.0
 10
109.1517115546
 20
109.2421216926
 30
0.0
 10
109.1517115546
 20
109.7882223848
 30
0.0
 10
109.0366519993
 20
110.9288351426
 30
0.0
 10
108.5863939616
 20
112.6395136671
 30
0.0
 10
107.8721097164
 20
114.3539327845
 30
0.0
 10
106.9284407636
 20
115.9884065968
 30
0.0
 10
105.8008478521
 20
117.4641951814
 30
0.0
 10
104.5444845441
 20
118.7094556575
 30
0.0
 10
103.6142150531
 20
119.3793950081
 30
0.0
 10
103.1412788909
 20
119.6524386517
 30
0.0
  0
SPLINE
  5
4CE
100
AcDbEntity
  8
0
100
AcDbSpline
 62
7
  6
BYLAYER
 70
0
 71
3
 72
14
 73
10
 74
0
 42
0.0000001
 43
0.0000001
 44
0.0000000001
 40
0.0
 40
0.0
 40
0.0
 40
0.0
 40
0.1644005599
 40
0.3090743727
 40
0.4383459992
 40
0.5616555449
 40
0.6909267625
 40
0.8355999171
 40
1.0
 40
1.0
 40
1.0
 40
1.0
 10
80.1605086296
 20
84.3392648856
 30
0.0
 10
79.6629300412
 20
84.6265357006
 30
0.0
 10
78.7716585938
 20
85.2535157899
 30
0.0
 10
77.7560256648
 20
86.4259874213
 30
0.0
 10
77.2119937886
 20
87.7363433873
 30
0.0
 10
77.2119837571
 20
89.1070157663
 30
0.0
 10
77.755997367
 20
90.4173756678
 30
0.0
 10
78.7716152846
 20
91.5898536343
 30
0.0
 10
79.6628790769
 20
92.2168379508
 30
0.0
 10
80.1604542288
 20
92.5041113839
 30
0.0
  0
SPLINE
  5
4CF
100
AcDbEntity
  8
0
100
AcDbSpline
 62
7
  6
BYLAYER
 70
0
 71
3
 72
14
 73
10
 74
0
 42
0.0000001
 43
0.0000001
 44
0.0000000001
 40
0.0
 40
0.0
 40
0.0
 40
0.0
 40
0.1312392067
 40
0.2738260067
 40
0.4237635326
 40
0.5762385841
 40
0.7261757225
 40
0.8687617881
 40
1.0
 40
1.0
 40
1.0
 40
1.0
 10
80.1604542288
 20
92.5041113839
 30
0.0
 10
80.1604542288
 20
93.0502120761
 30
0.0
 10
80.0453946735
 20
94.190824834
 30
0.0
 10
79.5951366357
 20
95.9015033587
 30
0.0
 10
78.8808523904
 20
97.6159224762
 30
0.0
 10
77.9371834375
 20
99.2503962886
 30
0.0
 10
76.8095905258
 20
100.7261848733
 30
0.0
 10
75.5532272178
 20
101.9714453491
 30
0.0
 10
74.6229577271
 20
102.6413846996
 30
0.0
 10
74.1500215651
 20
102.9144283429
 30
0.0
  0
SPLINE
  5
4D0
100
AcDbEntity
  8
0
100
AcDbSpline
 62
7
  6
BYLAYER
 70
0
 71
3
 72
14
 73
10
 74
0
 42
0.0000001
 43
0.0000001
 44
0.0000000001
 40
0.0
 40
0.0
 40
0.0
 40
0.0
 40
0.1643984892
 40
0.3090708316
 40
0.4383421316
 40
0.5616524644
 40
0.6909250551
 40
0.8355994756
 40
1.0
 40
1.0
 40
1.0
 40
1.0
 10
74.1500215629
 20
102.9144283442
 30
0.0
 10
73.6524458121
 20
102.6271545653
 30
0.0
 10
72.6638230425
 20
102.1687949118
 30
0.0
 10
71.140606472
 20
101.875496779
 30
0.0
 10
69.7337815472
 20
102.0595647845
 30
0.0
 10
68.5467360883
 20
102.7449268594
 30
0.0
 10
67.6839336412
 20
103.8712658139
 30
0.0
 10
67.1763404346
 20
105.3370819891
 30
0.0
 10
67.0789835036
 20
106.4224485641
 30
0.0
 10
67.0789831882
 20
106.9970058068
 30
0.0
  0
SPLINE
  5
4D1
100
AcDbEntity
  8
0
100
AcDbSpline
 62
7
  6
BYLAYER
 70
0
 71
3
 72
19
 73
15
 74
0
 42
0.0000001
 43
0.0000001
 44
0.0000000001
 40
0.0
 40
0.0
 40
0.0
 40
0.0
 40
0.0761164011
 40
0.1539624857
 40
0.2353434099
 40
0.3208005552
 40
0.4076211407
 40
0.4974976564
 40
0.5881560357
 40
0.6771072771
 40
0.7626719565
 40
0.8436883814
 40
0.9217430649
 40
1.0
 40
1.0
 40
1.0
 40
1.0
 10
87.2315514803
 20
80.2566796674
 30
0.0
 10
86.7871876884
 20
80.006274799
 30
0.0
 10
85.7961298318
 20
79.6510365336
 30
0.0
 10
84.1989015338
 20
79.5899928973
 30
0.0
 10
82.5882931108
 20
79.9903006849
 30
0.0
 10
81.0790305844
 20
80.8070562389
 30
0.0
 10
79.7518809757
 20
81.9789881714
 30
0.0
 10
78.6821569823
 20
83.4327980586
 30
0.0
 10
77.9340081817
 20
85.0914013774
 30
0.0
 10
77.5644136006
 20
86.8443721454
 30
0.0
 10
77.6018840318
 20
88.5729730333
 30
0.0
 10
78.0500212292
 20
90.1693155019
 30
0.0
 10
78.8937734919
 20
91.5447595165
 30
0.0
 10
79.7126451302
 20
92.2312249691
 30
0.0
 10
80.1604542288
 20
92.5041113839
 30
0.0
  0
SPLINE
  5
4D2
100
AcDbEntity
  8
0
100
AcDbSpline
 62
7
  6
BYLAYER
 70
0
 71
3
 72
14
 73
10
 74
0
 42
0.0000001
 43
0.0000001
 44
0.0000000001
 40
0.0
 40
0.0
 40
0.0
 40
0.0
 40
0.1644007487
 40
0.3090751478
 40
0.4383477115
 40
0.5616580086
 40
0.6909292654
 40
0.8356015604
 40
1.0
 40
1.0
 40
1.0
 40
1.0
 10
80.1605131082
 20
84.3392623
 30
0.0
 10
80.1605131082
 20
83.7647039921
 30
0.0
 10
80.2578696388
 20
82.6793360989
 30
0.0
 10
80.7654628297
 20
81.2135184642
 30
0.0
 10
81.6282651386
 20
80.0871789039
 30
0.0
 10
82.8153106647
 20
79.4018163325
 30
0.0
 10
84.2221358184
 20
79.2177480455
 30
0.0
 10
85.7453526811
 20
79.5110461144
 30
0.0
 10
86.7339756358
 20
79.9694058344
 30
0.0
 10
87.2315514803
 20
80.2566796674
 30
0.0
  0
SPLINE
  5
4D3
100
AcDbEntity
  8
0
100
AcDbSpline
 62
7
  6
BYLAYER
 70
0
 71
3
 72
19
 73
15
 74
0
 42
0.0000001
 43
0.0000001
 44
0.0000000001
 40
0.0
 40
0.0
 40
0.0
 40
0.0
 40
0.0558519379
 40
0.1142046293
 40
0.174822525
 40
0.237405906
 40
0.3670155918
 40
0.4999989199
 40
0.6329823985
 40
0.7625925237
 40
0.8251762221
 40
0.8857944916
 40
0.9441476043
 40
1.0
 40
1.0
 40
1.0
 40
1.0
 10
87.2315220406
 20
84.3391042093
 30
0.0
 10
87.1130269084
 20
84.407613291
 30
0.0
 10
86.8768644212
 20
84.5578672729
 30
0.0
 10
86.5341839797
 20
84.8152340014
 30
0.0
 10
86.1982708014
 20
85.1070606294
 30
0.0
 10
85.7585217624
 20
85.5434231266
 30
0.0
 10
85.2474174386
 20
86.1568661277
 30
0.0
 10
84.715671491
 20
86.9690484113
 30
0.0
 10
84.2781693814
 20
87.8356439342
 30
0.0
 10
84.0024596276
 20
88.5849953773
 30
0.0
 10
83.8444287531
 20
89.1840121641
 30
0.0
 10
83.7596525414
 20
89.6208369087
 30
0.0
 10
83.708102935
 20
90.0462928727
 30
0.0
 10
83.6960577929
 20
90.3259446152
 30
0.0
 10
83.6959734148
 20
90.4628200676
 30
0.0
  0
SPLINE
  5
4D4
100
AcDbEntity
  8
0
100
AcDbSpline
 62
7
  6
BYLAYER
 70
0
 71
3
 72
19
 73
15
 74
0
 42
0.0000001
 43
0.0000001
 44
0.0000000001
 40
0.0
 40
0.0
 40
0.0
 40
0.0
 40
0.1182569678
 40
0.2470383041
 40
0.3781774611
 40
0.5032700459
 40
0.61171834
 40
0.7005233688
 40
0.7626204403
 40
0.793074625
 40
0.7965557351
 40
0.8331576772
 40
0.9012882036
 40
1.0
 40
1.0
 40
1.0
 40
1.0
 10
121.1728182874
 20
68.8261476217
 30
0.0
 10
120.7002910883
 20
68.5467194108
 30
0.0
 10
119.7172726385
 20
67.9567388635
 30
0.0
 10
118.2049542985
 20
67.06210971
 30
0.0
 10
116.6708789595
 20
66.1565122264
 30
0.0
 10
115.1954363869
 20
65.2864307553
 30
0.0
 10
113.9526076296
 20
64.5676966169
 30
0.0
 10
112.7797822294
 20
63.862636053
 30
0.0
 10
112.3364854285
 20
63.6602182208
 30
0.0
 10
111.5443758372
 20
63.1354146524
 30
0.0
 10
111.7987551242
 20
63.3977246363
 30
0.0
 10
112.2445461989
 20
63.5874471301
 30
0.0
 10
113.0387293692
 20
64.1295461194
 30
0.0
 10
113.7105768824
 20
64.5048178193
 30
0.0
 10
114.1017210359
 20
64.7435309956
 30
0.0
  0
SPLINE
  5
4D5
100
AcDbEntity
  8
0
100
AcDbSpline
 62
7
  6
BYLAYER
 70
0
 71
3
 72
14
 73
10
 74
0
 42
0.0000001
 43
0.0000001
 44
0.0000000001
 40
0.0
 40
0.0
 40
0.0
 40
0.0
 40
0.1643984396
 40
0.3090707346
 40
0.4383419914
 40
0.5616522885
 40
0.6909248522
 40
0.8355992513
 40
1.0
 40
1.0
 40
1.0
 40
1.0
 10
114.1017210359
 20
64.7435309956
 30
0.0
 10
113.6041451913
 20
64.4562571626
 30
0.0
 10
112.6155222367
 20
63.9978974426
 30
0.0
 10
111.092305374
 20
63.7045993737
 30
0.0
 10
109.6854802203
 20
63.8886676607
 30
0.0
 10
108.4984346942
 20
64.5740302321
 30
0.0
 10
107.6356323853
 20
65.7003697924
 30
0.0
 10
107.1280391943
 20
67.1661874271
 30
0.0
 10
107.0306826638
 20
68.2515553203
 30
0.0
 10
107.0306826638
 20
68.8261136282
 30
0.0
  0
SPLINE
  5
4D6
100
AcDbEntity
  8
0
100
AcDbSpline
 62
7
  6
BYLAYER
 70
0
 71
3
 72
14
 73
10
 74
0
 42
0.0000001
 43
0.0000001
 44
0.0000000001
 40
0.0
 40
0.0
 40
0.0
 40
0.0
 40
0.1312389333
 40
0.2738255059
 40
0.4237630894
 40
0.5762383588
 40
0.7261757413
 40
0.8687619332
 40
1.0
 40
1.0
 40
1.0
 40
1.0
 10
107.0306826638
 20
68.8261136282
 30
0.0
 10
107.5870802764
 20
68.5048847874
 30
0.0
 10
108.8168799413
 20
67.9511782334
 30
0.0
 10
110.8246658846
 20
67.4036587775
 30
0.0
 10
112.9915717952
 20
67.1229359994
 30
0.0
 10
115.2119585771
 20
67.1229416549
 30
0.0
 10
117.3788602275
 20
67.4036754293
 30
0.0
 10
119.3866361534
 20
67.95120476
 30
0.0
 10
120.6164267527
 20
68.5049167369
 30
0.0
 10
121.1728182874
 20
68.8261476217
 30
0.0
  0
SPLINE
  5
4D7
100
AcDbEntity
  8
0
100
AcDbSpline
 62
7
  6
BYLAYER
 70
0
 71
3
 72
23
 73
19
 74
0
 42
0.0000001
 43
0.0000001
 44
0.0000000001
 40
0.0
 40
0.0
 40
0.0
 40
0.0
 40
0.0743014945
 40
0.1447501632
 40
0.2113603456
 40
0.2743221956
 40
0.3340005485
 40
0.390970835
 40
0.4459950848
 40
0.5000019685
 40
0.5540087612
 40
0.6090327464
 40
0.6660026177
 40
0.7256804375
 40
0.7886416717
 40
0.85525119
 40
0.9256991773
 40
1.0
 40
1.0
 40
1.0
 40
1.0
 10
124.7083374733
 20
66.7848563054
 30
0.0
 10
124.7082419723
 20
66.6546985359
 30
0.0
 10
124.6978623796
 20
66.4007141777
 30
0.0
 10
124.6478613014
 20
66.033090519
 30
0.0
 10
124.5643507382
 20
65.6918520997
 30
0.0
 10
124.4480620608
 20
65.3802916072
 30
0.0
 10
124.2997141507
 20
65.1014880673
 30
0.0
 10
124.1206678615
 20
64.8582091017
 30
0.0
 10
123.9123173473
 20
64.653257536
 30
0.0
 10
123.6768787532
 20
64.4888736982
 30
0.0
 10
123.4168023206
 20
64.3671635303
 30
0.0
 10
123.1351369343
 20
64.2891961429
 30
0.0
 10
122.8349308366
 20
64.2557707061
 30
0.0
 10
122.5193084346
 20
64.266693249
 30
0.0
 10
122.1913469833
 20
64.3217585458
 30
0.0
 10
121.854072431
 20
64.420049693
 30
0.0
 10
121.5107019999
 20
64.560553776
 30
0.0
 10
121.2855561469
 20
64.6785535088
 30
0.0
 10
121.1727888476
 20
64.7435479923
 30
0.0
  0
SPLINE
  5
4D8
100
AcDbEntity
  8
0
100
AcDbSpline
 62
7
  6
BYLAYER
 70
0
 71
3
 72
14
 73
10
 74
0
 42
0.0000001
 43
0.0000001
 44
0.0000000001
 40
0.0
 40
0.0
 40
0.0
 40
0.0
 40
0.1644007101
 40
0.309075081
 40
0.4383476353
 40
0.5616579433
 40
0.690929223
 40
0.8356015418
 40
1.0
 40
1.0
 40
1.0
 40
1.0
 10
120.1122125803
 20
76.3789492143
 30
0.0
 10
120.1122128954
 20
75.8043913224
 30
0.0
 10
120.2095699757
 20
74.7190242456
 30
0.0
 10
120.7171637616
 20
73.2532078955
 30
0.0
 10
121.5799663465
 20
72.1268695459
 30
0.0
 10
122.7670117372
 20
71.4415079684
 30
0.0
 10
124.1738364326
 20
71.2574402447
 30
0.0
 10
125.6970527102
 20
71.5507384419
 30
0.0
 10
126.6856752946
 20
72.0090980288
 30
0.0
 10
127.1832509517
 20
72.2963717535
 30
0.0
  0
SPLINE
  5
4D9
100
AcDbEntity
  8
0
100
AcDbSpline
 62
7
  6
BYLAYER
 70
0
 71
3
 72
14
 73
10
 74
0
 42
0.0000001
 43
0.0000001
 44
0.0000000001
 40
0.0
 40
0.0
 40
0.0
 40
0.0
 40
0.1643984226
 40
0.3090710104
 40
0.4383427318
 40
0.5616534082
 40
0.6909260115
 40
0.8356000193
 40
1.0
 40
1.0
 40
1.0
 40
1.0
 10
127.1832509511
 20
72.2963717539
 30
0.0
 10
126.7603075455
 20
72.5405527189
 30
0.0
 10
125.9199700211
 20
72.9301546877
 30
0.0
 10
124.6252252672
 20
73.1794513164
 30
0.0
 10
123.4294153116
 20
73.0229875015
 30
0.0
 10
122.4204192272
 20
72.4404255822
 30
0.0
 10
121.6870306903
 20
71.4830340787
 30
0.0
 10
121.2555722479
 20
70.2370866174
 30
0.0
 10
121.1728182874
 20
69.3145224667
 30
0.0
 10
121.1728182874
 20
68.8261476217
 30
0.0
  0
SPLINE
  5
4DA
100
AcDbEntity
  8
0
100
AcDbSpline
 62
7
  6
BYLAYER
 70
0
 71
3
 72
23
 73
19
 74
0
 42
0.0000001
 43
0.0000001
 44
0.0000000001
 40
0.0
 40
0.0
 40
0.0
 40
0.0
 40
0.0743014945
 40
0.1447501632
 40
0.2113603456
 40
0.2743221956
 40
0.3340005485
 40
0.390970835
 40
0.4459950848
 40
0.5000019685
 40
0.5540087612
 40
0.6090327464
 40
0.6660026177
 40
0.7256804375
 40
0.7886416717
 40
0.85525119
 40
0.9256991773
 40
1.0
 40
1.0
 40
1.0
 40
1.0
 10
138.8505319763
 20
73.7253359319
 30
0.0
 10
138.8504364753
 20
73.5951781624
 30
0.0
 10
138.8400568825
 20
73.3411938042
 30
0.0
 10
138.7900558043
 20
72.9735701454
 30
0.0
 10
138.7065452411
 20
72.6323317262
 30
0.0
 10
138.5902565638
 20
72.3207712337
 30
0.0
 10
138.4419086536
 20
72.0419676938
 30
0.0
 10
138.2628623645
 20
71.7986887282
 30
0.0
 10
138.0545118502
 20
71.5937371625
 30
0.0
 10
137.8190732561
 20
71.4293533247
 30
0.0
 10
137.5589968236
 20
71.3076431568
 30
0.0
 10
137.2773314373
 20
71.2296757694
 30
0.0
 10
136.9771253395
 20
71.1962503326
 30
0.0
 10
136.6615029375
 20
71.2071728755
 30
0.0
 10
136.3335414863
 20
71.2622381723
 30
0.0
 10
135.9962669339
 20
71.3605293195
 30
0.0
 10
135.6528965029
 20
71.5010334025
 30
0.0
 10
135.4277506498
 20
71.6190331353
 30
0.0
 10
135.3149833505
 20
71.6840276188
 30
0.0
  0
SPLINE
  5
4DB
100
AcDbEntity
  8
0
100
AcDbSpline
 62
7
  6
BYLAYER
 70
0
 71
3
 72
19
 73
15
 74
0
 42
0.0000001
 43
0.0000001
 44
0.0000000001
 40
0.0
 40
0.0
 40
0.0
 40
0.0
 40
0.1129099158
 40
0.2378038117
 40
0.36720011
 40
0.4929751047
 40
0.6032548758
 40
0.6947112908
 40
0.7599017747
 40
0.7933716442
 40
0.7943229263
 40
0.8286322879
 40
0.8973364426
 40
1.0
 40
1.0
 40
1.0
 40
1.0
 10
135.3150127903
 20
75.7666272482
 30
0.0
 10
134.8643882386
 20
75.5011177365
 30
0.0
 10
133.9205974311
 20
74.9333703319
 30
0.0
 10
132.456034405
 20
74.0664595712
 30
0.0
 10
130.9419974408
 20
73.1750411477
 30
0.0
 10
129.4771673984
 20
72.3016248727
 30
0.0
 10
128.1852298808
 20
71.5823404181
 30
0.0
 10
127.0685407856
 20
70.8305614046
 30
0.0
 10
126.4121578324
 20
70.6813497398
 30
0.0
 10
125.8587356548
 20
70.0424280207
 30
0.0
 10
125.745662253
 20
70.3501163994
 30
0.0
 10
126.5123441168
 20
70.4770390507
 30
0.0
 10
127.0574668075
 20
71.0689785837
 30
0.0
 10
127.8406584313
 20
71.4319300589
 30
0.0
 10
128.2439155388
 20
71.6840106221
 30
0.0
  0
SPLINE
  5
4DC
100
AcDbEntity
  8
0
100
AcDbSpline
 62
7
  6
BYLAYER
 70
0
 71
3
 72
14
 73
10
 74
0
 42
0.0000001
 43
0.0000001
 44
0.0000000001
 40
0.0
 40
0.0
 40
0.0
 40
0.0
 40
0.1643984396
 40
0.3090707346
 40
0.4383419914
 40
0.5616522885
 40
0.6909248522
 40
0.8355992513
 40
1.0
 40
1.0
 40
1.0
 40
1.0
 10
128.2439155388
 20
71.6840106221
 30
0.0
 10
127.7463396943
 20
71.3967367891
 30
0.0
 10
126.7577167396
 20
70.9383770691
 30
0.0
 10
125.2344998769
 20
70.6450790002
 30
0.0
 10
123.8276747233
 20
70.8291472872
 30
0.0
 10
122.6406291971
 20
71.5145098586
 30
0.0
 10
121.7778268882
 20
72.6408494189
 30
0.0
 10
121.2702336973
 20
74.1066670536
 30
0.0
 10
121.1728771667
 20
75.1920349468
 30
0.0
 10
121.1728771667
 20
75.7665932547
 30
0.0
  0
SPLINE
  5
4DD
100
AcDbEntity
  8
0
100
AcDbSpline
 62
7
  6
BYLAYER
 70
0
 71
3
 72
14
 73
10
 74
0
 42
0.0000001
 43
0.0000001
 44
0.0000000001
 40
0.0
 40
0.0
 40
0.0
 40
0.0
 40
0.1309176683
 40
0.2733095506
 40
0.4231802386
 40
0.5757041786
 40
0.725782121
 40
0.8685615115
 40
1.0
 40
1.0
 40
1.0
 40
1.0
 10
121.1728771667
 20
75.7665932547
 30
0.0
 10
121.7279127158
 20
75.4461505804
 30
0.0
 10
122.9552308134
 20
74.8932096898
 30
0.0
 10
124.9600116237
 20
74.3455694819
 30
0.0
 10
127.125742805
 20
74.0639301835
 30
0.0
 10
129.3467340466
 20
74.0628944044
 30
0.0
 10
131.5156217328
 20
74.3429779846
 30
0.0
 10
133.5261103795
 20
74.8905720837
 30
0.0
 10
134.7577715039
 20
75.4449057619
 30
0.0
 10
135.3150127903
 20
75.7666272482
 30
0.0
  0
SPLINE
  5
4DE
100
AcDbEntity
  8
0
100
AcDbSpline
 62
7
  6
BYLAYER
 70
0
 71
3
 72
19
 73
15
 74
0
 42
0.0000001
 43
0.0000001
 44
0.0000000001
 40
0.0
 40
0.0
 40
0.0
 40
0.0
 40
0.0753857175
 40
0.1527441442
 40
0.2339809505
 40
0.3196528431
 40
0.4069575939
 40
0.4974770154
 40
0.5887878325
 40
0.6782426494
 40
0.7640318465
 40
0.8449196567
 40
0.9224665133
 40
1.0
 40
1.0
 40
1.0
 40
1.0
 10
128.2439155388
 20
170.4808030948
 30
0.0
 10
127.8123029548
 20
170.2254956042
 30
0.0
 10
127.0231159821
 20
169.5519417292
 30
0.0
 10
126.1930285889
 20
168.2100013217
 30
0.0
 10
125.7533969591
 20
166.6251613003
 30
0.0
 10
125.7203939021
 20
164.9185140461
 30
0.0
 10
126.0803788046
 20
163.189426618
 30
0.0
 10
126.8070765955
 20
161.5391182342
 30
0.0
 10
127.8658387519
 20
160.0614721368
 30
0.0
 10
129.1894922845
 20
158.860607102
 30
0.0
 10
130.6906428715
 20
158.0207160889
 30
0.0
 10
132.278855347
 20
157.5997039977
 30
0.0
 10
133.8717357807
 20
157.6287353314
 30
0.0
 10
134.8622056405
 20
157.9864499726
 30
0.0
 10
135.3150127903
 20
158.2333713783
 30
0.0
  0
SPLINE
  5
4DF
100
AcDbEntity
  8
0
100
AcDbSpline
 62
7
  6
BYLAYER
 70
0
 71
3
 72
14
 73
10
 74
0
 42
0.0000001
 43
0.0000001
 44
0.0000000001
 40
0.0
 40
0.0
 40
0.0
 40
0.0
 40
0.1312381221
 40
0.273824377
 40
0.4237618247
 40
0.5762371553
 40
0.7261747898
 40
0.8687613985
 40
1.0
 40
1.0
 40
1.0
 40
1.0
 10
135.3150127903
 20
158.2333713783
 30
0.0
 10
134.7586210212
 20
157.9121403581
 30
0.0
 10
133.5288298623
 20
157.35842819
 30
0.0
 10
131.5210530127
 20
156.8108988057
 30
0.0
 10
129.3541503965
 20
156.5301652003
 30
0.0
 10
127.133762742
 20
156.5301599521
 30
0.0
 10
124.9668561554
 20
156.8108833089
 30
0.0
 10
122.9590715823
 20
157.3584031911
 30
0.0
 10
121.7292732846
 20
157.9121092035
 30
0.0
 10
121.1728771667
 20
158.2333373848
 30
0.0
  0
SPLINE
  5
4E0
100
AcDbEntity
  8
0
100
AcDbSpline
 62
7
  6
BYLAYER
 70
0
 71
3
 72
14
 73
10
 74
0
 42
0.0000001
 43
0.0000001
 44
0.0000000001
 40
0.0
 40
0.0
 40
0.0
 40
0.0
 40
0.1312393334
 40
0.2738263099
 40
0.4237639971
 40
0.5762391394
 40
0.7261762524
 40
0.8687621408
 40
1.0
 40
1.0
 40
1.0
 40
1.0
 10
121.1728771667
 20
158.2333373848
 30
0.0
 10
121.1728771667
 20
158.8758090249
 30
0.0
 10
121.3082402885
 20
160.2177070393
 30
0.0
 10
121.8379511005
 20
162.2302721404
 30
0.0
 10
122.6782783287
 20
164.2472395381
 30
0.0
 10
123.7884676197
 20
166.1701550176
 30
0.0
 10
125.1150361848
 20
167.9063831002
 30
0.0
 10
126.593098012
 20
169.371402448
 30
0.0
 10
127.6875241968
 20
170.1595723212
 30
0.0
 10
128.2439155388
 20
170.4808030948
 30
0.0
  0
SPLINE
  5
4E1
100
AcDbEntity
  8
0
100
AcDbSpline
 62
7
  6
BYLAYER
 70
0
 71
3
 72
19
 73
15
 74
0
 42
0.0000001
 43
0.0000001
 44
0.0000000001
 40
0.0
 40
0.0
 40
0.0
 40
0.0
 40
0.0558519379
 40
0.1142046293
 40
0.174822525
 40
0.237405906
 40
0.3670155918
 40
0.4999989199
 40
0.6329823985
 40
0.7625925237
 40
0.8251762221
 40
0.8857944916
 40
0.9441476043
 40
1.0
 40
1.0
 40
1.0
 40
1.0
 10
135.3149833505
 20
170.4808200915
 30
0.0
 10
135.4334784827
 20
170.4123110098
 30
0.0
 10
135.6696409699
 20
170.2620570278
 30
0.0
 10
136.0123214113
 20
170.0046902994
 30
0.0
 10
136.3482345896
 20
169.7128636713
 30
0.0
 10
136.7879836285
 20
169.2765011741
 30
0.0
 10
137.2990879523
 20
168.663058173
 30
0.0
 10
137.8308338999
 20
167.8508758894
 30
0.0
 10
138.2683360095
 20
166.9842803665
 30
0.0
 10
138.5440457633
 20
166.2349289234
 30
0.0
 10
138.7020766379
 20
165.6359121367
 30
0.0
 10
138.7868528496
 20
165.199087392
 30
0.0
 10
138.8384024561
 20
164.7736314281
 30
0.0
 10
138.8504475981
 20
164.4939796856
 30
0.0
 10
138.8505319763
 20
164.3571042332
 30
0.0
  0
SPLINE
  5
4E2
100
AcDbEntity
  8
0
100
AcDbSpline
 62
7
  6
BYLAYER
 70
0
 71
3
 72
14
 73
10
 74
0
 42
0.0000001
 43
0.0000001
 44
0.0000000001
 40
0.0
 40
0.0
 40
0.0
 40
0.0
 40
0.1312384628
 40
0.2738251034
 40
0.423762765
 40
0.5762381184
 40
0.7261755862
 40
0.8687618595
 40
1.0
 40
1.0
 40
1.0
 40
1.0
 10
107.0306871423
 20
181.5034446065
 30
0.0
 10
107.5870825651
 20
181.1822170299
 30
0.0
 10
108.8168802289
 20
180.6285120625
 30
0.0
 10
110.8246637517
 20
180.0809926943
 30
0.0
 10
112.9915700218
 20
179.8002696709
 30
0.0
 10
115.2119572341
 20
179.8002751106
 30
0.0
 10
117.3788593689
 20
180.0810088038
 30
0.0
 10
119.3866357563
 20
180.6285381604
 30
0.0
 10
120.6164266355
 20
181.1822502331
 30
0.0
 10
121.1728182874
 20
181.5034811856
 30
0.0
  0
SPLINE
  5
4E3
100
AcDbEntity
  8
0
100
AcDbSpline
 62
7
  6
BYLAYER
 70
0
 71
3
 72
14
 73
10
 74
0
 42
0.0000001
 43
0.0000001
 44
0.0000000001
 40
0.0
 40
0.0
 40
0.0
 40
0.0
 40
0.1312392067
 40
0.2738260066
 40
0.4237635326
 40
0.5762385841
 40
0.7261757225
 40
0.8687617881
 40
1.0
 40
1.0
 40
1.0
 40
1.0
 10
121.1728182874
 20
181.5034811856
 30
0.0
 10
121.1728182874
 20
180.9573804934
 30
0.0
 10
121.2878778427
 20
179.8167677355
 30
0.0
 10
121.7381358805
 20
178.1060892108
 30
0.0
 10
122.4524201258
 20
176.3916700932
 30
0.0
 10
123.3960890788
 20
174.7571962808
 30
0.0
 10
124.5236819905
 20
173.2814076961
 30
0.0
 10
125.7800452987
 20
172.0361472201
 30
0.0
 10
126.7103147896
 20
171.3662078696
 30
0.0
 10
127.1832509518
 20
171.0931642262
 30
0.0
  0
SPLINE
  5
4E4
100
AcDbEntity
  8
0
100
AcDbSpline
 62
7
  6
BYLAYER
 70
0
 71
3
 72
14
 73
10
 74
0
 42
0.0000001
 43
0.0000001
 44
0.0000000001
 40
0.0
 40
0.0
 40
0.0
 40
0.0
 40
0.1312378776
 40
0.2738237845
 40
0.4237609174
 40
0.5762360825
 40
0.7261737968
 40
0.8687608053
 40
1.0
 40
1.0
 40
1.0
 40
1.0
 10
127.1832509533
 20
171.0931642253
 30
0.0
 10
126.6268597285
 20
170.7719335194
 30
0.0
 10
125.5324337664
 20
169.9837638407
 30
0.0
 10
124.0543721938
 20
168.5187448793
 30
0.0
 10
122.7278037961
 20
166.7825172573
 30
0.0
 10
121.6176145516
 20
164.8596022562
 30
0.0
 10
120.7772872267
 20
162.8426352991
 30
0.0
 10
120.2475763802
 20
160.8300713642
 30
0.0
 10
120.1122129359
 20
159.4881744212
 30
0.0
 10
120.1122125837
 20
158.8457036853
 30
0.0
  0
SPLINE
  5
4E5
100
AcDbEntity
  8
0
100
AcDbSpline
 62
7
  6
BYLAYER
 70
0
 71
3
 72
19
 73
15
 74
0
 42
0.0000001
 43
0.0000001
 44
0.0000000001
 40
0.0
 40
0.0
 40
0.0
 40
0.0
 40
0.0753857175
 40
0.1527441442
 40
0.2339809505
 40
0.3196528431
 40
0.4069575939
 40
0.4974770154
 40
0.5887878325
 40
0.6782426494
 40
0.7640318465
 40
0.8449196567
 40
0.9224665133
 40
1.0
 40
1.0
 40
1.0
 40
1.0
 10
114.1017210359
 20
193.7509129021
 30
0.0
 10
113.6701084518
 20
193.4956054115
 30
0.0
 10
112.8809214792
 20
192.8220515365
 30
0.0
 10
112.0508340859
 20
191.480111129
 30
0.0
 10
111.6112024562
 20
189.8952711076
 30
0.0
 10
111.5781993991
 20
188.1886238534
 30
0.0
 10
111.9381843016
 20
186.4595364253
 30
0.0
 10
112.6648820926
 20
184.8092280415
 30
0.0
 10
113.723644249
 20
183.3315819441
 30
0.0
 10
115.0472977815
 20
182.1307169093
 30
0.0
 10
116.5484483686
 20
181.2908258962
 30
0.0
 10
118.1366608441
 20
180.869813805
 30
0.0
 10
119.7295412778
 20
180.8988451387
 30
0.0
 10
120.7200111376
 20
181.2565597799
 30
0.0
 10
121.1728182874
 20
181.5034811856
 30
0.0
  0
SPLINE
  5
4E6
100
AcDbEntity
  8
0
100
AcDbSpline
 62
7
  6
BYLAYER
 70
0
 71
3
 72
14
 73
10
 74
0
 42
0.0000001
 43
0.0000001
 44
0.0000000001
 40
0.0
 40
0.0
 40
0.0
 40
0.0
 40
0.1312393334
 40
0.2738263099
 40
0.4237639971
 40
0.5762391394
 40
0.7261762524
 40
0.8687621408
 40
1.0
 40
1.0
 40
1.0
 40
1.0
 10
107.0306826638
 20
181.5034471921
 30
0.0
 10
107.0306826638
 20
182.1459188322
 30
0.0
 10
107.1660457855
 20
183.4878168466
 30
0.0
 10
107.6957565976
 20
185.5003819477
 30
0.0
 10
108.5360838257
 20
187.5173493454
 30
0.0
 10
109.6462731167
 20
189.4402648249
 30
0.0
 10
110.9728416819
 20
191.1764929076
 30
0.0
 10
112.450903509
 20
192.6415122553
 30
0.0
 10
113.5453296939
 20
193.4296821285
 30
0.0
 10
114.1017210359
 20
193.7509129021
 30
0.0
  0
SPLINE
  5
4E7
100
AcDbEntity
  8
0
100
AcDbSpline
 62
7
  6
BYLAYER
 70
0
 71
3
 72
19
 73
15
 74
0
 42
0.0000001
 43
0.0000001
 44
0.0000000001
 40
0.0
 40
0.0
 40
0.0
 40
0.0
 40
0.0558519379
 40
0.1142046293
 40
0.174822525
 40
0.237405906
 40
0.3670155918
 40
0.4999989199
 40
0.6329823985
 40
0.7625925237
 40
0.8251762221
 40
0.8857944916
 40
0.9441476043
 40
1.0
 40
1.0
 40
1.0
 40
1.0
 10
121.1727888476
 20
193.7509298988
 30
0.0
 10
121.2912839797
 20
193.6824208171
 30
0.0
 10
121.5274464669
 20
193.5321668351
 30
0.0
 10
121.8701269084
 20
193.2748001067
 30
0.0
 10
122.2060400867
 20
192.9829734786
 30
0.0
 10
122.6457891256
 20
192.5466109814
 30
0.0
 10
123.1568934493
 20
191.9331679803
 30
0.0
 10
123.6886393969
 20
191.1209856967
 30
0.0
 10
124.1261415065
 20
190.2543901738
 30
0.0
 10
124.4018512604
 20
189.5050387307
 30
0.0
 10
124.559882135
 20
188.906021944
 30
0.0
 10
124.6446583466
 20
188.4691971993
 30
0.0
 10
124.6962079532
 20
188.0437412354
 30
0.0
 10
124.7082530952
 20
187.7640894929
 30
0.0
 10
124.7083374733
 20
187.6272140405
 30
0.0
  0
SPLINE
  5
4E8
100
AcDbEntity
  8
0
100
AcDbSpline
 62
7
  6
BYLAYER
 70
0
 71
3
 72
19
 73
15
 74
0
 42
0.0000001
 43
0.0000001
 44
0.0000000001
 40
0.0
 40
0.0
 40
0.0
 40
0.0
 40
0.097577795
 40
0.1657152422
 40
0.2027694119
 40
0.2071457236
 40
0.2364512128
 40
0.2979510992
 40
0.3873300408
 40
0.4971680522
 40
0.624014911
 40
0.756096594
 40
0.8841803028
 40
1.0
 40
1.0
 40
1.0
 40
1.0
 10
80.1604542288
 20
205.1814449478
 30
0.0
 10
79.7624735151
 20
204.9643694289
 30
0.0
 10
79.1057137553
 20
204.5779041656
 30
0.0
 10
78.240267137
 20
204.1469599879
 30
0.0
 10
77.849914408
 20
203.8738086603
 30
0.0
 10
77.4900854052
 20
203.7602706816
 30
0.0
 10
78.3127008058
 20
204.1883329414
 30
0.0
 10
78.7188583887
 20
204.4625776653
 30
0.0
 10
79.9188956978
 20
205.1336451344
 30
0.0
 10
81.1794349457
 20
205.8580129302
 30
0.0
 10
82.6882636576
 20
206.7112155726
 30
0.0
 10
84.2487286031
 20
207.5925857588
 30
0.0
 10
85.7730649182
 20
208.4487267614
 30
0.0
 10
86.7611599914
 20
209.0027878769
 30
0.0
 10
87.2315514803
 20
209.2640615739
 30
0.0
  0
SPLINE
  5
4E9
100
AcDbEntity
  8
0
100
AcDbSpline
 62
7
  6
BYLAYER
 70
0
 71
3
 72
14
 73
10
 74
0
 42
0.0000001
 43
0.0000001
 44
0.0000000001
 40
0.0
 40
0.0
 40
0.0
 40
0.0
 40
0.1312378592
 40
0.2738237476
 40
0.4237608606
 40
0.5762360029
 40
0.7261736901
 40
0.8687606666
 40
1.0
 40
1.0
 40
1.0
 40
1.0
 10
87.2315514803
 20
209.2640615739
 30
0.0
 10
86.6751601383
 20
208.9428308003
 30
0.0
 10
85.5807339535
 20
208.154660927
 30
0.0
 10
84.1026721263
 20
206.6896415793
 30
0.0
 10
82.7761035611
 20
204.9534134967
 30
0.0
 10
81.6659142702
 20
203.0304980171
 30
0.0
 10
80.825587042
 20
201.0135306195
 30
0.0
 10
80.29587623
 20
199.0009655183
 30
0.0
 10
80.1605131082
 20
197.659067504
 30
0.0
 10
80.1605131082
 20
197.0165958639
 30
0.0
  0
SPLINE
  5
4EA
100
AcDbEntity
  8
0
100
AcDbSpline
 62
7
  6
BYLAYER
 70
0
 71
3
 72
14
 73
10
 74
0
 42
0.0000001
 43
0.0000001
 44
0.0000000001
 40
0.0
 40
0.0
 40
0.0
 40
0.0
 40
0.1644007841
 40
0.3090745755
 40
0.438346175
 40
0.561655685
 40
0.6909268596
 40
0.8355999667
 40
1.0
 40
1.0
 40
1.0
 40
1.0
 10
80.1605131082
 20
197.0165958639
 30
0.0
 10
79.6629335971
 20
197.3038672115
 30
0.0
 10
78.771660586
 20
197.9308472291
 30
0.0
 10
77.7560264639
 20
199.1033197138
 30
0.0
 10
77.2119939763
 20
200.4136758325
 30
0.0
 10
77.2119835528
 20
201.7843485261
 30
0.0
 10
77.7559970321
 20
203.0947087647
 30
0.0
 10
78.7716150408
 20
204.2671870173
 30
0.0
 10
79.6628789831
 20
204.8941714605
 30
0.0
 10
80.1604542288
 20
205.1814449478
 30
0.0
  0
SPLINE
  5
4EB
100
AcDbEntity
  8
0
100
AcDbSpline
 62
7
  6
BYLAYER
 70
0
 71
3
 72
23
 73
19
 74
0
 42
0.0000001
 43
0.0000001
 44
0.0000000001
 40
0.0
 40
0.0
 40
0.0
 40
0.0
 40
0.0743014945
 40
0.1447501632
 40
0.2113603456
 40
0.2743221956
 40
0.3340005485
 40
0.390970835
 40
0.4459950848
 40
0.5000019685
 40
0.5540087611
 40
0.6090327464
 40
0.6660026177
 40
0.7256804375
 40
0.7886416717
 40
0.8552511899
 40
0.9256991773
 40
1.0
 40
1.0
 40
1.0
 40
1.0
 10
83.6959734148
 20
211.3051778027
 30
0.0
 10
83.6960689158
 20
211.4353355722
 30
0.0
 10
83.7064485085
 20
211.6893199304
 30
0.0
 10
83.7564495867
 20
212.0569435891
 30
0.0
 10
83.8399601499
 20
212.3981820083
 30
0.0
 10
83.9562488272
 20
212.7097425008
 30
0.0
 10
84.1045967373
 20
212.9885460407
 30
0.0
 10
84.2836430264
 20
213.2318250063
 30
0.0
 10
84.4919935407
 20
213.436776572
 30
0.0
 10
84.7274321348
 20
213.6011604097
 30
0.0
 10
84.9875085673
 20
213.7228705776
 30
0.0
 10
85.2691739537
 20
213.800837965
 30
0.0
 10
85.5693800514
 20
213.8342634019
 30
0.0
 10
85.8850024534
 20
213.823340859
 30
0.0
 10
86.2129639047
 20
213.7682755622
 30
0.0
 10
86.5502384571
 20
213.669984415
 30
0.0
 10
86.8936088882
 20
213.529480332
 30
0.0
 10
87.1187547413
 20
213.4114805993
 30
0.0
 10
87.2315220406
 20
213.3464861158
 30
0.0
  0
SPLINE
  5
4EC
100
AcDbEntity
  8
0
100
AcDbSpline
 62
7
  6
BYLAYER
 70
0
 71
3
 72
14
 73
10
 74
0
 42
0.0000001
 43
0.0000001
 44
0.0000000001
 40
0.0
 40
0.0
 40
0.0
 40
0.0
 40
0.1312393606
 40
0.273826351
 40
0.4237640398
 40
0.5762391743
 40
0.7261762746
 40
0.86876215
 40
1.0
 40
1.0
 40
1.0
 40
1.0
 10
67.0789831916
 20
189.4637602778
 30
0.0
 10
67.078983544
 20
190.1062318257
 30
0.0
 10
67.2143472287
 20
191.4481294959
 30
0.0
 10
67.7440585455
 20
193.4606939171
 30
0.0
 10
68.5843859693
 20
195.4776604364
 30
0.0
 10
69.694575168
 20
197.4005749575
 30
0.0
 10
71.021143399
 20
199.1368021189
 30
0.0
 10
72.4992047174
 20
200.6018206935
 30
0.0
 10
73.5936304569
 20
201.3899901777
 30
0.0
 10
74.1500215645
 20
201.711220816
 30
0.0
  0
SPLINE
  5
4ED
100
AcDbEntity
  8
0
100
AcDbSpline
 62
7
  6
BYLAYER
 70
0
 71
3
 72
14
 73
10
 74
0
 42
0.0000001
 43
0.0000001
 44
0.0000000001
 40
0.0
 40
0.0
 40
0.0
 40
0.0
 40
0.1643984226
 40
0.3090710104
 40
0.4383427318
 40
0.5616534082
 40
0.6909260115
 40
0.8356000193
 40
1.0
 40
1.0
 40
1.0
 40
1.0
 10
74.1500215647
 20
201.7112208158
 30
0.0
 10
74.5729649704
 20
201.4670398507
 30
0.0
 10
75.4133024948
 20
201.0774378819
 30
0.0
 10
76.7080472488
 20
200.8281412531
 30
0.0
 10
77.9038572045
 20
200.984605068
 30
0.0
 10
78.9128532889
 20
201.5671669872
 30
0.0
 10
79.6462418259
 20
202.5245584908
 30
0.0
 10
80.0777002683
 20
203.7705059521
 30
0.0
 10
80.1604542288
 20
204.6930701028
 30
0.0
 10
80.1604542288
 20
205.1814449478
 30
0.0
  0
SPLINE
  5
4EE
100
AcDbEntity
  8
0
100
AcDbSpline
 62
7
  6
BYLAYER
 70
0
 71
3
 72
23
 73
19
 74
0
 42
0.0000001
 43
0.0000001
 44
0.0000000001
 40
0.0
 40
0.0
 40
0.0
 40
0.0
 40
0.0743014945
 40
0.1447501632
 40
0.2113603456
 40
0.2743221956
 40
0.3340005485
 40
0.390970835
 40
0.4459950848
 40
0.5000019685
 40
0.5540087611
 40
0.6090327464
 40
0.6660026177
 40
0.7256804375
 40
0.7886416716
 40
0.8552511899
 40
0.9256991773
 40
1.0
 40
1.0
 40
1.0
 40
1.0
 10
69.5537789119
 20
204.3646981762
 30
0.0
 10
69.5538744129
 20
204.4948559457
 30
0.0
 10
69.5642540056
 20
204.7488403039
 30
0.0
 10
69.6142550837
 20
205.1164639626
 30
0.0
 10
69.6977656469
 20
205.4577023818
 30
0.0
 10
69.8140543243
 20
205.7692628743
 30
0.0
 10
69.9624022344
 20
206.0480664142
 30
0.0
 10
70.1414485235
 20
206.2913453798
 30
0.0
 10
70.3497990377
 20
206.4962969455
 30
0.0
 10
70.5852376318
 20
206.6606807833
 30
0.0
 10
70.8453140644
 20
206.7823909512
 30
0.0
 10
71.1269794507
 20
206.8603583386
 30
0.0
 10
71.4271855485
 20
206.8937837754
 30
0.0
 10
71.7428079505
 20
206.8828612325
 30
0.0
 10
72.0707694018
 20
206.8277959358
 30
0.0
 10
72.4080439541
 20
206.7295047886
 30
0.0
 10
72.7514143853
 20
206.5890007056
 30
0.0
 10
72.9765602384
 20
206.4710009728
 30
0.0
 10
73.0893275376
 20
206.4060064893
 30
0.0
  0
SPLINE
  5
4EF
100
AcDbEntity
  8
0
100
AcDbSpline
 62
7
  6
BYLAYER
 70
0
 71
3
 72
19
 73
15
 74
0
 42
0.0000001
 43
0.0000001
 44
0.0000000001
 40
0.0
 40
0.0
 40
0.0
 40
0.0
 40
0.0923216824
 40
0.1607458654
 40
0.2003522781
 40
0.2076779194
 40
0.2331116528
 40
0.2902879939
 40
0.3762768331
 40
0.4844767108
 40
0.6074421315
 40
0.7391615131
 40
0.8728672955
 40
1.0
 40
1.0
 40
1.0
 40
1.0
 10
66.0182597259
 20
198.2409653213
 30
0.0
 10
65.6441994761
 20
198.0294378934
 30
0.0
 10
65.0034587976
 20
197.6707015034
 30
0.0
 10
64.1403139917
 20
197.215477125
 30
0.0
 10
63.7431760863
 20
196.9672791122
 30
0.0
 10
63.3512233042
 20
196.8037275678
 30
0.0
 10
64.0724080718
 20
197.2059972203
 30
0.0
 10
64.48706094
 20
197.4628100212
 30
0.0
 10
65.6313978485
 20
198.1129243886
 30
0.0
 10
66.8642747838
 20
198.8183731372
 30
0.0
 10
68.3501186314
 20
199.6596197684
 30
0.0
 10
69.9182294344
 20
200.5481794461
 30
0.0
 10
71.5164077003
 20
201.4369727809
 30
0.0
 10
72.5671936345
 20
202.045147712
 30
0.0
 10
73.0893569774
 20
202.3235819474
 30
0.0
  0
SPLINE
  5
4F0
100
AcDbEntity
  8
0
100
AcDbSpline
 62
7
  6
BYLAYER
 70
0
 71
3
 72
14
 73
10
 74
0
 42
0.0000001
 43
0.0000001
 44
0.0000000001
 40
0.0
 40
0.0
 40
0.0
 40
0.0
 40
0.1312378592
 40
0.2738237476
 40
0.4237608606
 40
0.5762360029
 40
0.7261736901
 40
0.8687606666
 40
1.0
 40
1.0
 40
1.0
 40
1.0
 10
73.0893569774
 20
202.3235819474
 30
0.0
 10
72.5329656353
 20
202.0023511738
 30
0.0
 10
71.4385394505
 20
201.2141813005
 30
0.0
 10
69.9604776234
 20
199.7491619528
 30
0.0
 10
68.6339090582
 20
198.0129338702
 30
0.0
 10
67.5237197672
 20
196.0900183906
 30
0.0
 10
66.6833925391
 20
194.073050993
 30
0.0
 10
66.153681727
 20
192.0604858919
 30
0.0
 10
66.0183186052
 20
190.7185878775
 30
0.0
 10
66.0183186052
 20
190.0761162374
 30
0.0
  0
SPLINE
  5
4F1
100
AcDbEntity
  8
0
100
AcDbSpline
 62
7
  6
BYLAYER
 70
0
 71
3
 72
14
 73
10
 74
0
 42
0.0000001
 43
0.0000001
 44
0.0000000001
 40
0.0
 40
0.0
 40
0.0
 40
0.0
 40
0.1640413978
 40
0.3085999733
 40
0.4378720953
 40
0.5612211248
 40
0.6905645961
 40
0.8353754842
 40
1.0
 40
1.0
 40
1.0
 40
1.0
 10
66.0183186052
 20
190.0761162374
 30
0.0
 10
65.5218270813
 20
190.3627592676
 30
0.0
 10
64.6318505274
 20
190.9885821572
 30
0.0
 10
63.6164674667
 20
192.1589413142
 30
0.0
 10
63.0708273133
 20
193.4682622315
 30
0.0
 10
63.0687457062
 20
194.8393599226
 30
0.0
 10
63.6116951797
 20
196.1512276972
 30
0.0
 10
64.6277455436
 20
197.3254604566
 30
0.0
 10
65.5200053977
 20
197.9532997679
 30
0.0
 10
66.0182597259
 20
198.2409653213
 30
0.0
  0
SPLINE
  5
4F2
100
AcDbEntity
  8
0
100
AcDbSpline
 62
7
  6
BYLAYER
 70
0
 71
3
 72
22
 73
18
 74
0
 42
0.0000001
 43
0.0000001
 44
0.0000000001
 40
0.0
 40
0.0
 40
0.0
 40
0.0
 40
0.0415889098
 40
0.0926415314
 40
0.1525756496
 40
0.2203279199
 40
0.294701273
 40
0.3741760008
 40
0.4568550311
 40
0.5406821555
 40
0.6236295263
 40
0.7035797403
 40
0.7785404718
 40
0.8468559623
 40
0.9071593158
 40
0.9583843111
 40
1.0
 40
1.0
 40
1.0
 40
1.0
 10
77.2315514803
 20
88.4217038387
 30
0.0
 10
77.2315514803
 20
88.6534854632
 30
0.0
 10
77.2078868897
 20
89.1698961547
 30
0.0
 10
77.1043566194
 20
90.014634676
 30
0.0
 10
76.9117290332
 20
90.9928483347
 30
0.0
 10
76.6179303926
 20
92.0808550271
 30
0.0
 10
76.2167959586
 20
93.2498595595
 30
0.0
 10
75.7085046517
 20
94.4671155914
 30
0.0
 10
75.1002245528
 20
95.6966996762
 30
0.0
 10
74.4057582253
 20
96.9021393642
 30
0.0
 10
73.6447975599
 20
98.0485382909
 30
0.0
 10
72.8419403517
 20
99.1045472551
 30
0.0
 10
72.0253511936
 20
100.0443280613
 30
0.0
 10
71.224717689
 20
100.8494782581
 30
0.0
 10
70.4695354743
 20
101.5098196862
 30
0.0
 10
69.787288424
 20
102.0238775929
 30
0.0
 10
69.3509655587
 20
102.3031860317
 30
0.0
 10
69.1501063982
 20
102.4191494985
 30
0.0
  0
SPLINE
  5
4F3
100
AcDbEntity
  8
0
100
AcDbSpline
 62
7
  6
BYLAYER
 70
0
 71
3
 72
15
 73
11
 74
0
 42
0.0000001
 43
0.0000001
 44
0.0000000001
 40
0.0
 40
0.0
 40
0.0
 40
0.0
 40
0.1735754573
 40
0.2947350426
 40
0.3632977522
 40
0.3764969827
 40
0.4254860079
 40
0.5468577028
 40
0.7422977235
 40
1.0
 40
1.0
 40
1.0
 40
1.0
 10
122.1833357868
 20
71.801092908
 30
0.0
 10
122.0342014943
 20
71.8871936841
 30
0.0
 10
121.7812366416
 20
72.0242512889
 30
0.0
 10
121.4339188821
 20
72.1691539231
 30
0.0
 10
121.2675076477
 20
72.2297496026
 30
0.0
 10
121.1096164841
 20
72.2650998805
 30
0.0
 10
121.4668661715
 20
72.2219511291
 30
0.0
 10
121.6898185419
 20
72.2778383237
 30
0.0
 10
122.3226740914
 20
72.398074316
 30
0.0
 10
122.7118556875
 20
72.5894952884
 30
0.0
 10
122.9332699779
 20
72.7173281255
 30
0.0
  0
SPLINE
  5
4F4
100
AcDbEntity
  8
0
100
AcDbSpline
 62
7
  6
BYLAYER
 70
0
 71
3
 72
15
 73
11
 74
0
 42
0.0000001
 43
0.0000001
 44
0.0000000001
 40
0.0
 40
0.0
 40
0.0
 40
0.0
 40
0.2580157066
 40
0.4539609469
 40
0.5754110564
 40
0.6233657889
 40
0.6384920542
 40
0.7085576523
 40
0.8295708135
 40
1.0
 40
1.0
 40
1.0
 40
1.0
 10
78.4000025384
 20
201.290264444
 30
0.0
 10
78.1781139713
 20
201.1621577847
 30
0.0
 10
77.8165428163
 20
200.9194266762
 30
0.0
 10
77.3960528009
 20
200.4319823367
 30
0.0
 10
77.2351182267
 20
200.2626850457
 30
0.0
 10
77.0957100091
 20
199.9357918474
 30
0.0
 10
77.1468673265
 20
200.0973277325
 30
0.0
 10
77.1761800606
 20
200.2723438786
 30
0.0
 10
77.224253805
 20
200.6455814069
 30
0.0
 10
77.2315514803
 20
200.9297980043
 30
0.0
 10
77.2315514803
 20
201.0990374026
 30
0.0
  0
SPLINE
  5
4F5
100
AcDbEntity
  8
0
100
AcDbSpline
 62
7
  6
BYLAYER
 70
0
 71
3
 72
13
 73
9
 74
0
 42
0.0000001
 43
0.0000001
 44
0.0000000001
 40
0.0
 40
0.0
 40
0.0
 40
0.0
 40
0.1572490097
 40
0.3256500855
 40
0.5003064675
 40
0.6748864377
 40
0.8430593601
 40
1.0
 40
1.0
 40
1.0
 40
1.0
 10
73.6550989265
 20
104.2618110937
 30
0.0
 10
73.2572198099
 20
104.496074535
 30
0.0
 10
72.4827254921
 20
105.0692900723
 30
0.0
 10
71.4788469997
 20
106.1505501005
 30
0.0
 10
70.6209524729
 20
107.4119005703
 30
0.0
 10
69.9584888962
 20
108.7852518787
 30
0.0
 10
69.5251939058
 20
110.1937104274
 30
0.0
 10
69.4162994781
 20
111.1494697897
 30
0.0
 10
69.4124405756
 20
111.6102701236
 30
0.0
  0
SPLINE
  5
4F6
100
AcDbEntity
  8
0
100
AcDbSpline
 62
7
  6
BYLAYER
 70
0
 71
3
 72
11
 73
7
 74
0
 42
0.0000001
 43
0.0000001
 44
0.0000000001
 40
0.0
 40
0.0
 40
0.0
 40
0.0
 40
0.2828082613
 40
0.499838328
 40
0.7169203918
 40
1.0
 40
1.0
 40
1.0
 40
1.0
 10
91.9692408078
 20
115.9788915393
 30
0.0
 10
92.0556773665
 20
115.9325285731
 30
0.0
 10
92.220106712
 20
115.8606811144
 30
0.0
 10
92.4831402734
 20
115.9049538736
 30
0.0
 10
92.6532695356
 20
116.1105573832
 30
0.0
 10
92.6732588504
 20
116.2890220882
 30
0.0
 10
92.6763505329
 20
116.3871532019
 30
0.0
  0
SPLINE
  5
4F7
100
AcDbEntity
  8
0
100
AcDbSpline
 62
7
  6
BYLAYER
 70
0
 71
3
 72
11
 73
7
 74
0
 42
0.0000001
 43
0.0000001
 44
0.0000000001
 40
0.0
 40
0.0
 40
0.0
 40
0.0
 40
0.2451076513
 40
0.4997977525
 40
0.7546096787
 40
1.0
 40
1.0
 40
1.0
 40
1.0
 10
92.6763505329
 20
151.8233581053
 30
0.0
 10
92.6727376992
 20
151.9430620578
 30
0.0
 10
92.6333653412
 20
152.1876309608
 30
0.0
 10
92.4799532446
 20
152.5261851922
 30
0.0
 10
92.2634741905
 20
152.8285112016
 30
0.0
 10
92.0712053547
 20
152.985026567
 30
0.0
 10
91.9692408078
 20
153.048101277
 30
0.0
  0
SPLINE
  5
4F8
100
AcDbEntity
  8
0
100
AcDbSpline
 62
7
  6
BYLAYER
 70
0
 71
3
 72
13
 73
9
 74
0
 42
0.0000001
 43
0.0000001
 44
0.0000000001
 40
0.0
 40
0.0
 40
0.0
 40
0.0
 40
0.1931252544
 40
0.3557439638
 40
0.5002472298
 40
0.6447278623
 40
0.8072093999
 40
1.0
 40
1.0
 40
1.0
 40
1.0
 10
69.4124405756
 20
183.462482831
 30
0.0
 10
69.4159286959
 20
183.8668974614
 30
0.0
 10
69.4892562584
 20
184.6173586628
 30
0.0
 10
69.910920728
 20
185.5999727496
 30
0.0
 10
70.6197499784
 20
186.2735561844
 30
0.0
 10
71.5575874538
 20
186.5491339134
 30
0.0
 10
72.6181263546
 20
186.4222677077
 30
0.0
 10
73.3037630694
 20
186.110950042
 30
0.0
 10
73.6550989265
 20
185.9120528067
 30
0.0
  0
SPLINE
  5
4F9
100
AcDbEntity
  8
0
100
AcDbSpline
 62
7
  6
BYLAYER
 70
0
 71
3
 72
13
 73
9
 74
0
 42
0.0000001
 43
0.0000001
 44
0.0000000001
 40
0.0
 40
0.0
 40
0.0
 40
0.0
 40
0.1572490097
 40
0.3256500855
 40
0.5003064675
 40
0.6748864377
 40
0.8430593601
 40
1.0
 40
1.0
 40
1.0
 40
1.0
 10
114.667462985
 20
162.2340890445
 30
0.0
 10
115.0653421016
 20
161.9998256033
 30
0.0
 10
115.8398364194
 20
161.426610066
 30
0.0
 10
116.8437149118
 20
160.3453500378
 30
0.0
 10
117.7016094385
 20
159.0839995679
 30
0.0
 10
118.3640730153
 20
157.7106482596
 30
0.0
 10
118.7973680057
 20
156.3021897109
 30
0.0
 10
118.9062624334
 20
155.3464303486
 30
0.0
 10
118.9101213359
 20
154.8856300146
 30
0.0
  0
SPLINE
  5
4FA
100
AcDbEntity
  8
0
100
AcDbSpline
 62
7
  6
BYLAYER
 70
0
 71
3
 72
13
 73
9
 74
0
 42
0.0000001
 43
0.0000001
 44
0.0000000001
 40
0.0
 40
0.0
 40
0.0
 40
0.0
 40
0.1931252544
 40
0.3557439638
 40
0.5002472298
 40
0.6447278623
 40
0.8072093999
 40
1.0
 40
1.0
 40
1.0
 40
1.0
 10
118.9101213359
 20
83.0334173072
 30
0.0
 10
118.9066332155
 20
82.6290026769
 30
0.0
 10
118.8333056531
 20
81.8785414755
 30
0.0
 10
118.4116411835
 20
80.8959273887
 30
0.0
 10
117.7028119331
 20
80.2223439538
 30
0.0
 10
116.7649744577
 20
79.9467662248
 30
0.0
 10
115.7044355569
 20
80.0736324306
 30
0.0
 10
115.018798842
 20
80.3849500963
 30
0.0
 10
114.667462985
 20
80.5838473316
 30
0.0
  0
SPLINE
  5
4FB
100
AcDbEntity
  8
0
100
AcDbSpline
 62
7
  6
BYLAYER
 70
0
 71
3
 72
11
 73
7
 74
0
 42
0.0000001
 43
0.0000001
 44
0.0000000001
 40
0.0
 40
0.0
 40
0.0
 40
0.0
 40
0.2828110582
 40
0.4998424245
 40
0.7169231914
 40
1.0
 40
1.0
 40
1.0
 40
1.0
 10
89.9893559515
 20
114.8358254172
 30
0.0
 10
89.9862901626
 20
114.7377866771
 30
0.0
 10
89.9662991367
 20
114.5594616935
 30
0.0
 10
89.7964458858
 20
114.3537994119
 30
0.0
 10
89.5333252238
 20
114.309258228
 30
0.0
 10
89.3687757293
 20
114.3811770276
 30
0.0
 10
89.2822462264
 20
114.4275637546
 30
0.0
  0
SPLINE
  5
4FC
100
AcDbEntity
  8
0
100
AcDbSpline
 62
7
  6
BYLAYER
 70
0
 71
3
 72
11
 73
7
 74
0
 42
0.0000001
 43
0.0000001
 44
0.0000000001
 40
0.0
 40
0.0
 40
0.0
 40
0.0
 40
0.2451060253
 40
0.4997955685
 40
0.7546080513
 40
1.0
 40
1.0
 40
1.0
 40
1.0
 10
62.4120766708
 20
129.9407124264
 30
0.0
 10
62.3102165149
 20
130.0036918449
 30
0.0
 10
62.1180995242
 20
130.1600718289
 30
0.0
 10
61.9016081021
 20
130.4622061211
 30
0.0
 10
61.74802379
 20
130.800845499
 30
0.0
 10
61.7086101097
 20
131.0456135942
 30
0.0
 10
61.7049669456
 20
131.165455598
 30
0.0
  0
SPLINE
  5
4FD
100
AcDbEntity
  8
0
100
AcDbSpline
 62
7
  6
BYLAYER
 70
0
 71
3
 72
11
 73
7
 74
0
 42
0.0000001
 43
0.0000001
 44
0.0000000001
 40
0.0
 40
0.0
 40
0.0
 40
0.0
 40
0.2828110582
 40
0.4998424245
 40
0.7169231914
 40
1.0
 40
1.0
 40
1.0
 40
1.0
 10
61.7049669456
 20
166.6016605014
 30
0.0
 10
61.7080327346
 20
166.6996992415
 30
0.0
 10
61.7280237605
 20
166.8780242252
 30
0.0
 10
61.8978770113
 20
167.0836865068
 30
0.0
 10
62.1609976733
 20
167.1282276906
 30
0.0
 10
62.3255471678
 20
167.056308891
 30
0.0
 10
62.4120766708
 20
167.0099221641
 30
0.0
  0
SPLINE
  5
4FE
100
AcDbEntity
  8
0
100
AcDbSpline
 62
7
  6
BYLAYER
 70
0
 71
3
 72
11
 73
7
 74
0
 42
0.0000001
 43
0.0000001
 44
0.0000000001
 40
0.0
 40
0.0
 40
0.0
 40
0.0
 40
0.2451060253
 40
0.4997955685
 40
0.7546080513
 40
1.0
 40
1.0
 40
1.0
 40
1.0
 10
89.2822462264
 20
151.4967734923
 30
0.0
 10
89.3841063823
 20
151.4337940737
 30
0.0
 10
89.576223373
 20
151.2774140897
 30
0.0
 10
89.792714795
 20
150.9752797976
 30
0.0
 10
89.9462991072
 20
150.6366404196
 30
0.0
 10
89.9857127875
 20
150.3918723245
 30
0.0
 10
89.9893559515
 20
150.2720303206
 30
0.0
  0
SPLINE
  5
4FF
100
AcDbEntity
  8
0
100
AcDbSpline
 62
7
  6
BYLAYER
 70
0
 71
3
 72
12
 73
8
 74
0
 42
0.0000001
 43
0.0000001
 44
0.0000000001
 40
0.0
 40
0.0
 40
0.0
 40
0.0
 40
0.1910791473
 40
0.3955933929
 40
0.6050341484
 40
0.8093116273
 40
1.0
 40
1.0
 40
1.0
 40
1.0
 10
73.7259824154
 20
134.1565128601
 30
0.0
 10
73.7305258319
 20
134.4835815954
 30
0.0
 10
73.8220605367
 20
135.1615717601
 30
0.0
 10
74.1790661733
 20
136.1404021619
 30
0.0
 10
74.7109540171
 20
137.0611296973
 30
0.0
 10
75.3798436141
 20
137.8585361395
 30
0.0
 10
75.9204043388
 20
138.276083826
 30
0.0
 10
76.2008519365
 20
138.4431364073
 30
0.0
  0
SPLINE
  5
500
100
AcDbEntity
  8
0
100
AcDbSpline
 62
7
  6
BYLAYER
 70
0
 71
3
 72
12
 73
8
 74
0
 42
0.0000001
 43
0.0000001
 44
0.0000000001
 40
0.0
 40
0.0
 40
0.0
 40
0.0
 40
0.2289404627
 40
0.4153364685
 40
0.5851698221
 40
0.7714530236
 40
1.0
 40
1.0
 40
1.0
 40
1.0
 10
76.2008501565
 20
106.6607787929
 30
0.0
 10
75.9572470595
 20
106.5246835978
 30
0.0
 10
75.4858502469
 20
106.3172146948
 30
0.0
 10
74.7453984912
 20
106.3041160048
 30
0.0
 10
74.1435802218
 20
106.6523000338
 30
0.0
 10
73.7858089016
 20
107.2998386067
 30
0.0
 10
73.729839249
 20
107.8111496217
 30
0.0
 10
73.7259824154
 20
108.0896852038
 30
0.0
  0
SPLINE
  5
501
100
AcDbEntity
  8
0
100
AcDbSpline
 62
7
  6
BYLAYER
 70
0
 71
3
 72
14
 73
10
 74
0
 42
0.0000001
 43
0.0000001
 44
0.0000000001
 40
0.0
 40
0.0
 40
0.0
 40
0.0
 40
0.1913167791
 40
0.35604692
 40
0.494627501
 40
0.612435855
 40
0.7236767139
 40
0.8476369959
 40
1.0
 40
1.0
 40
1.0
 40
1.0
 10
60.9725084511
 20
126.8527425693
 30
0.0
 10
61.3550006734
 20
126.9159081497
 30
0.0
 10
62.0617535162
 20
127.0842213523
 30
0.0
 10
62.9706205081
 20
127.5284176689
 30
0.0
 10
63.622009905
 20
128.1003873384
 30
0.0
 10
63.9690517991
 20
128.7900784218
 30
0.0
 10
63.9246277118
 20
129.5375084236
 30
0.0
 10
63.4907501768
 20
130.2232332063
 30
0.0
 10
63.0307181263
 20
130.5581262038
 30
0.0
 10
62.7656315334
 20
130.7163949497
 30
0.0
  0
SPLINE
  5
502
100
AcDbEntity
  8
0
100
AcDbSpline
 62
7
  6
BYLAYER
 70
0
 71
3
 72
14
 73
10
 74
0
 42
0.0000001
 43
0.0000001
 44
0.0000000001
 40
0.0
 40
0.0
 40
0.0
 40
0.0
 40
0.1523832757
 40
0.2763523496
 40
0.3875985109
 40
0.5054116228
 40
0.6439916399
 40
0.8087098032
 40
1.0
 40
1.0
 40
1.0
 40
1.0
 10
62.7656315334
 20
165.8259988862
 30
0.0
 10
63.0307511268
 20
165.6677054506
 30
0.0
 10
63.4908330165
 20
165.3327747382
 30
0.0
 10
63.9246976224
 20
164.6469440893
 30
0.0
 10
63.9690064581
 20
163.8994635485
 30
0.0
 10
63.6218583309
 20
163.2098093509
 30
0.0
 10
62.970435748
 20
162.6379097582
 30
0.0
 10
62.0616235785
 20
162.1937910144
 30
0.0
 10
61.3549480265
 20
162.0254996315
 30
0.0
 10
60.972508451
 20
161.9623465059
 30
0.0
  0
ENDSEC
  0
SECTION
  2
OBJECTS
  0
DICTIONARY
  5
C
100
AcDbDictionary
280
0
281
1
  3
ACAD_GROUP
350
D
  3
ACAD_MLINESTYLE
350
17
  3
ACAD_LAYOUT
350
1A
  3
ACAD_PLOTSETTINGS
350
19
  3
ACAD_PLOTSTYLENAME
350
E
  0
DICTIONARY
  5
D
102
{ACAD_REACTORS
330
C
102
}
100
AcDbDictionary
280
0
281
1
  0
ACDBDICTIONARYWDFLT
  5
E
102
{ACAD_REACTORS
330
C
102
}
100
AcDbDictionary
281
1
  3
Normal
350
F
100
AcDbDictionaryWithDefault
340
F
  0
DICTIONARY
  5
17
102
{ACAD_REACTORS
330
C
102
}
100
AcDbDictionary
280
0
281
1
  3
Standard
350
18
  0
DICTIONARY
  5
19
102
{ACAD_REACTORS
330
C
102
}
100
AcDbDictionary
281
1
  0
DICTIONARY
  5
1A
102
{ACAD_REACTORS
330
C
102
}
100
AcDbDictionary
281
1
  3
Model
350
503
  3
Layout1
350
504
  0
ACDBPLACEHOLDER
  5
F
102
{ACAD_REACTORS
330
E
102
}
  0
MLINESTYLE
  5
18
102
{ACAD_REACTORS
330
17
102
}
100
AcDbMlineStyle
  2
STANDARD
 70
0
  3

 62
256
 51
90.0
 52
90.0
 71
2
 49
0.5
 62
256
  6
BYLAYER
 49
-0.5
 62
256
  6
BYLAYER
  0
LAYOUT
  5
503
102
{ACAD_REACTORS
330
1A
102
}
100
AcDbPlotSettings
  1

  2
none_device
  4

  6

 40
0.0
 41
0.0
 42
0.0
 43
0.0
 44
210.0
 45
297.0
 46
0.0
 47
0.0
 48
0.0
 49
0.0
140
0.0
141
0.0
142
1.0
143
1.0
 70
1024
 72
1
 73
0
 74
0
  7

 75
0
147
1.0
148
0.0
149
0.0
100
AcDbLayout
  1
Model
 70
0
 71
0
 10
0.0
 20
0.0
 11
210.0
 21
297.0
 12
0.0
 22
0.0
 32
0.0
 14
0.0
 24
0.0
 34
0.0
 15
0.0
 25
0.0
 35
0.0
146
0.0
 13
0.0
 23
0.0
 33
0.0
 16
1.0
 26
0.0
 36
0.0
 17
0.0
 27
1.0
 37
0.0
 76
0
330
210
345
0
346
0
  0
LAYOUT
  5
504
102
{ACAD_REACTORS
330
1A
102
}
100
AcDbPlotSettings
  1

  2
none_device
  4

  6

 40
0.0
 41
0.0
 42
0.0
 43
0.0
 44
210.0
 45
297.0
 46
0.0
 47
0.0
 48
0.0
 49
0.0
140
0.0
141
0.0
142
1.0
143
1.0
 70
0
 72
1
 73
0
 74
0
  7

 75
0
147
1.0
148
0.0
149
0.0
100
AcDbLayout
  1
Layout1
 70
0
 71
1
 10
0.0
 20
0.0
 11
210.0
 21
297.0
 12
0.0
 22
0.0
 32
0.0
 14
0.0
 24
0.0
 34
0.0
 15
0.0
 25
0.0
 35
0.0
146
0.0
 13
0.0
 23
0.0
 33
0.0
 16
1.0
 26
0.0
 36
0.0
 17
0.0
 27
1.0
 37
0.0
 76
0
330
211
345
0
346
0
  0
ENDSEC
  0
EOF
