999
DXF file: C:\Users\sesa63760\Dev\_Creo\CAD\MCADID0000752_3D-CAD\drw0001_1.dxf
999
Pro/ENGINEER 2019471 by Parametric Technology Corporation
  0
SECTION
  2
HEADER
  9
$ACADVER
  1
AC1024
  9
$DWGCODEPAGE
  3
ANSI_1252
  9
$EXTMAX
 10
92.9657049313
 20
131.4800684029
 30
0.0
  9
$EXTMIN
 10
0.0
 20
0.0
 30
0.0
  9
$LIMMIN
 10
0.0
 20
0.0
  9
$LIMMAX
 10
92.9657049313
 20
131.4800684029
  9
$VIEWCTR
 10
46.4828524657
 20
65.7400342014
  9
$VIEWSIZE
 40
131.4800684029
  9
$CLAYER
  8
0
  9
$LTSCALE
 40
8.570552607
  9
$CELTYPE
  6
BYLAYER
  9
$DIMSCALE
 40
1.0
  9
$DIMASZ
 40
1.1067345825
  9
$DIMEXO
 40
1.0
  9
$DIMDLI
 40
5.9214727103
  9
$DIMEXE
 40
1.0
  9
$DIMCEN
 40
1.402454063
  9
$DIMLFAC
 40
1.0
  9
$DIMBLK
  1
_FILLED
  9
$DIMALT
 70
0
  9
$DIMALTF
 40
0.0393700787
  9
$DIMTXT
 40
1.5494284155
  9
$DIMTOL
 70
1
  9
$DIMLIM
 70
0
  9
$DIMTFAC
 40
1.0
  9
$DIMTP
 40
0.01
  9
$DIMTM
 40
0.01
  9
$DIMGAP
 40
0.625
  9
$DIMDSEP
 70
46
  9
$AUNITS
 70
0
  9
$PDMODE
 70
3
  9
$PDSIZE
 40
0.3125
  9
$HANDSEED
  5
3FF
  9
$TILEMODE
 70
1
  9
$MEASUREMENT
 70
1
  9
$INSUNITS
 70
4
  0
ENDSEC
  0
SECTION
  2
CLASSES
  0
CLASS
  1
ACDBDICTIONARYWDFLT
  2
AcDbDictionaryWithDefault
  3
AutoCAD 2000
 90
0
 91
1
280
0
281
0
  0
CLASS
  1
ACDBPLACEHOLDER
  2
AcDbPlaceHolder
  3
AutoCAD 2000
 90
0
 91
1
280
0
281
0
  0
CLASS
  1
LAYOUT
  2
AcDbLayout
  3
AutoCAD 2000
 90
0
 91
0
280
0
281
0
  0
ENDSEC
  0
SECTION
  2
TABLES
  0
TABLE
  2
VPORT
  5
8
100
AcDbSymbolTable
 70
2
  0
VPORT
  5
1F4
100
AcDbSymbolTableRecord
100
AcDbViewportTableRecord
  2
*ACTIVE
 70
0
 10
0.0
 20
0.0
 11
1.0
 21
1.0
 12
46.4828524657
 22
65.7400342014
 13
0.0
 23
0.0
 14
1.0
 24
1.0
 15
0.0
 25
0.0
 16
0.0
 26
0.0
 36
1.0
 17
0.0
 27
0.0
 37
0.0
 40
131.4800684029
 41
0.7070707071
 42
50.0
 43
0.0
 44
0.0
 50
0.0
 51
0.0
 71
0
 72
100
 73
1
 74
1
 75
0
 76
0
 77
0
 78
0
  0
ENDTAB
  0
TABLE
  2
LTYPE
  5
5
100
AcDbSymbolTable
 70
6
  0
LTYPE
  5
14
100
AcDbSymbolTableRecord
100
AcDbLinetypeTableRecord
  2
BYBLOCK
 70
0
  3

 72
65
 73
0
 40
0.0
  0
LTYPE
  5
15
100
AcDbSymbolTableRecord
100
AcDbLinetypeTableRecord
  2
BYLAYER
 70
0
  3

 72
65
 73
0
 40
0.0
  0
LTYPE
  5
16
100
AcDbSymbolTableRecord
100
AcDbLinetypeTableRecord
  2
CONTINUOUS
 70
64
  3
Solid line
 72
65
 73
0
 40
0.0
  0
LTYPE
  5
1F5
100
AcDbSymbolTableRecord
100
AcDbLinetypeTableRecord
  2
CENTER
 70
64
  3
____ _ ____ _ ____ _ ____ _ ____ _ ____ _ ____
 72
65
 73
4
 40
0.6
 49
0.375
 74
0
 49
-0.075
 74
0
 49
0.075
 74
0
 49
-0.075
 74
0
  0
LTYPE
  5
1F6
100
AcDbSymbolTableRecord
100
AcDbLinetypeTableRecord
  2
HIDDEN
 70
64
  3
- - - - - - - - - - - - - - - - - - - -
 72
65
 73
2
 40
0.2
 49
0.1
 74
0
 49
-0.1
 74
0
  0
LTYPE
  5
1F7
100
AcDbSymbolTableRecord
100
AcDbLinetypeTableRecord
  2
PHANTOM
 70
64
  3
_____ _ _ _____ _ _ _____ _ _ _____
 72
65
 73
6
 40
0.8
 49
0.45
 74
0
 49
-0.05
 74
0
 49
0.1
 74
0
 49
-0.05
 74
0
 49
0.1
 74
0
 49
-0.05
 74
0
  0
LTYPE
  5
1F8
100
AcDbSymbolTableRecord
100
AcDbLinetypeTableRecord
  2
DOT
 70
64
  3
. . . . . . . . . . . . . . . . . . . .
 72
65
 73
2
 40
0.2
 49
0.1
 74
0
 49
-0.1
 74
0
  0
LTYPE
  5
1F9
100
AcDbSymbolTableRecord
100
AcDbLinetypeTableRecord
  2
DASHED
 70
64
  3
- - - - - - - - - - - - - - - - - - - -
 72
65
 73
2
 40
0.2
 49
0.1
 74
0
 49
-0.1
 74
0
  0
ENDTAB
  0
TABLE
  2
LAYER
  5
2
100
AcDbSymbolTable
 70
36
  0
LAYER
  5
10
100
AcDbSymbolTableRecord
100
AcDbLayerTableRecord
  2
0
 70
0
 62
7
  6
CONTINUOUS
370
-3
390
F
  0
LAYER
  5
1FA
100
AcDbSymbolTableRecord
100
AcDbLayerTableRecord
  2
DEFAULT_1
 70
0
 62
7
  6
CENTER
370
-3
390
F
  0
LAYER
  5
1FB
100
AcDbSymbolTableRecord
100
AcDbLayerTableRecord
  2
DEFAULT_2
 70
0
 62
8
  6
HIDDEN
370
-3
390
F
  0
LAYER
  5
1FC
100
AcDbSymbolTableRecord
100
AcDbLayerTableRecord
  2
DEFAULT_3
 70
0
 62
7
  6
PHANTOM
370
-3
390
F
  0
LAYER
  5
1FD
100
AcDbSymbolTableRecord
100
AcDbLayerTableRecord
  2
00_COMPONENTS
 70
0
 62
7
  6
CONTINUOUS
370
-3
390
F
  0
LAYER
  5
1FE
100
AcDbSymbolTableRecord
100
AcDbLayerTableRecord
  2
01_1_DEFAULT_DATUMS
 70
0
 62
7
  6
CONTINUOUS
370
-3
390
F
  0
LAYER
  5
1FF
100
AcDbSymbolTableRecord
100
AcDbLayerTableRecord
  2
01_PLANES
 70
0
 62
7
  6
CONTINUOUS
370
-3
390
F
  0
LAYER
  5
200
100
AcDbSymbolTableRecord
100
AcDbLayerTableRecord
  2
02_COORD_SYS
 70
0
 62
7
  6
CONTINUOUS
370
-3
390
F
  0
LAYER
  5
201
100
AcDbSymbolTableRecord
100
AcDbLayerTableRecord
  2
03_AXES
 70
0
 62
7
  6
CONTINUOUS
370
-3
390
F
  0
LAYER
  5
202
100
AcDbSymbolTableRecord
100
AcDbLayerTableRecord
  2
04_POINTS
 70
0
 62
7
  6
CONTINUOUS
370
-3
390
F
  0
LAYER
  5
203
100
AcDbSymbolTableRecord
100
AcDbLayerTableRecord
  2
05_CURVES
 70
0
 62
7
  6
CONTINUOUS
370
-3
390
F
  0
LAYER
  5
204
100
AcDbSymbolTableRecord
100
AcDbLayerTableRecord
  2
06_SURFS
 70
0
 62
7
  6
CONTINUOUS
370
-3
390
F
  0
LAYER
  5
205
100
AcDbSymbolTableRecord
100
AcDbLayerTableRecord
  2
07_COSMETICS
 70
0
 62
7
  6
CONTINUOUS
370
-3
390
F
  0
LAYER
  5
206
100
AcDbSymbolTableRecord
100
AcDbLayerTableRecord
  2
10_NOTES
 70
0
 62
7
  6
CONTINUOUS
370
-3
390
F
  0
LAYER
  5
207
100
AcDbSymbolTableRecord
100
AcDbLayerTableRecord
  2
11_NOTES_PUB
 70
0
 62
7
  6
CONTINUOUS
370
-3
390
F
  0
LAYER
  5
208
100
AcDbSymbolTableRecord
100
AcDbLayerTableRecord
  2
13_REF_GTOL
 70
0
 62
7
  6
CONTINUOUS
370
-3
390
F
  0
LAYER
  5
209
100
AcDbSymbolTableRecord
100
AcDbLayerTableRecord
  2
16_MISC
 70
0
 62
7
  6
CONTINUOUS
370
-3
390
F
  0
LAYER
  5
20A
100
AcDbSymbolTableRecord
100
AcDbLayerTableRecord
  2
17_NO_PRINT
 70
0
 62
7
  6
CONTINUOUS
370
-3
390
F
  0
LAYER
  5
20B
100
AcDbSymbolTableRecord
100
AcDbLayerTableRecord
  2
18_DATUM_CAMS_JOINTS
 70
0
 62
7
  6
CONTINUOUS
370
-3
390
F
  0
LAYER
  5
20C
100
AcDbSymbolTableRecord
100
AcDbLayerTableRecord
  2
19_DATUM_FUNCTIONAL
 70
0
 62
7
  6
CONTINUOUS
370
-3
390
F
  0
LAYER
  5
20D
100
AcDbSymbolTableRecord
100
AcDbLayerTableRecord
  2
20_DATUM_KINEMATIC_SCHEME
 70
0
 62
7
  6
CONTINUOUS
370
-3
390
F
  0
ENDTAB
  0
TABLE
  2
STYLE
  5
3
100
AcDbSymbolTable
 70
1
  0
STYLE
  5
11
100
AcDbSymbolTableRecord
100
AcDbTextStyleTableRecord
  2
STANDARD
 70
0
 40
0.0
 41
0.8
 50
0.0
 71
0
 42
0.2
  3
txt
  4

  0
STYLE
  5
20E
100
AcDbSymbolTableRecord
100
AcDbTextStyleTableRecord
  2
TEXTSTYLE_1
 70
0
 40
0.0
 41
0.8
 50
0.0
 71
0
 42
0.2
  3
gdt
  4

  0
ENDTAB
  0
TABLE
  2
VIEW
  5
6
100
AcDbSymbolTable
 70
0
  0
ENDTAB
  0
TABLE
  2
UCS
  5
7
100
AcDbSymbolTable
 70
0
  0
ENDTAB
  0
TABLE
  2
APPID
  5
9
100
AcDbSymbolTable
 70
1
  0
APPID
  5
20F
100
AcDbSymbolTableRecord
100
AcDbRegAppTableRecord
  2
ACAD
 70
0
  0
ENDTAB
  0
TABLE
  2
BLOCK_RECORD
  5
1
100
AcDbSymbolTable
 70
0
  0
BLOCK_RECORD
  5
210
100
AcDbSymbolTableRecord
100
AcDbBlockTableRecord
  2
*Model_Space
  0
BLOCK_RECORD
  5
211
100
AcDbSymbolTableRecord
100
AcDbBlockTableRecord
  2
*Paper_Space
  0
BLOCK_RECORD
  5
212
100
AcDbSymbolTableRecord
100
AcDbBlockTableRecord
  2
_FILLED
  0
ENDTAB
  0
TABLE
  2
DIMSTYLE
  5
A
100
AcDbSymbolTable
 70
1
100
AcDbDimStyleTable
 71
0
  0
DIMSTYLE
105
213
100
AcDbSymbolTableRecord
100
AcDbDimStyleTableRecord
  2
STANDARD
 70
0
  3

  4

 40
1.0
 41
1.1067345825
 42
1.0
 43
0.38
 44
1.0
 45
0.0
 46
0.0
 47
0.01
 48
0.01
140
1.5494284155
141
0.09
142
0.0
143
25.4
144
1.0
145
0.0
146
1.0
147
0.625
 71
1
 72
0
 73
0
 74
0
 75
0
 76
0
 77
1
 78
8
 79
2
170
0
171
1
172
0
173
0
174
0
175
0
176
0
177
0
178
0
270
2
179
2
271
2
272
2
273
2
274
2
275
0
280
0
281
0
282
0
283
1
284
8
285
0
286
0
287
3
288
0
340
11
278
46
341
212
342
212
343
212
344
212
  0
ENDTAB
  0
ENDSEC
  0
SECTION
  2
BLOCKS
  0
BLOCK
  5
20
100
AcDbEntity
  8
0
100
AcDbBlockBegin
  2
*Model_Space
 70
0
 10
0.0
 20
0.0
 30
0.0
  3
*Model_Space
  1

  0
ENDBLK
  5
21
100
AcDbEntity
  8
0
100
AcDbBlockEnd
  0
BLOCK
  5
1C
100
AcDbEntity
  8
0
100
AcDbBlockBegin
  2
*Paper_Space
 70
0
 10
0.0
 20
0.0
 30
0.0
  3
*Paper_Space
  1

  0
ENDBLK
  5
1D
100
AcDbEntity
  8
0
100
AcDbBlockEnd
  0
BLOCK
  5
214
100
AcDbEntity
  8
0
100
AcDbBlockBegin
  2
_FILLED
 70
64
 10
0.0
 20
0.0
  3
_FILLED
  1

  0
SOLID
  5
215
100
AcDbEntity
  8
0
  6
BYBLOCK
 62
0
100
AcDbTrace
 10
0.0
 20
0.0
 11
-1.0
 21
0.25
 12
-1.0
 22
-0.25
 13
-1.0
 23
-0.25
  0
ENDBLK
  5
216
100
AcDbEntity
  8
0
  6
BYBLOCK
 62
0
100
AcDbBlockEnd
  0
ENDSEC
  0
SECTION
  2
ENTITIES
  0
LINE
  5
217
100
AcDbEntity
  8
0
100
AcDbLine
 62
7
  6
CONTINUOUS
 10
16.7398340604
 20
12.0237747504
 11
13.3116177514
 21
14.0030115829
  0
LINE
  5
218
100
AcDbEntity
  8
0
100
AcDbLine
 62
7
  6
CONTINUOUS
 10
13.1651696709
 20
17.4725949268
 11
11.2567951725
 21
18.5743705317
  0
LINE
  5
219
100
AcDbEntity
  8
0
100
AcDbLine
 62
7
  6
CONTINUOUS
 10
12.3174597611
 20
19.1459714458
 11
13.1651696709
 21
18.656556973
  0
LINE
  5
21A
100
AcDbEntity
  8
0
100
AcDbLine
 62
7
  6
CONTINUOUS
 10
33.8317416372
 20
10.1750886256
 11
34.1243250274
 21
10.2005927187
  0
LINE
  5
21B
100
AcDbEntity
  8
0
100
AcDbLine
 62
7
  6
CONTINUOUS
 10
13.1651696709
 20
20.0446110817
 11
12.3174597611
 21
20.5340255545
  0
LINE
  5
21C
100
AcDbEntity
  8
0
100
AcDbLine
 62
7
  6
CONTINUOUS
 10
12.3174597611
 20
22.256845655
 11
13.1651696709
 21
21.7674311822
  0
LINE
  5
21D
100
AcDbEntity
  8
0
100
AcDbLine
 62
7
  6
CONTINUOUS
 10
33.8317345156
 20
10.1750762794
 11
23.4725374819
 21
16.1558261728
  0
LINE
  5
21E
100
AcDbEntity
  8
0
100
AcDbLine
 62
7
  6
CONTINUOUS
 10
33.7074671232
 20
10.4497479681
 11
23.6482803638
 21
16.2572907673
  0
LINE
  5
21F
100
AcDbEntity
  8
0
100
AcDbLine
 62
7
  6
CONTINUOUS
 10
13.1651696709
 20
23.155485291
 11
12.3174597611
 21
23.6448997638
  0
LINE
  5
220
100
AcDbEntity
  8
0
100
AcDbLine
 62
7
  6
CONTINUOUS
 10
12.3174597611
 20
25.3677198643
 11
13.1651696709
 21
24.8783053915
  0
LINE
  5
221
100
AcDbEntity
  8
0
100
AcDbLine
 62
7
  6
CONTINUOUS
 10
27.3649433648
 20
16.7677144899
 11
25.9486426203
 21
17.5853976076
  0
LINE
  5
222
100
AcDbEntity
  8
0
100
AcDbLine
 62
7
  6
CONTINUOUS
 10
27.2374131381
 20
17.9212210176
 11
26.8838582755
 21
18.1253413949
  0
LINE
  5
223
100
AcDbEntity
  8
0
100
AcDbLine
 62
7
  6
CONTINUOUS
 10
13.1651696709
 20
26.2663595003
 11
12.3174597611
 21
26.7557739731
  0
LINE
  5
224
100
AcDbEntity
  8
0
100
AcDbLine
 62
7
  6
CONTINUOUS
 10
12.3174597611
 20
28.4785940735
 11
13.1651696709
 21
27.9891796008
  0
LINE
  5
225
100
AcDbEntity
  8
0
100
AcDbLine
 62
7
  6
CONTINUOUS
 10
13.1651696709
 20
29.3772337095
 11
12.3174597611
 21
29.8666481823
  0
LINE
  5
226
100
AcDbEntity
  8
0
100
AcDbLine
 62
7
  6
CONTINUOUS
 10
12.3174597611
 20
31.5894682828
 11
13.1651696709
 21
31.10005381
  0
LINE
  5
227
100
AcDbEntity
  8
0
100
AcDbLine
 62
7
  6
CONTINUOUS
 10
13.1651696709
 20
32.4881079188
 11
12.3174597611
 21
32.9775223916
  0
LINE
  5
228
100
AcDbEntity
  8
0
100
AcDbLine
 62
7
  6
CONTINUOUS
 10
12.3174597611
 20
34.7003424921
 11
13.1651696709
 21
34.2109280193
  0
LINE
  5
229
100
AcDbEntity
  8
0
100
AcDbLine
 62
7
  6
CONTINUOUS
 10
42.1156947955
 20
110.1575736792
 11
48.9162332362
 21
114.0838429419
  0
LINE
  5
22A
100
AcDbEntity
  8
0
100
AcDbLine
 62
7
  6
CONTINUOUS
 10
13.1651696709
 20
35.5989821281
 11
12.3174597611
 21
36.0883966008
  0
LINE
  5
22B
100
AcDbEntity
  8
0
100
AcDbLine
 62
7
  6
CONTINUOUS
 10
12.3174597611
 20
37.8112167013
 11
13.1651696709
 21
37.3218022285
  0
LINE
  5
22C
100
AcDbEntity
  8
0
100
AcDbLine
 62
7
  6
CONTINUOUS
 10
45.6842072598
 20
19.7592424606
 11
47.0984267101
 21
18.9427609515
  0
LINE
  5
22D
100
AcDbEntity
  8
0
100
AcDbLine
 62
7
  6
CONTINUOUS
 10
13.1651696709
 20
38.7098563373
 11
12.3174597611
 21
39.1992708101
  0
LINE
  5
22E
100
AcDbEntity
  8
0
100
AcDbLine
 62
7
  6
CONTINUOUS
 10
11.1982159406
 20
18.6560193623
 11
11.1982159406
 21
50.4097983644
  0
LINE
  5
22F
100
AcDbEntity
  8
0
100
AcDbLine
 62
7
  6
CONTINUOUS
 10
11.1982159406
 20
51.724367256
 11
11.1982159406
 21
83.4781462582
  0
LINE
  5
230
100
AcDbEntity
  8
0
100
AcDbLine
 62
7
  6
CONTINUOUS
 10
11.2567951723
 20
18.5743705318
 11
11.2567951723
 21
50.3281495339
  0
LINE
  5
231
100
AcDbEntity
  8
0
100
AcDbLine
 62
7
  6
CONTINUOUS
 10
11.2567951723
 20
51.6427184255
 11
11.2567951723
 21
83.3964974277
  0
LINE
  5
232
100
AcDbEntity
  8
0
100
AcDbLine
 62
7
  6
CONTINUOUS
 10
12.3174597611
 20
81.6002413317
 11
12.3174597611
 21
80.2121872229
  0
LINE
  5
233
100
AcDbEntity
  8
0
100
AcDbLine
 62
7
  6
CONTINUOUS
 10
12.3174597611
 20
78.4893671224
 11
12.3174597611
 21
77.1013130136
  0
LINE
  5
234
100
AcDbEntity
  8
0
100
AcDbLine
 62
7
  6
CONTINUOUS
 10
12.3174597611
 20
75.3784929131
 11
12.3174597611
 21
73.9904388043
  0
LINE
  5
235
100
AcDbEntity
  8
0
100
AcDbLine
 62
7
  6
CONTINUOUS
 10
12.3174597611
 20
72.2676187039
 11
12.3174597611
 21
70.8795645951
  0
LINE
  5
236
100
AcDbEntity
  8
0
100
AcDbLine
 62
7
  6
CONTINUOUS
 10
12.3174597611
 20
69.1567444946
 11
12.3174597611
 21
67.7686903858
  0
LINE
  5
237
100
AcDbEntity
  8
0
100
AcDbLine
 62
7
  6
CONTINUOUS
 10
12.3174597611
 20
66.0458702853
 11
12.3174597611
 21
64.6578161765
  0
LINE
  5
238
100
AcDbEntity
  8
0
100
AcDbLine
 62
7
  6
CONTINUOUS
 10
12.3174597611
 20
62.9349960761
 11
12.3174597611
 21
61.5469419673
  0
LINE
  5
239
100
AcDbEntity
  8
0
100
AcDbLine
 62
7
  6
CONTINUOUS
 10
12.3174597611
 20
59.8241218668
 11
12.3174597611
 21
58.436067758
  0
LINE
  5
23A
100
AcDbEntity
  8
0
100
AcDbLine
 62
7
  6
CONTINUOUS
 10
12.3174597611
 20
56.7132476575
 11
12.3174597611
 21
55.3251935487
  0
LINE
  5
23B
100
AcDbEntity
  8
0
100
AcDbLine
 62
7
  6
CONTINUOUS
 10
12.3174597611
 20
53.6023734483
 11
12.3174597611
 21
52.2143193395
  0
LINE
  5
23C
100
AcDbEntity
  8
0
100
AcDbLine
 62
7
  6
CONTINUOUS
 10
12.3174597611
 20
48.5318934379
 11
12.3174597611
 21
47.1438393291
  0
LINE
  5
23D
100
AcDbEntity
  8
0
100
AcDbLine
 62
7
  6
CONTINUOUS
 10
12.3174597611
 20
45.4210192286
 11
12.3174597611
 21
44.0329651198
  0
LINE
  5
23E
100
AcDbEntity
  8
0
100
AcDbLine
 62
7
  6
CONTINUOUS
 10
12.3174597611
 20
42.3101450194
 11
12.3174597611
 21
40.9220909106
  0
LINE
  5
23F
100
AcDbEntity
  8
0
100
AcDbLine
 62
7
  6
CONTINUOUS
 10
12.3174597611
 20
39.1992708101
 11
12.3174597611
 21
37.8112167013
  0
LINE
  5
240
100
AcDbEntity
  8
0
100
AcDbLine
 62
7
  6
CONTINUOUS
 10
12.3174597611
 20
36.0883966008
 11
12.3174597611
 21
34.7003424921
  0
LINE
  5
241
100
AcDbEntity
  8
0
100
AcDbLine
 62
7
  6
CONTINUOUS
 10
12.3174597611
 20
32.9775223916
 11
12.3174597611
 21
31.5894682828
  0
LINE
  5
242
100
AcDbEntity
  8
0
100
AcDbLine
 62
7
  6
CONTINUOUS
 10
12.3174597611
 20
29.8666481823
 11
12.3174597611
 21
28.4785940735
  0
LINE
  5
243
100
AcDbEntity
  8
0
100
AcDbLine
 62
7
  6
CONTINUOUS
 10
12.3174597611
 20
26.7557739731
 11
12.3174597611
 21
25.3677198643
  0
LINE
  5
244
100
AcDbEntity
  8
0
100
AcDbLine
 62
7
  6
CONTINUOUS
 10
12.3174597611
 20
23.6448997638
 11
12.3174597611
 21
22.256845655
  0
LINE
  5
245
100
AcDbEntity
  8
0
100
AcDbLine
 62
7
  6
CONTINUOUS
 10
12.3174597611
 20
20.5340255545
 11
12.3174597611
 21
19.1459714458
  0
LINE
  5
246
100
AcDbEntity
  8
0
100
AcDbLine
 62
7
  6
CONTINUOUS
 10
13.1953226476
 20
79.1279907256
 11
13.1652004145
 21
79.0292605184
  0
LINE
  5
247
100
AcDbEntity
  8
0
100
AcDbLine
 62
7
  6
CONTINUOUS
 10
14.5656117675
 20
81.4585837224
 11
14.557734063
 21
81.4369418156
  0
LINE
  5
248
100
AcDbEntity
  8
0
100
AcDbLine
 62
7
  6
CONTINUOUS
 10
14.6157572988
 20
81.3811618656
 11
13.1953226476
 21
79.1279907256
  0
LINE
  5
249
100
AcDbEntity
  8
0
100
AcDbLine
 62
7
  6
CONTINUOUS
 10
14.5656117675
 20
81.4585837224
 11
14.5802108813
 21
81.477765881
  0
LINE
  5
24A
100
AcDbEntity
  8
0
100
AcDbLine
 62
7
  6
CONTINUOUS
 10
17.2597580826
 20
93.2111226555
 11
22.4997308762
 21
96.3420191
  0
LINE
  5
24B
100
AcDbEntity
  8
0
100
AcDbLine
 62
7
  6
CONTINUOUS
 10
51.0190500065
 20
112.8484326001
 11
44.2555363761
 21
108.9435394939
  0
LINE
  5
24C
100
AcDbEntity
  8
0
100
AcDbLine
 62
7
  6
CONTINUOUS
 10
22.4997308762
 20
96.3420191
 11
41.1185191316
 21
107.0915173454
  0
LINE
  5
24D
100
AcDbEntity
  8
0
100
AcDbLine
 62
7
  6
CONTINUOUS
 10
51.4690308643
 20
113.0673524096
 11
66.3401687834
 21
121.65315664
  0
LINE
  5
24E
100
AcDbEntity
  8
0
100
AcDbLine
 62
7
  6
CONTINUOUS
 10
51.0190500065
 20
111.1745525567
 11
51.4690308643
 21
111.4343475754
  0
LINE
  5
24F
100
AcDbEntity
  8
0
100
AcDbLine
 62
7
  6
CONTINUOUS
 10
66.0573484451
 20
118.5505133083
 11
68.8857637939
 21
120.1834899237
  0
LINE
  5
250
100
AcDbEntity
  8
0
100
AcDbLine
 62
7
  6
CONTINUOUS
 10
54.2133612328
 20
111.4266540131
 11
43.9603555932
 21
105.507113782
  0
LINE
  5
251
100
AcDbEntity
  8
0
100
AcDbLine
 62
7
  6
CONTINUOUS
 10
35.0352958641
 20
99.6231307372
 11
38.9490520552
 21
101.8827254397
  0
LINE
  5
252
100
AcDbEntity
  8
0
100
AcDbLine
 62
7
  6
CONTINUOUS
 10
60.4910340038
 20
114.3199202766
 11
64.4047901949
 21
116.579514979
  0
LINE
  5
253
100
AcDbEntity
  8
0
100
AcDbLine
 62
7
  6
CONTINUOUS
 10
12.3174597611
 20
40.9220909106
 11
13.1651696709
 21
40.4326764378
  0
LINE
  5
254
100
AcDbEntity
  8
0
100
AcDbLine
 62
7
  6
CONTINUOUS
 10
13.1651696709
 20
41.8207305466
 11
12.3174597611
 21
42.3101450194
  0
LINE
  5
255
100
AcDbEntity
  8
0
100
AcDbLine
 62
7
  6
CONTINUOUS
 10
36.1941263191
 20
29.0352361445
 11
37.6083457693
 21
28.2187546355
  0
LINE
  5
256
100
AcDbEntity
  8
0
100
AcDbLine
 62
7
  6
CONTINUOUS
 10
12.3174597611
 20
44.0329651199
 11
13.1651696709
 21
43.5435506471
  0
LINE
  5
257
100
AcDbEntity
  8
0
100
AcDbLine
 62
7
  6
CONTINUOUS
 10
13.1651696709
 20
44.9316047558
 11
12.3174597611
 21
45.4210192286
  0
LINE
  5
258
100
AcDbEntity
  8
0
100
AcDbLine
 62
7
  6
CONTINUOUS
 10
33.7074671232
 20
10.4497479681
 11
33.8317416372
 21
10.1750886256
  0
LINE
  5
259
100
AcDbEntity
  8
0
100
AcDbLine
 62
7
  6
CONTINUOUS
 10
13.1651696709
 20
14.2071336605
 11
13.1651696709
 21
45.9609126627
  0
LINE
  5
25A
100
AcDbEntity
  8
0
100
AcDbLine
 62
7
  6
CONTINUOUS
 10
13.1651696709
 20
47.2754815543
 11
13.1651696709
 21
79.0292605564
  0
LINE
  5
25B
100
AcDbEntity
  8
0
100
AcDbLine
 62
7
  6
CONTINUOUS
 10
13.3116177515
 20
14.0030115829
 11
13.3116177515
 21
45.756790585
  0
LINE
  5
25C
100
AcDbEntity
  8
0
100
AcDbLine
 62
7
  6
CONTINUOUS
 10
13.3116177515
 20
47.0713594766
 11
13.3116177515
 21
78.8251384788
  0
LINE
  5
25D
100
AcDbEntity
  8
0
100
AcDbLine
 62
7
  6
CONTINUOUS
 10
13.8731011659
 20
80.2031200851
 11
13.873101166
 21
80.7021116658
  0
LINE
  5
25E
100
AcDbEntity
  8
0
100
AcDbLine
 62
7
  6
CONTINUOUS
 10
14.5577394063
 20
81.289130711
 11
14.5577394063
 21
81.4369418062
  0
LINE
  5
25F
100
AcDbEntity
  8
0
100
AcDbLine
 62
7
  6
CONTINUOUS
 10
14.5850321868
 20
81.3324240123
 11
14.5850321868
 21
81.3989006159
  0
LINE
  5
260
100
AcDbEntity
  8
0
100
AcDbLine
 62
7
  6
CONTINUOUS
 10
16.73983406
 20
76.8459016466
 11
16.73983406
 21
45.0921226444
  0
LINE
  5
261
100
AcDbEntity
  8
0
100
AcDbLine
 62
7
  6
CONTINUOUS
 10
16.73983406
 20
43.7775537528
 11
16.73983406
 21
12.0237747507
  0
LINE
  5
262
100
AcDbEntity
  8
0
100
AcDbLine
 62
7
  6
CONTINUOUS
 10
65.2211805143
 20
116.1081824713
 11
61.3074243232
 21
113.8485877689
  0
LINE
  5
263
100
AcDbEntity
  8
0
100
AcDbLine
 62
7
  6
CONTINUOUS
 10
39.7654423746
 20
101.411392932
 11
35.8516861835
 21
99.1517982295
  0
LINE
  5
264
100
AcDbEntity
  8
0
100
AcDbLine
 62
7
  6
CONTINUOUS
 10
11.2567939961
 20
83.5597944096
 11
19.2630468372
 21
88.1821790506
  0
LINE
  5
265
100
AcDbEntity
  8
0
100
AcDbLine
 62
7
  6
CONTINUOUS
 10
37.783896753
 20
97.8321407966
 11
42.0512048627
 21
100.295857576
  0
LINE
  5
266
100
AcDbEntity
  8
0
100
AcDbLine
 62
7
  6
CONTINUOUS
 10
63.2396348927
 20
112.528930336
 11
67.5069430024
 21
114.9926471154
  0
LINE
  5
267
100
AcDbEntity
  8
0
100
AcDbLine
 62
7
  6
CONTINUOUS
 10
39.2104712823
 20
97.0227642344
 11
42.0512048627
 21
98.6628527418
  0
LINE
  5
268
100
AcDbEntity
  8
0
100
AcDbLine
 62
7
  6
CONTINUOUS
 10
64.666209422
 20
111.7195537738
 11
67.5069430024
 21
113.3596422812
  0
LINE
  5
269
100
AcDbEntity
  8
0
100
AcDbLine
 62
7
  6
CONTINUOUS
 10
68.945847746
 20
114.1619138681
 11
64.6785396363
 21
111.6981970886
  0
LINE
  5
26A
100
AcDbEntity
  8
0
100
AcDbLine
 62
7
  6
CONTINUOUS
 10
43.4901096063
 20
99.4651243287
 11
39.2228014966
 21
97.0014075493
  0
LINE
  5
26B
100
AcDbEntity
  8
0
100
AcDbLine
 62
7
  6
CONTINUOUS
 10
16.73983406
 20
43.7775537528
 11
13.3116177515
 21
45.756790585
  0
LINE
  5
26C
100
AcDbEntity
  8
0
100
AcDbLine
 62
7
  6
CONTINUOUS
 10
16.8812530614
 20
44.104148056
 11
17.2348079244
 21
43.9000276784
  0
LINE
  5
26D
100
AcDbEntity
  8
0
100
AcDbLine
 62
7
  6
CONTINUOUS
 10
39.7178379637
 20
31.2731476961
 11
41.1320574139
 21
30.456666187
  0
LINE
  5
26E
100
AcDbEntity
  8
0
100
AcDbLine
 62
7
  6
CONTINUOUS
 10
12.3174597611
 20
47.1438393291
 11
13.4621814703
 21
46.4829488933
  0
LINE
  5
26F
100
AcDbEntity
  8
0
100
AcDbLine
 62
7
  6
CONTINUOUS
 10
16.7398340604
 20
45.0921226441
 11
13.3116177514
 21
47.0713594767
  0
LINE
  5
270
100
AcDbEntity
  8
0
100
AcDbLine
 62
7
  6
CONTINUOUS
 10
13.1651696709
 20
48.0424789651
 11
12.3174597611
 21
48.5318934379
  0
LINE
  5
271
100
AcDbEntity
  8
0
100
AcDbLine
 62
7
  6
CONTINUOUS
 10
13.1651696709
 20
49.226373929
 11
11.2567951723
 21
50.3281495339
  0
LINE
  5
272
100
AcDbEntity
  8
0
100
AcDbLine
 62
7
  6
CONTINUOUS
 10
16.8429001784
 20
89.5794197657
 11
16.8429001784
 21
92.480624233
  0
LINE
  5
273
100
AcDbEntity
  8
0
100
AcDbLine
 62
7
  6
CONTINUOUS
 10
17.0226767722
 20
12.02377543
 11
17.0226767722
 21
43.7775544322
  0
LINE
  5
274
100
AcDbEntity
  8
0
100
AcDbLine
 62
7
  6
CONTINUOUS
 10
17.0226767722
 20
45.0921233238
 11
17.0226767722
 21
76.845902326
  0
LINE
  5
275
100
AcDbEntity
  8
0
100
AcDbLine
 62
7
  6
CONTINUOUS
 10
17.2348079244
 20
76.9683755722
 11
17.2348079244
 21
45.21459657
  0
LINE
  5
276
100
AcDbEntity
  8
0
100
AcDbLine
 62
7
  6
CONTINUOUS
 10
17.2348079244
 20
43.9000276784
 11
17.2348079244
 21
12.1462486762
  0
LINE
  5
277
100
AcDbEntity
  8
0
100
AcDbLine
 62
7
  6
CONTINUOUS
 10
17.9035559343
 20
87.3972812971
 11
17.9035559343
 21
88.9670637329
  0
LINE
  5
278
100
AcDbEntity
  8
0
100
AcDbLine
 62
7
  6
CONTINUOUS
 10
13.1953226476
 20
46.0596428318
 11
13.1652004145
 21
45.9609126246
  0
LINE
  5
279
100
AcDbEntity
  8
0
100
AcDbLine
 62
7
  6
CONTINUOUS
 10
13.519567066
 20
80.9062200562
 11
12.3174597611
 21
80.2121872229
  0
LINE
  5
27A
100
AcDbEntity
  8
0
100
AcDbLine
 62
7
  6
CONTINUOUS
 10
73.4112895866
 20
114.3048094612
 11
76.2397049355
 21
115.9377860767
  0
LINE
  5
27B
100
AcDbEntity
  8
0
100
AcDbLine
 62
7
  6
CONTINUOUS
 10
13.1651696709
 20
77.5907356368
 11
12.3174597611
 21
77.1013130136
  0
LINE
  5
27C
100
AcDbEntity
  8
0
100
AcDbLine
 62
7
  6
CONTINUOUS
 10
27.8826187981
 20
85.2439299755
 11
25.5489735195
 21
83.8966072881
  0
LINE
  5
27D
100
AcDbEntity
  8
0
100
AcDbLine
 62
7
  6
CONTINUOUS
 10
13.1651696709
 20
50.5409428205
 11
11.2567951725
 21
51.6427184254
  0
LINE
  5
27E
100
AcDbEntity
  8
0
100
AcDbLine
 62
7
  6
CONTINUOUS
 10
12.3174597611
 20
52.2143193395
 11
13.1651696709
 21
51.7249048667
  0
LINE
  5
27F
100
AcDbEntity
  8
0
100
AcDbLine
 62
7
  6
CONTINUOUS
 10
13.1651696709
 20
53.1129589755
 11
12.3174597611
 21
53.6023734483
  0
LINE
  5
280
100
AcDbEntity
  8
0
100
AcDbLine
 62
7
  6
CONTINUOUS
 10
12.3174597611
 20
55.3251935488
 11
13.1651696709
 21
54.835779076
  0
LINE
  5
281
100
AcDbEntity
  8
0
100
AcDbLine
 62
7
  6
CONTINUOUS
 10
25.0312980862
 20
82.7522973135
 11
25.0312980862
 21
81.8204637556
  0
LINE
  5
282
100
AcDbEntity
  8
0
100
AcDbLine
 62
7
  6
CONTINUOUS
 10
25.1816663189
 20
81.7336505799
 11
25.1816663189
 21
56.6179610243
  0
LINE
  5
283
100
AcDbEntity
  8
0
100
AcDbLine
 62
7
  6
CONTINUOUS
 10
39.3642978209
 20
86.6054771047
 11
34.1243250274
 21
83.4745806602
  0
LINE
  5
284
100
AcDbEntity
  8
0
100
AcDbLine
 62
7
  6
CONTINUOUS
 10
26.7988031588
 20
83.772796019
 11
29.1324484374
 21
85.1201187064
  0
LINE
  5
285
100
AcDbEntity
  8
0
100
AcDbLine
 62
7
  6
CONTINUOUS
 10
16.8812530614
 20
77.1724959497
 11
25.0312980862
 21
81.8778985512
  0
LINE
  5
286
100
AcDbEntity
  8
0
100
AcDbLine
 62
7
  6
CONTINUOUS
 10
17.0226767713
 20
76.8459023254
 11
17.2348079239
 21
76.9683755724
  0
LINE
  5
287
100
AcDbEntity
  8
0
100
AcDbLine
 62
7
  6
CONTINUOUS
 10
13.1651696709
 20
74.4798614275
 11
12.3174597611
 21
73.9904388043
  0
LINE
  5
288
100
AcDbEntity
  8
0
100
AcDbLine
 62
7
  6
CONTINUOUS
 10
31.6261381654
 20
83.680418841
 11
29.2924928868
 21
82.3330961537
  0
LINE
  5
289
100
AcDbEntity
  8
0
100
AcDbLine
 62
7
  6
CONTINUOUS
 10
39.3642978209
 20
86.6054771047
 11
83.2047357282
 21
111.9166146447
  0
LINE
  5
28A
100
AcDbEntity
  8
0
100
AcDbLine
 62
7
  6
CONTINUOUS
 10
13.1651696709
 20
71.3689872183
 11
12.3174597611
 21
70.8795645951
  0
LINE
  5
28B
100
AcDbEntity
  8
0
100
AcDbLine
 62
7
  6
CONTINUOUS
 10
13.1651696709
 20
56.2238331848
 11
12.3174597611
 21
56.7132476575
  0
LINE
  5
28C
100
AcDbEntity
  8
0
100
AcDbLine
 62
7
  6
CONTINUOUS
 10
26.8838582755
 20
49.879120397
 11
27.2374131381
 21
49.6750000198
  0
LINE
  5
28D
100
AcDbEntity
  8
0
100
AcDbLine
 62
7
  6
CONTINUOUS
 10
12.3174597611
 20
58.436067758
 11
13.1651696709
 21
57.9466532852
  0
LINE
  5
28E
100
AcDbEntity
  8
0
100
AcDbLine
 62
7
  6
CONTINUOUS
 10
26.8060477009
 20
51.1487656005
 11
27.3649433648
 21
50.8260943383
  0
LINE
  5
28F
100
AcDbEntity
  8
0
100
AcDbLine
 62
7
  6
CONTINUOUS
 10
26.8838582755
 20
51.1936892886
 11
27.2374131381
 21
50.9895689113
  0
LINE
  5
290
100
AcDbEntity
  8
0
100
AcDbLine
 62
7
  6
CONTINUOUS
 10
13.1651696709
 20
59.334707394
 11
12.3174597611
 21
59.8241218668
  0
LINE
  5
291
100
AcDbEntity
  8
0
100
AcDbLine
 62
7
  6
CONTINUOUS
 10
26.8838582755
 20
54.418066049
 11
26.8838582755
 21
51.1936892886
  0
LINE
  5
292
100
AcDbEntity
  8
0
100
AcDbLine
 62
7
  6
CONTINUOUS
 10
26.8838582755
 20
49.879120397
 11
26.8838582755
 21
18.1253413949
  0
LINE
  5
293
100
AcDbEntity
  8
0
100
AcDbLine
 62
7
  6
CONTINUOUS
 10
27.2374131381
 20
54.2139456717
 11
27.2374131381
 21
50.9895689113
  0
LINE
  5
294
100
AcDbEntity
  8
0
100
AcDbLine
 62
7
  6
CONTINUOUS
 10
27.2374131381
 20
49.6750000198
 11
27.2374131381
 21
17.9212210176
  0
LINE
  5
295
100
AcDbEntity
  8
0
100
AcDbLine
 62
7
  6
CONTINUOUS
 10
27.3649433648
 20
54.1403177267
 11
27.3649433648
 21
16.7677144899
  0
LINE
  5
296
100
AcDbEntity
  8
0
100
AcDbLine
 62
7
  6
CONTINUOUS
 10
13.6939648046
 20
46.8506162965
 11
13.1953226476
 21
46.0596428318
  0
LINE
  5
297
100
AcDbEntity
  8
0
100
AcDbLine
 62
7
  6
CONTINUOUS
 10
45.2772729906
 20
88.6620878862
 11
47.0984267101
 21
89.7135252002
  0
LINE
  5
298
100
AcDbEntity
  8
0
100
AcDbLine
 62
7
  6
CONTINUOUS
 10
67.9045957814
 20
101.7259008101
 11
69.7257495009
 21
102.7773381241
  0
LINE
  5
299
100
AcDbEntity
  8
0
100
AcDbLine
 62
7
  6
CONTINUOUS
 10
76.4642673647
 20
106.487147357
 11
78.1122552004
 21
107.4386078981
  0
LINE
  5
29A
100
AcDbEntity
  8
0
100
AcDbLine
 62
7
  6
CONTINUOUS
 10
76.4642673647
 20
105.4938409379
 11
76.7101932567
 21
105.6358254703
  0
LINE
  5
29B
100
AcDbEntity
  8
0
100
AcDbLine
 62
7
  6
CONTINUOUS
 10
31.0599979591
 20
79.2717045606
 11
33.3936432377
 21
80.6190272479
  0
LINE
  5
29C
100
AcDbEntity
  8
0
100
AcDbLine
 62
7
  6
CONTINUOUS
 10
68.3111597742
 20
100.5929697912
 11
67.9179566417
 21
100.3659552119
  0
LINE
  5
29D
100
AcDbEntity
  8
0
100
AcDbLine
 62
7
  6
CONTINUOUS
 10
45.6842072598
 20
87.5289430823
 11
45.2772729906
 21
87.2940008748
  0
LINE
  5
29E
100
AcDbEntity
  8
0
100
AcDbLine
 62
7
  6
CONTINUOUS
 10
13.1651696709
 20
68.258113009
 11
12.3174597611
 21
67.7686903858
  0
LINE
  5
29F
100
AcDbEntity
  8
0
100
AcDbLine
 62
7
  6
CONTINUOUS
 10
58.6558900335
 20
93.8384570776
 11
65.3150086467
 21
97.6830780522
  0
LINE
  5
2A0
100
AcDbEntity
  8
0
100
AcDbLine
 62
7
  6
CONTINUOUS
 10
70.421695489
 20
100.4002812904
 11
76.4642673647
 21
103.888940965
  0
LINE
  5
2A1
100
AcDbEntity
  8
0
100
AcDbLine
 62
7
  6
CONTINUOUS
 10
78.1122552004
 20
104.8404015061
 11
78.3101800367
 21
104.9546727815
  0
LINE
  5
2A2
100
AcDbEntity
  8
0
100
AcDbLine
 62
7
  6
CONTINUOUS
 10
69.7253792245
 20
99.7764882822
 11
67.9049660575
 21
98.7254785239
  0
LINE
  5
2A3
100
AcDbEntity
  8
0
100
AcDbLine
 62
7
  6
CONTINUOUS
 10
47.0984267101
 20
86.7124615733
 11
45.2772729906
 21
85.6610242593
  0
LINE
  5
2A4
100
AcDbEntity
  8
0
100
AcDbLine
 62
7
  6
CONTINUOUS
 10
70.5475652662
 20
100.036595737
 11
75.3558713598
 21
102.8126559837
  0
LINE
  5
2A5
100
AcDbEntity
  8
0
100
AcDbLine
 62
7
  6
CONTINUOUS
 10
72.9411117551
 20
100.7448877037
 11
74.2846090459
 21
101.5205515961
  0
LINE
  5
2A6
100
AcDbEntity
  8
0
100
AcDbLine
 62
7
  6
CONTINUOUS
 10
12.3174597611
 20
61.5469419673
 11
13.1651696709
 21
61.0575274945
  0
LINE
  5
2A7
100
AcDbEntity
  8
0
100
AcDbLine
 62
7
  6
CONTINUOUS
 10
26.7988031588
 20
54.4671715326
 11
29.2924928868
 21
53.0274716673
  0
LINE
  5
2A8
100
AcDbEntity
  8
0
100
AcDbLine
 62
7
  6
CONTINUOUS
 10
13.1651696709
 20
62.4455816033
 11
12.3174597611
 21
62.9349960761
  0
LINE
  5
2A9
100
AcDbEntity
  8
0
100
AcDbLine
 62
7
  6
CONTINUOUS
 10
12.3174597611
 20
64.6578161766
 11
13.1651696709
 21
64.1684017038
  0
LINE
  5
2AA
100
AcDbEntity
  8
0
100
AcDbLine
 62
7
  6
CONTINUOUS
 10
13.1651696709
 20
65.5564558125
 11
12.3174597611
 21
66.0458702853
  0
LINE
  5
2AB
100
AcDbEntity
  8
0
100
AcDbLine
 62
7
  6
CONTINUOUS
 10
31.0599979591
 20
54.0490406511
 11
31.0599979591
 21
79.2717111019
  0
LINE
  5
2AC
100
AcDbEntity
  8
0
100
AcDbLine
 62
7
  6
CONTINUOUS
 10
33.3936432377
 20
55.3952930605
 11
33.3936432377
 21
80.6190272479
  0
LINE
  5
2AD
100
AcDbEntity
  8
0
100
AcDbLine
 62
7
  6
CONTINUOUS
 10
33.7074671232
 20
10.4497479681
 11
33.7074671232
 21
82.7440822377
  0
LINE
  5
2AE
100
AcDbEntity
  8
0
100
AcDbLine
 62
7
  6
CONTINUOUS
 10
71.6188275796
 20
99.4262494923
 11
72.9411117551
 21
100.1896660601
  0
LINE
  5
2AF
100
AcDbEntity
  8
0
100
AcDbLine
 62
7
  6
CONTINUOUS
 10
13.1651696709
 20
65.1472387997
 11
12.3174597611
 21
64.6578161766
  0
LINE
  5
2B0
100
AcDbEntity
  8
0
100
AcDbLine
 62
7
  6
CONTINUOUS
 10
75.3558713598
 20
100.9347004237
 11
75.3276139139
 21
100.9183860771
  0
LINE
  5
2B1
100
AcDbEntity
  8
0
100
AcDbLine
 62
7
  6
CONTINUOUS
 10
71.113248336
 20
98.4852355001
 11
70.5475652662
 21
98.158640177
  0
LINE
  5
2B2
100
AcDbEntity
  8
0
100
AcDbLine
 62
7
  6
CONTINUOUS
 10
74.1431982879
 20
100.050878421
 11
75.4866955782
 21
100.8265423132
  0
LINE
  5
2B3
100
AcDbEntity
  8
0
100
AcDbLine
 62
7
  6
CONTINUOUS
 10
72.8209141123
 20
98.7322402097
 11
74.1431982879
 21
99.4956567774
  0
LINE
  5
2B4
100
AcDbEntity
  8
0
100
AcDbLine
 62
7
  6
CONTINUOUS
 10
63.9007891964
 20
92.6064900552
 11
58.6558900335
 21
89.5783641872
  0
LINE
  5
2B5
100
AcDbEntity
  8
0
100
AcDbLine
 62
7
  6
CONTINUOUS
 10
13.1651696709
 20
62.0363645905
 11
12.3174597611
 21
61.5469419673
  0
LINE
  5
2B6
100
AcDbEntity
  8
0
100
AcDbLine
 62
7
  6
CONTINUOUS
 10
65.3150086467
 20
91.7900085462
 11
58.6558900335
 21
87.9453875716
  0
LINE
  5
2B7
100
AcDbEntity
  8
0
100
AcDbLine
 62
7
  6
CONTINUOUS
 10
63.9131317397
 20
37.9079540358
 11
65.32735119
 21
37.0914725267
  0
LINE
  5
2B8
100
AcDbEntity
  8
0
100
AcDbLine
 62
7
  6
CONTINUOUS
 10
12.3174597611
 20
67.7686903858
 11
13.1651696709
 21
67.279275913
  0
LINE
  5
2B9
100
AcDbEntity
  8
0
100
AcDbLine
 62
7
  6
CONTINUOUS
 10
13.1651696709
 20
68.6673300218
 11
12.3174597611
 21
69.1567444946
  0
LINE
  5
2BA
100
AcDbEntity
  8
0
100
AcDbLine
 62
7
  6
CONTINUOUS
 10
12.3174597611
 20
70.8795645951
 11
13.1651696709
 21
70.3901501223
  0
LINE
  5
2BB
100
AcDbEntity
  8
0
100
AcDbLine
 62
7
  6
CONTINUOUS
 10
36.1709609537
 20
27.3893907751
 11
36.1709609537
 21
31.9064113323
  0
LINE
  5
2BC
100
AcDbEntity
  8
0
100
AcDbLine
 62
7
  6
CONTINUOUS
 10
36.1709609537
 20
64.1319995459
 11
36.1709609537
 21
68.6490201032
  0
LINE
  5
2BD
100
AcDbEntity
  8
0
100
AcDbLine
 62
7
  6
CONTINUOUS
 10
36.1941263191
 20
68.6490201032
 11
36.1941263191
 21
65.7778449153
  0
LINE
  5
2BE
100
AcDbEntity
  8
0
100
AcDbLine
 62
7
  6
CONTINUOUS
 10
36.1941263191
 20
31.9064113323
 11
36.1941263191
 21
29.0352361445
  0
LINE
  5
2BF
100
AcDbEntity
  8
0
100
AcDbLine
 62
7
  6
CONTINUOUS
 10
37.6083457693
 20
69.479395356
 11
37.6083457693
 21
64.9613634063
  0
LINE
  5
2C0
100
AcDbEntity
  8
0
100
AcDbLine
 62
7
  6
CONTINUOUS
 10
37.6083457693
 20
32.7367865851
 11
37.6083457693
 21
28.2187546355
  0
LINE
  5
2C1
100
AcDbEntity
  8
0
100
AcDbLine
 62
7
  6
CONTINUOUS
 10
38.9490520552
 20
100.9400525748
 11
38.9490520552
 21
101.8827254397
  0
LINE
  5
2C2
100
AcDbEntity
  8
0
100
AcDbLine
 62
7
  6
CONTINUOUS
 10
78.3101800367
 20
97.1289980562
 11
78.7038452213
 21
97.3562793997
  0
LINE
  5
2C3
100
AcDbEntity
  8
0
100
AcDbLine
 62
7
  6
CONTINUOUS
 10
13.1651696709
 20
58.9254903812
 11
12.3174597611
 21
58.436067758
  0
LINE
  5
2C4
100
AcDbEntity
  8
0
100
AcDbLine
 62
7
  6
CONTINUOUS
 10
13.1651696709
 20
55.8146161719
 11
12.3174597611
 21
55.3251935488
  0
LINE
  5
2C5
100
AcDbEntity
  8
0
100
AcDbLine
 62
7
  6
CONTINUOUS
 10
13.1651696709
 20
71.7782042311
 11
12.3174597611
 21
72.2676187039
  0
LINE
  5
2C6
100
AcDbEntity
  8
0
100
AcDbLine
 62
7
  6
CONTINUOUS
 10
12.3174597611
 20
73.9904388043
 11
13.1651696709
 21
73.5010243316
  0
LINE
  5
2C7
100
AcDbEntity
  8
0
100
AcDbLine
 62
7
  6
CONTINUOUS
 10
76.7967760972
 20
37.7219852309
 11
78.2109955475
 21
36.9055037219
  0
LINE
  5
2C8
100
AcDbEntity
  8
0
100
AcDbLine
 62
7
  6
CONTINUOUS
 10
13.1651696709
 20
74.8890784403
 11
12.3174597611
 21
75.3784929131
  0
LINE
  5
2C9
100
AcDbEntity
  8
0
100
AcDbLine
 62
7
  6
CONTINUOUS
 10
39.3766403648
 20
29.4431817308
 11
39.3766403648
 21
33.554198023
  0
LINE
  5
2CA
100
AcDbEntity
  8
0
100
AcDbLine
 62
7
  6
CONTINUOUS
 10
39.3766403648
 20
66.1857905017
 11
39.3766403648
 21
70.2968067938
  0
LINE
  5
2CB
100
AcDbEntity
  8
0
100
AcDbLine
 62
7
  6
CONTINUOUS
 10
39.7178379637
 20
70.4937961435
 11
39.7178379637
 21
68.0157564669
  0
LINE
  5
2CC
100
AcDbEntity
  8
0
100
AcDbLine
 62
7
  6
CONTINUOUS
 10
39.7178379637
 20
33.7511873727
 11
39.7178379637
 21
31.2731476961
  0
LINE
  5
2CD
100
AcDbEntity
  8
0
100
AcDbLine
 62
7
  6
CONTINUOUS
 10
41.1320574139
 20
71.31029125
 11
41.1320574139
 21
67.1992749579
  0
LINE
  5
2CE
100
AcDbEntity
  8
0
100
AcDbLine
 62
7
  6
CONTINUOUS
 10
41.1320574139
 20
34.5676824792
 11
41.1320574139
 21
30.456666187
  0
LINE
  5
2CF
100
AcDbEntity
  8
0
100
AcDbLine
 62
7
  6
CONTINUOUS
 10
42.0512048627
 20
98.6628527418
 11
42.0512048627
 21
100.295857576
  0
LINE
  5
2D0
100
AcDbEntity
  8
0
100
AcDbLine
 62
7
  6
CONTINUOUS
 10
42.1156947955
 20
110.1575736792
 11
42.1156947955
 21
106.535563934
  0
LINE
  5
2D1
100
AcDbEntity
  8
0
100
AcDbLine
 62
7
  6
CONTINUOUS
 10
36.1709609537
 20
68.6490201032
 11
37.6083457693
 21
69.479395356
  0
LINE
  5
2D2
100
AcDbEntity
  8
0
100
AcDbLine
 62
7
  6
CONTINUOUS
 10
39.3766403648
 20
70.2968067938
 11
41.1320574139
 21
71.31029125
  0
LINE
  5
2D3
100
AcDbEntity
  8
0
100
AcDbLine
 62
7
  6
CONTINUOUS
 10
77.289625771
 20
91.885692296
 11
76.8959605865
 21
91.6584109524
  0
LINE
  5
2D4
100
AcDbEntity
  8
0
100
AcDbLine
 62
7
  6
CONTINUOUS
 10
63.9008009717
 20
83.1350970332
 11
66.7292163211
 21
84.7680736489
  0
LINE
  5
2D5
100
AcDbEntity
  8
0
100
AcDbLine
 62
7
  6
CONTINUOUS
 10
78.7038452213
 20
91.0692107869
 11
78.3101800367
 21
90.8419294434
  0
LINE
  5
2D6
100
AcDbEntity
  8
0
100
AcDbLine
 62
7
  6
CONTINUOUS
 10
13.1651696709
 20
52.7037419627
 11
12.3174597611
 21
52.2143193395
  0
LINE
  5
2D7
100
AcDbEntity
  8
0
100
AcDbLine
 62
7
  6
CONTINUOUS
 10
39.7178379637
 20
68.0157564669
 11
39.3766403648
 21
67.8187671172
  0
LINE
  5
2D8
100
AcDbEntity
  8
0
100
AcDbLine
 62
7
  6
CONTINUOUS
 10
11.2567939961
 20
50.4914465158
 11
12.2538395582
 21
51.0670876034
  0
LINE
  5
2D9
100
AcDbEntity
  8
0
100
AcDbLine
 62
7
  6
CONTINUOUS
 10
41.1320574139
 20
67.1992749579
 11
39.3766403648
 21
66.1857905017
  0
LINE
  5
2DA
100
AcDbEntity
  8
0
100
AcDbLine
 62
7
  6
CONTINUOUS
 10
70.5475652662
 20
84.114798603
 11
71.113248336
 21
84.4413939261
  0
LINE
  5
2DB
100
AcDbEntity
  8
0
100
AcDbLine
 62
7
  6
CONTINUOUS
 10
36.1941263191
 20
65.7778449153
 11
36.1709609537
 21
65.7644786152
  0
LINE
  5
2DC
100
AcDbEntity
  8
0
100
AcDbLine
 62
7
  6
CONTINUOUS
 10
37.6083457693
 20
64.9613634063
 11
36.1709609537
 21
64.1319995459
  0
LINE
  5
2DD
100
AcDbEntity
  8
0
100
AcDbLine
 62
7
  6
CONTINUOUS
 10
12.3174597611
 20
77.1013130136
 11
13.1651696709
 21
76.6118985408
  0
LINE
  5
2DE
100
AcDbEntity
  8
0
100
AcDbLine
 62
7
  6
CONTINUOUS
 10
13.1651696709
 20
77.9999526496
 11
12.3174597611
 21
78.4893671224
  0
LINE
  5
2DF
100
AcDbEntity
  8
0
100
AcDbLine
 62
7
  6
CONTINUOUS
 10
16.73983406
 20
76.8459016466
 11
13.3116177515
 21
78.8251384788
  0
LINE
  5
2E0
100
AcDbEntity
  8
0
100
AcDbLine
 62
7
  6
CONTINUOUS
 10
36.1941263191
 20
65.7778449153
 11
37.6083457693
 21
64.9613634063
  0
LINE
  5
2E1
100
AcDbEntity
  8
0
100
AcDbLine
 62
7
  6
CONTINUOUS
 10
16.8812530614
 20
77.1724959497
 11
17.2348079244
 21
76.9683755722
  0
LINE
  5
2E2
100
AcDbEntity
  8
0
100
AcDbLine
 62
7
  6
CONTINUOUS
 10
12.3174597611
 20
80.2121872229
 11
13.4621814703
 21
79.551296787
  0
LINE
  5
2E3
100
AcDbEntity
  8
0
100
AcDbLine
 62
7
  6
CONTINUOUS
 10
13.8731011558
 20
80.7021116717
 11
12.3174597611
 21
81.6002413317
  0
LINE
  5
2E4
100
AcDbEntity
  8
0
100
AcDbLine
 62
7
  6
CONTINUOUS
 10
44.2555363761
 20
108.9435394939
 11
44.2555363761
 21
105.6775354692
  0
LINE
  5
2E5
100
AcDbEntity
  8
0
100
AcDbLine
 62
7
  6
CONTINUOUS
 10
45.2772729906
 20
17.8913236376
 11
45.2772729906
 21
20.8923872645
  0
LINE
  5
2E6
100
AcDbEntity
  8
0
100
AcDbLine
 62
7
  6
CONTINUOUS
 10
45.2772729906
 20
85.6610242593
 11
45.2772729906
 21
88.6620878862
  0
LINE
  5
2E7
100
AcDbEntity
  8
0
100
AcDbLine
 62
7
  6
CONTINUOUS
 10
45.6842072598
 20
88.8970300937
 11
45.6842072598
 21
87.5289430823
  0
LINE
  5
2E8
100
AcDbEntity
  8
0
100
AcDbLine
 62
7
  6
CONTINUOUS
 10
45.6842072598
 20
21.1273294719
 11
45.6842072598
 21
19.7592424606
  0
LINE
  5
2E9
100
AcDbEntity
  8
0
100
AcDbLine
 62
7
  6
CONTINUOUS
 10
47.0984267101
 20
89.7135252002
 11
47.0984267101
 21
86.7124615733
  0
LINE
  5
2EA
100
AcDbEntity
  8
0
100
AcDbLine
 62
7
  6
CONTINUOUS
 10
47.0984267101
 20
21.9438245784
 11
47.0984267101
 21
18.9427609515
  0
LINE
  5
2EB
100
AcDbEntity
  8
0
100
AcDbLine
 62
7
  6
CONTINUOUS
 10
82.2217876769
 20
87.3963094844
 11
81.6491072861
 21
87.0541315639
  0
LINE
  5
2EC
100
AcDbEntity
  8
0
100
AcDbLine
 62
7
  6
CONTINUOUS
 10
81.2955553677
 20
88.4830143208
 11
80.3763203793
 21
87.9522969207
  0
LINE
  5
2ED
100
AcDbEntity
  8
0
100
AcDbLine
 62
7
  6
CONTINUOUS
 10
72.6830461062
 20
83.4697561214
 11
70.5475652662
 21
82.236843043
  0
LINE
  5
2EE
100
AcDbEntity
  8
0
100
AcDbLine
 62
7
  6
CONTINUOUS
 10
74.1431982879
 20
84.1535763595
 11
72.8209141122
 21
83.3901597917
  0
LINE
  5
2EF
100
AcDbEntity
  8
0
100
AcDbLine
 62
7
  6
CONTINUOUS
 10
75.4866955786
 20
84.3740186082
 11
74.1431982883
 21
83.5983547161
  0
LINE
  5
2F0
100
AcDbEntity
  8
0
100
AcDbLine
 62
7
  6
CONTINUOUS
 10
13.1651696709
 20
47.6332619523
 11
12.3174597611
 21
47.1438393291
  0
LINE
  5
2F1
100
AcDbEntity
  8
0
100
AcDbLine
 62
7
  6
CONTINUOUS
 10
76.8407894179
 20
83.8289599709
 11
70.421695489
 21
80.1229164852
  0
LINE
  5
2F2
100
AcDbEntity
  8
0
100
AcDbLine
 62
7
  6
CONTINUOUS
 10
76.8959605865
 20
83.832736227
 11
70.421695489
 21
80.0948398424
  0
LINE
  5
2F3
100
AcDbEntity
  8
0
100
AcDbLine
 62
7
  6
CONTINUOUS
 10
65.3149968708
 20
75.7865261524
 11
63.9008009717
 21
74.9700446431
  0
LINE
  5
2F4
100
AcDbEntity
  8
0
100
AcDbLine
 62
7
  6
CONTINUOUS
 10
14.6157572987
 20
81.3811618656
 11
14.5850321868
 21
81.3989006159
  0
LINE
  5
2F5
100
AcDbEntity
  8
0
100
AcDbLine
 62
7
  6
CONTINUOUS
 10
14.5802108813
 20
81.477765881
 11
11.2567951723
 21
83.3964974277
  0
LINE
  5
2F6
100
AcDbEntity
  8
0
100
AcDbLine
 62
7
  6
CONTINUOUS
 10
39.7178379637
 20
68.0157564669
 11
41.1320574139
 21
67.1992749579
  0
LINE
  5
2F7
100
AcDbEntity
  8
0
100
AcDbLine
 62
7
  6
CONTINUOUS
 10
51.0190500065
 20
112.8484326001
 11
51.0190500065
 21
109.5824285753
  0
LINE
  5
2F8
100
AcDbEntity
  8
0
100
AcDbLine
 62
7
  6
CONTINUOUS
 10
51.4690308643
 20
111.4343475754
 11
51.4690308643
 21
113.0673524096
  0
LINE
  5
2F9
100
AcDbEntity
  8
0
100
AcDbLine
 62
7
  6
CONTINUOUS
 10
78.3101800367
 20
83.016254718
 11
70.421695489
 21
78.4618632269
  0
LINE
  5
2FA
100
AcDbEntity
  8
0
100
AcDbLine
 62
7
  6
CONTINUOUS
 10
13.1651696709
 20
44.522387743
 11
12.3174597611
 21
44.0329651199
  0
LINE
  5
2FB
100
AcDbEntity
  8
0
100
AcDbLine
 62
7
  6
CONTINUOUS
 10
66.7292163211
 20
74.9700446434
 11
63.9008009717
 21
73.3370680276
  0
LINE
  5
2FC
100
AcDbEntity
  8
0
100
AcDbLine
 62
7
  6
CONTINUOUS
 10
33.3936432377
 20
55.3952930605
 11
31.0599979591
 21
54.0479703731
  0
LINE
  5
2FD
100
AcDbEntity
  8
0
100
AcDbLine
 62
7
  6
CONTINUOUS
 10
17.2348079244
 20
45.6228407244
 11
26.8838582755
 21
51.1936892886
  0
LINE
  5
2FE
100
AcDbEntity
  8
0
100
AcDbLine
 62
7
  6
CONTINUOUS
 10
32.8759678044
 20
54.2509830858
 11
30.5423225258
 21
52.9036603985
  0
LINE
  5
2FF
100
AcDbEntity
  8
0
100
AcDbLine
 62
7
  6
CONTINUOUS
 10
17.0226767722
 20
45.0921233238
 11
17.2348079239
 21
45.2145965703
  0
LINE
  5
300
100
AcDbEntity
  8
0
100
AcDbLine
 62
7
  6
CONTINUOUS
 10
27.2374131381
 20
50.9895689113
 11
27.3649433648
 21
51.0631980825
  0
LINE
  5
301
100
AcDbEntity
  8
0
100
AcDbLine
 62
7
  6
CONTINUOUS
 10
16.8812530614
 20
44.104148056
 11
26.8838582755
 21
49.879120397
  0
LINE
  5
302
100
AcDbEntity
  8
0
100
AcDbLine
 62
7
  6
CONTINUOUS
 10
17.0226767713
 20
43.7775544317
 11
17.2348079239
 21
43.9000276787
  0
LINE
  5
303
100
AcDbEntity
  8
0
100
AcDbLine
 62
7
  6
CONTINUOUS
 10
27.2374131381
 20
49.6750000198
 11
27.3649433648
 21
49.748629191
  0
LINE
  5
304
100
AcDbEntity
  8
0
100
AcDbLine
 62
7
  6
CONTINUOUS
 10
13.1651696709
 20
41.4115135338
 11
12.3174597611
 21
40.9220909106
  0
LINE
  5
305
100
AcDbEntity
  8
0
100
AcDbLine
 62
7
  6
CONTINUOUS
 10
25.1816663189
 20
81.7336505799
 11
25.0312980862
 21
81.8204637556
  0
LINE
  5
306
100
AcDbEntity
  8
0
100
AcDbLine
 62
7
  6
CONTINUOUS
 10
13.1651696709
 20
38.3006393245
 11
12.3174597611
 21
37.8112167013
  0
LINE
  5
307
100
AcDbEntity
  8
0
100
AcDbLine
 62
7
  6
CONTINUOUS
 10
29.2924928869
 20
82.3330961536
 11
26.798803158
 21
83.7727960195
  0
LINE
  5
308
100
AcDbEntity
  8
0
100
AcDbLine
 62
7
  6
CONTINUOUS
 10
16.8429001784
 20
89.5794197657
 11
26.1175034237
 21
84.2248462221
  0
LINE
  5
309
100
AcDbEntity
  8
0
100
AcDbLine
 62
7
  6
CONTINUOUS
 10
31.6261381654
 20
83.680418841
 11
29.1324484374
 21
85.1201187064
  0
LINE
  5
30A
100
AcDbEntity
  8
0
100
AcDbLine
 62
7
  6
CONTINUOUS
 10
16.8429001784
 20
92.480624233
 11
33.7074671232
 21
82.7440822377
  0
LINE
  5
30B
100
AcDbEntity
  8
0
100
AcDbLine
 62
7
  6
CONTINUOUS
 10
34.1243250274
 20
83.4745806602
 11
17.2597580826
 21
93.2111226555
  0
LINE
  5
30C
100
AcDbEntity
  8
0
100
AcDbLine
 62
7
  6
CONTINUOUS
 10
58.6558900335
 20
33.2397256239
 11
58.6558900335
 21
39.1327951299
  0
LINE
  5
30D
100
AcDbEntity
  8
0
100
AcDbLine
 62
7
  6
CONTINUOUS
 10
58.6558900335
 20
87.9453875716
 11
58.6558900335
 21
93.8384570776
  0
LINE
  5
30E
100
AcDbEntity
  8
0
100
AcDbLine
 62
7
  6
CONTINUOUS
 10
13.1651696709
 20
35.1897651153
 11
12.3174597611
 21
34.7003424921
  0
LINE
  5
30F
100
AcDbEntity
  8
0
100
AcDbLine
 62
7
  6
CONTINUOUS
 10
13.1651696709
 20
32.078890906
 11
12.3174597611
 21
31.5894682828
  0
LINE
  5
310
100
AcDbEntity
  8
0
100
AcDbLine
 62
7
  6
CONTINUOUS
 10
83.2047357282
 20
60.7057298012
 11
80.3763203793
 21
62.338679222
  0
LINE
  5
311
100
AcDbEntity
  8
0
100
AcDbLine
 62
7
  6
CONTINUOUS
 10
63.9007891964
 20
96.8665829457
 11
63.9007891964
 21
92.6064900552
  0
LINE
  5
312
100
AcDbEntity
  8
0
100
AcDbLine
 62
7
  6
CONTINUOUS
 10
63.9008009717
 20
73.3370680276
 11
63.9008009717
 21
83.1350970332
  0
LINE
  5
313
100
AcDbEntity
  8
0
100
AcDbLine
 62
7
  6
CONTINUOUS
 10
63.9131317397
 20
42.1680469262
 11
63.9131317397
 21
37.9079540358
  0
LINE
  5
314
100
AcDbEntity
  8
0
100
AcDbLine
 62
7
  6
CONTINUOUS
 10
64.4047901949
 20
115.6368421142
 11
64.4047901949
 21
116.579514979
  0
LINE
  5
315
100
AcDbEntity
  8
0
100
AcDbLine
 62
7
  6
CONTINUOUS
 10
65.3149968708
 20
83.9515785424
 11
65.3149968708
 21
75.7865261524
  0
LINE
  5
316
100
AcDbEntity
  8
0
100
AcDbLine
 62
7
  6
CONTINUOUS
 10
65.3150086467
 20
97.6830780522
 11
65.3150086467
 21
91.7900085462
  0
LINE
  5
317
100
AcDbEntity
  8
0
100
AcDbLine
 62
7
  6
CONTINUOUS
 10
65.32735119
 20
42.9845420327
 11
65.32735119
 21
37.0914725267
  0
LINE
  5
318
100
AcDbEntity
  8
0
100
AcDbLine
 62
7
  6
CONTINUOUS
 10
13.1651696709
 20
28.9680166967
 11
12.3174597611
 21
28.4785940735
  0
LINE
  5
319
100
AcDbEntity
  8
0
100
AcDbLine
 62
7
  6
CONTINUOUS
 10
13.1651696709
 20
25.8571424875
 11
12.3174597611
 21
25.3677198643
  0
LINE
  5
31A
100
AcDbEntity
  8
0
100
AcDbLine
 62
7
  6
CONTINUOUS
 10
39.3642978209
 20
86.6054771047
 11
22.4997308762
 21
96.3420191
  0
LINE
  5
31B
100
AcDbEntity
  8
0
100
AcDbLine
 62
7
  6
CONTINUOUS
 10
65.3149968708
 20
75.7865261524
 11
66.7292163211
 21
74.9700446434
  0
LINE
  5
31C
100
AcDbEntity
  8
0
100
AcDbLine
 62
7
  6
CONTINUOUS
 10
45.6842072598
 20
87.5289430823
 11
47.0984267101
 21
86.7124615733
  0
LINE
  5
31D
100
AcDbEntity
  8
0
100
AcDbLine
 62
7
  6
CONTINUOUS
 10
66.7292163211
 20
84.7680736489
 11
66.7292163211
 21
74.9700446434
  0
LINE
  5
31E
100
AcDbEntity
  8
0
100
AcDbLine
 62
7
  6
CONTINUOUS
 10
67.5069430024
 20
113.3596422812
 11
67.5069430024
 21
114.9926471154
  0
LINE
  5
31F
100
AcDbEntity
  8
0
100
AcDbLine
 62
7
  6
CONTINUOUS
 10
67.9049660575
 20
98.7254785239
 11
67.9045957814
 21
101.7259008101
  0
LINE
  5
320
100
AcDbEntity
  8
0
100
AcDbLine
 62
7
  6
CONTINUOUS
 10
68.3111597742
 20
101.9606292397
 11
68.3111597742
 21
100.5929697912
  0
LINE
  5
321
100
AcDbEntity
  8
0
100
AcDbLine
 62
7
  6
CONTINUOUS
 10
68.8857637939
 20
120.1834899237
 11
68.8857637939
 21
116.9175638875
  0
LINE
  5
322
100
AcDbEntity
  8
0
100
AcDbLine
 62
7
  6
CONTINUOUS
 10
69.7257495009
 20
102.7773381241
 11
69.7253792245
 21
99.7764882822
  0
LINE
  5
323
100
AcDbEntity
  8
0
100
AcDbLine
 62
7
  6
CONTINUOUS
 10
13.1651696709
 20
22.7462682782
 11
12.3174597611
 21
22.256845655
  0
LINE
  5
324
100
AcDbEntity
  8
0
100
AcDbLine
 62
7
  6
CONTINUOUS
 10
83.2047357282
 20
60.7057298012
 11
80.3763203793
 21
59.1297615957
  0
LINE
  5
325
100
AcDbEntity
  8
0
100
AcDbLine
 62
7
  6
CONTINUOUS
 10
70.421695489
 20
78.4618632269
 11
70.421695489
 21
100.4002812904
  0
LINE
  5
326
100
AcDbEntity
  8
0
100
AcDbLine
 62
7
  6
CONTINUOUS
 10
70.5475652662
 20
82.236843043
 11
70.5475652662
 21
84.114798603
  0
LINE
  5
327
100
AcDbEntity
  8
0
100
AcDbLine
 62
7
  6
CONTINUOUS
 10
70.5475652662
 20
98.158640177
 11
70.5475652662
 21
100.036595737
  0
LINE
  5
328
100
AcDbEntity
  8
0
100
AcDbLine
 62
7
  6
CONTINUOUS
 10
71.113248336
 20
84.4413939261
 11
71.113248336
 21
98.4852355001
  0
LINE
  5
329
100
AcDbEntity
  8
0
100
AcDbLine
 62
7
  6
CONTINUOUS
 10
71.6188275796
 20
84.0841690745
 11
71.6188275796
 21
99.4262494923
  0
LINE
  5
32A
100
AcDbEntity
  8
0
100
AcDbLine
 62
7
  6
CONTINUOUS
 10
72.8209141123
 20
83.3901597918
 11
72.8209141123
 21
98.7322402093
  0
LINE
  5
32B
100
AcDbEntity
  8
0
100
AcDbLine
 62
7
  6
CONTINUOUS
 10
72.9411117551
 20
100.1896660601
 11
72.9411117551
 21
100.7448877037
  0
LINE
  5
32C
100
AcDbEntity
  8
0
100
AcDbLine
 62
7
  6
CONTINUOUS
 10
74.1431982879
 20
83.5983547159
 11
74.1431982879
 21
84.1535763595
  0
LINE
  5
32D
100
AcDbEntity
  8
0
100
AcDbLine
 62
7
  6
CONTINUOUS
 10
74.1431982879
 20
99.4956567776
 11
74.1431982879
 21
100.050878421
  0
LINE
  5
32E
100
AcDbEntity
  8
0
100
AcDbLine
 62
7
  6
CONTINUOUS
 10
82.2217876769
 20
87.3963094844
 11
83.2047357282
 21
89.5852735365
  0
LINE
  5
32F
100
AcDbEntity
  8
0
100
AcDbLine
 62
7
  6
CONTINUOUS
 10
36.1709609537
 20
31.9064113323
 11
37.6083457693
 21
32.7367865851
  0
LINE
  5
330
100
AcDbEntity
  8
0
100
AcDbLine
 62
7
  6
CONTINUOUS
 10
13.1651696709
 20
19.6353940689
 11
12.3174597611
 21
19.1459714458
  0
LINE
  5
331
100
AcDbEntity
  8
0
100
AcDbLine
 62
7
  6
CONTINUOUS
 10
39.3766403648
 20
33.554198023
 11
41.1320574139
 21
34.5676824792
  0
LINE
  5
332
100
AcDbEntity
  8
0
100
AcDbLine
 62
7
  6
CONTINUOUS
 10
39.7178379637
 20
31.2731476961
 11
39.3766403648
 21
31.0761583464
  0
LINE
  5
333
100
AcDbEntity
  8
0
100
AcDbLine
 62
7
  6
CONTINUOUS
 10
36.1941263191
 20
29.0352361445
 11
36.1709609537
 21
29.0218698444
  0
LINE
  5
334
100
AcDbEntity
  8
0
100
AcDbLine
 62
7
  6
CONTINUOUS
 10
39.2228014966
 20
97.0014075493
 11
37.783896753
 21
97.8321407966
  0
LINE
  5
335
100
AcDbEntity
  8
0
100
AcDbLine
 62
7
  6
CONTINUOUS
 10
35.8516861835
 20
99.1517982295
 11
35.0352958641
 21
99.6231307372
  0
LINE
  5
336
100
AcDbEntity
  8
0
100
AcDbLine
 62
7
  6
CONTINUOUS
 10
42.0512048627
 20
98.6628527418
 11
42.0758657175
 21
98.6486151127
  0
LINE
  5
337
100
AcDbEntity
  8
0
100
AcDbLine
 62
7
  6
CONTINUOUS
 10
70.5475652662
 20
82.236843043
 11
70.421695489
 21
82.3095123487
  0
LINE
  5
338
100
AcDbEntity
  8
0
100
AcDbLine
 62
7
  6
CONTINUOUS
 10
38.9490520552
 20
101.8827254397
 11
39.7654423746
 21
101.411392932
  0
LINE
  5
339
100
AcDbEntity
  8
0
100
AcDbLine
 62
7
  6
CONTINUOUS
 10
75.3558713598
 20
102.8126559837
 11
75.3558713598
 21
100.9347004237
  0
LINE
  5
33A
100
AcDbEntity
  8
0
100
AcDbLine
 62
7
  6
CONTINUOUS
 10
75.4866955786
 20
100.8265423134
 11
75.4866955786
 21
84.374018609
  0
LINE
  5
33B
100
AcDbEntity
  8
0
100
AcDbLine
 62
7
  6
CONTINUOUS
 10
76.389841828
 20
35.8540664079
 11
76.389841828
 21
38.8551300348
  0
LINE
  5
33C
100
AcDbEntity
  8
0
100
AcDbLine
 62
7
  6
CONTINUOUS
 10
76.4642673647
 20
103.888940965
 11
76.4642673647
 21
106.487147357
  0
LINE
  5
33D
100
AcDbEntity
  8
0
100
AcDbLine
 62
7
  6
CONTINUOUS
 10
76.6980357501
 20
106.6221127916
 11
76.6980357501
 21
105.6568830151
  0
LINE
  5
33E
100
AcDbEntity
  8
0
100
AcDbLine
 62
7
  6
CONTINUOUS
 10
76.7967760972
 20
39.0900722423
 11
76.7967760972
 21
37.7219852309
  0
LINE
  5
33F
100
AcDbEntity
  8
0
100
AcDbLine
 62
7
  6
CONTINUOUS
 10
76.8407894179
 20
105.574466011
 11
76.8407894179
 21
83.8289599709
  0
LINE
  5
340
100
AcDbEntity
  8
0
100
AcDbLine
 62
7
  6
CONTINUOUS
 10
76.8959605865
 20
105.5426136427
 11
76.8959605865
 21
97.9454795652
  0
LINE
  5
341
100
AcDbEntity
  8
0
100
AcDbLine
 62
7
  6
CONTINUOUS
 10
76.8959605865
 20
91.6584109524
 11
76.8959605865
 21
83.832736227
  0
LINE
  5
342
100
AcDbEntity
  8
0
100
AcDbLine
 62
7
  6
CONTINUOUS
 10
77.289625771
 20
97.7182020066
 11
77.289625771
 21
91.885692296
  0
LINE
  5
343
100
AcDbEntity
  8
0
100
AcDbLine
 62
7
  6
CONTINUOUS
 10
78.1122552004
 20
107.4386078981
 11
78.1122552004
 21
104.8404015061
  0
LINE
  5
344
100
AcDbEntity
  8
0
100
AcDbLine
 62
7
  6
CONTINUOUS
 10
78.2109955475
 20
39.9065673488
 11
78.2109955475
 21
36.9055037219
  0
LINE
  5
345
100
AcDbEntity
  8
0
100
AcDbLine
 62
7
  6
CONTINUOUS
 10
78.3101800367
 20
104.9546727815
 11
78.3101800367
 21
97.1289980562
  0
LINE
  5
346
100
AcDbEntity
  8
0
100
AcDbLine
 62
7
  6
CONTINUOUS
 10
78.3101800367
 20
90.8419294434
 11
78.3101800367
 21
83.016254718
  0
LINE
  5
347
100
AcDbEntity
  8
0
100
AcDbLine
 62
7
  6
CONTINUOUS
 10
78.7038452213
 20
97.3562793997
 11
78.7038452213
 21
91.0692107869
  0
LINE
  5
348
100
AcDbEntity
  8
0
100
AcDbLine
 62
7
  6
CONTINUOUS
 10
41.1320574139
 20
30.456666187
 11
39.3766403648
 21
29.4431817308
  0
LINE
  5
349
100
AcDbEntity
  8
0
100
AcDbLine
 62
7
  6
CONTINUOUS
 10
58.6558900335
 20
39.1327951299
 11
65.32735119
 21
42.9845420327
  0
LINE
  5
34A
100
AcDbEntity
  8
0
100
AcDbLine
 62
7
  6
CONTINUOUS
 10
26.8838582755
 20
18.1253413949
 11
17.2348079244
 21
12.5544928307
  0
LINE
  5
34B
100
AcDbEntity
  8
0
100
AcDbLine
 62
7
  6
CONTINUOUS
 10
37.6083457693
 20
28.2187546355
 11
36.1709609537
 21
27.3893907751
  0
LINE
  5
34C
100
AcDbEntity
  8
0
100
AcDbLine
 62
7
  6
CONTINUOUS
 10
42.0512048627
 20
100.295857576
 11
43.4901096063
 21
99.4651243287
  0
LINE
  5
34D
100
AcDbEntity
  8
0
100
AcDbLine
 62
7
  6
CONTINUOUS
 10
70.5475652662
 20
84.114798603
 11
70.421695489
 21
84.1874679087
  0
LINE
  5
34E
100
AcDbEntity
  8
0
100
AcDbLine
 62
7
  6
CONTINUOUS
 10
72.8209141122
 20
83.3901597917
 11
71.6188275794
 21
84.0841690744
  0
LINE
  5
34F
100
AcDbEntity
  8
0
100
AcDbLine
 62
7
  6
CONTINUOUS
 10
71.113248336
 20
84.4413939261
 11
70.421695489
 21
84.840653116
  0
LINE
  5
350
100
AcDbEntity
  8
0
100
AcDbLine
 62
7
  6
CONTINUOUS
 10
74.1431982883
 20
83.5983547161
 11
73.6623553661
 21
83.8759632263
  0
LINE
  5
351
100
AcDbEntity
  8
0
100
AcDbLine
 62
7
  6
CONTINUOUS
 10
75.4866955786
 20
84.6107287276
 11
76.8407894179
 21
83.8289599709
  0
LINE
  5
352
100
AcDbEntity
  8
0
100
AcDbLine
 62
7
  6
CONTINUOUS
 10
76.8959605865
 20
83.832736227
 11
78.3101800367
 21
83.016254718
  0
LINE
  5
353
100
AcDbEntity
  8
0
100
AcDbLine
 62
7
  6
CONTINUOUS
 10
63.9007891964
 20
92.6064900552
 11
65.3150086467
 21
91.7900085462
  0
LINE
  5
354
100
AcDbEntity
  8
0
100
AcDbLine
 62
7
  6
CONTINUOUS
 10
80.3763203793
 20
87.9522969207
 11
80.3763203793
 21
59.1297615957
  0
LINE
  5
355
100
AcDbEntity
  8
0
100
AcDbLine
 62
7
  6
CONTINUOUS
 10
81.2955553677
 20
87.9114626288
 11
81.2955553677
 21
88.4830143208
  0
LINE
  5
356
100
AcDbEntity
  8
0
100
AcDbLine
 62
7
  6
CONTINUOUS
 10
17.2348079239
 20
12.1462486765
 11
17.0226767713
 21
12.0237754295
  0
LINE
  5
357
100
AcDbEntity
  8
0
100
AcDbLine
 62
7
  6
CONTINUOUS
 10
27.2374131381
 20
17.9212210176
 11
27.3649433648
 21
17.9948501888
  0
LINE
  5
358
100
AcDbEntity
  8
0
100
AcDbLine
 62
7
  6
CONTINUOUS
 10
63.9131317397
 20
37.9079540358
 11
58.6558900335
 21
34.8727022395
  0
LINE
  5
359
100
AcDbEntity
  8
0
100
AcDbLine
 62
7
  6
CONTINUOUS
 10
65.32735119
 20
37.0914725267
 11
58.6558900335
 21
33.2397256239
  0
LINE
  5
35A
100
AcDbEntity
  8
0
100
AcDbLine
 62
7
  6
CONTINUOUS
 10
43.9603555932
 20
105.507113782
 11
41.1185191316
 21
107.0915173454
  0
LINE
  5
35B
100
AcDbEntity
  8
0
100
AcDbLine
 62
7
  6
CONTINUOUS
 10
44.2555363761
 20
108.9435394939
 11
42.1156947955
 21
110.1575736792
  0
LINE
  5
35C
100
AcDbEntity
  8
0
100
AcDbLine
 62
7
  6
CONTINUOUS
 10
81.6491072861
 20
87.0541315639
 11
80.3763203793
 21
87.7889588031
  0
LINE
  5
35D
100
AcDbEntity
  8
0
100
AcDbLine
 62
7
  6
CONTINUOUS
 10
83.2047357282
 20
111.9166146447
 11
83.2047357282
 21
89.5852735365
  0
LINE
  5
35E
100
AcDbEntity
  8
0
100
AcDbLine
 62
7
  6
CONTINUOUS
 10
83.2047357282
 20
60.7057298012
 11
83.2047357282
 21
38.431397103
  0
LINE
  5
35F
100
AcDbEntity
  8
0
100
AcDbLine
 62
7
  6
CONTINUOUS
 10
45.2772729906
 20
20.8923872645
 11
47.0984267101
 21
21.9438245784
  0
LINE
  5
360
100
AcDbEntity
  8
0
100
AcDbLine
 62
7
  6
CONTINUOUS
 10
76.389841828
 20
38.8551300348
 11
78.2109955475
 21
39.9065673488
  0
LINE
  5
361
100
AcDbEntity
  8
0
100
AcDbLine
 62
7
  6
CONTINUOUS
 10
76.7967760972
 20
37.7219852309
 11
76.389841828
 21
37.4870430235
  0
LINE
  5
362
100
AcDbEntity
  8
0
100
AcDbLine
 62
7
  6
CONTINUOUS
 10
45.6842072598
 20
19.7592424606
 11
45.2772729906
 21
19.5243002531
  0
LINE
  5
363
100
AcDbEntity
  8
0
100
AcDbLine
 62
7
  6
CONTINUOUS
 10
81.2955553677
 20
87.9114626288
 11
80.8005700066
 21
88.1972360952
  0
LINE
  5
364
100
AcDbEntity
  8
0
100
AcDbLine
 62
7
  6
CONTINUOUS
 10
76.8959605865
 20
91.6584109524
 11
78.3101800367
 21
90.8419294434
  0
LINE
  5
365
100
AcDbEntity
  8
0
100
AcDbLine
 62
7
  6
CONTINUOUS
 10
77.289625771
 20
91.885692296
 11
78.7038452213
 21
91.0692107869
  0
LINE
  5
366
100
AcDbEntity
  8
0
100
AcDbLine
 62
7
  6
CONTINUOUS
 10
70.5475652662
 20
98.158640177
 11
70.421695489
 21
98.2313094828
  0
LINE
  5
367
100
AcDbEntity
  8
0
100
AcDbLine
 62
7
  6
CONTINUOUS
 10
81.2955553677
 20
87.9114626288
 11
81.6491072861
 21
87.0541315639
  0
LINE
  5
368
100
AcDbEntity
  8
0
100
AcDbLine
 62
7
  6
CONTINUOUS
 10
78.2109955475
 20
36.9055037219
 11
76.389841828
 21
35.8540664079
  0
LINE
  5
369
100
AcDbEntity
  8
0
100
AcDbLine
 62
7
  6
CONTINUOUS
 10
47.0984267101
 20
18.9427609515
 11
45.2772729906
 21
17.8913236376
  0
LINE
  5
36A
100
AcDbEntity
  8
0
100
AcDbLine
 62
7
  6
CONTINUOUS
 10
83.2047357282
 20
38.431397103
 11
39.3642978209
 21
13.120259563
  0
LINE
  5
36B
100
AcDbEntity
  8
0
100
AcDbLine
 62
7
  6
CONTINUOUS
 10
34.1243250274
 20
10.2005927187
 11
39.3642978209
 21
13.120259563
  0
LINE
  5
36C
100
AcDbEntity
  8
0
100
AcDbLine
 62
7
  6
CONTINUOUS
 10
68.3111597742
 20
100.5929697912
 11
69.7253792245
 21
99.7764882822
  0
LINE
  5
36D
100
AcDbEntity
  8
0
100
AcDbLine
 62
7
  6
CONTINUOUS
 10
70.5475652662
 20
100.036595737
 11
70.421695489
 21
100.1092650427
  0
LINE
  5
36E
100
AcDbEntity
  8
0
100
AcDbLine
 62
7
  6
CONTINUOUS
 10
72.8209141123
 20
98.7322402093
 11
71.6188275796
 21
99.4262494919
  0
LINE
  5
36F
100
AcDbEntity
  8
0
100
AcDbLine
 62
7
  6
CONTINUOUS
 10
74.1431982879
 20
99.4956567774
 11
72.9411117551
 21
100.1896660601
  0
LINE
  5
370
100
AcDbEntity
  8
0
100
AcDbLine
 62
7
  6
CONTINUOUS
 10
76.8959605865
 20
97.9454795652
 11
78.3101800367
 21
97.1289980562
  0
LINE
  5
371
100
AcDbEntity
  8
0
100
AcDbLine
 62
7
  6
CONTINUOUS
 10
74.1431982879
 20
100.050878421
 11
72.9411117551
 21
100.7448877037
  0
LINE
  5
372
100
AcDbEntity
  8
0
100
AcDbLine
 62
7
  6
CONTINUOUS
 10
75.4866955782
 20
100.8265423132
 11
74.2846090454
 21
101.5205515958
  0
LINE
  5
373
100
AcDbEntity
  8
0
100
AcDbLine
 62
7
  6
CONTINUOUS
 10
48.9162332362
 20
114.0838429419
 11
51.0190500065
 21
112.8484326001
  0
LINE
  5
374
100
AcDbEntity
  8
0
100
AcDbLine
 62
7
  6
CONTINUOUS
 10
52.8238028571
 20
110.6243968997
 11
51.4690308643
 21
111.4343475753
  0
LINE
  5
375
100
AcDbEntity
  8
0
100
AcDbLine
 62
7
  6
CONTINUOUS
 10
51.4690308643
 20
113.0673524096
 11
54.2133612328
 21
111.4266540131
  0
LINE
  5
376
100
AcDbEntity
  8
0
100
AcDbLine
 62
7
  6
CONTINUOUS
 10
75.3558713598
 20
102.8126559837
 11
74.9779705162
 21
103.0308322016
  0
LINE
  5
377
100
AcDbEntity
  8
0
100
AcDbLine
 62
7
  6
CONTINUOUS
 10
64.6785396363
 20
111.6981970886
 11
63.2396348927
 21
112.528930336
  0
LINE
  5
378
100
AcDbEntity
  8
0
100
AcDbLine
 62
7
  6
CONTINUOUS
 10
61.3074243232
 20
113.8485877689
 11
60.4910340038
 21
114.3199202766
  0
LINE
  5
379
100
AcDbEntity
  8
0
100
AcDbLine
 62
7
  6
CONTINUOUS
 10
76.6980357501
 20
105.6568830151
 11
78.1122552004
 21
104.8404015061
  0
LINE
  5
37A
100
AcDbEntity
  8
0
100
AcDbLine
 62
7
  6
CONTINUOUS
 10
67.5069430024
 20
113.3596422812
 11
67.5316038572
 21
113.3454046521
  0
LINE
  5
37B
100
AcDbEntity
  8
0
100
AcDbLine
 62
7
  6
CONTINUOUS
 10
64.4047901949
 20
116.579514979
 11
65.2211805143
 21
116.1081824713
  0
LINE
  5
37C
100
AcDbEntity
  8
0
100
AcDbLine
 62
7
  6
CONTINUOUS
 10
67.5069430024
 20
114.9926471154
 11
68.945847746
 21
114.1619138681
  0
LINE
  5
37D
100
AcDbEntity
  8
0
100
AcDbLine
 62
7
  6
CONTINUOUS
 10
66.0573484451
 20
118.5505133083
 11
73.4112895866
 21
114.3048094612
  0
LINE
  5
37E
100
AcDbEntity
  8
0
100
AcDbLine
 62
7
  6
CONTINUOUS
 10
83.2047357282
 20
111.9166146447
 11
76.2397049355
 21
115.9377860767
  0
LINE
  5
37F
100
AcDbEntity
  8
0
100
AcDbLine
 62
7
  6
CONTINUOUS
 10
68.8857637939
 20
120.1834899237
 11
66.3401687834
 21
121.65315664
  0
SPLINE
  5
380
100
AcDbEntity
  8
0
100
AcDbSpline
 62
7
  6
CONTINUOUS
 70
0
 71
3
 72
17
 73
13
 74
0
 42
0.0000001
 43
0.0000001
 44
0.0000000001
 40
0.0
 40
0.0
 40
0.0
 40
0.0
 40
0.1286864128
 40
0.2703052763
 40
0.4174525578
 40
0.561795692
 40
0.6954565434
 40
0.8127131134
 40
0.8646782078
 40
0.912507717
 40
0.9571388622
 40
1.0
 40
1.0
 40
1.0
 40
1.0
 10
14.4064296769
 20
44.4266644717
 30
0.0
 10
14.513770833
 20
44.3647063347
 30
0.0
 10
14.7221115134
 20
44.2043146661
 30
0.0
 10
14.9888411614
 20
43.9009490568
 30
0.0
 10
15.2083262283
 20
43.543895293
 30
0.0
 10
15.3625226152
 20
43.1623025204
 30
0.0
 10
15.4390585271
 20
42.7871073536
 30
0.0
 10
15.4321450956
 20
42.4914974267
 30
0.0
 10
15.3775037889
 20
42.2887039292
 30
0.0
 10
15.3164961255
 20
42.1626264863
 30
0.0
 10
15.2350188291
 20
42.0594465422
 30
0.0
 10
15.1671977701
 20
42.007639647
 30
0.0
 10
15.1314484856
 20
41.9869991992
 30
0.0
  0
SPLINE
  5
381
100
AcDbEntity
  8
0
100
AcDbSpline
 62
7
  6
CONTINUOUS
 70
0
 71
3
 72
17
 73
13
 74
0
 42
0.0000001
 43
0.0000001
 44
0.0000000001
 40
0.0
 40
0.0
 40
0.0
 40
0.0
 40
0.1286864128
 40
0.2703052763
 40
0.4174525578
 40
0.561795692
 40
0.6954565434
 40
0.8127131134
 40
0.8646782078
 40
0.912507717
 40
0.9571388622
 40
1.0
 40
1.0
 40
1.0
 40
1.0
 10
14.4064296774
 20
41.3157902619
 30
0.0
 10
14.5137708335
 20
41.253832125
 30
0.0
 10
14.7221115136
 20
41.0934404563
 30
0.0
 10
14.9888411617
 20
40.7900748473
 30
0.0
 10
15.2083262285
 20
40.4330210836
 30
0.0
 10
15.3625226155
 20
40.0514283113
 30
0.0
 10
15.4390585273
 20
39.6762331446
 30
0.0
 10
15.4321450959
 20
39.3806232178
 30
0.0
 10
15.3775037892
 20
39.1778297205
 30
0.0
 10
15.3164961259
 20
39.0517522775
 30
0.0
 10
15.2350188295
 20
38.9485723336
 30
0.0
 10
15.1671977705
 20
38.8967654384
 30
0.0
 10
15.131448486
 20
38.8761249905
 30
0.0
  0
SPLINE
  5
382
100
AcDbEntity
  8
0
100
AcDbSpline
 62
7
  6
CONTINUOUS
 70
0
 71
3
 72
17
 73
13
 74
0
 42
0.0000001
 43
0.0000001
 44
0.0000000001
 40
0.0
 40
0.0
 40
0.0
 40
0.0
 40
0.1286864128
 40
0.2703052763
 40
0.4174525578
 40
0.561795692
 40
0.6954565434
 40
0.8127131134
 40
0.8646782078
 40
0.912507717
 40
0.9571388622
 40
1.0
 40
1.0
 40
1.0
 40
1.0
 10
14.4064296774
 20
38.2049160521
 30
0.0
 10
14.5137708335
 20
38.1429579153
 30
0.0
 10
14.7221115136
 20
37.9825662466
 30
0.0
 10
14.9888411617
 20
37.6792006376
 30
0.0
 10
15.2083262285
 20
37.3221468739
 30
0.0
 10
15.3625226155
 20
36.9405541016
 30
0.0
 10
15.4390585273
 20
36.5653589349
 30
0.0
 10
15.4321450959
 20
36.269749008
 30
0.0
 10
15.3775037892
 20
36.0669555107
 30
0.0
 10
15.3164961259
 20
35.9408780678
 30
0.0
 10
15.2350188295
 20
35.8376981238
 30
0.0
 10
15.1671977705
 20
35.7858912286
 30
0.0
 10
15.131448486
 20
35.7652507808
 30
0.0
  0
SPLINE
  5
383
100
AcDbEntity
  8
0
100
AcDbSpline
 62
7
  6
CONTINUOUS
 70
0
 71
3
 72
17
 73
13
 74
0
 42
0.0000001
 43
0.0000001
 44
0.0000000001
 40
0.0
 40
0.0
 40
0.0
 40
0.0
 40
0.1286864128
 40
0.2703052763
 40
0.4174525578
 40
0.561795692
 40
0.6954565434
 40
0.8127131134
 40
0.8646782078
 40
0.912507717
 40
0.9571388622
 40
1.0
 40
1.0
 40
1.0
 40
1.0
 10
14.4064296771
 20
35.094041844
 30
0.0
 10
14.5137708331
 20
35.0320837071
 30
0.0
 10
14.7221115135
 20
34.8716920385
 30
0.0
 10
14.9888411615
 20
34.5683264292
 30
0.0
 10
15.2083262284
 20
34.2112726653
 30
0.0
 10
15.3625226153
 20
33.8296798928
 30
0.0
 10
15.4390585271
 20
33.454484726
 30
0.0
 10
15.4321450957
 20
33.1588747991
 30
0.0
 10
15.3775037889
 20
32.9560813016
 30
0.0
 10
15.3164961256
 20
32.8300038587
 30
0.0
 10
15.2350188291
 20
32.7268239147
 30
0.0
 10
15.1671977702
 20
32.6750170194
 30
0.0
 10
15.1314484856
 20
32.6543765716
 30
0.0
  0
SPLINE
  5
384
100
AcDbEntity
  8
0
100
AcDbSpline
 62
7
  6
CONTINUOUS
 70
0
 71
3
 72
17
 73
13
 74
0
 42
0.0000001
 43
0.0000001
 44
0.0000000001
 40
0.0
 40
0.0
 40
0.0
 40
0.0
 40
0.1286864128
 40
0.2703052763
 40
0.4174525578
 40
0.561795692
 40
0.6954565434
 40
0.8127131134
 40
0.8646782078
 40
0.912507717
 40
0.9571388622
 40
1.0
 40
1.0
 40
1.0
 40
1.0
 10
14.4064296774
 20
31.9831676344
 30
0.0
 10
14.5137708335
 20
31.9212094975
 30
0.0
 10
14.7221115136
 20
31.7608178288
 30
0.0
 10
14.9888411616
 20
31.4574522198
 30
0.0
 10
15.2083262285
 20
31.1003984561
 30
0.0
 10
15.3625226154
 20
30.7188056838
 30
0.0
 10
15.4390585272
 20
30.3436105171
 30
0.0
 10
15.4321450958
 20
30.0480005903
 30
0.0
 10
15.3775037891
 20
29.8452070929
 30
0.0
 10
15.3164961258
 20
29.71912965
 30
0.0
 10
15.2350188294
 20
29.615949706
 30
0.0
 10
15.1671977705
 20
29.5641428108
 30
0.0
 10
15.1314484859
 20
29.543502363
 30
0.0
  0
SPLINE
  5
385
100
AcDbEntity
  8
0
100
AcDbSpline
 62
7
  6
CONTINUOUS
 70
0
 71
3
 72
17
 73
13
 74
0
 42
0.0000001
 43
0.0000001
 44
0.0000000001
 40
0.0
 40
0.0
 40
0.0
 40
0.0
 40
0.1286864128
 40
0.2703052763
 40
0.4174525578
 40
0.561795692
 40
0.6954565434
 40
0.8127131134
 40
0.8646782078
 40
0.912507717
 40
0.9571388622
 40
1.0
 40
1.0
 40
1.0
 40
1.0
 10
14.4064296774
 20
28.8722934246
 30
0.0
 10
14.5137708334
 20
28.8103352877
 30
0.0
 10
14.7221115136
 20
28.649943619
 30
0.0
 10
14.9888411616
 20
28.34657801
 30
0.0
 10
15.2083262285
 20
27.9895242464
 30
0.0
 10
15.3625226154
 20
27.607931474
 30
0.0
 10
15.4390585272
 20
27.2327363073
 30
0.0
 10
15.4321450958
 20
26.9371263805
 30
0.0
 10
15.3775037891
 20
26.7343328832
 30
0.0
 10
15.3164961258
 20
26.6082554403
 30
0.0
 10
15.2350188294
 20
26.5050754963
 30
0.0
 10
15.1671977705
 20
26.4532686011
 30
0.0
 10
15.1314484859
 20
26.4326281532
 30
0.0
  0
SPLINE
  5
386
100
AcDbEntity
  8
0
100
AcDbSpline
 62
7
  6
CONTINUOUS
 70
0
 71
3
 72
17
 73
13
 74
0
 42
0.0000001
 43
0.0000001
 44
0.0000000001
 40
0.0
 40
0.0
 40
0.0
 40
0.0
 40
0.1286864128
 40
0.2703052763
 40
0.4174525578
 40
0.561795692
 40
0.6954565434
 40
0.8127131134
 40
0.8646782078
 40
0.912507717
 40
0.9571388622
 40
1.0
 40
1.0
 40
1.0
 40
1.0
 10
14.406429677
 20
25.7614192165
 30
0.0
 10
14.5137708331
 20
25.6994610795
 30
0.0
 10
14.7221115134
 20
25.539069411
 30
0.0
 10
14.9888411614
 20
25.2357038017
 30
0.0
 10
15.2083262284
 20
24.8786500378
 30
0.0
 10
15.3625226153
 20
24.4970572653
 30
0.0
 10
15.4390585271
 20
24.1218620984
 30
0.0
 10
15.4321450957
 20
23.8262521715
 30
0.0
 10
15.3775037889
 20
23.6234586741
 30
0.0
 10
15.3164961256
 20
23.4973812311
 30
0.0
 10
15.2350188291
 20
23.3942012871
 30
0.0
 10
15.1671977702
 20
23.3423943919
 30
0.0
 10
15.1314484856
 20
23.321753944
 30
0.0
  0
SPLINE
  5
387
100
AcDbEntity
  8
0
100
AcDbSpline
 62
7
  6
CONTINUOUS
 70
0
 71
3
 72
17
 73
13
 74
0
 42
0.0000001
 43
0.0000001
 44
0.0000000001
 40
0.0
 40
0.0
 40
0.0
 40
0.0
 40
0.1286864128
 40
0.2703052763
 40
0.4174525578
 40
0.561795692
 40
0.6954565434
 40
0.8127131134
 40
0.8646782078
 40
0.912507717
 40
0.9571388622
 40
1.0
 40
1.0
 40
1.0
 40
1.0
 10
14.406429677
 20
22.6505450068
 30
0.0
 10
14.5137708331
 20
22.5885868698
 30
0.0
 10
14.7221115134
 20
22.4281952012
 30
0.0
 10
14.9888411614
 20
22.124829592
 30
0.0
 10
15.2083262284
 20
21.7677758281
 30
0.0
 10
15.3625226153
 20
21.3861830556
 30
0.0
 10
15.4390585271
 20
21.0109878887
 30
0.0
 10
15.4321450957
 20
20.7153779618
 30
0.0
 10
15.3775037889
 20
20.5125844644
 30
0.0
 10
15.3164961256
 20
20.3865070214
 30
0.0
 10
15.2350188291
 20
20.2833270774
 30
0.0
 10
15.1671977702
 20
20.2315201821
 30
0.0
 10
15.1314484856
 20
20.2108797343
 30
0.0
  0
SPLINE
  5
388
100
AcDbEntity
  8
0
100
AcDbSpline
 62
7
  6
CONTINUOUS
 70
0
 71
3
 72
17
 73
13
 74
0
 42
0.0000001
 43
0.0000001
 44
0.0000000001
 40
0.0
 40
0.0
 40
0.0
 40
0.0
 40
0.1286864128
 40
0.2703052763
 40
0.4174525578
 40
0.561795692
 40
0.6954565434
 40
0.8127131134
 40
0.8646782078
 40
0.912507717
 40
0.9571388622
 40
1.0
 40
1.0
 40
1.0
 40
1.0
 10
14.4064296774
 20
19.5396707971
 30
0.0
 10
14.5137708335
 20
19.4777126602
 30
0.0
 10
14.7221115136
 20
19.3173209915
 30
0.0
 10
14.9888411617
 20
19.0139553825
 30
0.0
 10
15.2083262285
 20
18.6569016188
 30
0.0
 10
15.3625226155
 20
18.2753088465
 30
0.0
 10
15.4390585273
 20
17.9001136798
 30
0.0
 10
15.4321450959
 20
17.604503753
 30
0.0
 10
15.3775037892
 20
17.4017102556
 30
0.0
 10
15.3164961259
 20
17.2756328127
 30
0.0
 10
15.2350188295
 20
17.1724528687
 30
0.0
 10
15.1671977705
 20
17.1206459735
 30
0.0
 10
15.131448486
 20
17.1000055257
 30
0.0
  0
SPLINE
  5
389
100
AcDbEntity
  8
0
100
AcDbSpline
 62
7
  6
CONTINUOUS
 70
0
 71
3
 72
17
 73
13
 74
0
 42
0.0000001
 43
0.0000001
 44
0.0000000001
 40
0.0
 40
0.0
 40
0.0
 40
0.0
 40
0.1286864128
 40
0.2703052763
 40
0.4174525578
 40
0.561795692
 40
0.6954565434
 40
0.8127131134
 40
0.8646782078
 40
0.912507717
 40
0.9571388622
 40
1.0
 40
1.0
 40
1.0
 40
1.0
 10
14.4064296774
 20
16.4287965874
 30
0.0
 10
14.5137708335
 20
16.3668384505
 30
0.0
 10
14.7221115137
 20
16.2064467818
 30
0.0
 10
14.9888411617
 20
15.9030811728
 30
0.0
 10
15.2083262285
 20
15.5460274091
 30
0.0
 10
15.3625226155
 20
15.1644346368
 30
0.0
 10
15.4390585273
 20
14.7892394701
 30
0.0
 10
15.4321450959
 20
14.4936295433
 30
0.0
 10
15.3775037892
 20
14.290836046
 30
0.0
 10
15.3164961259
 20
14.164758603
 30
0.0
 10
15.2350188295
 20
14.061578659
 30
0.0
 10
15.1671977705
 20
14.0097717639
 30
0.0
 10
15.131448486
 20
13.989131316
 30
0.0
  0
SPLINE
  5
38A
100
AcDbEntity
  8
0
100
AcDbSpline
 62
7
  6
CONTINUOUS
 70
0
 71
3
 72
11
 73
7
 74
0
 42
0.0000001
 43
0.0000001
 44
0.0000000001
 40
0.0
 40
0.0
 40
0.0
 40
0.0
 40
0.2177240325
 40
0.4508652631
 40
0.7104596504
 40
1.0
 40
1.0
 40
1.0
 40
1.0
 10
13.6812957498
 20
16.5006195954
 30
0.0
 10
13.7291223213
 20
16.5282330668
 30
0.0
 10
13.8389939266
 20
16.5682164286
 30
0.0
 10
14.0216356878
 20
16.5727945868
 30
0.0
 10
14.2161951497
 20
16.5256884472
 30
0.0
 10
14.3428302471
 20
16.4655231229
 30
0.0
 10
14.4064296774
 20
16.4287965874
 30
0.0
  0
SPLINE
  5
38B
100
AcDbEntity
  8
0
100
AcDbSpline
 62
7
  6
CONTINUOUS
 70
0
 71
3
 72
9
 73
5
 74
0
 42
0.0000001
 43
0.0000001
 44
0.0000000001
 40
0.0
 40
0.0
 40
0.0
 40
0.0
 40
0.5500408389
 40
1.0
 40
1.0
 40
1.0
 40
1.0
 10
11.2567939957
 20
50.4914465156
 30
0.0
 10
11.2402803405
 20
50.4819124093
 30
0.0
 10
11.2119849346
 20
50.4600802346
 30
0.0
 10
11.1981974901
 20
50.4253971207
 30
0.0
 10
11.1981974821
 20
50.40979836
 30
0.0
  0
SPLINE
  5
38C
100
AcDbEntity
  8
0
100
AcDbSpline
 62
7
  6
CONTINUOUS
 70
0
 71
3
 72
11
 73
7
 74
0
 42
0.0000001
 43
0.0000001
 44
0.0000000001
 40
0.0
 40
0.0
 40
0.0
 40
0.0
 40
0.2177240325
 40
0.4508652631
 40
0.7104596504
 40
1.0
 40
1.0
 40
1.0
 40
1.0
 10
13.6812957498
 20
19.6114938051
 30
0.0
 10
13.7291223213
 20
19.6391072765
 30
0.0
 10
13.8389939266
 20
19.6790906382
 30
0.0
 10
14.0216356878
 20
19.6836687965
 30
0.0
 10
14.2161951497
 20
19.6365626569
 30
0.0
 10
14.3428302471
 20
19.5763973326
 30
0.0
 10
14.4064296774
 20
19.5396707971
 30
0.0
  0
SPLINE
  5
38D
100
AcDbEntity
  8
0
100
AcDbSpline
 62
7
  6
CONTINUOUS
 70
0
 71
3
 72
9
 73
5
 74
0
 42
0.0000001
 43
0.0000001
 44
0.0000000001
 40
0.0
 40
0.0
 40
0.0
 40
0.0
 40
0.5500415757
 40
1.0
 40
1.0
 40
1.0
 40
1.0
 10
11.2567951725
 20
18.5743705317
 30
0.0
 10
11.2402812156
 20
18.5839046535
 30
0.0
 10
11.2119852739
 20
18.6057368912
 30
0.0
 10
11.19819749
 20
18.6404204325
 30
0.0
 10
11.1981974821
 20
18.6560193668
 30
0.0
  0
SPLINE
  5
38E
100
AcDbEntity
  8
0
100
AcDbSpline
 62
7
  6
CONTINUOUS
 70
0
 71
3
 72
11
 73
7
 74
0
 42
0.0000001
 43
0.0000001
 44
0.0000000001
 40
0.0
 40
0.0
 40
0.0
 40
0.0
 40
0.2177240325
 40
0.4508652631
 40
0.7104596504
 40
1.0
 40
1.0
 40
1.0
 40
1.0
 10
13.6812957501
 20
22.7223680144
 30
0.0
 10
13.7291223215
 20
22.7499814858
 30
0.0
 10
13.8389939267
 20
22.7899648475
 30
0.0
 10
14.0216356877
 20
22.7945430059
 30
0.0
 10
14.2161951494
 20
22.7474368664
 30
0.0
 10
14.3428302467
 20
22.6872715422
 30
0.0
 10
14.406429677
 20
22.6505450068
 30
0.0
  0
SPLINE
  5
38F
100
AcDbEntity
  8
0
100
AcDbSpline
 62
7
  6
CONTINUOUS
 70
0
 71
3
 72
11
 73
7
 74
0
 42
0.0000001
 43
0.0000001
 44
0.0000000001
 40
0.0
 40
0.0
 40
0.0
 40
0.0
 40
0.2892210997
 40
0.5490324661
 40
0.7821969809
 40
1.0
 40
1.0
 40
1.0
 40
1.0
 10
13.3116177514
 20
14.0030115829
 30
0.0
 10
13.2897152453
 20
14.0156567148
 30
0.0
 10
13.2499669965
 20
14.0431316759
 30
0.0
 10
13.2023170733
 20
14.0930411625
 30
0.0
 10
13.1721854043
 20
14.1483797665
 30
0.0
 10
13.1651553978
 20
14.1880880605
 30
0.0
 10
13.1651906448
 20
14.2071336273
 30
0.0
  0
SPLINE
  5
390
100
AcDbEntity
  8
0
100
AcDbSpline
 62
7
  6
CONTINUOUS
 70
0
 71
3
 72
11
 73
7
 74
0
 42
0.0000001
 43
0.0000001
 44
0.0000000001
 40
0.0
 40
0.0
 40
0.0
 40
0.0
 40
0.2370450208
 40
0.4999976369
 40
0.7629523331
 40
1.0
 40
1.0
 40
1.0
 40
1.0
 10
17.0226767713
 20
12.0237754295
 30
0.0
 10
17.0026169304
 20
12.0121939443
 30
0.0
 10
16.9559058052
 20
11.9953708163
 30
0.0
 10
16.8812560138
 20
11.9870908698
 30
0.0
 10
16.8066059685
 20
11.9953705238
 30
0.0
 10
16.7598942086
 20
12.0121932804
 30
0.0
 10
16.7398340604
 20
12.0237747504
 30
0.0
  0
SPLINE
  5
391
100
AcDbEntity
  8
0
100
AcDbSpline
 62
7
  6
CONTINUOUS
 70
0
 71
3
 72
11
 73
7
 74
0
 42
0.0000001
 43
0.0000001
 44
0.0000000001
 40
0.0
 40
0.0
 40
0.0
 40
0.0
 40
0.2177240325
 40
0.4508652631
 40
0.7104596504
 40
1.0
 40
1.0
 40
1.0
 40
1.0
 10
13.6812957502
 20
25.8332422241
 30
0.0
 10
13.7291223216
 20
25.8608556955
 30
0.0
 10
13.8389939268
 20
25.9008390572
 30
0.0
 10
14.0216356878
 20
25.9054172156
 30
0.0
 10
14.2161951494
 20
25.8583110761
 30
0.0
 10
14.3428302467
 20
25.798145752
 30
0.0
 10
14.406429677
 20
25.7614192165
 30
0.0
  0
SPLINE
  5
392
100
AcDbEntity
  8
0
100
AcDbSpline
 62
7
  6
CONTINUOUS
 70
0
 71
3
 72
11
 73
7
 74
0
 42
0.0000001
 43
0.0000001
 44
0.0000000001
 40
0.0
 40
0.0
 40
0.0
 40
0.0
 40
0.2177240325
 40
0.4508652631
 40
0.7104596504
 40
1.0
 40
1.0
 40
1.0
 40
1.0
 10
13.6812957498
 20
28.9441164326
 30
0.0
 10
13.7291223213
 20
28.971729904
 30
0.0
 10
13.8389939266
 20
29.0117132658
 30
0.0
 10
14.0216356878
 20
29.016291424
 30
0.0
 10
14.2161951496
 20
28.9691852844
 30
0.0
 10
14.342830247
 20
28.9090199602
 30
0.0
 10
14.4064296774
 20
28.8722934246
 30
0.0
  0
SPLINE
  5
393
100
AcDbEntity
  8
0
100
AcDbSpline
 62
7
  6
CONTINUOUS
 70
0
 71
3
 72
11
 73
7
 74
0
 42
0.0000001
 43
0.0000001
 44
0.0000000001
 40
0.0
 40
0.0
 40
0.0
 40
0.0
 40
0.2177240325
 40
0.4508652631
 40
0.7104596504
 40
1.0
 40
1.0
 40
1.0
 40
1.0
 10
13.6812957498
 20
32.0549906424
 30
0.0
 10
13.7291223213
 20
32.0826041138
 30
0.0
 10
13.8389939266
 20
32.1225874755
 30
0.0
 10
14.0216356878
 20
32.1271656338
 30
0.0
 10
14.2161951496
 20
32.0800594942
 30
0.0
 10
14.342830247
 20
32.0198941699
 30
0.0
 10
14.4064296774
 20
31.9831676344
 30
0.0
  0
SPLINE
  5
394
100
AcDbEntity
  8
0
100
AcDbSpline
 62
7
  6
CONTINUOUS
 70
0
 71
3
 72
11
 73
7
 74
0
 42
0.0000001
 43
0.0000001
 44
0.0000000001
 40
0.0
 40
0.0
 40
0.0
 40
0.0
 40
0.2177240325
 40
0.4508652631
 40
0.7104596504
 40
1.0
 40
1.0
 40
1.0
 40
1.0
 10
13.6812957503
 20
35.1658648516
 30
0.0
 10
13.7291223217
 20
35.193478323
 30
0.0
 10
13.8389939269
 20
35.2334616847
 30
0.0
 10
14.0216356878
 20
35.2380398431
 30
0.0
 10
14.2161951495
 20
35.1909337036
 30
0.0
 10
14.3428302467
 20
35.1307683795
 30
0.0
 10
14.4064296771
 20
35.094041844
 30
0.0
  0
SPLINE
  5
395
100
AcDbEntity
  8
0
100
AcDbSpline
 62
7
  6
CONTINUOUS
 70
0
 71
3
 72
11
 73
7
 74
0
 42
0.0000001
 43
0.0000001
 44
0.0000000001
 40
0.0
 40
0.0
 40
0.0
 40
0.0
 40
0.2367285468
 40
0.4989100111
 40
0.7616834297
 40
1.0
 40
1.0
 40
1.0
 40
1.0
 10
16.8429001784
 20
92.480624233
 30
0.0
 10
16.8429001784
 20
92.5493553891
 30
0.0
 10
16.8684002001
 20
92.6943055635
 30
0.0
 10
16.9575253878
 20
92.8984515205
 30
0.0
 10
17.088265466
 20
93.0793725286
 30
0.0
 10
17.2003608967
 20
93.1756326929
 30
0.0
 10
17.2597580826
 20
93.2111226555
 30
0.0
  0
SPLINE
  5
396
100
AcDbEntity
  8
0
100
AcDbSpline
 62
7
  6
CONTINUOUS
 70
0
 71
3
 72
11
 73
7
 74
0
 42
0.0000001
 43
0.0000001
 44
0.0000000001
 40
0.0
 40
0.0
 40
0.0
 40
0.0
 40
0.2177240325
 40
0.4508652631
 40
0.7104596504
 40
1.0
 40
1.0
 40
1.0
 40
1.0
 10
13.6812957498
 20
38.2767390602
 30
0.0
 10
13.7291223213
 20
38.3043525316
 30
0.0
 10
13.8389939266
 20
38.3443358933
 30
0.0
 10
14.0216356878
 20
38.3489140516
 30
0.0
 10
14.2161951497
 20
38.301807912
 30
0.0
 10
14.3428302471
 20
38.2416425877
 30
0.0
 10
14.4064296774
 20
38.2049160521
 30
0.0
  0
SPLINE
  5
397
100
AcDbEntity
  8
0
100
AcDbSpline
 62
7
  6
CONTINUOUS
 70
0
 71
3
 72
11
 73
7
 74
0
 42
0.0000001
 43
0.0000001
 44
0.0000000001
 40
0.0
 40
0.0
 40
0.0
 40
0.0
 40
0.2177240325
 40
0.4508652631
 40
0.7104596504
 40
1.0
 40
1.0
 40
1.0
 40
1.0
 10
13.6812957498
 20
41.3876132699
 30
0.0
 10
13.7291223213
 20
41.4152267413
 30
0.0
 10
13.8389939266
 20
41.4552101031
 30
0.0
 10
14.0216356878
 20
41.4597882613
 30
0.0
 10
14.2161951497
 20
41.4126821217
 30
0.0
 10
14.3428302471
 20
41.3525167974
 30
0.0
 10
14.4064296774
 20
41.3157902619
 30
0.0
  0
SPLINE
  5
398
100
AcDbEntity
  8
0
100
AcDbSpline
 62
7
  6
CONTINUOUS
 70
0
 71
3
 72
11
 73
7
 74
0
 42
0.0000001
 43
0.0000001
 44
0.0000000001
 40
0.0
 40
0.0
 40
0.0
 40
0.0
 40
0.2177240974
 40
0.4508653129
 40
0.710459654
 40
1.0
 40
1.0
 40
1.0
 40
1.0
 10
13.681294069
 20
77.5709219114
 30
0.0
 10
13.7291206696
 20
77.5985353975
 30
0.0
 10
13.8389922763
 20
77.6385188367
 30
0.0
 10
14.0216340835
 20
77.6430972865
 30
0.0
 10
14.2161936391
 20
77.5959912965
 30
0.0
 10
14.3428287882
 20
77.5358260178
 30
0.0
 10
14.4064282586
 20
77.4990995106
 30
0.0
  0
SPLINE
  5
399
100
AcDbEntity
  8
0
100
AcDbSpline
 62
7
  6
CONTINUOUS
 70
0
 71
3
 72
11
 73
7
 74
0
 42
0.0000001
 43
0.0000001
 44
0.0000000001
 40
0.0
 40
0.0
 40
0.0
 40
0.0
 40
0.2177240974
 40
0.4508653129
 40
0.710459654
 40
1.0
 40
1.0
 40
1.0
 40
1.0
 10
13.6812940694
 20
74.4600477028
 30
0.0
 10
13.7291206699
 20
74.4876611888
 30
0.0
 10
13.8389922765
 20
74.527644628
 30
0.0
 10
14.0216340835
 20
74.532223078
 30
0.0
 10
14.2161936388
 20
74.4851170881
 30
0.0
 10
14.3428287878
 20
74.4249518095
 30
0.0
 10
14.4064282582
 20
74.3882253024
 30
0.0
  0
SPLINE
  5
39A
100
AcDbEntity
  8
0
100
AcDbSpline
 62
7
  6
CONTINUOUS
 70
0
 71
3
 72
11
 73
7
 74
0
 42
0.0000001
 43
0.0000001
 44
0.0000000001
 40
0.0
 40
0.0
 40
0.0
 40
0.0
 40
0.2177240974
 40
0.4508653129
 40
0.710459654
 40
1.0
 40
1.0
 40
1.0
 40
1.0
 10
13.6812940695
 20
71.349173493
 30
0.0
 10
13.72912067
 20
71.376786979
 30
0.0
 10
13.8389922765
 20
71.4167704182
 30
0.0
 10
14.0216340835
 20
71.4213488682
 30
0.0
 10
14.2161936389
 20
71.3742428783
 30
0.0
 10
14.3428287878
 20
71.3140775997
 30
0.0
 10
14.4064282582
 20
71.2773510927
 30
0.0
  0
SPLINE
  5
39B
100
AcDbEntity
  8
0
100
AcDbSpline
 62
7
  6
CONTINUOUS
 70
0
 71
3
 72
11
 73
7
 74
0
 42
0.0000001
 43
0.0000001
 44
0.0000000001
 40
0.0
 40
0.0
 40
0.0
 40
0.0
 40
0.2177240974
 40
0.4508653129
 40
0.710459654
 40
1.0
 40
1.0
 40
1.0
 40
1.0
 10
13.6812940691
 20
68.2382992838
 30
0.0
 10
13.7291206697
 20
68.2659127699
 30
0.0
 10
13.8389922763
 20
68.3058962091
 30
0.0
 10
14.0216340835
 20
68.3104746589
 30
0.0
 10
14.2161936391
 20
68.2633686689
 30
0.0
 10
14.3428287882
 20
68.2032033902
 30
0.0
 10
14.4064282586
 20
68.166476883
 30
0.0
  0
SPLINE
  5
39C
100
AcDbEntity
  8
0
100
AcDbSpline
 62
7
  6
CONTINUOUS
 70
0
 71
3
 72
11
 73
7
 74
0
 42
0.0000001
 43
0.0000001
 44
0.0000000001
 40
0.0
 40
0.0
 40
0.0
 40
0.0
 40
0.2177240974
 40
0.4508653129
 40
0.710459654
 40
1.0
 40
1.0
 40
1.0
 40
1.0
 10
13.6812940696
 20
65.1274250752
 30
0.0
 10
13.7291206701
 20
65.1550385612
 30
0.0
 10
13.8389922766
 20
65.1950220004
 30
0.0
 10
14.0216340836
 20
65.1996004503
 30
0.0
 10
14.216193639
 20
65.1524944605
 30
0.0
 10
14.342828788
 20
65.0923291819
 30
0.0
 10
14.4064282583
 20
65.0556026748
 30
0.0
  0
SPLINE
  5
39D
100
AcDbEntity
  8
0
100
AcDbSpline
 62
7
  6
CONTINUOUS
 70
0
 71
3
 72
11
 73
7
 74
0
 42
0.0000001
 43
0.0000001
 44
0.0000000001
 40
0.0
 40
0.0
 40
0.0
 40
0.0
 40
0.2177240974
 40
0.4508653129
 40
0.710459654
 40
1.0
 40
1.0
 40
1.0
 40
1.0
 10
13.6812940695
 20
62.0165508655
 30
0.0
 10
13.72912067
 20
62.0441643515
 30
0.0
 10
13.8389922765
 20
62.0841477907
 30
0.0
 10
14.0216340835
 20
62.0887262406
 30
0.0
 10
14.2161936389
 20
62.0416202508
 30
0.0
 10
14.3428287879
 20
61.9814549722
 30
0.0
 10
14.4064282582
 20
61.9447284651
 30
0.0
  0
SPLINE
  5
39E
100
AcDbEntity
  8
0
100
AcDbSpline
 62
7
  6
CONTINUOUS
 70
0
 71
3
 72
11
 73
7
 74
0
 42
0.0000001
 43
0.0000001
 44
0.0000000001
 40
0.0
 40
0.0
 40
0.0
 40
0.0
 40
0.2177240974
 40
0.4508653129
 40
0.710459654
 40
1.0
 40
1.0
 40
1.0
 40
1.0
 10
13.6812940695
 20
58.9056766558
 30
0.0
 10
13.72912067
 20
58.9332901418
 30
0.0
 10
13.8389922765
 20
58.973273581
 30
0.0
 10
14.0216340836
 20
58.977852031
 30
0.0
 10
14.2161936389
 20
58.9307460411
 30
0.0
 10
14.3428287879
 20
58.8705807625
 30
0.0
 10
14.4064282583
 20
58.8338542554
 30
0.0
  0
SPLINE
  5
39F
100
AcDbEntity
  8
0
100
AcDbSpline
 62
7
  6
CONTINUOUS
 70
0
 71
3
 72
11
 73
7
 74
0
 42
0.0000001
 43
0.0000001
 44
0.0000000001
 40
0.0
 40
0.0
 40
0.0
 40
0.0
 40
0.2177240974
 40
0.4508653129
 40
0.710459654
 40
1.0
 40
1.0
 40
1.0
 40
1.0
 10
13.681294069
 20
55.7948024466
 30
0.0
 10
13.7291206696
 20
55.8224159327
 30
0.0
 10
13.8389922763
 20
55.8623993718
 30
0.0
 10
14.0216340835
 20
55.8669778216
 30
0.0
 10
14.2161936391
 20
55.8198718316
 30
0.0
 10
14.3428287882
 20
55.7597065529
 30
0.0
 10
14.4064282586
 20
55.7229800457
 30
0.0
  0
SPLINE
  5
3A0
100
AcDbEntity
  8
0
100
AcDbSpline
 62
7
  6
CONTINUOUS
 70
0
 71
3
 72
11
 73
7
 74
0
 42
0.0000001
 43
0.0000001
 44
0.0000000001
 40
0.0
 40
0.0
 40
0.0
 40
0.0
 40
0.2177240974
 40
0.4508653129
 40
0.710459654
 40
1.0
 40
1.0
 40
1.0
 40
1.0
 10
13.6812940694
 20
52.683928238
 30
0.0
 10
13.7291206699
 20
52.711541724
 30
0.0
 10
13.8389922765
 20
52.7515251632
 30
0.0
 10
14.0216340835
 20
52.7561036131
 30
0.0
 10
14.2161936388
 20
52.7089976233
 30
0.0
 10
14.3428287878
 20
52.6488323446
 30
0.0
 10
14.4064282582
 20
52.6121058376
 30
0.0
  0
SPLINE
  5
3A1
100
AcDbEntity
  8
0
100
AcDbSpline
 62
7
  6
CONTINUOUS
 70
0
 71
3
 72
11
 73
7
 74
0
 42
0.0000001
 43
0.0000001
 44
0.0000000001
 40
0.0
 40
0.0
 40
0.0
 40
0.0
 40
0.2177240974
 40
0.4508653129
 40
0.710459654
 40
1.0
 40
1.0
 40
1.0
 40
1.0
 10
13.6812940695
 20
49.5730540283
 30
0.0
 10
13.72912067
 20
49.6006675143
 30
0.0
 10
13.8389922765
 20
49.6406509535
 30
0.0
 10
14.0216340835
 20
49.6452294034
 30
0.0
 10
14.2161936389
 20
49.5981234136
 30
0.0
 10
14.3428287878
 20
49.537958135
 30
0.0
 10
14.4064282582
 20
49.5012316279
 30
0.0
  0
SPLINE
  5
3A2
100
AcDbEntity
  8
0
100
AcDbSpline
 62
7
  6
CONTINUOUS
 70
0
 71
3
 72
11
 73
7
 74
0
 42
0.0000001
 43
0.0000001
 44
0.0000000001
 40
0.0
 40
0.0
 40
0.0
 40
0.0
 40
0.2177451069
 40
0.4509974878
 40
0.7103438645
 40
1.0
 40
1.0
 40
1.0
 40
1.0
 10
25.5489735195
 20
83.8966072881
 30
0.0
 10
25.466590033
 20
83.8489364564
 30
0.0
 10
25.3124631944
 20
83.7190880252
 30
0.0
 10
25.1481844886
 20
83.450614369
 30
0.0
 10
25.0506810842
 20
83.119689571
 30
0.0
 10
25.0313556428
 20
82.8789130032
 30
0.0
 10
25.0312980862
 20
82.7522973135
 30
0.0
  0
SPLINE
  5
3A3
100
AcDbEntity
  8
0
100
AcDbSpline
 62
7
  6
CONTINUOUS
 70
0
 71
3
 72
11
 73
7
 74
0
 42
0.0000001
 43
0.0000001
 44
0.0000000001
 40
0.0
 40
0.0
 40
0.0
 40
0.0
 40
0.2897030561
 40
0.5490557368
 40
0.782281652
 40
1.0
 40
1.0
 40
1.0
 40
1.0
 10
29.2924928868
 20
53.0274716673
 30
0.0
 10
29.4021753867
 20
52.9641474731
 30
0.0
 10
29.6203637948
 20
52.8603885139
 30
0.0
 10
29.9557448917
 20
52.7792929032
 30
0.0
 10
30.2704144124
 20
52.7873826735
 30
0.0
 10
30.4598924941
 20
52.8560728749
 30
0.0
 10
30.5423225259
 20
52.9036603985
 30
0.0
  0
SPLINE
  5
3A4
100
AcDbEntity
  8
0
100
AcDbSpline
 62
7
  6
CONTINUOUS
 70
0
 71
3
 72
10
 73
6
 74
0
 42
0.0000001
 43
0.0000001
 44
0.0000000001
 40
0.0
 40
0.0
 40
0.0
 40
0.0
 40
0.5248973435
 40
0.7715118775
 40
1.0
 40
1.0
 40
1.0
 40
1.0
 10
25.5489735193
 20
55.7865065729
 30
0.0
 10
25.7095252211
 20
55.5086294819
 30
0.0
 10
25.991521361
 20
55.1232474927
 30
0.0
 10
26.4388915299
 20
54.7047667427
 30
0.0
 10
26.67785167
 20
54.5370746177
 30
0.0
 10
26.7988031588
 20
54.4671715326
 30
0.0
  0
SPLINE
  5
3A5
100
AcDbEntity
  8
0
100
AcDbSpline
 62
7
  6
CONTINUOUS
 70
0
 71
3
 72
9
 73
5
 74
0
 42
0.0000001
 43
0.0000001
 44
0.0000000001
 40
0.0
 40
0.0
 40
0.0
 40
0.0
 40
0.24520766
 40
1.0
 40
1.0
 40
1.0
 40
1.0
 10
25.1816663189
 20
56.6179610243
 30
0.0
 10
25.2038845733
 20
56.5469767228
 30
0.0
 10
25.3030394526
 20
56.2602139736
 30
0.0
 10
25.4344981981
 20
55.9847892641
 30
0.0
 10
25.5489735193
 20
55.7865065729
 30
0.0
  0
SPLINE
  5
3A6
100
AcDbEntity
  8
0
100
AcDbSpline
 62
7
  6
CONTINUOUS
 70
0
 71
3
 72
11
 73
7
 74
0
 42
0.0000001
 43
0.0000001
 44
0.0000000001
 40
0.0
 40
0.0
 40
0.0
 40
0.0
 40
0.2177231375
 40
0.4508717887
 40
0.7104673698
 40
1.0
 40
1.0
 40
1.0
 40
1.0
 10
79.7513582136
 20
38.9819396243
 30
0.0
 10
79.710135894
 20
39.0057366892
 30
0.0
 10
79.6329422202
 20
39.0705152422
 30
0.0
 10
79.5507964435
 20
39.2048579015
 30
0.0
 10
79.5021068176
 20
39.370380294
 30
0.0
 10
79.4924405828
 20
39.4908280367
 30
0.0
 10
79.4924405828
 20
39.5541249637
 30
0.0
  0
SPLINE
  5
3A7
100
AcDbEntity
  8
0
100
AcDbSpline
 62
7
  6
CONTINUOUS
 70
0
 71
3
 72
11
 73
7
 74
0
 42
0.0000001
 43
0.0000001
 44
0.0000000001
 40
0.0
 40
0.0
 40
0.0
 40
0.0
 40
0.2177231375
 40
0.4508717887
 40
0.7104673698
 40
1.0
 40
1.0
 40
1.0
 40
1.0
 10
79.7513582136
 20
105.9351378289
 30
0.0
 10
79.710135894
 20
105.9589348939
 30
0.0
 10
79.6329422202
 20
106.0237134468
 30
0.0
 10
79.5507964435
 20
106.1580561061
 30
0.0
 10
79.5021068176
 20
106.3235784986
 30
0.0
 10
79.4924405828
 20
106.4440262413
 30
0.0
 10
79.4924405828
 20
106.5073231684
 30
0.0
  0
SPLINE
  5
3A8
100
AcDbEntity
  8
0
100
AcDbSpline
 62
7
  6
CONTINUOUS
 70
0
 71
3
 72
11
 73
7
 74
0
 42
0.0000001
 43
0.0000001
 44
0.0000000001
 40
0.0
 40
0.0
 40
0.0
 40
0.0
 40
0.2177231375
 40
0.4508717887
 40
0.7104673698
 40
1.0
 40
1.0
 40
1.0
 40
1.0
 10
52.8639583911
 20
90.3916280737
 30
0.0
 10
52.8215848103
 20
90.4160897456
 30
0.0
 10
52.7422352636
 20
90.4826774407
 30
0.0
 10
52.6577953111
 20
90.6207720358
 30
0.0
 10
52.6077458763
 20
90.7909171549
 30
0.0
 10
52.5978096819
 20
90.9147287746
 30
0.0
 10
52.5978096819
 20
90.9797934648
 30
0.0
  0
SPLINE
  5
3A9
100
AcDbEntity
  8
0
100
AcDbSpline
 62
7
  6
CONTINUOUS
 70
0
 71
3
 72
11
 73
7
 74
0
 42
0.0000001
 43
0.0000001
 44
0.0000000001
 40
0.0
 40
0.0
 40
0.0
 40
0.0
 40
0.2177231375
 40
0.4508717887
 40
0.7104673698
 40
1.0
 40
1.0
 40
1.0
 40
1.0
 10
52.8639583911
 20
23.4384298691
 30
0.0
 10
52.8215848104
 20
23.462891541
 30
0.0
 10
52.7422352638
 20
23.5294792359
 30
0.0
 10
52.6577953113
 20
23.6675738307
 30
0.0
 10
52.6077458765
 20
23.8377189494
 30
0.0
 10
52.5978096821
 20
23.961530569
 30
0.0
 10
52.5978096821
 20
24.0265952591
 30
0.0
  0
SPLINE
  5
3AA
100
AcDbEntity
  8
0
100
AcDbSpline
 62
7
  6
CONTINUOUS
 70
0
 71
3
 72
17
 73
13
 74
0
 42
0.0000001
 43
0.0000001
 44
0.0000000001
 40
0.0
 40
0.0
 40
0.0
 40
0.0
 40
0.1286849204
 40
0.270303802
 40
0.4174438805
 40
0.5617821442
 40
0.6954492858
 40
0.8127130377
 40
0.8646795618
 40
0.9125091497
 40
0.9571393989
 40
1.0
 40
1.0
 40
1.0
 40
1.0
 10
52.5978096821
 20
24.0265952591
 30
0.0
 10
52.5978096821
 20
24.1364182959
 30
0.0
 10
52.62855687
 20
24.3673617065
 30
0.0
 10
52.7432043866
 20
24.7064462385
 30
0.0
 10
52.9199537704
 20
25.0330638413
 30
0.0
 10
53.1444663408
 20
25.3204578695
 30
0.0
 10
53.3984844346
 20
25.545430262
 30
0.0
 10
53.628408822
 20
25.6711045611
 30
0.0
 10
53.8082485592
 20
25.7190227736
 30
0.0
 10
53.932030513
 20
25.728066771
 30
0.0
 10
54.0473080598
 20
25.7112529715
 30
0.0
 10
54.1171120807
 20
25.682162392
 30
0.0
 10
54.148790739
 20
25.6638747484
 30
0.0
  0
SPLINE
  5
3AB
100
AcDbEntity
  8
0
100
AcDbSpline
 62
7
  6
CONTINUOUS
 70
0
 71
3
 72
17
 73
13
 74
0
 42
0.0000001
 43
0.0000001
 44
0.0000000001
 40
0.0
 40
0.0
 40
0.0
 40
0.0
 40
0.1286865535
 40
0.2703065218
 40
0.4174612681
 40
0.5617989266
 40
0.6954528234
 40
0.8127091351
 40
0.8646746914
 40
0.9125055669
 40
0.957137259
 40
1.0
 40
1.0
 40
1.0
 40
1.0
 10
52.5978096819
 20
90.9797934648
 30
0.0
 10
52.5978096819
 20
91.0896178696
 30
0.0
 10
52.6285583635
 20
91.3205632621
 30
0.0
 10
52.7432085534
 20
91.6596628306
 30
0.0
 10
52.919974118
 20
91.9862866982
 30
0.0
 10
53.1444888272
 20
92.2736796428
 30
0.0
 10
53.3984961088
 20
92.4986357247
 30
0.0
 10
53.6284034295
 20
92.6243031091
 30
0.0
 10
53.808237724
 20
92.6722163561
 30
0.0
 10
53.932020701
 20
92.6812663492
 30
0.0
 10
54.047302607
 20
92.6644506941
 30
0.0
 10
54.1171091715
 20
92.635359092
 30
0.0
 10
54.1487899841
 20
92.6170715445
 30
0.0
  0
SPLINE
  5
3AC
100
AcDbEntity
  8
0
100
AcDbSpline
 62
7
  6
CONTINUOUS
 70
0
 71
3
 72
17
 73
13
 74
0
 42
0.0000001
 43
0.0000001
 44
0.0000000001
 40
0.0
 40
0.0
 40
0.0
 40
0.0
 40
0.1286865535
 40
0.2703065218
 40
0.4174612681
 40
0.5617989266
 40
0.6954528234
 40
0.8127091351
 40
0.8646746914
 40
0.9125055669
 40
0.957137259
 40
1.0
 40
1.0
 40
1.0
 40
1.0
 10
79.4924405828
 20
106.5073231684
 30
0.0
 10
79.4924405828
 20
106.6141637192
 30
0.0
 10
79.5223538438
 20
106.8388344832
 30
0.0
 10
79.6338890663
 20
107.1687209482
 30
0.0
 10
79.8058520314
 20
107.4864706686
 30
0.0
 10
80.0242668295
 20
107.7660553434
 30
0.0
 10
80.2713729069
 20
107.9848995223
 30
0.0
 10
80.4950338028
 20
108.1071526098
 30
0.0
 10
80.6699821224
 20
108.1537640866
 30
0.0
 10
80.7904020005
 20
108.1625681976
 30
0.0
 10
80.902551776
 20
108.1462094124
 30
0.0
 10
80.9704617439
 20
108.1179082092
 30
0.0
 10
81.0012818104
 20
108.1001175218
 30
0.0
  0
SPLINE
  5
3AD
100
AcDbEntity
  8
0
100
AcDbSpline
 62
7
  6
CONTINUOUS
 70
0
 71
3
 72
17
 73
13
 74
0
 42
0.0000001
 43
0.0000001
 44
0.0000000001
 40
0.0
 40
0.0
 40
0.0
 40
0.0
 40
0.1286865535
 40
0.2703065218
 40
0.4174612681
 40
0.5617989266
 40
0.6954528234
 40
0.8127091351
 40
0.8646746914
 40
0.9125055669
 40
0.957137259
 40
1.0
 40
1.0
 40
1.0
 40
1.0
 10
79.4924405828
 20
39.5541249637
 30
0.0
 10
79.4924405828
 20
39.6609655146
 30
0.0
 10
79.5223538438
 20
39.8856362786
 30
0.0
 10
79.6338890663
 20
40.2155227436
 30
0.0
 10
79.8058520314
 20
40.533272464
 30
0.0
 10
80.0242668295
 20
40.8128571388
 30
0.0
 10
80.2713729069
 20
41.0317013177
 30
0.0
 10
80.4950338028
 20
41.1539544052
 30
0.0
 10
80.6699821224
 20
41.200565882
 30
0.0
 10
80.7904020005
 20
41.209369993
 30
0.0
 10
80.902551776
 20
41.1930112078
 30
0.0
 10
80.9704617439
 20
41.1647100046
 30
0.0
 10
81.0012818104
 20
41.1469193172
 30
0.0
  0
SPLINE
  5
3AE
100
AcDbEntity
  8
0
100
AcDbSpline
 62
7
  6
CONTINUOUS
 70
0
 71
3
 72
11
 73
7
 74
0
 42
0.0000001
 43
0.0000001
 44
0.0000000001
 40
0.0
 40
0.0
 40
0.0
 40
0.0
 40
0.2177240325
 40
0.4508652631
 40
0.7104596504
 40
1.0
 40
1.0
 40
1.0
 40
1.0
 10
13.6812957501
 20
44.4984874792
 30
0.0
 10
13.7291223215
 20
44.5261009506
 30
0.0
 10
13.8389939267
 20
44.5660843123
 30
0.0
 10
14.0216356877
 20
44.5706624708
 30
0.0
 10
14.2161951493
 20
44.5235563313
 30
0.0
 10
14.3428302466
 20
44.4633910071
 30
0.0
 10
14.4064296769
 20
44.4266644717
 30
0.0
  0
SPLINE
  5
3AF
100
AcDbEntity
  8
0
100
AcDbSpline
 62
7
  6
CONTINUOUS
 70
0
 71
3
 72
9
 73
5
 74
0
 42
0.0000001
 43
0.0000001
 44
0.0000000001
 40
0.0
 40
0.0
 40
0.0
 40
0.0
 40
0.5500408389
 40
1.0
 40
1.0
 40
1.0
 40
1.0
 10
11.2567939957
 20
83.5597944094
 30
0.0
 10
11.2402803405
 20
83.550260303
 30
0.0
 10
11.2119849346
 20
83.5284281283
 30
0.0
 10
11.1981974901
 20
83.4937450145
 30
0.0
 10
11.1981974821
 20
83.4781462538
 30
0.0
  0
SPLINE
  5
3B0
100
AcDbEntity
  8
0
100
AcDbSpline
 62
7
  6
CONTINUOUS
 70
0
 71
3
 72
17
 73
13
 74
0
 42
0.0000001
 43
0.0000001
 44
0.0000000001
 40
0.0
 40
0.0
 40
0.0
 40
0.0
 40
0.1286863809
 40
0.2703052493
 40
0.4174525498
 40
0.5617956851
 40
0.6954565386
 40
0.8127131079
 40
0.8646782036
 40
0.912507715
 40
0.9571388614
 40
1.0
 40
1.0
 40
1.0
 40
1.0
 10
14.4064282586
 20
77.4990995106
 30
0.0
 10
14.5137696266
 20
77.4371410366
 30
0.0
 10
14.7221112474
 20
77.2767493679
 30
0.0
 10
14.9888415465
 20
76.9733825865
 30
0.0
 10
15.2083272585
 20
76.6163277079
 30
0.0
 10
15.3625240854
 20
76.2347337098
 30
0.0
 10
15.4390601867
 20
75.8595373744
 30
0.0
 10
15.4321467005
 20
75.5639265326
 30
0.0
 10
15.3775052025
 20
75.3611324123
 30
0.0
 10
15.31649734
 20
75.2350545806
 30
0.0
 10
15.2350197808
 20
75.1318743204
 30
0.0
 10
15.1671985038
 20
75.080067274
 30
0.0
 10
15.1314491073
 20
75.0594267636
 30
0.0
  0
SPLINE
  5
3B1
100
AcDbEntity
  8
0
100
AcDbSpline
 62
7
  6
CONTINUOUS
 70
0
 71
3
 72
17
 73
13
 74
0
 42
0.0000001
 43
0.0000001
 44
0.0000000001
 40
0.0
 40
0.0
 40
0.0
 40
0.0
 40
0.1286863809
 40
0.2703052493
 40
0.4174525498
 40
0.5617956851
 40
0.6954565386
 40
0.8127131079
 40
0.8646782036
 40
0.912507715
 40
0.9571388614
 40
1.0
 40
1.0
 40
1.0
 40
1.0
 10
14.4064282582
 20
74.3882253024
 30
0.0
 10
14.5137696262
 20
74.3262668283
 30
0.0
 10
14.7221112472
 20
74.1658751597
 30
0.0
 10
14.9888415463
 20
73.8625083781
 30
0.0
 10
15.2083272583
 20
73.5054534993
 30
0.0
 10
15.3625240853
 20
73.123859501
 30
0.0
 10
15.4390601865
 20
72.7486631655
 30
0.0
 10
15.4321467003
 20
72.4530523236
 30
0.0
 10
15.3775052022
 20
72.2502582032
 30
0.0
 10
15.3164973397
 20
72.1241803714
 30
0.0
 10
15.2350197805
 20
72.0210001111
 30
0.0
 10
15.1671985034
 20
71.9691930647
 30
0.0
 10
15.1314491069
 20
71.9485525543
 30
0.0
  0
SPLINE
  5
3B2
100
AcDbEntity
  8
0
100
AcDbSpline
 62
7
  6
CONTINUOUS
 70
0
 71
3
 72
17
 73
13
 74
0
 42
0.0000001
 43
0.0000001
 44
0.0000000001
 40
0.0
 40
0.0
 40
0.0
 40
0.0
 40
0.1286863809
 40
0.2703052493
 40
0.4174525498
 40
0.5617956851
 40
0.6954565386
 40
0.8127131079
 40
0.8646782036
 40
0.912507715
 40
0.9571388614
 40
1.0
 40
1.0
 40
1.0
 40
1.0
 10
14.4064282582
 20
71.2773510927
 30
0.0
 10
14.5137696262
 20
71.2153926185
 30
0.0
 10
14.7221112472
 20
71.05500095
 30
0.0
 10
14.9888415462
 20
70.7516341683
 30
0.0
 10
15.2083272583
 20
70.3945792895
 30
0.0
 10
15.3625240852
 20
70.0129852912
 30
0.0
 10
15.4390601864
 20
69.6377889557
 30
0.0
 10
15.4321467002
 20
69.3421781138
 30
0.0
 10
15.3775052021
 20
69.1393839935
 30
0.0
 10
15.3164973396
 20
69.0133061616
 30
0.0
 10
15.2350197804
 20
68.9101259014
 30
0.0
 10
15.1671985034
 20
68.858318855
 30
0.0
 10
15.1314491068
 20
68.8376783446
 30
0.0
  0
SPLINE
  5
3B3
100
AcDbEntity
  8
0
100
AcDbSpline
 62
7
  6
CONTINUOUS
 70
0
 71
3
 72
17
 73
13
 74
0
 42
0.0000001
 43
0.0000001
 44
0.0000000001
 40
0.0
 40
0.0
 40
0.0
 40
0.0
 40
0.1286863809
 40
0.2703052493
 40
0.4174525498
 40
0.5617956851
 40
0.6954565386
 40
0.8127131079
 40
0.8646782036
 40
0.912507715
 40
0.9571388614
 40
1.0
 40
1.0
 40
1.0
 40
1.0
 10
14.4064282586
 20
68.166476883
 30
0.0
 10
14.5137696266
 20
68.104518409
 30
0.0
 10
14.7221112474
 20
67.9441267403
 30
0.0
 10
14.9888415464
 20
67.640759959
 30
0.0
 10
15.2083272585
 20
67.2837050803
 30
0.0
 10
15.3625240854
 20
66.9021110822
 30
0.0
 10
15.4390601866
 20
66.5269147469
 30
0.0
 10
15.4321467005
 20
66.2313039051
 30
0.0
 10
15.3775052024
 20
66.0285097848
 30
0.0
 10
15.3164973399
 20
65.902431953
 30
0.0
 10
15.2350197807
 20
65.7992516929
 30
0.0
 10
15.1671985037
 20
65.7474446464
 30
0.0
 10
15.1314491072
 20
65.7268041361
 30
0.0
  0
SPLINE
  5
3B4
100
AcDbEntity
  8
0
100
AcDbSpline
 62
7
  6
CONTINUOUS
 70
0
 71
3
 72
17
 73
13
 74
0
 42
0.0000001
 43
0.0000001
 44
0.0000000001
 40
0.0
 40
0.0
 40
0.0
 40
0.0
 40
0.1286863809
 40
0.2703052493
 40
0.4174525498
 40
0.5617956851
 40
0.6954565386
 40
0.8127131079
 40
0.8646782036
 40
0.912507715
 40
0.9571388614
 40
1.0
 40
1.0
 40
1.0
 40
1.0
 10
14.4064282583
 20
65.0556026748
 30
0.0
 10
14.5137696263
 20
64.9936442007
 30
0.0
 10
14.7221112473
 20
64.8332525321
 30
0.0
 10
14.9888415464
 20
64.5298857505
 30
0.0
 10
15.2083272584
 20
64.1728308716
 30
0.0
 10
15.3625240854
 20
63.7912368733
 30
0.0
 10
15.4390601866
 20
63.4160405378
 30
0.0
 10
15.4321467004
 20
63.120429696
 30
0.0
 10
15.3775052023
 20
62.9176355756
 30
0.0
 10
15.3164973398
 20
62.7915577438
 30
0.0
 10
15.2350197805
 20
62.6883774836
 30
0.0
 10
15.1671985035
 20
62.6365704371
 30
0.0
 10
15.1314491069
 20
62.6159299267
 30
0.0
  0
SPLINE
  5
3B5
100
AcDbEntity
  8
0
100
AcDbSpline
 62
7
  6
CONTINUOUS
 70
0
 71
3
 72
17
 73
13
 74
0
 42
0.0000001
 43
0.0000001
 44
0.0000000001
 40
0.0
 40
0.0
 40
0.0
 40
0.0
 40
0.1286863809
 40
0.2703052493
 40
0.4174525498
 40
0.5617956851
 40
0.6954565386
 40
0.8127131079
 40
0.8646782036
 40
0.912507715
 40
0.9571388614
 40
1.0
 40
1.0
 40
1.0
 40
1.0
 10
14.4064282582
 20
61.9447284651
 30
0.0
 10
14.5137696262
 20
61.882769991
 30
0.0
 10
14.7221112472
 20
61.7223783224
 30
0.0
 10
14.9888415463
 20
61.4190115408
 30
0.0
 10
15.2083272584
 20
61.061956662
 30
0.0
 10
15.3625240853
 20
60.6803626637
 30
0.0
 10
15.4390601865
 20
60.3051663282
 30
0.0
 10
15.4321467003
 20
60.0095554863
 30
0.0
 10
15.3775052022
 20
59.8067613659
 30
0.0
 10
15.3164973397
 20
59.6806835341
 30
0.0
 10
15.2350197805
 20
59.5775032738
 30
0.0
 10
15.1671985034
 20
59.5256962274
 30
0.0
 10
15.1314491069
 20
59.505055717
 30
0.0
  0
SPLINE
  5
3B6
100
AcDbEntity
  8
0
100
AcDbSpline
 62
7
  6
CONTINUOUS
 70
0
 71
3
 72
17
 73
13
 74
0
 42
0.0000001
 43
0.0000001
 44
0.0000000001
 40
0.0
 40
0.0
 40
0.0
 40
0.0
 40
0.1286863809
 40
0.2703052493
 40
0.4174525498
 40
0.5617956851
 40
0.6954565386
 40
0.8127131079
 40
0.8646782036
 40
0.912507715
 40
0.9571388614
 40
1.0
 40
1.0
 40
1.0
 40
1.0
 10
14.4064282583
 20
58.8338542554
 30
0.0
 10
14.5137696263
 20
58.7718957813
 30
0.0
 10
14.7221112473
 20
58.6115041127
 30
0.0
 10
14.9888415464
 20
58.3081373311
 30
0.0
 10
15.2083272584
 20
57.9510824522
 30
0.0
 10
15.3625240854
 20
57.5694884539
 30
0.0
 10
15.4390601866
 20
57.1942921184
 30
0.0
 10
15.4321467004
 20
56.8986812766
 30
0.0
 10
15.3775052023
 20
56.6958871562
 30
0.0
 10
15.3164973398
 20
56.5698093244
 30
0.0
 10
15.2350197805
 20
56.4666290641
 30
0.0
 10
15.1671985035
 20
56.4148220177
 30
0.0
 10
15.1314491069
 20
56.3941815073
 30
0.0
  0
SPLINE
  5
3B7
100
AcDbEntity
  8
0
100
AcDbSpline
 62
7
  6
CONTINUOUS
 70
0
 71
3
 72
17
 73
13
 74
0
 42
0.0000001
 43
0.0000001
 44
0.0000000001
 40
0.0
 40
0.0
 40
0.0
 40
0.0
 40
0.1286863809
 40
0.2703052493
 40
0.4174525498
 40
0.5617956851
 40
0.6954565386
 40
0.8127131079
 40
0.8646782036
 40
0.912507715
 40
0.9571388614
 40
1.0
 40
1.0
 40
1.0
 40
1.0
 10
14.4064282586
 20
55.7229800457
 30
0.0
 10
14.5137696266
 20
55.6610215717
 30
0.0
 10
14.7221112474
 20
55.500629903
 30
0.0
 10
14.9888415465
 20
55.1972631217
 30
0.0
 10
15.2083272585
 20
54.840208243
 30
0.0
 10
15.3625240854
 20
54.4586142449
 30
0.0
 10
15.4390601867
 20
54.0834179096
 30
0.0
 10
15.4321467005
 20
53.7878070678
 30
0.0
 10
15.3775052025
 20
53.5850129475
 30
0.0
 10
15.31649734
 20
53.4589351157
 30
0.0
 10
15.2350197808
 20
53.3557548555
 30
0.0
 10
15.1671985038
 20
53.3039478091
 30
0.0
 10
15.1314491073
 20
53.2833072987
 30
0.0
  0
SPLINE
  5
3B8
100
AcDbEntity
  8
0
100
AcDbSpline
 62
7
  6
CONTINUOUS
 70
0
 71
3
 72
17
 73
13
 74
0
 42
0.0000001
 43
0.0000001
 44
0.0000000001
 40
0.0
 40
0.0
 40
0.0
 40
0.0
 40
0.1286863809
 40
0.2703052493
 40
0.4174525498
 40
0.5617956851
 40
0.6954565386
 40
0.8127131079
 40
0.8646782036
 40
0.912507715
 40
0.9571388614
 40
1.0
 40
1.0
 40
1.0
 40
1.0
 10
14.4064282582
 20
52.6121058376
 30
0.0
 10
14.5137696262
 20
52.5501473635
 30
0.0
 10
14.7221112472
 20
52.3897556949
 30
0.0
 10
14.9888415463
 20
52.0863889133
 30
0.0
 10
15.2083272583
 20
51.7293340344
 30
0.0
 10
15.3625240853
 20
51.3477400361
 30
0.0
 10
15.4390601865
 20
50.9725437006
 30
0.0
 10
15.4321467003
 20
50.6769328587
 30
0.0
 10
15.3775052022
 20
50.4741387384
 30
0.0
 10
15.3164973397
 20
50.3480609065
 30
0.0
 10
15.2350197805
 20
50.2448806463
 30
0.0
 10
15.1671985034
 20
50.1930735999
 30
0.0
 10
15.1314491069
 20
50.1724330895
 30
0.0
  0
SPLINE
  5
3B9
100
AcDbEntity
  8
0
100
AcDbSpline
 62
7
  6
CONTINUOUS
 70
0
 71
3
 72
17
 73
13
 74
0
 42
0.0000001
 43
0.0000001
 44
0.0000000001
 40
0.0
 40
0.0
 40
0.0
 40
0.0
 40
0.1286863809
 40
0.2703052493
 40
0.4174525498
 40
0.5617956851
 40
0.6954565386
 40
0.8127131079
 40
0.8646782036
 40
0.912507715
 40
0.9571388614
 40
1.0
 40
1.0
 40
1.0
 40
1.0
 10
14.4064282582
 20
49.5012316279
 30
0.0
 10
14.5137696262
 20
49.4392731538
 30
0.0
 10
14.7221112472
 20
49.2788814852
 30
0.0
 10
14.9888415462
 20
48.9755147036
 30
0.0
 10
15.2083272583
 20
48.6184598248
 30
0.0
 10
15.3625240852
 20
48.2368658265
 30
0.0
 10
15.4390601864
 20
47.861669491
 30
0.0
 10
15.4321467002
 20
47.5660586491
 30
0.0
 10
15.3775052021
 20
47.3632645287
 30
0.0
 10
15.3164973396
 20
47.2371866969
 30
0.0
 10
15.2350197804
 20
47.1340064367
 30
0.0
 10
15.1671985034
 20
47.0821993902
 30
0.0
 10
15.1314491068
 20
47.0615588799
 30
0.0
  0
SPLINE
  5
3BA
100
AcDbEntity
  8
0
100
AcDbSpline
 62
7
  6
CONTINUOUS
 70
0
 71
3
 72
11
 73
7
 74
0
 42
0.0000001
 43
0.0000001
 44
0.0000000001
 40
0.0
 40
0.0
 40
0.0
 40
0.0
 40
0.2370450208
 40
0.4999976369
 40
0.7629523331
 40
1.0
 40
1.0
 40
1.0
 40
1.0
 10
17.0226767713
 20
45.0921233232
 30
0.0
 10
17.0026169304
 20
45.080541838
 30
0.0
 10
16.9559058052
 20
45.06371871
 30
0.0
 10
16.8812560138
 20
45.0554387636
 30
0.0
 10
16.8066059685
 20
45.0637184175
 30
0.0
 10
16.7598942086
 20
45.0805411741
 30
0.0
 10
16.7398340604
 20
45.0921226441
 30
0.0
  0
SPLINE
  5
3BB
100
AcDbEntity
  8
0
100
AcDbSpline
 62
7
  6
CONTINUOUS
 70
0
 71
3
 72
11
 73
7
 74
0
 42
0.0000001
 43
0.0000001
 44
0.0000000001
 40
0.0
 40
0.0
 40
0.0
 40
0.0
 40
0.2892210997
 40
0.5490324661
 40
0.7821969809
 40
1.0
 40
1.0
 40
1.0
 40
1.0
 10
13.3116177514
 20
47.0713594767
 30
0.0
 10
13.2897152453
 20
47.0840046086
 30
0.0
 10
13.2499669965
 20
47.1114795697
 30
0.0
 10
13.2023170733
 20
47.1613890563
 30
0.0
 10
13.1721854043
 20
47.2167276602
 30
0.0
 10
13.1651553978
 20
47.2564359542
 30
0.0
 10
13.1651906448
 20
47.2754815211
 30
0.0
  0
SPLINE
  5
3BC
100
AcDbEntity
  8
0
100
AcDbSpline
 62
7
  6
CONTINUOUS
 70
0
 71
3
 72
9
 73
5
 74
0
 42
0.0000001
 43
0.0000001
 44
0.0000000001
 40
0.0
 40
0.0
 40
0.0
 40
0.0
 40
0.5500415757
 40
1.0
 40
1.0
 40
1.0
 40
1.0
 10
11.2567951725
 20
51.6427184254
 30
0.0
 10
11.2402812156
 20
51.6522525473
 30
0.0
 10
11.2119852739
 20
51.6740847849
 30
0.0
 10
11.19819749
 20
51.7087683262
 30
0.0
 10
11.1981974821
 20
51.7243672605
 30
0.0
  0
SPLINE
  5
3BD
100
AcDbEntity
  8
0
100
AcDbSpline
 62
7
  6
CONTINUOUS
 70
0
 71
3
 72
11
 73
7
 74
0
 42
0.0000001
 43
0.0000001
 44
0.0000000001
 40
0.0
 40
0.0
 40
0.0
 40
0.0
 40
0.2178024095
 40
0.4509669671
 40
0.710778893
 40
1.0
 40
1.0
 40
1.0
 40
1.0
 10
13.165190586
 20
45.9609126307
 30
0.0
 10
13.1651553708
 20
45.9418671175
 30
0.0
 10
13.1721853771
 20
45.9021588879
 30
0.0
 10
13.2023170175
 20
45.8468202644
 30
0.0
 10
13.2499670004
 20
45.796910766
 30
0.0
 10
13.2897152452
 20
45.769435717
 30
0.0
 10
13.3116177514
 20
45.7567905851
 30
0.0
  0
SPLINE
  5
3BE
100
AcDbEntity
  8
0
100
AcDbSpline
 62
7
  6
CONTINUOUS
 70
0
 71
3
 72
11
 73
7
 74
0
 42
0.0000001
 43
0.0000001
 44
0.0000000001
 40
0.0
 40
0.0
 40
0.0
 40
0.0
 40
0.2177240355
 40
0.4508652645
 40
0.7104596417
 40
1.0
 40
1.0
 40
1.0
 40
1.0
 10
15.1314484856
 20
41.9869991992
 30
0.0
 10
15.0836219237
 20
41.9593857331
 30
0.0
 10
14.9737503426
 20
41.9194023766
 30
0.0
 10
14.7911086248
 20
41.9148242109
 30
0.0
 10
14.5965491951
 20
41.9619302935
 30
0.0
 10
14.4699141188
 20
42.0220956032
 30
0.0
 10
14.4063147094
 20
42.0588221482
 30
0.0
  0
SPLINE
  5
3BF
100
AcDbEntity
  8
0
100
AcDbSpline
 62
7
  6
CONTINUOUS
 70
0
 71
3
 72
11
 73
7
 74
0
 42
0.0000001
 43
0.0000001
 44
0.0000000001
 40
0.0
 40
0.0
 40
0.0
 40
0.0
 40
0.2177240355
 40
0.4508652645
 40
0.7104596417
 40
1.0
 40
1.0
 40
1.0
 40
1.0
 10
15.1314484856
 20
20.2108797343
 30
0.0
 10
15.0836219238
 20
20.1832662682
 30
0.0
 10
14.9737503426
 20
20.1432829117
 30
0.0
 10
14.7911086249
 20
20.138704746
 30
0.0
 10
14.5965491951
 20
20.1858108286
 30
0.0
 10
14.4699141188
 20
20.2459761383
 30
0.0
 10
14.4063147094
 20
20.2827026833
 30
0.0
  0
SPLINE
  5
3C0
100
AcDbEntity
  8
0
100
AcDbSpline
 62
7
  6
CONTINUOUS
 70
0
 71
3
 72
11
 73
7
 74
0
 42
0.0000001
 43
0.0000001
 44
0.0000000001
 40
0.0
 40
0.0
 40
0.0
 40
0.0
 40
0.2177240899
 40
0.4508653094
 40
0.7104596759
 40
1.0
 40
1.0
 40
1.0
 40
1.0
 10
15.1314491073
 20
75.0594267636
 30
0.0
 10
15.0836224827
 20
75.0318132642
 30
0.0
 10
14.9737508156
 20
74.9918298118
 30
0.0
 10
14.7911088999
 20
74.9872513803
 30
0.0
 10
14.5965492641
 20
75.0343575133
 30
0.0
 10
14.4699140624
 20
75.0945228283
 30
0.0
 10
14.4063145396
 20
75.1312493115
 30
0.0
  0
SPLINE
  5
3C1
100
AcDbEntity
  8
0
100
AcDbSpline
 62
7
  6
CONTINUOUS
 70
0
 71
3
 72
17
 73
13
 74
0
 42
0.0000001
 43
0.0000001
 44
0.0000000001
 40
0.0
 40
0.0
 40
0.0
 40
0.0
 40
0.1286864028
 40
0.2703052613
 40
0.4174525446
 40
0.5617956813
 40
0.6954565369
 40
0.8127131104
 40
0.8646782062
 40
0.9125077164
 40
0.957138862
 40
1.0
 40
1.0
 40
1.0
 40
1.0
 10
14.406314709
 20
14.0609542654
 30
0.0
 10
14.2989735713
 20
14.1229124282
 30
0.0
 10
14.0906328246
 20
14.2833039947
 30
0.0
 10
13.8239031639
 20
14.5866696218
 30
0.0
 10
13.6044180645
 20
14.9437233857
 30
0.0
 10
13.4502216472
 20
15.3253161803
 30
0.0
 10
13.3736857132
 20
15.7005113733
 30
0.0
 10
13.3805991328
 20
15.9961213254
 30
0.0
 10
13.4352404365
 20
16.1989148412
 30
0.0
 10
13.4962481002
 20
16.3249922954
 30
0.0
 10
13.5777254
 20
16.4281722481
 30
0.0
 10
13.6455464632
 20
16.4799791465
 30
0.0
 10
13.6812957498
 20
16.5006195954
 30
0.0
  0
SPLINE
  5
3C2
100
AcDbEntity
  8
0
100
AcDbSpline
 62
7
  6
CONTINUOUS
 70
0
 71
3
 72
11
 73
7
 74
0
 42
0.0000001
 43
0.0000001
 44
0.0000000001
 40
0.0
 40
0.0
 40
0.0
 40
0.0
 40
0.2177240899
 40
0.4508653095
 40
0.7104596759
 40
1.0
 40
1.0
 40
1.0
 40
1.0
 10
15.1314491069
 20
71.9485525543
 30
0.0
 10
15.0836224824
 20
71.920939055
 30
0.0
 10
14.9737508154
 20
71.8809556026
 30
0.0
 10
14.7911088999
 20
71.8763771709
 30
0.0
 10
14.5965492643
 20
71.9234833038
 30
0.0
 10
14.4699140627
 20
71.9836486187
 30
0.0
 10
14.40631454
 20
72.0203751018
 30
0.0
  0
SPLINE
  5
3C3
100
AcDbEntity
  8
0
100
AcDbSpline
 62
7
  6
CONTINUOUS
 70
0
 71
3
 72
17
 73
13
 74
0
 42
0.0000001
 43
0.0000001
 44
0.0000000001
 40
0.0
 40
0.0
 40
0.0
 40
0.0
 40
0.1286864028
 40
0.2703052613
 40
0.4174525446
 40
0.5617956813
 40
0.6954565369
 40
0.8127131104
 40
0.8646782062
 40
0.9125077164
 40
0.957138862
 40
1.0
 40
1.0
 40
1.0
 40
1.0
 10
14.4063147094
 20
42.0588221482
 30
0.0
 10
14.2989735716
 20
42.120780311
 30
0.0
 10
14.0906328247
 20
42.2811718774
 30
0.0
 10
13.823903164
 20
42.5845375048
 30
0.0
 10
13.6044180646
 20
42.9415912689
 30
0.0
 10
13.4502216472
 20
43.3231840636
 30
0.0
 10
13.3736857133
 20
43.6983792568
 30
0.0
 10
13.3805991329
 20
43.993989209
 30
0.0
 10
13.4352404367
 20
44.1967827249
 30
0.0
 10
13.4962481004
 20
44.3228601792
 30
0.0
 10
13.5777254002
 20
44.4260401319
 30
0.0
 10
13.6455464635
 20
44.4778470303
 30
0.0
 10
13.6812957501
 20
44.4984874792
 30
0.0
  0
SPLINE
  5
3C4
100
AcDbEntity
  8
0
100
AcDbSpline
 62
7
  6
CONTINUOUS
 70
0
 71
3
 72
11
 73
7
 74
0
 42
0.0000001
 43
0.0000001
 44
0.0000000001
 40
0.0
 40
0.0
 40
0.0
 40
0.0
 40
0.2177240899
 40
0.4508653095
 40
0.7104596759
 40
1.0
 40
1.0
 40
1.0
 40
1.0
 10
15.1314491068
 20
68.8376783446
 30
0.0
 10
15.0836224823
 20
68.8100648453
 30
0.0
 10
14.9737508154
 20
68.7700813929
 30
0.0
 10
14.7911088999
 20
68.7655029612
 30
0.0
 10
14.5965492644
 20
68.8126090941
 30
0.0
 10
14.4699140628
 20
68.8727744089
 30
0.0
 10
14.40631454
 20
68.909500892
 30
0.0
  0
SPLINE
  5
3C5
100
AcDbEntity
  8
0
100
AcDbSpline
 62
7
  6
CONTINUOUS
 70
0
 71
3
 72
11
 73
7
 74
0
 42
0.0000001
 43
0.0000001
 44
0.0000000001
 40
0.0
 40
0.0
 40
0.0
 40
0.0
 40
0.2177240355
 40
0.4508652645
 40
0.7104596417
 40
1.0
 40
1.0
 40
1.0
 40
1.0
 10
15.131448486
 20
13.989131316
 30
0.0
 10
15.0836219241
 20
13.9615178499
 30
0.0
 10
14.9737503428
 20
13.9215344934
 30
0.0
 10
14.7911086249
 20
13.9169563279
 30
0.0
 10
14.596549195
 20
13.9640624105
 30
0.0
 10
14.4699141185
 20
14.0242277204
 30
0.0
 10
14.406314709
 20
14.0609542654
 30
0.0
  0
SPLINE
  5
3C6
100
AcDbEntity
  8
0
100
AcDbSpline
 62
7
  6
CONTINUOUS
 70
0
 71
3
 72
11
 73
7
 74
0
 42
0.0000001
 43
0.0000001
 44
0.0000000001
 40
0.0
 40
0.0
 40
0.0
 40
0.0
 40
0.2177240899
 40
0.4508653094
 40
0.7104596759
 40
1.0
 40
1.0
 40
1.0
 40
1.0
 10
15.1314491072
 20
65.7268041361
 30
0.0
 10
15.0836224827
 20
65.6991906367
 30
0.0
 10
14.9737508156
 20
65.6592071843
 30
0.0
 10
14.7911088999
 20
65.6546287528
 30
0.0
 10
14.5965492641
 20
65.7017348858
 30
0.0
 10
14.4699140624
 20
65.7619002007
 30
0.0
 10
14.4063145396
 20
65.798626684
 30
0.0
  0
SPLINE
  5
3C7
100
AcDbEntity
  8
0
100
AcDbSpline
 62
7
  6
CONTINUOUS
 70
0
 71
3
 72
11
 73
7
 74
0
 42
0.0000001
 43
0.0000001
 44
0.0000000001
 40
0.0
 40
0.0
 40
0.0
 40
0.0
 40
0.2177240355
 40
0.4508652645
 40
0.7104596417
 40
1.0
 40
1.0
 40
1.0
 40
1.0
 10
15.131448486
 20
17.1000055257
 30
0.0
 10
15.0836219241
 20
17.0723920596
 30
0.0
 10
14.9737503428
 20
17.0324087031
 30
0.0
 10
14.7911086249
 20
17.0278305376
 30
0.0
 10
14.596549195
 20
17.0749366202
 30
0.0
 10
14.4699141185
 20
17.13510193
 30
0.0
 10
14.406314709
 20
17.1718284751
 30
0.0
  0
SPLINE
  5
3C8
100
AcDbEntity
  8
0
100
AcDbSpline
 62
7
  6
CONTINUOUS
 70
0
 71
3
 72
11
 73
7
 74
0
 42
0.0000001
 43
0.0000001
 44
0.0000000001
 40
0.0
 40
0.0
 40
0.0
 40
0.0
 40
0.2177240899
 40
0.4508653095
 40
0.7104596759
 40
1.0
 40
1.0
 40
1.0
 40
1.0
 10
15.1314491069
 20
62.6159299267
 30
0.0
 10
15.0836224825
 20
62.5883164274
 30
0.0
 10
14.9737508155
 20
62.548332975
 30
0.0
 10
14.7911089
 20
62.5437545433
 30
0.0
 10
14.5965492645
 20
62.5908606762
 30
0.0
 10
14.4699140629
 20
62.651025991
 30
0.0
 10
14.4063145402
 20
62.6877524742
 30
0.0
  0
SPLINE
  5
3C9
100
AcDbEntity
  8
0
100
AcDbSpline
 62
7
  6
CONTINUOUS
 70
0
 71
3
 72
11
 73
7
 74
0
 42
0.0000001
 43
0.0000001
 44
0.0000000001
 40
0.0
 40
0.0
 40
0.0
 40
0.0
 40
0.2177240899
 40
0.4508653095
 40
0.7104596759
 40
1.0
 40
1.0
 40
1.0
 40
1.0
 10
15.1314491069
 20
59.505055717
 30
0.0
 10
15.0836224824
 20
59.4774422177
 30
0.0
 10
14.9737508154
 20
59.4374587653
 30
0.0
 10
14.7911089
 20
59.4328803336
 30
0.0
 10
14.5965492644
 20
59.4799864665
 30
0.0
 10
14.4699140628
 20
59.5401517813
 30
0.0
 10
14.4063145401
 20
59.5768782645
 30
0.0
  0
SPLINE
  5
3CA
100
AcDbEntity
  8
0
100
AcDbSpline
 62
7
  6
CONTINUOUS
 70
0
 71
3
 72
11
 73
7
 74
0
 42
0.0000001
 43
0.0000001
 44
0.0000000001
 40
0.0
 40
0.0
 40
0.0
 40
0.0
 40
0.2177240899
 40
0.4508653095
 40
0.7104596759
 40
1.0
 40
1.0
 40
1.0
 40
1.0
 10
15.1314491069
 20
56.3941815073
 30
0.0
 10
15.0836224825
 20
56.366568008
 30
0.0
 10
14.9737508155
 20
56.3265845556
 30
0.0
 10
14.7911089
 20
56.3220061239
 30
0.0
 10
14.5965492644
 20
56.3691122568
 30
0.0
 10
14.4699140628
 20
56.4292775716
 30
0.0
 10
14.4063145401
 20
56.4660040548
 30
0.0
  0
SPLINE
  5
3CB
100
AcDbEntity
  8
0
100
AcDbSpline
 62
7
  6
CONTINUOUS
 70
0
 71
3
 72
17
 73
13
 74
0
 42
0.0000001
 43
0.0000001
 44
0.0000000001
 40
0.0
 40
0.0
 40
0.0
 40
0.0
 40
0.1286864028
 40
0.2703052613
 40
0.4174525446
 40
0.5617956813
 40
0.6954565369
 40
0.8127131104
 40
0.8646782062
 40
0.9125077164
 40
0.957138862
 40
1.0
 40
1.0
 40
1.0
 40
1.0
 10
14.406314709
 20
29.6153253124
 30
0.0
 10
14.2989735712
 20
29.6772834752
 30
0.0
 10
14.0906328245
 20
29.8376750417
 30
0.0
 10
13.8239031639
 20
30.1410406688
 30
0.0
 10
13.6044180645
 20
30.4980944327
 30
0.0
 10
13.4502216472
 20
30.8796872273
 30
0.0
 10
13.3736857132
 20
31.2548824203
 30
0.0
 10
13.3805991328
 20
31.5504923723
 30
0.0
 10
13.4352404365
 20
31.7532858882
 30
0.0
 10
13.4962481002
 20
31.8793633424
 30
0.0
 10
13.5777254
 20
31.9825432951
 30
0.0
 10
13.6455464632
 20
32.0343501935
 30
0.0
 10
13.6812957498
 20
32.0549906424
 30
0.0
  0
SPLINE
  5
3CC
100
AcDbEntity
  8
0
100
AcDbSpline
 62
7
  6
CONTINUOUS
 70
0
 71
3
 72
11
 73
7
 74
0
 42
0.0000001
 43
0.0000001
 44
0.0000000001
 40
0.0
 40
0.0
 40
0.0
 40
0.0
 40
0.2177240355
 40
0.4508652645
 40
0.7104596417
 40
1.0
 40
1.0
 40
1.0
 40
1.0
 10
15.1314484856
 20
23.321753944
 30
0.0
 10
15.0836219238
 20
23.294140478
 30
0.0
 10
14.9737503426
 20
23.2541571215
 30
0.0
 10
14.7911086249
 20
23.2495789558
 30
0.0
 10
14.5965491952
 20
23.2966850383
 30
0.0
 10
14.4699141189
 20
23.356850348
 30
0.0
 10
14.4063147094
 20
23.393576893
 30
0.0
  0
SPLINE
  5
3CD
100
AcDbEntity
  8
0
100
AcDbSpline
 62
7
  6
CONTINUOUS
 70
0
 71
3
 72
11
 73
7
 74
0
 42
0.0000001
 43
0.0000001
 44
0.0000000001
 40
0.0
 40
0.0
 40
0.0
 40
0.0
 40
0.2177240899
 40
0.4508653094
 40
0.7104596759
 40
1.0
 40
1.0
 40
1.0
 40
1.0
 10
15.1314491073
 20
53.2833072987
 30
0.0
 10
15.0836224827
 20
53.2556937994
 30
0.0
 10
14.9737508156
 20
53.215710347
 30
0.0
 10
14.7911088999
 20
53.2111319154
 30
0.0
 10
14.5965492641
 20
53.2582380484
 30
0.0
 10
14.4699140624
 20
53.3184033634
 30
0.0
 10
14.4063145396
 20
53.3551298467
 30
0.0
  0
SPLINE
  5
3CE
100
AcDbEntity
  8
0
100
AcDbSpline
 62
7
  6
CONTINUOUS
 70
0
 71
3
 72
11
 73
7
 74
0
 42
0.0000001
 43
0.0000001
 44
0.0000000001
 40
0.0
 40
0.0
 40
0.0
 40
0.0
 40
0.2177231993
 40
0.4508753011
 40
0.7104743705
 40
1.0
 40
1.0
 40
1.0
 40
1.0
 10
81.0012818104
 20
41.1469193172
 30
0.0
 10
81.0425048426
 20
41.1231235841
 30
0.0
 10
81.119698255
 20
41.0583432389
 30
0.0
 10
81.2018456677
 20
40.9240002352
 30
0.0
 10
81.2505328459
 20
40.7584771911
 30
0.0
 10
81.2602001758
 20
40.6380306622
 30
0.0
 10
81.2602001758
 20
40.5747353484
 30
0.0
  0
SPLINE
  5
3CF
100
AcDbEntity
  8
0
100
AcDbSpline
 62
7
  6
CONTINUOUS
 70
0
 71
3
 72
11
 73
7
 74
0
 42
0.0000001
 43
0.0000001
 44
0.0000000001
 40
0.0
 40
0.0
 40
0.0
 40
0.0
 40
0.2177231993
 40
0.4508753011
 40
0.7104743705
 40
1.0
 40
1.0
 40
1.0
 40
1.0
 10
81.0012818104
 20
108.1001175218
 30
0.0
 10
81.0425048426
 20
108.0763217887
 30
0.0
 10
81.119698255
 20
108.0115414435
 30
0.0
 10
81.2018456677
 20
107.8771984398
 30
0.0
 10
81.2505328459
 20
107.7116753957
 30
0.0
 10
81.2602001758
 20
107.5912288669
 30
0.0
 10
81.2602001758
 20
107.527933553
 30
0.0
  0
SPLINE
  5
3D0
100
AcDbEntity
  8
0
100
AcDbSpline
 62
7
  6
CONTINUOUS
 70
0
 71
3
 72
11
 73
7
 74
0
 42
0.0000001
 43
0.0000001
 44
0.0000000001
 40
0.0
 40
0.0
 40
0.0
 40
0.0
 40
0.2177240899
 40
0.4508653095
 40
0.7104596759
 40
1.0
 40
1.0
 40
1.0
 40
1.0
 10
15.1314491069
 20
50.1724330895
 30
0.0
 10
15.0836224824
 20
50.1448195901
 30
0.0
 10
14.9737508154
 20
50.1048361378
 30
0.0
 10
14.7911088999
 20
50.1002577061
 30
0.0
 10
14.5965492643
 20
50.1473638389
 30
0.0
 10
14.4699140627
 20
50.2075291538
 30
0.0
 10
14.40631454
 20
50.244255637
 30
0.0
  0
SPLINE
  5
3D1
100
AcDbEntity
  8
0
100
AcDbSpline
 62
7
  6
CONTINUOUS
 70
0
 71
3
 72
11
 73
7
 74
0
 42
0.0000001
 43
0.0000001
 44
0.0000000001
 40
0.0
 40
0.0
 40
0.0
 40
0.0
 40
0.2177231993
 40
0.4508753011
 40
0.7104743705
 40
1.0
 40
1.0
 40
1.0
 40
1.0
 10
54.1487899841
 20
92.6170715445
 30
0.0
 10
54.1911642973
 20
92.5926112416
 30
0.0
 10
54.2705135755
 20
92.5260217043
 30
0.0
 10
54.3549552096
 20
92.3879267552
 30
0.0
 10
54.4050021284
 20
92.2177809663
 30
0.0
 10
54.4149394485
 20
92.0939705943
 30
0.0
 10
54.4149394485
 20
92.0289075624
 30
0.0
  0
SPLINE
  5
3D2
100
AcDbEntity
  8
0
100
AcDbSpline
 62
7
  6
CONTINUOUS
 70
0
 71
3
 72
11
 73
7
 74
0
 42
0.0000001
 43
0.0000001
 44
0.0000000001
 40
0.0
 40
0.0
 40
0.0
 40
0.0
 40
0.2177240899
 40
0.4508653095
 40
0.7104596759
 40
1.0
 40
1.0
 40
1.0
 40
1.0
 10
15.1314491068
 20
47.0615588799
 30
0.0
 10
15.0836224823
 20
47.0339453805
 30
0.0
 10
14.9737508154
 20
46.9939619282
 30
0.0
 10
14.7911088999
 20
46.9893834964
 30
0.0
 10
14.5965492644
 20
47.0364896293
 30
0.0
 10
14.4699140628
 20
47.0966549441
 30
0.0
 10
14.40631454
 20
47.1333814273
 30
0.0
  0
SPLINE
  5
3D3
100
AcDbEntity
  8
0
100
AcDbSpline
 62
7
  6
CONTINUOUS
 70
0
 71
3
 72
11
 73
7
 74
0
 42
0.0000001
 43
0.0000001
 44
0.0000000001
 40
0.0
 40
0.0
 40
0.0
 40
0.0
 40
0.2177240355
 40
0.4508652645
 40
0.7104596417
 40
1.0
 40
1.0
 40
1.0
 40
1.0
 10
15.1314484859
 20
26.4326281532
 30
0.0
 10
15.083621924
 20
26.4050146871
 30
0.0
 10
14.9737503428
 20
26.3650313307
 30
0.0
 10
14.7911086248
 20
26.3604531651
 30
0.0
 10
14.5965491949
 20
26.4075592478
 30
0.0
 10
14.4699141185
 20
26.4677245576
 30
0.0
 10
14.406314709
 20
26.5044511027
 30
0.0
  0
SPLINE
  5
3D4
100
AcDbEntity
  8
0
100
AcDbSpline
 62
7
  6
CONTINUOUS
 70
0
 71
3
 72
9
 73
5
 74
0
 42
0.0000001
 43
0.0000001
 44
0.0000000001
 40
0.0
 40
0.0
 40
0.0
 40
0.0
 40
0.4499591046
 40
1.0
 40
1.0
 40
1.0
 40
1.0
 10
11.1981974821
 20
83.4781462538
 30
0.0
 10
11.1981974742
 20
83.4625473116
 30
0.0
 10
11.2119856189
 20
83.4278639583
 30
0.0
 10
11.2402812527
 20
83.406031528
 30
0.0
 10
11.2567951725
 20
83.3964974276
 30
0.0
  0
SPLINE
  5
3D5
100
AcDbEntity
  8
0
100
AcDbSpline
 62
7
  6
CONTINUOUS
 70
0
 71
3
 72
9
 73
5
 74
0
 42
0.0000001
 43
0.0000001
 44
0.0000000001
 40
0.0
 40
0.0
 40
0.0
 40
0.0
 40
0.4490934174
 40
1.0
 40
1.0
 40
1.0
 40
1.0
 10
14.5577377247
 20
81.4369418138
 30
0.0
 10
14.557726961
 20
81.4296860375
 30
0.0
 10
14.5640964451
 20
81.4134942267
 30
0.0
 10
14.5773238849
 20
81.4033509057
 30
0.0
 10
14.5850321868
 20
81.3989006159
 30
0.0
  0
SPLINE
  5
3D6
100
AcDbEntity
  8
0
100
AcDbSpline
 62
7
  6
CONTINUOUS
 70
0
 71
3
 72
11
 73
7
 74
0
 42
0.0000001
 43
0.0000001
 44
0.0000000001
 40
0.0
 40
0.0
 40
0.0
 40
0.0
 40
0.2177231375
 40
0.4508717886
 40
0.7104673698
 40
1.0
 40
1.0
 40
1.0
 40
1.0
 10
54.148790739
 20
25.6638747484
 30
0.0
 10
54.1911643199
 20
25.6394130765
 30
0.0
 10
54.2705138667
 20
25.5728253813
 30
0.0
 10
54.3549538192
 20
25.434730786
 30
0.0
 10
54.4050032539
 20
25.2645856666
 30
0.0
 10
54.4149394483
 20
25.1407740467
 30
0.0
 10
54.4149394483
 20
25.0757093564
 30
0.0
  0
SPLINE
  5
3D7
100
AcDbEntity
  8
0
100
AcDbSpline
 62
7
  6
CONTINUOUS
 70
0
 71
3
 72
11
 73
7
 74
0
 42
0.0000001
 43
0.0000001
 44
0.0000000001
 40
0.0
 40
0.0
 40
0.0
 40
0.0
 40
0.2178024095
 40
0.4509669671
 40
0.710778893
 40
1.0
 40
1.0
 40
1.0
 40
1.0
 10
13.165190586
 20
79.0292605244
 30
0.0
 10
13.1651553708
 20
79.0102150113
 30
0.0
 10
13.1721853771
 20
78.9705067816
 30
0.0
 10
13.2023170175
 20
78.9151681582
 30
0.0
 10
13.2499670004
 20
78.8652586598
 30
0.0
 10
13.2897152452
 20
78.8377836108
 30
0.0
 10
13.3116177514
 20
78.8251384789
 30
0.0
  0
SPLINE
  5
3D8
100
AcDbEntity
  8
0
100
AcDbSpline
 62
7
  6
CONTINUOUS
 70
0
 71
3
 72
11
 73
7
 74
0
 42
0.0000001
 43
0.0000001
 44
0.0000000001
 40
0.0
 40
0.0
 40
0.0
 40
0.0
 40
0.2177240355
 40
0.4508652645
 40
0.7104596417
 40
1.0
 40
1.0
 40
1.0
 40
1.0
 10
15.1314484859
 20
29.543502363
 30
0.0
 10
15.083621924
 20
29.5158888969
 30
0.0
 10
14.9737503428
 20
29.4759055404
 30
0.0
 10
14.7911086248
 20
29.4713273749
 30
0.0
 10
14.5965491949
 20
29.5184334575
 30
0.0
 10
14.4699141185
 20
29.5785987674
 30
0.0
 10
14.406314709
 20
29.6153253124
 30
0.0
  0
SPLINE
  5
3D9
100
AcDbEntity
  8
0
100
AcDbSpline
 62
7
  6
CONTINUOUS
 70
0
 71
3
 72
11
 73
7
 74
0
 42
0.0000001
 43
0.0000001
 44
0.0000000001
 40
0.0
 40
0.0
 40
0.0
 40
0.0
 40
0.2370457846
 40
0.4999986894
 40
0.7629530968
 40
1.0
 40
1.0
 40
1.0
 40
1.0
 10
16.7398340604
 20
76.8459016463
 30
0.0
 10
16.7598940494
 20
76.8343202683
 30
0.0
 10
16.8066053575
 20
76.817497372
 30
0.0
 10
16.8812552623
 20
76.8092177657
 30
0.0
 10
16.9559051942
 20
76.8174977598
 30
0.0
 10
17.0026167711
 20
76.8343207482
 30
0.0
 10
17.0226767713
 20
76.8459023254
 30
0.0
  0
SPLINE
  5
3DA
100
AcDbEntity
  8
0
100
AcDbSpline
 62
7
  6
CONTINUOUS
 70
0
 71
3
 72
17
 73
13
 74
0
 42
0.0000001
 43
0.0000001
 44
0.0000000001
 40
0.0
 40
0.0
 40
0.0
 40
0.0
 40
0.128686406
 40
0.2703052868
 40
0.4174525828
 40
0.5617957119
 40
0.6954565549
 40
0.8127131155
 40
0.8646782077
 40
0.9125077166
 40
0.9571388618
 40
1.0
 40
1.0
 40
1.0
 40
1.0
 10
14.4063145396
 20
75.1312493115
 30
0.0
 10
14.2989731256
 20
75.1932077206
 30
0.0
 10
14.0906316719
 20
75.3535996459
 30
0.0
 10
13.8239014046
 20
75.6569663816
 30
0.0
 10
13.6044157741
 20
76.0140212597
 30
0.0
 10
13.4502190235
 20
76.3956152021
 30
0.0
 10
13.3736829778
 20
76.7708114714
 30
0.0
 10
13.3805964936
 20
77.0664222497
 30
0.0
 10
13.4352379992
 20
77.2692163237
 30
0.0
 10
13.4962458607
 20
77.395294127
 30
0.0
 10
13.5777234116
 20
77.4984743654
 30
0.0
 10
13.6455446778
 20
77.5502814038
 30
0.0
 10
13.681294069
 20
77.5709219114
 30
0.0
  0
SPLINE
  5
3DB
100
AcDbEntity
  8
0
100
AcDbSpline
 62
7
  6
CONTINUOUS
 70
0
 71
3
 72
17
 73
13
 74
0
 42
0.0000001
 43
0.0000001
 44
0.0000000001
 40
0.0
 40
0.0
 40
0.0
 40
0.0
 40
0.1286864059
 40
0.2703052868
 40
0.4174525828
 40
0.5617957119
 40
0.6954565549
 40
0.8127131155
 40
0.8646782077
 40
0.9125077166
 40
0.9571388618
 40
1.0
 40
1.0
 40
1.0
 40
1.0
 10
14.40631454
 20
72.0203751018
 30
0.0
 10
14.298973126
 20
72.082333511
 30
0.0
 10
14.0906316721
 20
72.2427254362
 30
0.0
 10
13.8239014048
 20
72.5460921721
 30
0.0
 10
13.6044157742
 20
72.9031470504
 30
0.0
 10
13.4502190237
 20
73.284740993
 30
0.0
 10
13.3736829779
 20
73.6599372625
 30
0.0
 10
13.3805964938
 20
73.9555480409
 30
0.0
 10
13.4352379994
 20
74.1583421149
 30
0.0
 10
13.496245861
 20
74.2844199183
 30
0.0
 10
13.5777234119
 20
74.3876001567
 30
0.0
 10
13.6455446782
 20
74.4394071951
 30
0.0
 10
13.6812940694
 20
74.4600477028
 30
0.0
  0
SPLINE
  5
3DC
100
AcDbEntity
  8
0
100
AcDbSpline
 62
7
  6
CONTINUOUS
 70
0
 71
3
 72
17
 73
13
 74
0
 42
0.0000001
 43
0.0000001
 44
0.0000000001
 40
0.0
 40
0.0
 40
0.0
 40
0.0
 40
0.1286864059
 40
0.2703052868
 40
0.4174525828
 40
0.5617957119
 40
0.6954565549
 40
0.8127131155
 40
0.8646782077
 40
0.9125077166
 40
0.9571388618
 40
1.0
 40
1.0
 40
1.0
 40
1.0
 10
14.40631454
 20
68.909500892
 30
0.0
 10
14.2989731261
 20
68.9714593012
 30
0.0
 10
14.0906316721
 20
69.1318512264
 30
0.0
 10
13.8239014048
 20
69.4352179624
 30
0.0
 10
13.6044157743
 20
69.7922728407
 30
0.0
 10
13.4502190237
 20
70.1738667832
 30
0.0
 10
13.373682978
 20
70.5490630527
 30
0.0
 10
13.3805964939
 20
70.8446738312
 30
0.0
 10
13.4352379995
 20
71.0474679051
 30
0.0
 10
13.4962458611
 20
71.1735457085
 30
0.0
 10
13.577723412
 20
71.2767259469
 30
0.0
 10
13.6455446783
 20
71.3285329853
 30
0.0
 10
13.6812940695
 20
71.349173493
 30
0.0
  0
SPLINE
  5
3DD
100
AcDbEntity
  8
0
100
AcDbSpline
 62
7
  6
CONTINUOUS
 70
0
 71
3
 72
17
 73
13
 74
0
 42
0.0000001
 43
0.0000001
 44
0.0000000001
 40
0.0
 40
0.0
 40
0.0
 40
0.0
 40
0.128686406
 40
0.2703052868
 40
0.4174525828
 40
0.5617957119
 40
0.6954565549
 40
0.8127131155
 40
0.8646782077
 40
0.9125077166
 40
0.9571388618
 40
1.0
 40
1.0
 40
1.0
 40
1.0
 10
14.4063145396
 20
65.798626684
 30
0.0
 10
14.2989731256
 20
65.860585093
 30
0.0
 10
14.0906316719
 20
66.0209770183
 30
0.0
 10
13.8239014046
 20
66.3243437541
 30
0.0
 10
13.6044157741
 20
66.6813986322
 30
0.0
 10
13.4502190236
 20
67.0629925745
 30
0.0
 10
13.3736829778
 20
67.4381888438
 30
0.0
 10
13.3805964937
 20
67.7337996222
 30
0.0
 10
13.4352379992
 20
67.9365936961
 30
0.0
 10
13.4962458608
 20
68.0626714994
 30
0.0
 10
13.5777234116
 20
68.1658517378
 30
0.0
 10
13.6455446779
 20
68.2176587762
 30
0.0
 10
13.6812940691
 20
68.2382992838
 30
0.0
  0
SPLINE
  5
3DE
100
AcDbEntity
  8
0
100
AcDbSpline
 62
7
  6
CONTINUOUS
 70
0
 71
3
 72
9
 73
5
 74
0
 42
0.0000001
 43
0.0000001
 44
0.0000000001
 40
0.0
 40
0.0
 40
0.0
 40
0.0
 40
0.4499591046
 40
1.0
 40
1.0
 40
1.0
 40
1.0
 10
11.1981974821
 20
50.40979836
 30
0.0
 10
11.1981974742
 20
50.3941994179
 30
0.0
 10
11.2119856189
 20
50.3595160645
 30
0.0
 10
11.2402812527
 20
50.3376836343
 30
0.0
 10
11.2567951725
 20
50.3281495338
 30
0.0
  0
SPLINE
  5
3DF
100
AcDbEntity
  8
0
100
AcDbSpline
 62
7
  6
CONTINUOUS
 70
0
 71
3
 72
17
 73
13
 74
0
 42
0.0000001
 43
0.0000001
 44
0.0000000001
 40
0.0
 40
0.0
 40
0.0
 40
0.0
 40
0.1286864059
 40
0.2703052868
 40
0.4174525828
 40
0.5617957119
 40
0.6954565549
 40
0.8127131155
 40
0.8646782077
 40
0.9125077166
 40
0.9571388618
 40
1.0
 40
1.0
 40
1.0
 40
1.0
 10
14.4063145402
 20
62.6877524742
 30
0.0
 10
14.2989731262
 20
62.7497108834
 30
0.0
 10
14.0906316722
 20
62.9101028085
 30
0.0
 10
13.823901405
 20
63.2134695445
 30
0.0
 10
13.6044157744
 20
63.5705244228
 30
0.0
 10
13.4502190238
 20
63.9521183654
 30
0.0
 10
13.3736829781
 20
64.3273146348
 30
0.0
 10
13.380596494
 20
64.6229254133
 30
0.0
 10
13.4352379996
 20
64.8257194873
 30
0.0
 10
13.4962458611
 20
64.9517972907
 30
0.0
 10
13.577723412
 20
65.0549775291
 30
0.0
 10
13.6455446783
 20
65.1067845675
 30
0.0
 10
13.6812940696
 20
65.1274250752
 30
0.0
  0
SPLINE
  5
3E0
100
AcDbEntity
  8
0
100
AcDbSpline
 62
7
  6
CONTINUOUS
 70
0
 71
3
 72
11
 73
7
 74
0
 42
0.0000001
 43
0.0000001
 44
0.0000000001
 40
0.0
 40
0.0
 40
0.0
 40
0.0
 40
0.2383165703
 40
0.5010899889
 40
0.7632714532
 40
1.0
 40
1.0
 40
1.0
 40
1.0
 10
34.1243250274
 20
83.4745806602
 30
0.0
 10
34.0649278414
 20
83.4390906976
 30
0.0
 10
33.9528324107
 20
83.3428305333
 30
0.0
 10
33.8220923325
 20
83.1619095252
 30
0.0
 10
33.7329671448
 20
82.9577635682
 30
0.0
 10
33.7074671232
 20
82.8128133938
 30
0.0
 10
33.7074671232
 20
82.7440822377
 30
0.0
  0
SPLINE
  5
3E1
100
AcDbEntity
  8
0
100
AcDbSpline
 62
7
  6
CONTINUOUS
 70
0
 71
3
 72
11
 73
7
 74
0
 42
0.0000001
 43
0.0000001
 44
0.0000000001
 40
0.0
 40
0.0
 40
0.0
 40
0.0
 40
0.2177240355
 40
0.4508652645
 40
0.7104596417
 40
1.0
 40
1.0
 40
1.0
 40
1.0
 10
15.1314484856
 20
32.6543765716
 30
0.0
 10
15.0836219238
 20
32.6267631055
 30
0.0
 10
14.9737503426
 20
32.586779749
 30
0.0
 10
14.7911086249
 20
32.5822015833
 30
0.0
 10
14.5965491952
 20
32.6293076658
 30
0.0
 10
14.469914119
 20
32.6894729756
 30
0.0
 10
14.4063147095
 20
32.7261995206
 30
0.0
  0
SPLINE
  5
3E2
100
AcDbEntity
  8
0
100
AcDbSpline
 62
7
  6
CONTINUOUS
 70
0
 71
3
 72
11
 73
7
 74
0
 42
0.0000001
 43
0.0000001
 44
0.0000000001
 40
0.0
 40
0.0
 40
0.0
 40
0.0
 40
0.2896790252
 40
0.5490431157
 40
0.7822842157
 40
1.0
 40
1.0
 40
1.0
 40
1.0
 10
33.3936432377
 20
55.3963633384
 30
0.0
 10
33.39358563
 20
55.26963515
 30
0.0
 10
33.3743848128
 20
55.0286453272
 30
0.0
 10
33.2769799448
 20
54.6973753881
 30
0.0
 10
33.1126241079
 20
54.4286573154
 30
0.0
 10
32.9584068706
 20
54.2986860784
 30
0.0
 10
32.8759678045
 20
54.2509830858
 30
0.0
  0
SPLINE
  5
3E3
100
AcDbEntity
  8
0
100
AcDbSpline
 62
7
  6
CONTINUOUS
 70
0
 71
3
 72
17
 73
13
 74
0
 42
0.0000001
 43
0.0000001
 44
0.0000000001
 40
0.0
 40
0.0
 40
0.0
 40
0.0
 40
0.1286864059
 40
0.2703052868
 40
0.4174525828
 40
0.5617957119
 40
0.6954565549
 40
0.8127131155
 40
0.8646782077
 40
0.9125077166
 40
0.9571388618
 40
1.0
 40
1.0
 40
1.0
 40
1.0
 10
14.4063145401
 20
59.5768782645
 30
0.0
 10
14.2989731261
 20
59.6388366737
 30
0.0
 10
14.0906316721
 20
59.7992285988
 30
0.0
 10
13.8239014049
 20
60.1025953348
 30
0.0
 10
13.6044157743
 20
60.4596502131
 30
0.0
 10
13.4502190238
 20
60.8412441557
 30
0.0
 10
13.373682978
 20
61.2164404251
 30
0.0
 10
13.3805964939
 20
61.5120512036
 30
0.0
 10
13.4352379995
 20
61.7148452776
 30
0.0
 10
13.4962458611
 20
61.840923081
 30
0.0
 10
13.577723412
 20
61.9441033194
 30
0.0
 10
13.6455446783
 20
61.9959103578
 30
0.0
 10
13.6812940695
 20
62.0165508655
 30
0.0
  0
SPLINE
  5
3E4
100
AcDbEntity
  8
0
100
AcDbSpline
 62
7
  6
CONTINUOUS
 70
0
 71
3
 72
10
 73
6
 74
0
 42
0.0000001
 43
0.0000001
 44
0.0000000001
 40
0.0
 40
0.0
 40
0.0
 40
0.0
 40
0.5249282
 40
0.7715424629
 40
1.0
 40
1.0
 40
1.0
 40
1.0
 10
32.8759678045
 20
82.3610838011
 30
0.0
 10
33.0364403343
 20
82.0831293501
 30
0.0
 10
33.2292860928
 20
81.6462126018
 30
0.0
 10
33.367978989
 20
81.0495098625
 30
0.0
 10
33.3936436254
 20
80.7587174188
 30
0.0
 10
33.3936432377
 20
80.6190337893
 30
0.0
  0
SPLINE
  5
3E5
100
AcDbEntity
  8
0
100
AcDbSpline
 62
7
  6
CONTINUOUS
 70
0
 71
3
 72
10
 73
6
 74
0
 42
0.0000001
 43
0.0000001
 44
0.0000000001
 40
0.0
 40
0.0
 40
0.0
 40
0.0
 40
0.2284881225
 40
0.4751026565
 40
1.0
 40
1.0
 40
1.0
 40
1.0
 10
31.6261381655
 20
83.680418841
 30
0.0
 10
31.7470896543
 20
83.6105157559
 30
0.0
 10
31.9860497943
 20
83.442823631
 30
0.0
 10
32.433419963
 20
83.0243428811
 30
0.0
 10
32.7154161027
 20
82.638960892
 30
0.0
 10
32.8759678045
 20
82.3610838011
 30
0.0
  0
SPLINE
  5
3E6
100
AcDbEntity
  8
0
100
AcDbSpline
 62
7
  6
CONTINUOUS
 70
0
 71
3
 72
17
 73
13
 74
0
 42
0.0000001
 43
0.0000001
 44
0.0000000001
 40
0.0
 40
0.0
 40
0.0
 40
0.0
 40
0.1286864059
 40
0.2703052868
 40
0.4174525828
 40
0.5617957119
 40
0.6954565549
 40
0.8127131155
 40
0.8646782077
 40
0.9125077166
 40
0.9571388618
 40
1.0
 40
1.0
 40
1.0
 40
1.0
 10
14.4063145401
 20
56.4660040548
 30
0.0
 10
14.2989731261
 20
56.527962464
 30
0.0
 10
14.0906316722
 20
56.6883543891
 30
0.0
 10
13.8239014049
 20
56.9917211251
 30
0.0
 10
13.6044157743
 20
57.3487760034
 30
0.0
 10
13.4502190238
 20
57.730369946
 30
0.0
 10
13.373682978
 20
58.1055662154
 30
0.0
 10
13.3805964939
 20
58.4011769939
 30
0.0
 10
13.4352379995
 20
58.6039710679
 30
0.0
 10
13.4962458611
 20
58.7300488713
 30
0.0
 10
13.577723412
 20
58.8332291097
 30
0.0
 10
13.6455446783
 20
58.8850361481
 30
0.0
 10
13.6812940695
 20
58.9056766558
 30
0.0
  0
SPLINE
  5
3E7
100
AcDbEntity
  8
0
100
AcDbSpline
 62
7
  6
CONTINUOUS
 70
0
 71
3
 72
17
 73
13
 74
0
 42
0.0000001
 43
0.0000001
 44
0.0000000001
 40
0.0
 40
0.0
 40
0.0
 40
0.0
 40
0.128686406
 40
0.2703052868
 40
0.4174525828
 40
0.5617957119
 40
0.6954565549
 40
0.8127131155
 40
0.8646782077
 40
0.9125077166
 40
0.9571388618
 40
1.0
 40
1.0
 40
1.0
 40
1.0
 10
14.4063145396
 20
53.3551298467
 30
0.0
 10
14.2989731256
 20
53.4170882557
 30
0.0
 10
14.0906316719
 20
53.577480181
 30
0.0
 10
13.8239014046
 20
53.8808469167
 30
0.0
 10
13.6044157741
 20
54.2379017948
 30
0.0
 10
13.4502190235
 20
54.6194957372
 30
0.0
 10
13.3736829778
 20
54.9946920065
 30
0.0
 10
13.3805964936
 20
55.2903027849
 30
0.0
 10
13.4352379992
 20
55.4930968588
 30
0.0
 10
13.4962458607
 20
55.6191746621
 30
0.0
 10
13.5777234116
 20
55.7223549005
 30
0.0
 10
13.6455446778
 20
55.7741619389
 30
0.0
 10
13.681294069
 20
55.7948024466
 30
0.0
  0
SPLINE
  5
3E8
100
AcDbEntity
  8
0
100
AcDbSpline
 62
7
  6
CONTINUOUS
 70
0
 71
3
 72
17
 73
13
 74
0
 42
0.0000001
 43
0.0000001
 44
0.0000000001
 40
0.0
 40
0.0
 40
0.0
 40
0.0
 40
0.1286864059
 40
0.2703052868
 40
0.4174525828
 40
0.5617957119
 40
0.6954565549
 40
0.8127131155
 40
0.8646782077
 40
0.9125077166
 40
0.9571388618
 40
1.0
 40
1.0
 40
1.0
 40
1.0
 10
14.40631454
 20
50.244255637
 30
0.0
 10
14.298973126
 20
50.3062140461
 30
0.0
 10
14.0906316721
 20
50.4666059713
 30
0.0
 10
13.8239014048
 20
50.7699727073
 30
0.0
 10
13.6044157742
 20
51.1270275856
 30
0.0
 10
13.4502190237
 20
51.5086215282
 30
0.0
 10
13.3736829779
 20
51.8838177976
 30
0.0
 10
13.3805964938
 20
52.1794285761
 30
0.0
 10
13.4352379994
 20
52.3822226501
 30
0.0
 10
13.496245861
 20
52.5083004535
 30
0.0
 10
13.5777234119
 20
52.6114806919
 30
0.0
 10
13.6455446782
 20
52.6632877303
 30
0.0
 10
13.6812940694
 20
52.683928238
 30
0.0
  0
SPLINE
  5
3E9
100
AcDbEntity
  8
0
100
AcDbSpline
 62
7
  6
CONTINUOUS
 70
0
 71
3
 72
11
 73
7
 74
0
 42
0.0000001
 43
0.0000001
 44
0.0000000001
 40
0.0
 40
0.0
 40
0.0
 40
0.0
 40
0.2177183481
 40
0.4509442632
 40
0.7102969439
 40
1.0
 40
1.0
 40
1.0
 40
1.0
 10
27.8826187981
 20
85.2439299755
 30
0.0
 10
27.9650488298
 20
85.2915174991
 30
0.0
 10
28.1545269115
 20
85.3602077004
 30
0.0
 10
28.4691964321
 20
85.3682974708
 30
0.0
 10
28.8045775287
 20
85.2872018601
 30
0.0
 10
29.0227659367
 20
85.183442901
 30
0.0
 10
29.1324484366
 20
85.1201187069
 30
0.0
  0
SPLINE
  5
3EA
100
AcDbEntity
  8
0
100
AcDbSpline
 62
7
  6
CONTINUOUS
 70
0
 71
3
 72
17
 73
13
 74
0
 42
0.0000001
 43
0.0000001
 44
0.0000000001
 40
0.0
 40
0.0
 40
0.0
 40
0.0
 40
0.1286864059
 40
0.2703052868
 40
0.4174525828
 40
0.5617957119
 40
0.6954565549
 40
0.8127131155
 40
0.8646782077
 40
0.9125077166
 40
0.9571388618
 40
1.0
 40
1.0
 40
1.0
 40
1.0
 10
14.40631454
 20
47.1333814273
 30
0.0
 10
14.2989731261
 20
47.1953398365
 30
0.0
 10
14.0906316721
 20
47.3557317616
 30
0.0
 10
13.8239014049
 20
47.6590984976
 30
0.0
 10
13.6044157743
 20
48.0161533759
 30
0.0
 10
13.4502190237
 20
48.3977473185
 30
0.0
 10
13.373682978
 20
48.7729435879
 30
0.0
 10
13.3805964939
 20
49.0685543664
 30
0.0
 10
13.4352379995
 20
49.2713484404
 30
0.0
 10
13.4962458611
 20
49.3974262437
 30
0.0
 10
13.577723412
 20
49.5006064822
 30
0.0
 10
13.6455446783
 20
49.5524135206
 30
0.0
 10
13.6812940695
 20
49.5730540283
 30
0.0
  0
SPLINE
  5
3EB
100
AcDbEntity
  8
0
100
AcDbSpline
 62
7
  6
CONTINUOUS
 70
0
 71
3
 72
11
 73
7
 74
0
 42
0.0000001
 43
0.0000001
 44
0.0000000001
 40
0.0
 40
0.0
 40
0.0
 40
0.0
 40
0.2370457846
 40
0.4999986894
 40
0.7629530968
 40
1.0
 40
1.0
 40
1.0
 40
1.0
 10
16.7398340604
 20
43.7775537526
 30
0.0
 10
16.7598940494
 20
43.7659723745
 30
0.0
 10
16.8066053575
 20
43.7491494783
 30
0.0
 10
16.8812552623
 20
43.740869872
 30
0.0
 10
16.9559051942
 20
43.7491498661
 30
0.0
 10
17.0026167711
 20
43.7659728545
 30
0.0
 10
17.0226767713
 20
43.7775544317
 30
0.0
  0
SPLINE
  5
3EC
100
AcDbEntity
  8
0
100
AcDbSpline
 62
7
  6
CONTINUOUS
 70
0
 71
3
 72
17
 73
13
 74
0
 42
0.0000001
 43
0.0000001
 44
0.0000000001
 40
0.0
 40
0.0
 40
0.0
 40
0.0
 40
0.1286864028
 40
0.2703052613
 40
0.4174525446
 40
0.5617956813
 40
0.6954565369
 40
0.8127131104
 40
0.8646782062
 40
0.9125077164
 40
0.957138862
 40
1.0
 40
1.0
 40
1.0
 40
1.0
 10
14.406314709
 20
26.5044511027
 30
0.0
 10
14.2989735712
 20
26.5664092654
 30
0.0
 10
14.0906328246
 20
26.7268008319
 30
0.0
 10
13.8239031639
 20
27.0301664591
 30
0.0
 10
13.6044180645
 20
27.387220223
 30
0.0
 10
13.4502216472
 20
27.7688130175
 30
0.0
 10
13.3736857132
 20
28.1440082105
 30
0.0
 10
13.3805991328
 20
28.4396181626
 30
0.0
 10
13.4352404365
 20
28.6424116784
 30
0.0
 10
13.4962481002
 20
28.7684891327
 30
0.0
 10
13.5777254
 20
28.8716690853
 30
0.0
 10
13.6455464632
 20
28.9234759837
 30
0.0
 10
13.6812957498
 20
28.9441164326
 30
0.0
  0
SPLINE
  5
3ED
100
AcDbEntity
  8
0
100
AcDbSpline
 62
7
  6
CONTINUOUS
 70
0
 71
3
 72
17
 73
13
 74
0
 42
0.0000001
 43
0.0000001
 44
0.0000000001
 40
0.0
 40
0.0
 40
0.0
 40
0.0
 40
0.1286864028
 40
0.2703052613
 40
0.4174525446
 40
0.5617956813
 40
0.6954565369
 40
0.8127131104
 40
0.8646782062
 40
0.9125077164
 40
0.957138862
 40
1.0
 40
1.0
 40
1.0
 40
1.0
 10
14.406314709
 20
38.9479479399
 30
0.0
 10
14.2989735713
 20
39.0099061027
 30
0.0
 10
14.0906328246
 20
39.1702976692
 30
0.0
 10
13.8239031639
 20
39.4736632963
 30
0.0
 10
13.6044180645
 20
39.8307170602
 30
0.0
 10
13.4502216472
 20
40.2123098548
 30
0.0
 10
13.3736857132
 20
40.5875050478
 30
0.0
 10
13.3805991328
 20
40.8831149999
 30
0.0
 10
13.4352404365
 20
41.0859085157
 30
0.0
 10
13.4962481002
 20
41.2119859699
 30
0.0
 10
13.5777254
 20
41.3151659226
 30
0.0
 10
13.6455464632
 20
41.366972821
 30
0.0
 10
13.6812957498
 20
41.3876132699
 30
0.0
  0
SPLINE
  5
3EE
100
AcDbEntity
  8
0
100
AcDbSpline
 62
7
  6
CONTINUOUS
 70
0
 71
3
 72
17
 73
13
 74
0
 42
0.0000001
 43
0.0000001
 44
0.0000000001
 40
0.0
 40
0.0
 40
0.0
 40
0.0
 40
0.1286864028
 40
0.2703052613
 40
0.4174525446
 40
0.5617956813
 40
0.6954565369
 40
0.8127131104
 40
0.8646782062
 40
0.9125077164
 40
0.957138862
 40
1.0
 40
1.0
 40
1.0
 40
1.0
 10
14.4063147094
 20
23.393576893
 30
0.0
 10
14.2989735717
 20
23.4555350559
 30
0.0
 10
14.0906328248
 20
23.6159266222
 30
0.0
 10
13.8239031641
 20
23.9192922497
 30
0.0
 10
13.6044180647
 20
24.2763460138
 30
0.0
 10
13.4502216473
 20
24.6579388085
 30
0.0
 10
13.3736857134
 20
25.0331340017
 30
0.0
 10
13.380599133
 20
25.3287439538
 30
0.0
 10
13.4352404368
 20
25.5315374697
 30
0.0
 10
13.4962481005
 20
25.657614924
 30
0.0
 10
13.5777254003
 20
25.7607948768
 30
0.0
 10
13.6455464635
 20
25.8126017752
 30
0.0
 10
13.6812957502
 20
25.8332422241
 30
0.0
  0
SPLINE
  5
3EF
100
AcDbEntity
  8
0
100
AcDbSpline
 62
7
  6
CONTINUOUS
 70
0
 71
3
 72
17
 73
13
 74
0
 42
0.0000001
 43
0.0000001
 44
0.0000000001
 40
0.0
 40
0.0
 40
0.0
 40
0.0
 40
0.1286864028
 40
0.2703052613
 40
0.4174525446
 40
0.5617956813
 40
0.6954565369
 40
0.8127131104
 40
0.8646782062
 40
0.9125077164
 40
0.957138862
 40
1.0
 40
1.0
 40
1.0
 40
1.0
 10
14.4063147094
 20
20.2827026833
 30
0.0
 10
14.2989735716
 20
20.3446608461
 30
0.0
 10
14.0906328247
 20
20.5050524125
 30
0.0
 10
13.823903164
 20
20.80841804
 30
0.0
 10
13.6044180646
 20
21.165471804
 30
0.0
 10
13.4502216473
 20
21.5470645988
 30
0.0
 10
13.3736857133
 20
21.9222597919
 30
0.0
 10
13.3805991329
 20
22.2178697441
 30
0.0
 10
13.4352404367
 20
22.42066326
 30
0.0
 10
13.4962481004
 20
22.5467407143
 30
0.0
 10
13.5777254002
 20
22.649920667
 30
0.0
 10
13.6455464635
 20
22.7017275654
 30
0.0
 10
13.6812957501
 20
22.7223680144
 30
0.0
  0
SPLINE
  5
3F0
100
AcDbEntity
  8
0
100
AcDbSpline
 62
7
  6
CONTINUOUS
 70
0
 71
3
 72
17
 73
13
 74
0
 42
0.0000001
 43
0.0000001
 44
0.0000000001
 40
0.0
 40
0.0
 40
0.0
 40
0.0
 40
0.1286864028
 40
0.2703052613
 40
0.4174525446
 40
0.5617956813
 40
0.6954565369
 40
0.8127131104
 40
0.8646782062
 40
0.9125077164
 40
0.957138862
 40
1.0
 40
1.0
 40
1.0
 40
1.0
 10
14.406314709
 20
35.8370737302
 30
0.0
 10
14.2989735713
 20
35.899031893
 30
0.0
 10
14.0906328246
 20
36.0594234594
 30
0.0
 10
13.8239031639
 20
36.3627890866
 30
0.0
 10
13.6044180645
 20
36.7198428505
 30
0.0
 10
13.4502216472
 20
37.101435645
 30
0.0
 10
13.3736857132
 20
37.476630838
 30
0.0
 10
13.3805991328
 20
37.7722407901
 30
0.0
 10
13.4352404365
 20
37.9750343059
 30
0.0
 10
13.4962481002
 20
38.1011117602
 30
0.0
 10
13.5777254
 20
38.2042917129
 30
0.0
 10
13.6455464632
 20
38.2560986113
 30
0.0
 10
13.6812957498
 20
38.2767390602
 30
0.0
  0
SPLINE
  5
3F1
100
AcDbEntity
  8
0
100
AcDbSpline
 62
7
  6
CONTINUOUS
 70
0
 71
3
 72
17
 73
13
 74
0
 42
0.0000001
 43
0.0000001
 44
0.0000000001
 40
0.0
 40
0.0
 40
0.0
 40
0.0
 40
0.1286849204
 40
0.2703038021
 40
0.4174438807
 40
0.5617821443
 40
0.6954492859
 40
0.8127130378
 40
0.8646795618
 40
0.9125091497
 40
0.9571393989
 40
1.0
 40
1.0
 40
1.0
 40
1.0
 10
54.4149394483
 20
25.0757093564
 30
0.0
 10
54.4149394483
 20
24.9658863196
 30
0.0
 10
54.3841922602
 20
24.734942909
 30
0.0
 10
54.2695447431
 20
24.3958583774
 30
0.0
 10
54.0927953591
 20
24.0692407749
 30
0.0
 10
53.8682827887
 20
23.7818467471
 30
0.0
 10
53.614264695
 20
23.556874355
 30
0.0
 10
53.3843403078
 20
23.4312000562
 30
0.0
 10
53.2045005707
 20
23.3832818438
 30
0.0
 10
53.080718617
 20
23.3742378465
 30
0.0
 10
52.9654410702
 20
23.391051646
 30
0.0
 10
52.8956370494
 20
23.4201422255
 30
0.0
 10
52.8639583911
 20
23.4384298691
 30
0.0
  0
SPLINE
  5
3F2
100
AcDbEntity
  8
0
100
AcDbSpline
 62
7
  6
CONTINUOUS
 70
0
 71
3
 72
17
 73
13
 74
0
 42
0.0000001
 43
0.0000001
 44
0.0000000001
 40
0.0
 40
0.0
 40
0.0
 40
0.0
 40
0.1286849204
 40
0.270303802
 40
0.4174438806
 40
0.5617821443
 40
0.6954492858
 40
0.8127130378
 40
0.8646795618
 40
0.9125091497
 40
0.9571393989
 40
1.0
 40
1.0
 40
1.0
 40
1.0
 10
54.4149394485
 20
92.0289075624
 30
0.0
 10
54.4149394485
 20
91.9190845255
 30
0.0
 10
54.3841922604
 20
91.6881411149
 30
0.0
 10
54.2695447436
 20
91.349056583
 30
0.0
 10
54.0927953597
 20
91.0224389803
 30
0.0
 10
53.8682827892
 20
90.7350449523
 30
0.0
 10
53.6142646955
 20
90.5100725599
 30
0.0
 10
53.3843403081
 20
90.3843982609
 30
0.0
 10
53.2045005709
 20
90.3364800485
 30
0.0
 10
53.0807186171
 20
90.3274360511
 30
0.0
 10
52.9654410703
 20
90.3442498506
 30
0.0
 10
52.8956370494
 20
90.3733404301
 30
0.0
 10
52.8639583911
 20
90.3916280737
 30
0.0
  0
SPLINE
  5
3F3
100
AcDbEntity
  8
0
100
AcDbSpline
 62
7
  6
CONTINUOUS
 70
0
 71
3
 72
11
 73
7
 74
0
 42
0.0000001
 43
0.0000001
 44
0.0000000001
 40
0.0
 40
0.0
 40
0.0
 40
0.0
 40
0.2177240355
 40
0.4508652645
 40
0.7104596417
 40
1.0
 40
1.0
 40
1.0
 40
1.0
 10
15.131448486
 20
35.7652507808
 30
0.0
 10
15.0836219241
 20
35.7376373146
 30
0.0
 10
14.9737503428
 20
35.6976539582
 30
0.0
 10
14.7911086249
 20
35.6930757927
 30
0.0
 10
14.596549195
 20
35.7401818753
 30
0.0
 10
14.4699141185
 20
35.8003471851
 30
0.0
 10
14.406314709
 20
35.8370737302
 30
0.0
  0
SPLINE
  5
3F4
100
AcDbEntity
  8
0
100
AcDbSpline
 62
7
  6
CONTINUOUS
 70
0
 71
3
 72
17
 73
13
 74
0
 42
0.0000001
 43
0.0000001
 44
0.0000000001
 40
0.0
 40
0.0
 40
0.0
 40
0.0
 40
0.1286849204
 40
0.270303802
 40
0.4174438806
 40
0.5617821443
 40
0.6954492858
 40
0.8127130378
 40
0.8646795618
 40
0.9125091497
 40
0.9571393989
 40
1.0
 40
1.0
 40
1.0
 40
1.0
 10
81.2602001758
 20
107.527933553
 30
0.0
 10
81.2602001758
 20
107.4210943331
 30
0.0
 10
81.2302883679
 20
107.196425497
 30
0.0
 10
81.1187557457
 20
106.8665536601
 30
0.0
 10
80.9468085217
 20
106.5488100343
 30
0.0
 10
80.7283958043
 20
106.2692243056
 30
0.0
 10
80.4812792085
 20
106.0503642593
 30
0.0
 10
80.2576017095
 20
105.9281044451
 30
0.0
 10
80.0826480951
 20
105.8814881378
 30
0.0
 10
79.9622292124
 20
105.8726898596
 30
0.0
 10
79.8500836777
 20
105.8890468397
 30
0.0
 10
79.7821761844
 20
105.917347048
 30
0.0
 10
79.7513582136
 20
105.9351378289
 30
0.0
  0
SPLINE
  5
3F5
100
AcDbEntity
  8
0
100
AcDbSpline
 62
7
  6
CONTINUOUS
 70
0
 71
3
 72
11
 73
7
 74
0
 42
0.0000001
 43
0.0000001
 44
0.0000000001
 40
0.0
 40
0.0
 40
0.0
 40
0.0
 40
0.2897030561
 40
0.5490557368
 40
0.7822816519
 40
1.0
 40
1.0
 40
1.0
 40
1.0
 10
26.798803158
 20
83.7727960195
 30
0.0
 10
26.6891206581
 20
83.8361202137
 30
0.0
 10
26.4709322501
 20
83.9398791728
 30
0.0
 10
26.1355511534
 20
84.0209747834
 30
0.0
 10
25.8208816329
 20
84.0128850131
 30
0.0
 10
25.6314035512
 20
83.9441948117
 30
0.0
 10
25.5489735195
 20
83.8966072881
 30
0.0
  0
SPLINE
  5
3F6
100
AcDbEntity
  8
0
100
AcDbSpline
 62
7
  6
CONTINUOUS
 70
0
 71
3
 72
17
 73
13
 74
0
 42
0.0000001
 43
0.0000001
 44
0.0000000001
 40
0.0
 40
0.0
 40
0.0
 40
0.0
 40
0.1286849204
 40
0.270303802
 40
0.4174438806
 40
0.5617821443
 40
0.6954492858
 40
0.8127130378
 40
0.8646795618
 40
0.9125091497
 40
0.9571393989
 40
1.0
 40
1.0
 40
1.0
 40
1.0
 10
81.2602001758
 20
40.5747353484
 30
0.0
 10
81.2602001758
 20
40.4678961284
 30
0.0
 10
81.2302883679
 20
40.2432272924
 30
0.0
 10
81.1187557457
 20
39.9133554554
 30
0.0
 10
80.9468085217
 20
39.5956118297
 30
0.0
 10
80.7283958043
 20
39.316026101
 30
0.0
 10
80.4812792085
 20
39.0971660547
 30
0.0
 10
80.2576017095
 20
38.9749062405
 30
0.0
 10
80.0826480951
 20
38.9282899332
 30
0.0
 10
79.9622292124
 20
38.919491655
 30
0.0
 10
79.8500836777
 20
38.9358486351
 30
0.0
 10
79.7821761844
 20
38.9641488434
 30
0.0
 10
79.7513582136
 20
38.9819396243
 30
0.0
  0
SPLINE
  5
3F7
100
AcDbEntity
  8
0
100
AcDbSpline
 62
7
  6
CONTINUOUS
 70
0
 71
3
 72
10
 73
6
 74
0
 42
0.0000001
 43
0.0000001
 44
0.0000000001
 40
0.0
 40
0.0
 40
0.0
 40
0.0
 40
0.5248973435
 40
0.7715118775
 40
1.0
 40
1.0
 40
1.0
 40
1.0
 10
30.5423225259
 20
81.0137611137
 30
0.0
 10
30.3817708241
 20
81.2916382047
 30
0.0
 10
30.0997746844
 20
81.6770201937
 30
0.0
 10
29.6524045157
 20
82.0955009436
 30
0.0
 10
29.4134443757
 20
82.2631930686
 30
0.0
 10
29.2924928869
 20
82.3330961536
 30
0.0
  0
SPLINE
  5
3F8
100
AcDbEntity
  8
0
100
AcDbSpline
 62
7
  6
CONTINUOUS
 70
0
 71
3
 72
10
 73
6
 74
0
 42
0.0000001
 43
0.0000001
 44
0.0000000001
 40
0.0
 40
0.0
 40
0.0
 40
0.0
 40
0.2284575371
 40
0.4750718
 40
1.0
 40
1.0
 40
1.0
 40
1.0
 10
31.0599979591
 20
79.2717111019
 30
0.0
 10
31.0599983468
 20
79.4113947314
 30
0.0
 10
31.0343337104
 20
79.7021871751
 30
0.0
 10
30.8956408142
 20
80.2988899144
 30
0.0
 10
30.7027950557
 20
80.7358066627
 30
0.0
 10
30.5423225259
 20
81.0137611137
 30
0.0
  0
SPLINE
  5
3F9
100
AcDbEntity
  8
0
100
AcDbSpline
 62
7
  6
CONTINUOUS
 70
0
 71
3
 72
11
 73
7
 74
0
 42
0.0000001
 43
0.0000001
 44
0.0000000001
 40
0.0
 40
0.0
 40
0.0
 40
0.0
 40
0.2177157843
 40
0.4509568843
 40
0.7103209748
 40
1.0
 40
1.0
 40
1.0
 40
1.0
 10
30.5423225259
 20
52.9036603985
 30
0.0
 10
30.624761592
 20
52.951363391
 30
0.0
 10
30.7789788293
 20
53.081334628
 30
0.0
 10
30.9433346662
 20
53.3500527007
 30
0.0
 10
31.0407395342
 20
53.6813226399
 30
0.0
 10
31.0599403514
 20
53.9223124626
 30
0.0
 10
31.0599979591
 20
54.0490406511
 30
0.0
  0
SPLINE
  5
3FA
100
AcDbEntity
  8
0
100
AcDbSpline
 62
7
  6
CONTINUOUS
 70
0
 71
3
 72
17
 73
13
 74
0
 42
0.0000001
 43
0.0000001
 44
0.0000000001
 40
0.0
 40
0.0
 40
0.0
 40
0.0
 40
0.1286864028
 40
0.2703052613
 40
0.4174525446
 40
0.5617956813
 40
0.6954565369
 40
0.8127131104
 40
0.8646782062
 40
0.9125077164
 40
0.957138862
 40
1.0
 40
1.0
 40
1.0
 40
1.0
 10
14.406314709
 20
17.1718284751
 30
0.0
 10
14.2989735713
 20
17.2337866379
 30
0.0
 10
14.0906328246
 20
17.3941782043
 30
0.0
 10
13.8239031639
 20
17.6975438315
 30
0.0
 10
13.6044180645
 20
18.0545975954
 30
0.0
 10
13.4502216472
 20
18.4361903899
 30
0.0
 10
13.3736857132
 20
18.8113855829
 30
0.0
 10
13.3805991328
 20
19.106995535
 30
0.0
 10
13.4352404365
 20
19.3097890508
 30
0.0
 10
13.4962481002
 20
19.4358665051
 30
0.0
 10
13.5777254
 20
19.5390464578
 30
0.0
 10
13.6455464632
 20
19.5908533562
 30
0.0
 10
13.6812957498
 20
19.6114938051
 30
0.0
  0
SPLINE
  5
3FB
100
AcDbEntity
  8
0
100
AcDbSpline
 62
7
  6
CONTINUOUS
 70
0
 71
3
 72
17
 73
13
 74
0
 42
0.0000001
 43
0.0000001
 44
0.0000000001
 40
0.0
 40
0.0
 40
0.0
 40
0.0
 40
0.1286864028
 40
0.2703052613
 40
0.4174525446
 40
0.5617956813
 40
0.6954565369
 40
0.8127131104
 40
0.8646782062
 40
0.9125077164
 40
0.957138862
 40
1.0
 40
1.0
 40
1.0
 40
1.0
 10
14.4063147095
 20
32.7261995206
 30
0.0
 10
14.2989735718
 20
32.7881576834
 30
0.0
 10
14.0906328248
 20
32.9485492497
 30
0.0
 10
13.8239031642
 20
33.2519148772
 30
0.0
 10
13.6044180648
 20
33.6089686413
 30
0.0
 10
13.4502216474
 20
33.990561436
 30
0.0
 10
13.3736857135
 20
34.3657566292
 30
0.0
 10
13.3805991331
 20
34.6613665813
 30
0.0
 10
13.4352404369
 20
34.8641600972
 30
0.0
 10
13.4962481006
 20
34.9902375516
 30
0.0
 10
13.5777254004
 20
35.0934175043
 30
0.0
 10
13.6455464636
 20
35.1452244027
 30
0.0
 10
13.6812957503
 20
35.1658648516
 30
0.0
  0
SPLINE
  5
3FC
100
AcDbEntity
  8
0
100
AcDbSpline
 62
7
  6
CONTINUOUS
 70
0
 71
3
 72
11
 73
7
 74
0
 42
0.0000001
 43
0.0000001
 44
0.0000000001
 40
0.0
 40
0.0
 40
0.0
 40
0.0
 40
0.2177240355
 40
0.4508652645
 40
0.7104596417
 40
1.0
 40
1.0
 40
1.0
 40
1.0
 10
15.131448486
 20
38.8761249905
 30
0.0
 10
15.0836219241
 20
38.8485115244
 30
0.0
 10
14.9737503428
 20
38.8085281679
 30
0.0
 10
14.7911086249
 20
38.8039500024
 30
0.0
 10
14.596549195
 20
38.851056085
 30
0.0
 10
14.4699141185
 20
38.9112213949
 30
0.0
 10
14.406314709
 20
38.9479479399
 30
0.0
  0
ENDSEC
  0
SECTION
  2
OBJECTS
  0
DICTIONARY
  5
C
100
AcDbDictionary
280
0
281
1
  3
ACAD_GROUP
350
D
  3
ACAD_MLINESTYLE
350
17
  3
ACAD_LAYOUT
350
1A
  3
ACAD_PLOTSETTINGS
350
19
  3
ACAD_PLOTSTYLENAME
350
E
  0
DICTIONARY
  5
D
102
{ACAD_REACTORS
330
C
102
}
100
AcDbDictionary
280
0
281
1
  0
ACDBDICTIONARYWDFLT
  5
E
102
{ACAD_REACTORS
330
C
102
}
100
AcDbDictionary
281
1
  3
Normal
350
F
100
AcDbDictionaryWithDefault
340
F
  0
DICTIONARY
  5
17
102
{ACAD_REACTORS
330
C
102
}
100
AcDbDictionary
280
0
281
1
  3
Standard
350
18
  0
DICTIONARY
  5
19
102
{ACAD_REACTORS
330
C
102
}
100
AcDbDictionary
281
1
  0
DICTIONARY
  5
1A
102
{ACAD_REACTORS
330
C
102
}
100
AcDbDictionary
281
1
  3
Model
350
3FD
  3
Layout1
350
3FE
  0
ACDBPLACEHOLDER
  5
F
102
{ACAD_REACTORS
330
E
102
}
  0
MLINESTYLE
  5
18
102
{ACAD_REACTORS
330
17
102
}
100
AcDbMlineStyle
  2
STANDARD
 70
0
  3

 62
256
 51
90.0
 52
90.0
 71
2
 49
0.5
 62
256
  6
BYLAYER
 49
-0.5
 62
256
  6
BYLAYER
  0
LAYOUT
  5
3FD
102
{ACAD_REACTORS
330
1A
102
}
100
AcDbPlotSettings
  1

  2
none_device
  4

  6

 40
0.0
 41
0.0
 42
0.0
 43
0.0
 44
210.0
 45
297.0
 46
0.0
 47
0.0
 48
0.0
 49
0.0
140
0.0
141
0.0
142
1.0
143
1.0
 70
1024
 72
1
 73
0
 74
0
  7

 75
0
147
1.0
148
0.0
149
0.0
100
AcDbLayout
  1
Model
 70
0
 71
0
 10
0.0
 20
0.0
 11
210.0
 21
297.0
 12
0.0
 22
0.0
 32
0.0
 14
0.0
 24
0.0
 34
0.0
 15
0.0
 25
0.0
 35
0.0
146
0.0
 13
0.0
 23
0.0
 33
0.0
 16
1.0
 26
0.0
 36
0.0
 17
0.0
 27
1.0
 37
0.0
 76
0
330
210
345
0
346
0
  0
LAYOUT
  5
3FE
102
{ACAD_REACTORS
330
1A
102
}
100
AcDbPlotSettings
  1

  2
none_device
  4

  6

 40
0.0
 41
0.0
 42
0.0
 43
0.0
 44
210.0
 45
297.0
 46
0.0
 47
0.0
 48
0.0
 49
0.0
140
0.0
141
0.0
142
1.0
143
1.0
 70
0
 72
1
 73
0
 74
0
  7

 75
0
147
1.0
148
0.0
149
0.0
100
AcDbLayout
  1
Layout1
 70
0
 71
1
 10
0.0
 20
0.0
 11
210.0
 21
297.0
 12
0.0
 22
0.0
 32
0.0
 14
0.0
 24
0.0
 34
0.0
 15
0.0
 25
0.0
 35
0.0
146
0.0
 13
0.0
 23
0.0
 33
0.0
 16
1.0
 26
0.0
 36
0.0
 17
0.0
 27
1.0
 37
0.0
 76
0
330
211
345
0
346
0
  0
ENDSEC
  0
EOF
