999
DXF file: C:\Users\sesa63760\Dev\_Creo\CAD\MCADPD0004416_3D-CAD\drw0001_1.dxf
999
Pro/ENGINEER 2019471 by Parametric Technology Corporation
  0
SECTION
  2
HEADER
  9
$ACADVER
  1
AC1024
  9
$DWGCODEPAGE
  3
ANSI_1252
  9
$EXTMAX
 10
268.4898868151
 20
379.7214113527
 30
0.0
  9
$EXTMIN
 10
0.0
 20
0.0
 30
0.0
  9
$LIMMIN
 10
0.0
 20
0.0
  9
$LIMMAX
 10
268.4898868151
 20
379.7214113527
  9
$VIEWCTR
 10
134.2449434075
 20
189.8607056764
  9
$VIEWSIZE
 40
379.7214113527
  9
$CLAYER
  8
0
  9
$LTSCALE
 40
24.7522105178
  9
$CELTYPE
  6
BYLAYER
  9
$DIMSCALE
 40
1.0
  9
$DIMASZ
 40
3.1963081764
  9
$DIMEXO
 40
1.0
  9
$DIMDLI
 40
17.1015272668
  9
$DIMEXE
 40
1.0
  9
$DIMCEN
 40
4.0503617211
  9
$DIMLFAC
 40
1.0
  9
$DIMBLK
  1
_FILLED
  9
$DIMALT
 70
0
  9
$DIMALTF
 40
0.0393700787
  9
$DIMTXT
 40
4.4748314469
  9
$DIMTOL
 70
1
  9
$DIMLIM
 70
0
  9
$DIMTFAC
 40
1.0
  9
$DIMTP
 40
0.01
  9
$DIMTM
 40
0.01
  9
$DIMGAP
 40
0.625
  9
$DIMDSEP
 70
46
  9
$AUNITS
 70
0
  9
$PDMODE
 70
3
  9
$PDSIZE
 40
0.3125
  9
$HANDSEED
  5
4A6
  9
$TILEMODE
 70
1
  9
$MEASUREMENT
 70
1
  9
$INSUNITS
 70
4
  0
ENDSEC
  0
SECTION
  2
CLASSES
  0
CLASS
  1
ACDBDICTIONARYWDFLT
  2
AcDbDictionaryWithDefault
  3
AutoCAD 2000
 90
0
 91
1
280
0
281
0
  0
CLASS
  1
ACDBPLACEHOLDER
  2
AcDbPlaceHolder
  3
AutoCAD 2000
 90
0
 91
1
280
0
281
0
  0
CLASS
  1
LAYOUT
  2
AcDbLayout
  3
AutoCAD 2000
 90
0
 91
0
280
0
281
0
  0
ENDSEC
  0
SECTION
  2
TABLES
  0
TABLE
  2
VPORT
  5
8
100
AcDbSymbolTable
 70
2
  0
VPORT
  5
1F4
100
AcDbSymbolTableRecord
100
AcDbViewportTableRecord
  2
*ACTIVE
 70
0
 10
0.0
 20
0.0
 11
1.0
 21
1.0
 12
134.2449434075
 22
189.8607056764
 13
0.0
 23
0.0
 14
1.0
 24
1.0
 15
0.0
 25
0.0
 16
0.0
 26
0.0
 36
1.0
 17
0.0
 27
0.0
 37
0.0
 40
379.7214113527
 41
0.7070707071
 42
50.0
 43
0.0
 44
0.0
 50
0.0
 51
0.0
 71
0
 72
100
 73
1
 74
1
 75
0
 76
0
 77
0
 78
0
  0
ENDTAB
  0
TABLE
  2
LTYPE
  5
5
100
AcDbSymbolTable
 70
6
  0
LTYPE
  5
14
100
AcDbSymbolTableRecord
100
AcDbLinetypeTableRecord
  2
BYBLOCK
 70
0
  3

 72
65
 73
0
 40
0.0
  0
LTYPE
  5
15
100
AcDbSymbolTableRecord
100
AcDbLinetypeTableRecord
  2
BYLAYER
 70
0
  3

 72
65
 73
0
 40
0.0
  0
LTYPE
  5
16
100
AcDbSymbolTableRecord
100
AcDbLinetypeTableRecord
  2
CONTINUOUS
 70
64
  3
Solid line
 72
65
 73
0
 40
0.0
  0
LTYPE
  5
1F5
100
AcDbSymbolTableRecord
100
AcDbLinetypeTableRecord
  2
CENTER
 70
64
  3
____ _ ____ _ ____ _ ____ _ ____ _ ____ _ ____
 72
65
 73
4
 40
0.6
 49
0.375
 74
0
 49
-0.075
 74
0
 49
0.075
 74
0
 49
-0.075
 74
0
  0
LTYPE
  5
1F6
100
AcDbSymbolTableRecord
100
AcDbLinetypeTableRecord
  2
HIDDEN
 70
64
  3
- - - - - - - - - - - - - - - - - - - -
 72
65
 73
2
 40
0.2
 49
0.1
 74
0
 49
-0.1
 74
0
  0
LTYPE
  5
1F7
100
AcDbSymbolTableRecord
100
AcDbLinetypeTableRecord
  2
PHANTOM
 70
64
  3
_____ _ _ _____ _ _ _____ _ _ _____
 72
65
 73
6
 40
0.8
 49
0.45
 74
0
 49
-0.05
 74
0
 49
0.1
 74
0
 49
-0.05
 74
0
 49
0.1
 74
0
 49
-0.05
 74
0
  0
LTYPE
  5
1F8
100
AcDbSymbolTableRecord
100
AcDbLinetypeTableRecord
  2
DOT
 70
64
  3
. . . . . . . . . . . . . . . . . . . .
 72
65
 73
2
 40
0.2
 49
0.1
 74
0
 49
-0.1
 74
0
  0
LTYPE
  5
1F9
100
AcDbSymbolTableRecord
100
AcDbLinetypeTableRecord
  2
DASHED
 70
64
  3
- - - - - - - - - - - - - - - - - - - -
 72
65
 73
2
 40
0.2
 49
0.1
 74
0
 49
-0.1
 74
0
  0
ENDTAB
  0
TABLE
  2
LAYER
  5
2
100
AcDbSymbolTable
 70
36
  0
LAYER
  5
10
100
AcDbSymbolTableRecord
100
AcDbLayerTableRecord
  2
0
 70
0
 62
7
  6
CONTINUOUS
370
-3
390
F
  0
LAYER
  5
1FA
100
AcDbSymbolTableRecord
100
AcDbLayerTableRecord
  2
DEFAULT_1
 70
0
 62
7
  6
CENTER
370
-3
390
F
  0
LAYER
  5
1FB
100
AcDbSymbolTableRecord
100
AcDbLayerTableRecord
  2
DEFAULT_2
 70
0
 62
7
  6
HIDDEN
370
-3
390
F
  0
LAYER
  5
1FC
100
AcDbSymbolTableRecord
100
AcDbLayerTableRecord
  2
DEFAULT_3
 70
0
 62
7
  6
PHANTOM
370
-3
390
F
  0
LAYER
  5
1FD
100
AcDbSymbolTableRecord
100
AcDbLayerTableRecord
  2
00_COMPONENTS
 70
0
 62
7
  6
CONTINUOUS
370
-3
390
F
  0
LAYER
  5
1FE
100
AcDbSymbolTableRecord
100
AcDbLayerTableRecord
  2
01_1_DEFAULT_DATUMS
 70
0
 62
7
  6
CONTINUOUS
370
-3
390
F
  0
LAYER
  5
1FF
100
AcDbSymbolTableRecord
100
AcDbLayerTableRecord
  2
01_PLANES
 70
0
 62
7
  6
CONTINUOUS
370
-3
390
F
  0
LAYER
  5
200
100
AcDbSymbolTableRecord
100
AcDbLayerTableRecord
  2
02_COORD_SYS
 70
0
 62
7
  6
CONTINUOUS
370
-3
390
F
  0
LAYER
  5
201
100
AcDbSymbolTableRecord
100
AcDbLayerTableRecord
  2
03_AXES
 70
0
 62
7
  6
CONTINUOUS
370
-3
390
F
  0
LAYER
  5
202
100
AcDbSymbolTableRecord
100
AcDbLayerTableRecord
  2
04_POINTS
 70
0
 62
7
  6
CONTINUOUS
370
-3
390
F
  0
LAYER
  5
203
100
AcDbSymbolTableRecord
100
AcDbLayerTableRecord
  2
05_CURVES
 70
0
 62
7
  6
CONTINUOUS
370
-3
390
F
  0
LAYER
  5
204
100
AcDbSymbolTableRecord
100
AcDbLayerTableRecord
  2
06_SURFS
 70
0
 62
7
  6
CONTINUOUS
370
-3
390
F
  0
LAYER
  5
205
100
AcDbSymbolTableRecord
100
AcDbLayerTableRecord
  2
07_COSMETICS
 70
0
 62
7
  6
CONTINUOUS
370
-3
390
F
  0
LAYER
  5
206
100
AcDbSymbolTableRecord
100
AcDbLayerTableRecord
  2
10_NOTES
 70
0
 62
7
  6
CONTINUOUS
370
-3
390
F
  0
LAYER
  5
207
100
AcDbSymbolTableRecord
100
AcDbLayerTableRecord
  2
11_NOTES_PUB
 70
0
 62
7
  6
CONTINUOUS
370
-3
390
F
  0
LAYER
  5
208
100
AcDbSymbolTableRecord
100
AcDbLayerTableRecord
  2
13_REF_GTOL
 70
0
 62
7
  6
CONTINUOUS
370
-3
390
F
  0
LAYER
  5
209
100
AcDbSymbolTableRecord
100
AcDbLayerTableRecord
  2
16_MISC
 70
0
 62
7
  6
CONTINUOUS
370
-3
390
F
  0
LAYER
  5
20A
100
AcDbSymbolTableRecord
100
AcDbLayerTableRecord
  2
17_NO_PRINT
 70
0
 62
7
  6
CONTINUOUS
370
-3
390
F
  0
LAYER
  5
20B
100
AcDbSymbolTableRecord
100
AcDbLayerTableRecord
  2
18_DATUM_CAMS_JOINTS
 70
0
 62
7
  6
CONTINUOUS
370
-3
390
F
  0
LAYER
  5
20C
100
AcDbSymbolTableRecord
100
AcDbLayerTableRecord
  2
19_DATUM_FUNCTIONAL
 70
0
 62
7
  6
CONTINUOUS
370
-3
390
F
  0
LAYER
  5
20D
100
AcDbSymbolTableRecord
100
AcDbLayerTableRecord
  2
20_DATUM_KINEMATIC_SCHEME
 70
0
 62
7
  6
CONTINUOUS
370
-3
390
F
  0
ENDTAB
  0
TABLE
  2
STYLE
  5
3
100
AcDbSymbolTable
 70
1
  0
STYLE
  5
11
100
AcDbSymbolTableRecord
100
AcDbTextStyleTableRecord
  2
STANDARD
 70
0
 40
0.0
 41
1.0
 50
0.0
 71
0
 42
0.2
  3
ARIAL.TTF
  4

  0
STYLE
  5
20E
100
AcDbSymbolTableRecord
100
AcDbTextStyleTableRecord
  2
TEXTSTYLE_1
 70
0
 40
0.0
 41
0.8
 50
0.0
 71
0
 42
0.2
  3
gdt
  4

  0
ENDTAB
  0
TABLE
  2
VIEW
  5
6
100
AcDbSymbolTable
 70
0
  0
ENDTAB
  0
TABLE
  2
UCS
  5
7
100
AcDbSymbolTable
 70
0
  0
ENDTAB
  0
TABLE
  2
APPID
  5
9
100
AcDbSymbolTable
 70
1
  0
APPID
  5
20F
100
AcDbSymbolTableRecord
100
AcDbRegAppTableRecord
  2
ACAD
 70
0
  0
ENDTAB
  0
TABLE
  2
BLOCK_RECORD
  5
1
100
AcDbSymbolTable
 70
0
  0
BLOCK_RECORD
  5
210
100
AcDbSymbolTableRecord
100
AcDbBlockTableRecord
  2
*Model_Space
  0
BLOCK_RECORD
  5
211
100
AcDbSymbolTableRecord
100
AcDbBlockTableRecord
  2
*Paper_Space
  0
BLOCK_RECORD
  5
212
100
AcDbSymbolTableRecord
100
AcDbBlockTableRecord
  2
_FILLED
  0
ENDTAB
  0
TABLE
  2
DIMSTYLE
  5
A
100
AcDbSymbolTable
 70
1
100
AcDbDimStyleTable
 71
0
  0
DIMSTYLE
105
213
100
AcDbSymbolTableRecord
100
AcDbDimStyleTableRecord
  2
STANDARD
 70
0
  3

  4

 40
1.0
 41
3.1963081764
 42
1.0
 43
0.38
 44
1.0
 45
0.0
 46
0.0
 47
0.01
 48
0.01
140
4.4748314469
141
0.09
142
0.0
143
25.4
144
1.0
145
0.0
146
1.0
147
0.625
 71
1
 72
0
 73
0
 74
0
 75
0
 76
0
 77
1
 78
8
 79
2
170
0
171
1
172
0
173
0
174
0
175
0
176
0
177
0
178
0
270
2
179
2
271
2
272
2
273
2
274
2
275
0
280
0
281
0
282
0
283
1
284
8
285
0
286
0
287
3
288
0
340
11
278
46
341
212
342
212
343
212
344
212
  0
ENDTAB
  0
ENDSEC
  0
SECTION
  2
BLOCKS
  0
BLOCK
  5
20
100
AcDbEntity
  8
0
100
AcDbBlockBegin
  2
*Model_Space
 70
0
 10
0.0
 20
0.0
 30
0.0
  3
*Model_Space
  1

  0
ENDBLK
  5
21
100
AcDbEntity
  8
0
100
AcDbBlockEnd
  0
BLOCK
  5
1C
100
AcDbEntity
  8
0
100
AcDbBlockBegin
  2
*Paper_Space
 70
0
 10
0.0
 20
0.0
 30
0.0
  3
*Paper_Space
  1

  0
ENDBLK
  5
1D
100
AcDbEntity
  8
0
100
AcDbBlockEnd
  0
BLOCK
  5
214
100
AcDbEntity
  8
0
100
AcDbBlockBegin
  2
_FILLED
 70
64
 10
0.0
 20
0.0
  3
_FILLED
  1

  0
SOLID
  5
215
100
AcDbEntity
  8
0
  6
BYBLOCK
 62
0
100
AcDbTrace
 10
0.0
 20
0.0
 11
-1.0
 21
0.25
 12
-1.0
 22
-0.25
 13
-1.0
 23
-0.25
  0
ENDBLK
  5
216
100
AcDbEntity
  8
0
  6
BYBLOCK
 62
0
100
AcDbBlockEnd
  0
ENDSEC
  0
SECTION
  2
ENTITIES
  0
LINE
  5
217
100
AcDbEntity
  8
0
100
AcDbLine
 62
7
  6
BYLAYER
 10
112.8486802982
 20
300.6256735961
 11
57.341029134
 21
268.5785075502
  0
LINE
  5
218
100
AcDbEntity
  8
0
100
AcDbLine
 62
7
  6
BYLAYER
 10
57.8410268951
 20
268.5289832709
 11
113.3486780842
 21
300.5761493312
  0
LINE
  5
219
100
AcDbEntity
  8
0
100
AcDbLine
 62
7
  6
BYLAYER
 10
99.3284435334
 20
84.578025004
 11
100.0909610356
 21
84.3908337707
  0
LINE
  5
21A
100
AcDbEntity
  8
0
100
AcDbLine
 62
7
  6
BYLAYER
 10
121.0891572243
 20
69.4128636394
 11
101.2663171524
 21
80.8573267827
  0
LINE
  5
21B
100
AcDbEntity
  8
0
100
AcDbLine
 62
7
  6
BYLAYER
 10
120.6749325829
 20
70.328435935
 11
100.7951339738
 21
81.805802407
  0
LINE
  5
21C
100
AcDbEntity
  8
0
100
AcDbLine
 62
7
  6
BYLAYER
 10
47.3122985989
 20
113.4999166336
 11
120.6749325829
 21
71.1449383522
  0
LINE
  5
21D
100
AcDbEntity
  8
0
100
AcDbLine
 62
7
  6
BYLAYER
 10
46.8255295927
 20
114.8898718795
 11
49.8307459245
 21
113.1548486728
  0
LINE
  5
21E
100
AcDbEntity
  8
0
100
AcDbLine
 62
7
  6
BYLAYER
 10
68.9227085035
 20
102.1323483008
 11
74.5795863047
 21
98.8664222646
  0
LINE
  5
21F
100
AcDbEntity
  8
0
100
AcDbLine
 62
7
  6
BYLAYER
 10
93.6715488836
 20
87.8439218926
 11
99.3284266848
 21
84.5779958564
  0
LINE
  5
220
100
AcDbEntity
  8
0
100
AcDbLine
 62
7
  6
BYLAYER
 10
118.4203892638
 20
73.5554954844
 11
121.4256055956
 21
71.8204722776
  0
LINE
  5
221
100
AcDbEntity
  8
0
100
AcDbLine
 62
7
  6
BYLAYER
 10
120.5971563127
 20
73.6516168745
 11
117.5919399809
 21
75.3866400769
  0
LINE
  5
222
100
AcDbEntity
  8
0
100
AcDbLine
 62
7
  6
BYLAYER
 10
98.4999774019
 20
86.4091404477
 11
92.8430996007
 21
89.6750664838
  0
LINE
  5
223
100
AcDbEntity
  8
0
100
AcDbLine
 62
7
  6
BYLAYER
 10
73.7511370218
 20
100.6975668559
 11
68.0942592206
 21
103.963492892
  0
LINE
  5
224
100
AcDbEntity
  8
0
100
AcDbLine
 62
7
  6
BYLAYER
 10
49.0022966416
 20
114.9859932648
 11
45.9970803097
 21
116.7210164625
  0
LINE
  5
225
100
AcDbEntity
  8
0
100
AcDbLine
 62
7
  6
BYLAYER
 10
54.8359209624
 20
112.6385431398
 11
68.0942592206
 21
104.9840111461
  0
LINE
  5
226
100
AcDbEntity
  8
0
100
AcDbLine
 62
7
  6
BYLAYER
 10
79.5847613426
 20
98.3501167316
 11
92.8430996007
 21
90.6955847379
  0
LINE
  5
227
100
AcDbEntity
  8
0
100
AcDbLine
 62
7
  6
BYLAYER
 10
104.3336017227
 20
84.0616903234
 11
117.5919399809
 21
76.4071583297
  0
LINE
  5
228
100
AcDbEntity
  8
0
100
AcDbLine
 62
7
  6
BYLAYER
 10
47.3122985989
 20
112.5101098292
 11
47.8718568855
 21
112.1404923361
  0
LINE
  5
229
100
AcDbEntity
  8
0
100
AcDbLine
 62
7
  6
BYLAYER
 10
47.3122985989
 20
112.5101098292
 11
47.8696891874
 21
112.1184329751
  0
LINE
  5
22A
100
AcDbEntity
  8
0
100
AcDbLine
 62
7
  6
BYLAYER
 10
31.1479159201
 20
155.2601268569
 11
31.1479159201
 21
152.8106196055
  0
LINE
  5
22B
100
AcDbEntity
  8
0
100
AcDbLine
 62
7
  6
BYLAYER
 10
37.6330618718
 20
211.6392364753
 11
37.6330618718
 21
182.2451494382
  0
LINE
  5
22C
100
AcDbEntity
  8
0
100
AcDbLine
 62
7
  6
BYLAYER
 10
38.2188541973
 20
181.4286611304
 11
38.2188541973
 21
210.8227481576
  0
LINE
  5
22D
100
AcDbEntity
  8
0
100
AcDbLine
 62
7
  6
BYLAYER
 10
40.3402334202
 20
252.8728028157
 11
40.3402334202
 21
255.3223100671
  0
LINE
  5
22E
100
AcDbEntity
  8
0
100
AcDbLine
 62
7
  6
BYLAYER
 10
71.4111922184
 20
272.6894777215
 11
72.5134580134
 21
274.0607195516
  0
LINE
  5
22F
100
AcDbEntity
  8
0
100
AcDbLine
 62
7
  6
BYLAYER
 10
72.0293308167
 20
270.8826548906
 11
72.8254116687
 21
271.8729962124
  0
LINE
  5
230
100
AcDbEntity
  8
0
100
AcDbLine
 62
7
  6
BYLAYER
 10
136.8599071999
 20
311.4558882791
 11
114.9396882463
 21
298.8003195091
  0
LINE
  5
231
100
AcDbEntity
  8
0
100
AcDbLine
 62
7
  6
BYLAYER
 10
40.6937853388
 20
255.9346833526
 11
62.6140042924
 21
268.5902521226
  0
LINE
  5
232
100
AcDbEntity
  8
0
100
AcDbLine
 62
7
  6
BYLAYER
 10
72.5134580134
 20
274.0607195516
 11
105.0402345253
 21
292.8399506297
  0
LINE
  5
233
100
AcDbEntity
  8
0
100
AcDbLine
 62
7
  6
BYLAYER
 10
114.8842199698
 20
296.1555155598
 11
107.5567197706
 21
291.9250066
  0
LINE
  5
234
100
AcDbEntity
  8
0
100
AcDbLine
 62
7
  6
BYLAYER
 10
72.8254116687
 20
271.8729962124
 11
65.4979114695
 21
267.6424872527
  0
LINE
  5
235
100
AcDbEntity
  8
0
100
AcDbLine
 62
7
  6
BYLAYER
 10
114.0881391178
 20
295.165174238
 11
108.3528006226
 21
291.8538947796
  0
LINE
  5
236
100
AcDbEntity
  8
0
100
AcDbLine
 62
7
  6
BYLAYER
 10
66.2939923215
 20
267.5713754322
 11
72.0293308167
 21
270.8826548906
  0
LINE
  5
237
100
AcDbEntity
  8
0
100
AcDbLine
 62
7
  6
BYLAYER
 10
55.0127101696
 20
254.1996873407
 11
59.9624370301
 21
257.0573964178
  0
LINE
  5
238
100
AcDbEntity
  8
0
100
AcDbLine
 62
7
  6
BYLAYER
 10
134.9154437747
 20
300.3312767281
 11
139.8651706352
 21
303.1889858052
  0
LINE
  5
239
100
AcDbEntity
  8
0
100
AcDbLine
 62
7
  6
BYLAYER
 10
74.5796031532
 20
98.8664514123
 11
75.3421206555
 21
98.6792601789
  0
LINE
  5
23A
100
AcDbEntity
  8
0
100
AcDbLine
 62
7
  6
BYLAYER
 10
49.8307627731
 20
113.1548778205
 11
50.5932802753
 21
112.9676865871
  0
LINE
  5
23B
100
AcDbEntity
  8
0
100
AcDbLine
 62
7
  6
BYLAYER
 10
45.290110423
 20
147.0953117665
 11
45.290110423
 21
144.6458045151
  0
LINE
  5
23C
100
AcDbEntity
  8
0
100
AcDbLine
 62
7
  6
BYLAYER
 10
45.4112879842
 20
117.5375047431
 11
45.4112879842
 21
144.7157659951
  0
LINE
  5
23D
100
AcDbEntity
  8
0
100
AcDbLine
 62
7
  6
BYLAYER
 10
45.4112879842
 20
152.7232985246
 11
45.4112879842
 21
155.3733327565
  0
LINE
  5
23E
100
AcDbEntity
  8
0
100
AcDbLine
 62
7
  6
BYLAYER
 10
45.9970803097
 20
116.7210164625
 11
45.9970803097
 21
145.0539713331
  0
LINE
  5
23F
100
AcDbEntity
  8
0
100
AcDbLine
 62
7
  6
BYLAYER
 10
45.9970803097
 20
152.796938245
 11
45.9970803097
 21
155.3220079047
  0
LINE
  5
240
100
AcDbEntity
  8
0
100
AcDbLine
 62
7
  6
BYLAYER
 10
46.1790549371
 20
188.1241429886
 11
46.1790549371
 21
163.4250120714
  0
LINE
  5
241
100
AcDbEntity
  8
0
100
AcDbLine
 62
7
  6
BYLAYER
 10
46.3506160365
 20
188.5470816952
 11
46.3506160365
 21
190.2061823361
  0
LINE
  5
242
100
AcDbEntity
  8
0
100
AcDbLine
 62
7
  6
BYLAYER
 10
46.7265062733
 20
113.326598137
 11
46.7265062733
 21
114.3164049414
  0
LINE
  5
243
100
AcDbEntity
  8
0
100
AcDbLine
 62
7
  6
BYLAYER
 10
47.0577434255
 20
163.4250141835
 11
47.0577434255
 21
186.899410527
  0
LINE
  5
244
100
AcDbEntity
  8
0
100
AcDbLine
 62
7
  6
BYLAYER
 10
47.3122985989
 20
112.5101098292
 11
47.3122985989
 21
113.4999166336
  0
LINE
  5
245
100
AcDbEntity
  8
0
100
AcDbLine
 62
7
  6
BYLAYER
 10
47.7648354868
 20
205.3114979611
 11
47.7648354868
 21
189.389700827
  0
LINE
  5
246
100
AcDbEntity
  8
0
100
AcDbLine
 62
7
  6
BYLAYER
 10
48.8255177383
 20
163.4250184327
 11
48.8255177383
 21
185.8788086407
  0
LINE
  5
247
100
AcDbEntity
  8
0
100
AcDbLine
 62
7
  6
BYLAYER
 10
49.0022966416
 20
154.2038885377
 11
49.0022966416
 21
153.8329903306
  0
LINE
  5
248
100
AcDbEntity
  8
0
100
AcDbLine
 62
7
  6
BYLAYER
 10
49.0022966416
 20
146.7890234344
 11
49.0022966416
 21
114.9859932641
  0
LINE
  5
249
100
AcDbEntity
  8
0
100
AcDbLine
 62
7
  6
BYLAYER
 10
49.5326215756
 20
186.2870527945
 11
49.5326215756
 21
163.4250201324
  0
LINE
  5
24A
100
AcDbEntity
  8
0
100
AcDbLine
 62
7
  6
BYLAYER
 10
50.5932802753
 20
147.7075727806
 11
50.5932802753
 21
112.9676865871
  0
LWPOLYLINE
  5
24B
100
AcDbEntity
  8
0
100
AcDbPolyline
 62
7
  6
BYLAYER
 90
4
 70
0
 10
54.6280391411
 20
228.0822223036
 10
54.5534531719
 20
227.7033477108
 10
54.3419689048
 20
227.3820901598
 10
54.1280519818
 20
227.2162925183
  0
LINE
  5
24C
100
AcDbEntity
  8
0
100
AcDbLine
 62
7
  6
BYLAYER
 10
113.4700005195
 20
296.9719970688
 11
114.9396882463
 21
298.8003195091
  0
LWPOLYLINE
  5
24D
100
AcDbEntity
  8
0
100
AcDbPolyline
 62
7
  6
BYLAYER
 90
4
 70
0
 10
55.1283322028
 20
234.7341218687
 10
54.9118954968
 20
234.565896067
 10
54.7008892568
 20
234.2426315957
 10
54.6281198846
 20
233.8567200135
  0
LINE
  5
24E
100
AcDbEntity
  8
0
100
AcDbLine
 62
7
  6
BYLAYER
 10
55.6572642293
 20
251.3058089107
 11
59.9624370301
 21
253.7913867492
  0
LINE
  5
24F
100
AcDbEntity
  8
0
100
AcDbLine
 62
7
  6
BYLAYER
 10
135.5599978345
 20
297.4373982982
 11
139.8651706352
 21
299.9229761367
  0
LINE
  5
250
100
AcDbEntity
  8
0
100
AcDbLine
 62
7
  6
BYLAYER
 10
144.4613838487
 20
300.5354209009
 11
139.5116569882
 21
297.6777118238
  0
LINE
  5
251
100
AcDbEntity
  8
0
100
AcDbLine
 62
7
  6
BYLAYER
 10
64.5586502435
 20
254.4038315134
 11
59.608923383
 21
251.5461224363
  0
LINE
  5
252
100
AcDbEntity
  8
0
100
AcDbLine
 62
7
  6
BYLAYER
 10
160.6631592767
 20
102.2956473143
 11
162.3165579692
 21
102.1479535333
  0
LINE
  5
253
100
AcDbEntity
  8
0
100
AcDbLine
 62
7
  6
BYLAYER
 10
73.5744994289
 20
128.3161743343
 11
59.4323049259
 21
136.4809894247
  0
LINE
  5
254
100
AcDbEntity
  8
0
100
AcDbLine
 62
7
  6
BYLAYER
 10
45.290110423
 20
144.6458045151
 11
31.1479159201
 21
152.8106196055
  0
LINE
  5
255
100
AcDbEntity
  8
0
100
AcDbLine
 62
7
  6
BYLAYER
 10
87.7166939318
 20
120.1513592439
 11
101.8588884348
 21
111.9865441535
  0
LINE
  5
256
100
AcDbEntity
  8
0
100
AcDbLine
 62
7
  6
BYLAYER
 10
53.5984421438
 20
201.7562374115
 11
53.5984421438
 21
192.7577150965
  0
LINE
  5
257
100
AcDbEntity
  8
0
100
AcDbLine
 62
7
  6
BYLAYER
 10
54.6280579243
 20
233.8582735095
 11
54.6280579243
 21
228.0824048808
  0
LINE
  5
258
100
AcDbEntity
  8
0
100
AcDbLine
 62
7
  6
BYLAYER
 10
54.8359209624
 20
112.6385431398
 11
54.8359209624
 21
150.157047902
  0
LINE
  5
259
100
AcDbEntity
  8
0
100
AcDbLine
 62
7
  6
BYLAYER
 10
54.8960043048
 20
228.1389568752
 11
54.8960123637
 21
233.501868442
  0
LINE
  5
25A
100
AcDbEntity
  8
0
100
AcDbLine
 62
7
  6
BYLAYER
 10
55.0127101696
 20
251.6749407218
 11
55.0127101696
 21
254.1996873407
  0
LINE
  5
25B
100
AcDbEntity
  8
0
100
AcDbLine
 62
7
  6
BYLAYER
 10
55.189475825
 20
163.8332710849
 11
55.189475825
 21
186.2870663919
  0
LINE
  5
25C
100
AcDbEntity
  8
0
100
AcDbLine
 62
7
  6
BYLAYER
 10
56.1339230583
 20
266.4877342171
 11
56.1339230583
 21
264.84899781
  0
LINE
  5
25D
100
AcDbEntity
  8
0
100
AcDbLine
 62
7
  6
BYLAYER
 10
56.1339230583
 20
251.5810063713
 11
56.1339230583
 21
251.1718065638
  0
LINE
  5
25E
100
AcDbEntity
  8
0
100
AcDbLine
 62
7
  6
BYLAYER
 10
56.1339230583
 20
243.5854118854
 11
56.1339230583
 21
223.3764066586
  0
LINE
  5
25F
100
AcDbEntity
  8
0
100
AcDbLine
 62
7
  6
BYLAYER
 10
56.1794294402
 20
164.4048176595
 11
56.1794294402
 21
164.4864664902
  0
LINE
  5
260
100
AcDbEntity
  8
0
100
AcDbLine
 62
7
  6
BYLAYER
 10
56.4268192211
 20
222.9681625047
 11
56.4268192211
 21
243.4163120325
  0
LINE
  5
261
100
AcDbEntity
  8
0
100
AcDbLine
 62
7
  6
BYLAYER
 10
56.4268192211
 20
251.145033789
 11
56.4268192211
 21
251.7501090403
  0
LINE
  5
262
100
AcDbEntity
  8
0
100
AcDbLine
 62
7
  6
BYLAYER
 10
56.4268192211
 20
265.018100479
 11
56.4268192211
 21
266.0794901114
  0
LINE
  5
263
100
AcDbEntity
  8
0
100
AcDbLine
 62
7
  6
BYLAYER
 10
59.2427192651
 20
155.1508061526
 11
59.2427192651
 21
152.7012989012
  0
LINE
  5
264
100
AcDbEntity
  8
0
100
AcDbLine
 62
7
  6
BYLAYER
 10
59.4323049259
 20
138.9304966761
 11
59.4323049259
 21
136.4809894247
  0
LINE
  5
265
100
AcDbEntity
  8
0
100
AcDbLine
 62
7
  6
BYLAYER
 10
59.6910059237
 20
152.8507270879
 11
59.6910059237
 21
155.3002343393
  0
LINE
  5
266
100
AcDbEntity
  8
0
100
AcDbLine
 62
7
  6
BYLAYER
 10
59.9624370301
 20
257.0573964178
 11
59.9624370301
 21
253.7913867492
  0
LINE
  5
267
100
AcDbEntity
  8
0
100
AcDbLine
 62
7
  6
BYLAYER
 10
61.0230324346
 20
254.1003552766
 11
61.0230324346
 21
252.3625538044
  0
LINE
  5
268
100
AcDbEntity
  8
0
100
AcDbLine
 62
7
  6
BYLAYER
 10
61.0230324346
 20
240.7627471281
 11
61.0230324346
 21
220.3145976003
  0
LINE
  5
269
100
AcDbEntity
  8
0
100
AcDbLine
 62
7
  6
BYLAYER
 10
62.5433056846
 20
217.756591097
 11
62.5433056846
 21
239.8850368144
  0
LINE
  5
26A
100
AcDbEntity
  8
0
100
AcDbLine
 62
7
  6
BYLAYER
 10
62.5433056846
 20
253.2402787352
 11
62.5433056846
 21
254.2472083608
  0
LINE
  5
26B
100
AcDbEntity
  8
0
100
AcDbLine
 62
7
  6
BYLAYER
 10
53.9091010222
 20
202.8016269219
 11
62.5433056846
 21
217.756591097
  0
LINE
  5
26C
100
AcDbEntity
  8
0
100
AcDbLine
 62
7
  6
BYLAYER
 10
114.0881391178
 20
295.165174238
 11
114.8842199698
 21
296.1555155598
  0
LINE
  5
26D
100
AcDbEntity
  8
0
100
AcDbLine
 62
7
  6
BYLAYER
 10
56.1339230583
 20
235.3146389148
 11
55.1284538162
 21
234.7341344423
  0
LINE
  5
26E
100
AcDbEntity
  8
0
100
AcDbLine
 62
7
  6
BYLAYER
 10
55.896010201
 20
234.500887826
 11
56.1339230583
 21
234.6382460585
  0
LINE
  5
26F
100
AcDbEntity
  8
0
100
AcDbLine
 62
7
  6
BYLAYER
 10
73.5744994289
 20
130.7656815857
 11
59.4323049259
 21
138.9304966761
  0
LINE
  5
270
100
AcDbEntity
  8
0
100
AcDbLine
 62
7
  6
BYLAYER
 10
45.290110423
 20
147.0953117665
 11
31.1479159201
 21
155.2601268569
  0
LINE
  5
271
100
AcDbEntity
  8
0
100
AcDbLine
 62
7
  6
BYLAYER
 10
87.7166939318
 20
122.6008664953
 11
101.8588884348
 21
114.4360514049
  0
LINE
  5
272
100
AcDbEntity
  8
0
100
AcDbLine
 62
7
  6
BYLAYER
 10
65.9348416519
 20
156.2661613652
 11
65.9348416519
 21
153.8166541138
  0
LINE
  5
273
100
AcDbEntity
  8
0
100
AcDbLine
 62
7
  6
BYLAYER
 10
66.3831283104
 20
153.9660823005
 11
66.3831283104
 21
156.4155895518
  0
LINE
  5
274
100
AcDbEntity
  8
0
100
AcDbLine
 62
7
  6
BYLAYER
 10
68.0942592206
 20
147.2381209999
 11
68.0942592206
 21
143.9314484682
  0
LINE
  5
275
100
AcDbEntity
  8
0
100
AcDbLine
 62
7
  6
BYLAYER
 10
68.0942592206
 20
131.4801209157
 11
68.0942592206
 21
103.963492892
  0
LINE
  5
276
100
AcDbEntity
  8
0
100
AcDbLine
 62
7
  6
BYLAYER
 10
68.3417167127
 20
151.3817825049
 11
68.3417167127
 21
157.4647255125
  0
LINE
  5
277
100
AcDbEntity
  8
0
100
AcDbLine
 62
7
  6
BYLAYER
 10
68.6245900425
 20
147.1360616611
 11
68.6245900425
 21
174.4480675141
  0
LINE
  5
278
100
AcDbEntity
  8
0
100
AcDbLine
 62
7
  6
BYLAYER
 10
69.3316703279
 20
178.1222513015
 11
69.3316703279
 21
174.856311668
  0
LINE
  5
279
100
AcDbEntity
  8
0
100
AcDbLine
 62
7
  6
BYLAYER
 10
73.5743581185
 20
147.095366156
 11
73.5743581185
 21
171.5903822325
  0
LINE
  5
27A
100
AcDbEntity
  8
0
100
AcDbLine
 62
7
  6
BYLAYER
 10
73.5744994289
 20
130.7656815857
 11
73.5744994289
 21
128.3161743343
  0
LINE
  5
27B
100
AcDbEntity
  8
0
100
AcDbLine
 62
7
  6
BYLAYER
 10
54.1280435339
 20
227.2162801986
 11
42.8756893738
 21
220.7197692742
  0
LINE
  5
27C
100
AcDbEntity
  8
0
100
AcDbLine
 62
7
  6
BYLAYER
 10
43.8756848963
 20
220.6207207158
 11
54.4319146534
 21
226.7153264138
  0
LINE
  5
27D
100
AcDbEntity
  8
0
100
AcDbLine
 62
7
  6
BYLAYER
 10
56.1339230583
 20
223.6155340341
 11
55.719703608
 21
223.3763857505
  0
LINE
  5
27E
100
AcDbEntity
  8
0
100
AcDbLine
 62
7
  6
BYLAYER
 10
79.2312521115
 20
235.5226532751
 11
88.246826036
 21
240.727766237
  0
LINE
  5
27F
100
AcDbEntity
  8
0
100
AcDbLine
 62
7
  6
BYLAYER
 10
163.1998327806
 20
284.0016465473
 11
172.2154067051
 21
289.2067595092
  0
LINE
  5
280
100
AcDbEntity
  8
0
100
AcDbLine
 62
7
  6
BYLAYER
 10
79.2312521115
 20
232.2566436066
 11
88.246826036
 21
237.4617565684
  0
LINE
  5
281
100
AcDbEntity
  8
0
100
AcDbLine
 62
7
  6
BYLAYER
 10
163.8443868404
 20
281.1077681174
 11
172.2154067051
 21
285.9407498407
  0
LINE
  5
282
100
AcDbEntity
  8
0
100
AcDbLine
 62
7
  6
BYLAYER
 10
176.8116199186
 20
286.5531946048
 11
167.7960459941
 21
281.3480816429
  0
LINE
  5
283
100
AcDbEntity
  8
0
100
AcDbLine
 62
7
  6
BYLAYER
 10
92.8430392494
 20
238.0742013326
 11
83.8274653249
 21
232.8690883707
  0
LINE
  5
284
100
AcDbEntity
  8
0
100
AcDbLine
 62
7
  6
BYLAYER
 10
60.3159285974
 20
219.0898510293
 11
53.4216661845
 21
215.1094705291
  0
LINE
  5
285
100
AcDbEntity
  8
0
100
AcDbLine
 62
7
  6
BYLAYER
 10
120.5971563127
 20
116.9262449768
 11
117.5919399809
 21
118.6612681835
  0
LINE
  5
286
100
AcDbEntity
  8
0
100
AcDbLine
 62
7
  6
BYLAYER
 10
98.4999774019
 20
129.6837685555
 11
92.8430996007
 21
132.9496945917
  0
LINE
  5
287
100
AcDbEntity
  8
0
100
AcDbLine
 62
7
  6
BYLAYER
 10
70.9579625741
 20
145.584798501
 11
68.0942592206
 21
147.2381209999
  0
LINE
  5
288
100
AcDbEntity
  8
0
100
AcDbLine
 62
7
  6
BYLAYER
 10
68.6245900425
 20
147.1360616611
 11
71.1347385334
 21
145.6868595395
  0
LINE
  5
289
100
AcDbEntity
  8
0
100
AcDbLine
 62
7
  6
BYLAYER
 10
93.3734304226
 20
132.8476352529
 11
98.3231984986
 21
129.9899499713
  0
LINE
  5
28A
100
AcDbEntity
  8
0
100
AcDbLine
 62
7
  6
BYLAYER
 10
118.1222708027
 20
118.5592088447
 11
119.8900451156
 21
117.5386069584
  0
LINE
  5
28B
100
AcDbEntity
  8
0
100
AcDbLine
 62
7
  6
BYLAYER
 10
155.2455195971
 20
99.1677902577
 11
124.1326916906
 21
117.1303834566
  0
LINE
  5
28C
100
AcDbEntity
  8
0
100
AcDbLine
 62
7
  6
BYLAYER
 10
153.6191672293
 20
101.9030493108
 11
155.2455195971
 21
100.9640955754
  0
LINE
  5
28D
100
AcDbEntity
  8
0
100
AcDbLine
 62
7
  6
BYLAYER
 10
124.1326916906
 20
119.008339016
 11
123.4255819655
 21
119.4165797705
  0
LINE
  5
28E
100
AcDbEntity
  8
0
100
AcDbLine
 62
7
  6
BYLAYER
 10
64.5069199834
 20
153.5957533421
 11
68.3417167127
 21
151.3817825049
  0
LINE
  5
28F
100
AcDbEntity
  8
0
100
AcDbLine
 62
7
  6
BYLAYER
 10
90.9338180556
 20
138.338521791
 11
93.0905570929
 21
137.0933560967
  0
LINE
  5
290
100
AcDbEntity
  8
0
100
AcDbLine
 62
7
  6
BYLAYER
 10
116.0009560539
 20
123.8663303246
 11
117.839397473
 21
122.8049296885
  0
LINE
  5
291
100
AcDbEntity
  8
0
100
AcDbLine
 62
7
  6
BYLAYER
 10
73.7511370218
 20
139.0505381259
 11
73.7511370218
 21
136.4006402024
  0
LINE
  5
292
100
AcDbEntity
  8
0
100
AcDbLine
 62
7
  6
BYLAYER
 10
73.7511370218
 20
128.4181554873
 11
73.7511370218
 21
100.6975668559
  0
LINE
  5
293
100
AcDbEntity
  8
0
100
AcDbLine
 62
7
  6
BYLAYER
 10
74.2814619557
 20
171.9986263863
 11
74.2814619557
 21
147.5036103099
  0
LINE
  5
294
100
AcDbEntity
  8
0
100
AcDbLine
 62
7
  6
BYLAYER
 10
75.3421206555
 20
138.7605021529
 11
75.3421206555
 21
136.6006421226
  0
LINE
  5
295
100
AcDbEntity
  8
0
100
AcDbLine
 62
7
  6
BYLAYER
 10
75.3421206555
 20
129.3367048336
 11
75.3421206555
 21
98.6792601789
  0
LINE
  5
296
100
AcDbEntity
  8
0
100
AcDbLine
 62
7
  6
BYLAYER
 10
75.342164815
 20
232.6648854669
 11
75.342164815
 21
235.1143927183
  0
LINE
  5
297
100
AcDbEntity
  8
0
100
AcDbLine
 62
7
  6
BYLAYER
 10
79.2312521115
 20
232.2566436066
 11
79.2312521115
 21
235.5226532751
  0
LINE
  5
298
100
AcDbEntity
  8
0
100
AcDbLine
 62
7
  6
BYLAYER
 10
79.5847613426
 20
98.3501167316
 11
79.5847613426
 21
131.7861799549
  0
LINE
  5
299
100
AcDbEntity
  8
0
100
AcDbLine
 62
7
  6
BYLAYER
 10
79.9383162051
 20
149.6016849483
 11
79.9383162051
 21
171.9986399837
  0
LINE
  5
29A
100
AcDbEntity
  8
0
100
AcDbLine
 62
7
  6
BYLAYER
 10
80.9282698203
 20
150.1163912513
 11
80.9282698203
 21
150.198040082
  0
LINE
  5
29B
100
AcDbEntity
  8
0
100
AcDbLine
 62
7
  6
BYLAYER
 10
83.8274653249
 20
232.8690883707
 11
83.8274806544
 21
227.5969005004
  0
LINE
  5
29C
100
AcDbEntity
  8
0
100
AcDbLine
 62
7
  6
BYLAYER
 10
210.1604278816
 20
130.8727380853
 11
211.8138265742
 21
130.7250443043
  0
LINE
  5
29D
100
AcDbEntity
  8
0
100
AcDbLine
 62
7
  6
BYLAYER
 10
117.839397473
 20
128.8878726961
 11
105.6771102005
 21
135.9096136738
  0
LINE
  5
29E
100
AcDbEntity
  8
0
100
AcDbLine
 62
7
  6
BYLAYER
 10
56.1794294402
 20
164.4864664902
 11
68.3417167127
 21
157.4647255125
  0
LINE
  5
29F
100
AcDbEntity
  8
0
100
AcDbLine
 62
7
  6
BYLAYER
 10
80.9282698203
 20
150.198040082
 11
93.0905570929
 21
143.1762991043
  0
LINE
  5
2A0
100
AcDbEntity
  8
0
100
AcDbLine
 62
7
  6
BYLAYER
 10
38.6330788388
 20
180.5130888348
 11
46.1790549371
 21
176.156516062
  0
LINE
  5
2A1
100
AcDbEntity
  8
0
100
AcDbLine
 62
7
  6
BYLAYER
 10
46.1790549371
 20
176.8329410596
 11
38.2188541973
 21
181.4286611304
  0
LINE
  5
2A2
100
AcDbEntity
  8
0
100
AcDbLine
 62
7
  6
BYLAYER
 10
87.7166939318
 20
120.1513592439
 11
87.7166939318
 21
122.6008664953
  0
LINE
  5
2A3
100
AcDbEntity
  8
0
100
AcDbLine
 62
7
  6
BYLAYER
 10
88.246826036
 20
240.727766237
 11
88.246826036
 21
237.4617565684
  0
LINE
  5
2A4
100
AcDbEntity
  8
0
100
AcDbLine
 62
7
  6
BYLAYER
 10
91.6663071971
 20
141.2109293211
 11
91.6663071971
 21
138.7614220697
  0
LINE
  5
2A5
100
AcDbEntity
  8
0
100
AcDbLine
 62
7
  6
BYLAYER
 10
91.9591974719
 20
139.1696652279
 11
91.9591920891
 21
142.365614056
  0
LINE
  5
2A6
100
AcDbEntity
  8
0
100
AcDbLine
 62
7
  6
BYLAYER
 10
92.2520823639
 20
140.3243499628
 11
92.2520823639
 21
142.7738572142
  0
LINE
  5
2A7
100
AcDbEntity
  8
0
100
AcDbLine
 62
7
  6
BYLAYER
 10
92.8430996007
 20
132.9496945917
 11
92.8430996007
 21
125.5605805211
  0
LINE
  5
2A8
100
AcDbEntity
  8
0
100
AcDbLine
 62
7
  6
BYLAYER
 10
92.8430996007
 20
117.1916945075
 11
92.8430996007
 21
89.6750664838
  0
LINE
  5
2A9
100
AcDbEntity
  8
0
100
AcDbLine
 62
7
  6
BYLAYER
 10
93.0905570929
 20
137.0933560967
 11
93.0905570929
 21
143.1762991043
  0
LINE
  5
2AA
100
AcDbEntity
  8
0
100
AcDbLine
 62
7
  6
BYLAYER
 10
93.3734304226
 20
132.8476352529
 11
93.3734304226
 21
160.1596411059
  0
LINE
  5
2AB
100
AcDbEntity
  8
0
100
AcDbLine
 62
7
  6
BYLAYER
 10
94.0805107081
 20
163.8338248933
 11
94.0805107081
 21
160.5678852598
  0
LINE
  5
2AC
100
AcDbEntity
  8
0
100
AcDbLine
 62
7
  6
BYLAYER
 10
47.4466428311
 20
189.5734052865
 11
47.0577257617
 21
189.3488652521
  0
LINE
  5
2AD
100
AcDbEntity
  8
0
100
AcDbLine
 62
7
  6
BYLAYER
 10
53.5984421438
 20
192.7577150965
 11
47.7648354868
 21
189.389700827
  0
LINE
  5
2AE
100
AcDbEntity
  8
0
100
AcDbLine
 62
7
  6
BYLAYER
 10
176.1050827949
 20
110.9252169509
 11
176.8121866321
 21
110.5169586877
  0
LINE
  5
2AF
100
AcDbEntity
  8
0
100
AcDbLine
 62
7
  6
BYLAYER
 10
151.3917271411
 20
126.3367190222
 11
148.2097191336
 21
128.1738106414
  0
LINE
  5
2B0
100
AcDbEntity
  8
0
100
AcDbLine
 62
7
  6
BYLAYER
 10
47.0577434255
 20
186.899410527
 11
48.8255177383
 21
185.8788086407
  0
LINE
  5
2B1
100
AcDbEntity
  8
0
100
AcDbLine
 62
7
  6
BYLAYER
 10
68.6245900425
 20
174.4480675141
 11
73.5743581185
 21
171.5903822325
  0
LINE
  5
2B2
100
AcDbEntity
  8
0
100
AcDbLine
 62
7
  6
BYLAYER
 10
93.3734304226
 20
160.1596411059
 11
98.3231984986
 21
157.3019558242
  0
LINE
  5
2B3
100
AcDbEntity
  8
0
100
AcDbLine
 62
7
  6
BYLAYER
 10
118.1222708027
 20
145.8712146977
 11
119.8900451156
 21
144.8506128114
  0
LINE
  5
2B4
100
AcDbEntity
  8
0
100
AcDbLine
 62
7
  6
BYLAYER
 10
148.4191329933
 20
129.1959823409
 11
152.3816725132
 21
126.9082608376
  0
LINE
  5
2B5
100
AcDbEntity
  8
0
100
AcDbLine
 62
7
  6
BYLAYER
 10
47.7648354868
 20
189.389700827
 11
46.3506160365
 21
190.2061823361
  0
LINE
  5
2B6
100
AcDbEntity
  8
0
100
AcDbLine
 62
7
  6
BYLAYER
 10
55.189475825
 20
186.2870663919
 11
69.3316703279
 21
178.1222513015
  0
LINE
  5
2B7
100
AcDbEntity
  8
0
100
AcDbLine
 62
7
  6
BYLAYER
 10
79.9383162051
 20
171.9986399837
 11
94.0805107081
 21
163.8338248933
  0
LINE
  5
2B8
100
AcDbEntity
  8
0
100
AcDbLine
 62
7
  6
BYLAYER
 10
104.6871565853
 20
157.7102135755
 11
118.8293510882
 21
149.5453984851
  0
LINE
  5
2B9
100
AcDbEntity
  8
0
100
AcDbLine
 62
7
  6
BYLAYER
 10
50.9114376035
 20
191.206381562
 11
123.4255819655
 21
149.34126791
  0
LINE
  5
2BA
100
AcDbEntity
  8
0
100
AcDbLine
 62
7
  6
BYLAYER
 10
98.3231984986
 20
129.9899499713
 11
98.3231984986
 21
157.3019558242
  0
LINE
  5
2BB
100
AcDbEntity
  8
0
100
AcDbLine
 62
7
  6
BYLAYER
 10
98.4999774019
 20
129.6837685555
 11
98.4999774019
 21
128.8265609471
  0
LINE
  5
2BC
100
AcDbEntity
  8
0
100
AcDbLine
 62
7
  6
BYLAYER
 10
98.4999774019
 20
121.8519304193
 11
98.4999774019
 21
120.9021336078
  0
LINE
  5
2BD
100
AcDbEntity
  8
0
100
AcDbLine
 62
7
  6
BYLAYER
 10
98.4999774019
 20
113.9257684714
 11
98.4999774019
 21
86.4091404477
  0
LINE
  5
2BE
100
AcDbEntity
  8
0
100
AcDbLine
 62
7
  6
BYLAYER
 10
99.0303023358
 20
157.7101999781
 11
99.0303023358
 21
130.3981941251
  0
LINE
  5
2BF
100
AcDbEntity
  8
0
100
AcDbLine
 62
7
  6
BYLAYER
 10
100.0909610356
 20
130.6023179017
 11
100.0909610356
 21
129.7451102933
  0
LINE
  5
2C0
100
AcDbEntity
  8
0
100
AcDbLine
 62
7
  6
BYLAYER
 10
100.0909610356
 20
122.4812367601
 11
100.0909610356
 21
120.3197616667
  0
LINE
  5
2C1
100
AcDbEntity
  8
0
100
AcDbLine
 62
7
  6
BYLAYER
 10
100.0909610356
 20
113.0072344222
 11
100.0909610356
 21
84.3908337707
  0
LINE
  5
2C2
100
AcDbEntity
  8
0
100
AcDbLine
 62
7
  6
BYLAYER
 10
101.8588884348
 20
111.9865441535
 11
101.8588884348
 21
114.4360514049
  0
LINE
  5
2C3
100
AcDbEntity
  8
0
100
AcDbLine
 62
7
  6
BYLAYER
 10
104.3336017227
 20
84.0616903234
 11
104.3336017227
 21
113.4153120079
  0
LINE
  5
2C4
100
AcDbEntity
  8
0
100
AcDbLine
 62
7
  6
BYLAYER
 10
104.3336017227
 20
120.4584829377
 11
104.3336017227
 21
122.2762901889
  0
LINE
  5
2C5
100
AcDbEntity
  8
0
100
AcDbLine
 62
7
  6
BYLAYER
 10
104.6871565853
 20
135.2564182685
 11
104.6871565853
 21
157.7102135755
  0
LINE
  5
2C6
100
AcDbEntity
  8
0
100
AcDbLine
 62
7
  6
BYLAYER
 10
48.8255177383
 20
185.8788086407
 11
49.5326215756
 21
186.2870527945
  0
LINE
  5
2C7
100
AcDbEntity
  8
0
100
AcDbLine
 62
7
  6
BYLAYER
 10
111.5814881813
 20
221.540426979
 11
116.5312150418
 21
224.3981360561
  0
LINE
  5
2C8
100
AcDbEntity
  8
0
100
AcDbLine
 62
7
  6
BYLAYER
 10
191.4842217865
 20
267.6720163665
 11
196.433948647
 21
270.5297254436
  0
LINE
  5
2C9
100
AcDbEntity
  8
0
100
AcDbLine
 62
7
  6
BYLAYER
 10
112.2260422411
 20
218.6465485491
 11
116.5312150418
 21
221.1321263876
  0
LINE
  5
2CA
100
AcDbEntity
  8
0
100
AcDbLine
 62
7
  6
BYLAYER
 10
192.1287758463
 20
264.7781379366
 11
196.433948647
 21
267.2637157751
  0
LINE
  5
2CB
100
AcDbEntity
  8
0
100
AcDbLine
 62
7
  6
BYLAYER
 10
201.0301618605
 20
267.8761605392
 11
196.080435
 21
265.0184514621
  0
LINE
  5
2CC
100
AcDbEntity
  8
0
100
AcDbLine
 62
7
  6
BYLAYER
 10
121.1274282553
 20
221.7445711518
 11
116.1777013948
 21
218.8868620747
  0
LINE
  5
2CD
100
AcDbEntity
  8
0
100
AcDbLine
 62
7
  6
BYLAYER
 10
79.5241114747
 20
149.5448487801
 11
78.2312182558
 21
149.5448456724
  0
LINE
  5
2CE
100
AcDbEntity
  8
0
100
AcDbLine
 62
7
  6
BYLAYER
 10
51.83065539
 20
191.7370890306
 11
123.4255819655
 21
150.4026740091
  0
LINE
  5
2CF
100
AcDbEntity
  8
0
100
AcDbLine
 62
7
  6
BYLAYER
 10
123.4255819655
 20
152.0356579353
 11
53.2448811716
 21
192.5535877925
  0
LINE
  5
2D0
100
AcDbEntity
  8
0
100
AcDbLine
 62
7
  6
BYLAYER
 10
123.4255819655
 20
158.3637450676
 11
143.8685595899
 21
146.5612534411
  0
LINE
  5
2D1
100
AcDbEntity
  8
0
100
AcDbLine
 62
7
  6
BYLAYER
 10
53.5984421438
 20
201.7562374115
 11
123.9895412292
 21
161.1168367921
  0
LINE
  5
2D2
100
AcDbEntity
  8
0
100
AcDbLine
 62
7
  6
BYLAYER
 10
38.2188541973
 20
210.8227481576
 11
47.7648354868
 21
205.3114979609
  0
LINE
  5
2D3
100
AcDbEntity
  8
0
100
AcDbLine
 62
7
  6
BYLAYER
 10
56.1339230583
 20
225.0133587055
 11
54.4319146534
 21
226.7153264138
  0
LINE
  5
2D4
100
AcDbEntity
  8
0
100
AcDbLine
 62
7
  6
BYLAYER
 10
56.1339230583
 20
226.9845355789
 11
55.2979379669
 21
227.8205000858
  0
LINE
  5
2D5
100
AcDbEntity
  8
0
100
AcDbLine
 62
7
  6
BYLAYER
 10
54.8960083342
 20
233.5018645233
 11
54.6280696119
 21
233.8563281373
  0
LINE
  5
2D6
100
AcDbEntity
  8
0
100
AcDbLine
 62
7
  6
BYLAYER
 10
105.6771102005
 20
135.827964843
 11
105.6771102005
 21
135.9096136738
  0
LINE
  5
2D7
100
AcDbEntity
  8
0
100
AcDbLine
 62
7
  6
BYLAYER
 10
111.5814881813
 20
219.0156803602
 11
111.5814881813
 21
221.540426979
  0
LINE
  5
2D8
100
AcDbEntity
  8
0
100
AcDbLine
 62
7
  6
BYLAYER
 10
115.7080731797
 20
122.431834217
 11
115.7080731797
 21
119.9823269656
  0
LINE
  5
2D9
100
AcDbEntity
  8
0
100
AcDbLine
 62
7
  6
BYLAYER
 10
116.0009634545
 20
120.3905701238
 11
116.000928632
 21
127.6689434939
  0
LINE
  5
2DA
100
AcDbEntity
  8
0
100
AcDbLine
 62
7
  6
BYLAYER
 10
116.2938189068
 20
125.6276794008
 11
116.2938189068
 21
128.0771866521
  0
LINE
  5
2DB
100
AcDbEntity
  8
0
100
AcDbLine
 62
7
  6
BYLAYER
 10
215.3490866912
 20
266.1411645273
 11
193.4288677376
 21
253.4855957573
  0
LINE
  5
2DC
100
AcDbEntity
  8
0
100
AcDbLine
 62
7
  6
BYLAYER
 10
119.1829648301
 20
210.6199596008
 11
141.1031837838
 21
223.2755283708
  0
LINE
  5
2DD
100
AcDbEntity
  8
0
100
AcDbLine
 62
7
  6
BYLAYER
 10
183.5294140166
 20
247.525226878
 11
151.0026375048
 21
228.7459957999
  0
LINE
  5
2DE
100
AcDbEntity
  8
0
100
AcDbLine
 62
7
  6
BYLAYER
 10
191.1630991589
 20
250.6669319953
 11
185.4277606636
 21
247.3556525368
  0
LINE
  5
2DF
100
AcDbEntity
  8
0
100
AcDbLine
 62
7
  6
BYLAYER
 10
143.3689523625
 20
223.0731331895
 11
149.1042908577
 21
226.3844126479
  0
LINE
  5
2E0
100
AcDbEntity
  8
0
100
AcDbLine
 62
7
  6
BYLAYER
 10
152.5936211385
 20
227.8682398284
 11
181.9384303829
 21
244.8103722141
  0
LINE
  5
2E1
100
AcDbEntity
  8
0
100
AcDbLine
 62
7
  6
BYLAYER
 10
138.9818722721
 20
218.7847862407
 11
119.1829648301
 21
207.3539499323
  0
LINE
  5
2E2
100
AcDbEntity
  8
0
100
AcDbLine
 62
7
  6
BYLAYER
 10
195.5501792492
 20
251.4443185504
 11
215.3490866912
 21
262.8751548588
  0
LINE
  5
2E3
100
AcDbEntity
  8
0
100
AcDbLine
 62
7
  6
BYLAYER
 10
151.6342416502
 20
225.3955644486
 11
143.2952056791
 21
220.5810485247
  0
LINE
  5
2E4
100
AcDbEntity
  8
0
100
AcDbLine
 62
7
  6
BYLAYER
 10
182.8978098711
 20
243.4454862333
 11
191.2368458422
 21
248.2600021572
  0
LINE
  5
2E5
100
AcDbEntity
  8
0
100
AcDbLine
 62
7
  6
BYLAYER
 10
31.1479159201
 20
155.2601268569
 11
44.997100665
 21
163.255909669
  0
LINE
  5
2E6
100
AcDbEntity
  8
0
100
AcDbLine
 62
7
  6
BYLAYER
 10
68.6245900425
 20
174.4480675141
 11
69.3316938797
 21
174.856311668
  0
LINE
  5
2E7
100
AcDbEntity
  8
0
100
AcDbLine
 62
7
  6
BYLAYER
 10
65.934841652
 20
153.8166541138
 11
59.6910059237
 21
152.8507270879
  0
LINE
  5
2E8
100
AcDbEntity
  8
0
100
AcDbLine
 62
7
  6
BYLAYER
 10
59.6910059237
 20
155.3002343393
 11
65.934841652
 21
156.2661613652
  0
LINE
  5
2E9
100
AcDbEntity
  8
0
100
AcDbLine
 62
7
  6
BYLAYER
 10
54.0681672573
 20
163.4250310345
 11
45.7042062267
 21
163.42501093
  0
LINE
  5
2EA
100
AcDbEntity
  8
0
100
AcDbLine
 62
7
  6
BYLAYER
 10
124.2531599327
 20
162.1893843458
 11
53.9091010222
 21
202.8016269219
  0
LINE
  5
2EB
100
AcDbEntity
  8
0
100
AcDbLine
 62
7
  6
BYLAYER
 10
148.5279301047
 20
156.9350968863
 11
129.0824126632
 21
168.1617176356
  0
LINE
  5
2EC
100
AcDbEntity
  8
0
100
AcDbLine
 62
7
  6
BYLAYER
 10
53.4216661849
 20
215.1094705293
 11
43.8756848963
 21
220.6207207158
  0
LINE
  5
2ED
100
AcDbEntity
  8
0
100
AcDbLine
 62
7
  6
BYLAYER
 10
55.0300101683
 20
233.3956877914
 11
56.1339230583
 21
232.291801745
  0
LINE
  5
2EE
100
AcDbEntity
  8
0
100
AcDbLine
 62
7
  6
BYLAYER
 10
55.896010201
 20
234.500887826
 11
56.1339230583
 21
234.2629806575
  0
LINE
  5
2EF
100
AcDbEntity
  8
0
100
AcDbLine
 62
7
  6
BYLAYER
 10
56.1339230583
 20
266.487734203
 11
56.4268192211
 21
266.0794900632
  0
LINE
  5
2F0
100
AcDbEntity
  8
0
100
AcDbLine
 62
7
  6
BYLAYER
 10
153.6191672293
 20
101.9030493108
 11
146.0530931702
 21
115.0078012475
  0
LINE
  5
2F1
100
AcDbEntity
  8
0
100
AcDbLine
 62
7
  6
BYLAYER
 10
116.5312150418
 20
224.3981360561
 11
116.5312150418
 21
221.1321263876
  0
LINE
  5
2F2
100
AcDbEntity
  8
0
100
AcDbLine
 62
7
  6
BYLAYER
 10
117.5919399809
 20
118.6612681835
 11
117.5919399809
 21
75.3866400769
  0
LINE
  5
2F3
100
AcDbEntity
  8
0
100
AcDbLine
 62
7
  6
BYLAYER
 10
117.839397473
 20
122.8049296885
 11
117.839397473
 21
128.8878726961
  0
LINE
  5
2F4
100
AcDbEntity
  8
0
100
AcDbLine
 62
7
  6
BYLAYER
 10
118.1222708027
 20
118.5592088447
 11
118.1222708027
 21
145.8712146977
  0
LINE
  5
2F5
100
AcDbEntity
  8
0
100
AcDbLine
 62
7
  6
BYLAYER
 10
118.8293510882
 20
149.5453984851
 11
118.8293510882
 21
146.2794588516
  0
LINE
  5
2F6
100
AcDbEntity
  8
0
100
AcDbLine
 62
7
  6
BYLAYER
 10
118.8294129115
 20
207.5580790639
 11
118.8294129115
 21
210.0075863153
  0
LINE
  5
2F7
100
AcDbEntity
  8
0
100
AcDbLine
 62
7
  6
BYLAYER
 10
119.8900451156
 20
144.8506128114
 11
119.8900451156
 21
117.5386069584
  0
LINE
  5
2F8
100
AcDbEntity
  8
0
100
AcDbLine
 62
7
  6
BYLAYER
 10
120.5971563127
 20
116.9262449768
 11
120.5971563127
 21
73.6516168745
  0
LINE
  5
2F9
100
AcDbEntity
  8
0
100
AcDbLine
 62
7
  6
BYLAYER
 10
120.6749325829
 20
71.1449383522
 11
120.6749325829
 21
70.328435935
  0
LINE
  5
2FA
100
AcDbEntity
  8
0
100
AcDbLine
 62
7
  6
BYLAYER
 10
123.4255819655
 20
119.4165797705
 11
123.4255819655
 21
158.3637450676
  0
LINE
  5
2FB
100
AcDbEntity
  8
0
100
AcDbLine
 62
7
  6
BYLAYER
 10
123.4255834375
 20
73.6516236787
 11
123.4255834375
 21
116.9262517755
  0
LINE
  5
2FC
100
AcDbEntity
  8
0
100
AcDbLine
 62
7
  6
BYLAYER
 10
123.5033597076
 20
70.3284427337
 11
123.5033597076
 21
71.1449451509
  0
LINE
  5
2FD
100
AcDbEntity
  8
0
100
AcDbLine
 62
7
  6
BYLAYER
 10
124.1326916906
 20
117.1303834566
 11
124.1326916906
 21
119.008339016
  0
LINE
  5
2FE
100
AcDbEntity
  8
0
100
AcDbLine
 62
7
  6
BYLAYER
 10
151.0026375048
 20
228.7459957999
 11
149.1042908577
 21
226.3844126479
  0
LINE
  5
2FF
100
AcDbEntity
  8
0
100
AcDbLine
 62
7
  6
BYLAYER
 10
54.7752728191
 20
163.5941322954
 11
56.2501404127
 21
164.4456424148
  0
LINE
  5
300
100
AcDbEntity
  8
0
100
AcDbLine
 62
7
  6
BYLAYER
 10
192.297501598
 20
240.5848688542
 11
185.1557528422
 21
236.4616029001
  0
LINE
  5
301
100
AcDbEntity
  8
0
100
AcDbLine
 62
7
  6
BYLAYER
 10
142.2345499233
 20
211.6811827601
 11
149.3762986792
 21
215.8044487142
  0
LINE
  5
302
100
AcDbEntity
  8
0
100
AcDbLine
 62
7
  6
BYLAYER
 10
73.5743581185
 20
171.5903822325
 11
74.2814619557
 21
171.9986263863
  0
LINE
  5
303
100
AcDbEntity
  8
0
100
AcDbLine
 62
7
  6
BYLAYER
 10
149.3762986792
 20
213.7631926714
 11
142.2345499233
 21
209.6399267173
  0
LINE
  5
304
100
AcDbEntity
  8
0
100
AcDbLine
 62
7
  6
BYLAYER
 10
185.1557528422
 20
234.4203468573
 11
192.297501598
 21
238.5436128114
  0
LINE
  5
305
100
AcDbEntity
  8
0
100
AcDbLine
 62
7
  6
BYLAYER
 10
196.2574656124
 20
135.2565603091
 11
203.8235396714
 21
130.8883842357
  0
LINE
  5
306
100
AcDbEntity
  8
0
100
AcDbLine
 62
7
  6
BYLAYER
 10
135.0927952795
 20
171.6317929435
 11
154.538312721
 21
160.4051721942
  0
LINE
  5
307
100
AcDbEntity
  8
0
100
AcDbLine
 62
7
  6
BYLAYER
 10
138.3510397493
 20
171.0634368943
 11
137.6439300241
 21
171.4716776489
  0
LINE
  5
308
100
AcDbEntity
  8
0
100
AcDbLine
 62
7
  6
BYLAYER
 10
62.5433056846
 20
217.756591097
 11
139.6182657256
 21
173.2583488543
  0
LINE
  5
309
100
AcDbEntity
  8
0
100
AcDbLine
 62
7
  6
BYLAYER
 10
55.7197153839
 20
221.7434159337
 11
60.3159285974
 21
219.0898510293
  0
LINE
  5
30A
100
AcDbEntity
  8
0
100
AcDbLine
 62
7
  6
BYLAYER
 10
61.0230324346
 20
220.3145976003
 11
56.4268192211
 21
222.9681625047
  0
LINE
  5
30B
100
AcDbEntity
  8
0
100
AcDbLine
 62
7
  6
BYLAYER
 10
134.9154437747
 20
297.8065301093
 11
134.9154437747
 21
300.3312767281
  0
LINE
  5
30C
100
AcDbEntity
  8
0
100
AcDbLine
 62
7
  6
BYLAYER
 10
103.6011265645
 20
134.5200135951
 11
101.9281199527
 21
130.9151768486
  0
LINE
  5
30D
100
AcDbEntity
  8
0
100
AcDbLine
 62
7
  6
BYLAYER
 10
59.2427192651
 20
155.1508061526
 11
45.290110423
 21
147.0953117665
  0
LINE
  5
30E
100
AcDbEntity
  8
0
100
AcDbLine
 62
7
  6
BYLAYER
 10
59.2427192651
 20
152.7012989012
 11
45.290110423
 21
144.6458045151
  0
LINE
  5
30F
100
AcDbEntity
  8
0
100
AcDbLine
 62
7
  6
BYLAYER
 10
68.2710057402
 20
157.505549588
 11
66.3831283104
 21
156.4155895518
  0
LINE
  5
310
100
AcDbEntity
  8
0
100
AcDbLine
 62
7
  6
BYLAYER
 10
68.3417167127
 20
155.0968670919
 11
66.3831283104
 21
153.9660823005
  0
LINE
  5
311
100
AcDbEntity
  8
0
100
AcDbLine
 62
7
  6
BYLAYER
 10
225.1780890975
 20
139.7472626799
 11
226.3094552371
 21
139.0940494587
  0
LINE
  5
312
100
AcDbEntity
  8
0
100
AcDbLine
 62
7
  6
BYLAYER
 10
146.0530931702
 20
130.9942913473
 11
143.8685595899
 21
146.5612534411
  0
LINE
  5
313
100
AcDbEntity
  8
0
100
AcDbLine
 62
7
  6
BYLAYER
 10
138.9818722721
 20
217.8081248963
 11
138.9818722721
 21
218.7847862407
  0
LINE
  5
314
100
AcDbEntity
  8
0
100
AcDbLine
 62
7
  6
BYLAYER
 10
139.6182657256
 20
173.2583488543
 11
139.6182657256
 21
217.0530393953
  0
LINE
  5
315
100
AcDbEntity
  8
0
100
AcDbLine
 62
7
  6
BYLAYER
 10
139.8651706352
 20
303.1889858052
 11
139.8651706352
 21
299.9229761367
  0
LINE
  5
316
100
AcDbEntity
  8
0
100
AcDbLine
 62
7
  6
BYLAYER
 10
141.1738941675
 20
216.9068088117
 11
141.1738941675
 21
212.293570155
  0
LINE
  5
317
100
AcDbEntity
  8
0
100
AcDbLine
 62
7
  6
BYLAYER
 10
141.1738941675
 20
207.8028068608
 11
141.1738941675
 21
172.6932029242
  0
LINE
  5
318
100
AcDbEntity
  8
0
100
AcDbLine
 62
7
  6
BYLAYER
 10
146.0530931702
 20
130.9942913473
 11
146.0530931702
 21
115.0078012475
  0
LINE
  5
319
100
AcDbEntity
  8
0
100
AcDbLine
 62
7
  6
BYLAYER
 10
151.6342416502
 20
225.3955644486
 11
152.5936211385
 21
227.8682398284
  0
LINE
  5
31A
100
AcDbEntity
  8
0
100
AcDbLine
 62
7
  6
BYLAYER
 10
139.6182657256
 20
173.2583488543
 11
138.3510397493
 21
171.0634368943
  0
LINE
  5
31B
100
AcDbEntity
  8
0
100
AcDbLine
 62
7
  6
BYLAYER
 10
193.4288677376
 20
253.4855957573
 11
191.1630991589
 21
250.6669319953
  0
LINE
  5
31C
100
AcDbEntity
  8
0
100
AcDbLine
 62
7
  6
BYLAYER
 10
68.0942592206
 20
147.2381209999
 11
68.6245900425
 21
147.544305815
  0
LINE
  5
31D
100
AcDbEntity
  8
0
100
AcDbLine
 62
7
  6
BYLAYER
 10
93.3734304226
 20
160.1596411059
 11
94.0805342598
 21
160.5678852598
  0
LINE
  5
31E
100
AcDbEntity
  8
0
100
AcDbLine
 62
7
  6
BYLAYER
 10
59.4323049259
 20
138.9304966761
 11
77.5241126941
 21
149.3757444115
  0
LINE
  5
31F
100
AcDbEntity
  8
0
100
AcDbLine
 62
7
  6
BYLAYER
 10
80.2312170364
 20
149.7139500411
 11
80.9989807929
 21
150.1572160066
  0
LINE
  5
320
100
AcDbEntity
  8
0
100
AcDbLine
 62
7
  6
BYLAYER
 10
98.3231984986
 20
157.3019558242
 11
99.0303023358
 21
157.7101999781
  0
LINE
  5
321
100
AcDbEntity
  8
0
100
AcDbLine
 62
7
  6
BYLAYER
 10
118.9329690719
 20
207.32918599
 11
83.8274806545
 21
227.5968906611
  0
LINE
  5
322
100
AcDbEntity
  8
0
100
AcDbLine
 62
7
  6
BYLAYER
 10
75.549277998
 20
232.3762050707
 11
40.4437895806
 21
252.6439097418
  0
LINE
  5
323
100
AcDbEntity
  8
0
100
AcDbLine
 62
7
  6
BYLAYER
 10
118.8294129115
 20
207.5580790639
 11
83.8274815167
 21
227.7659964127
  0
LINE
  5
324
100
AcDbEntity
  8
0
100
AcDbLine
 62
7
  6
BYLAYER
 10
75.342164815
 20
232.6648854669
 11
40.3402334202
 21
252.8728028157
  0
LINE
  5
325
100
AcDbEntity
  8
0
100
AcDbLine
 62
7
  6
BYLAYER
 10
141.1738941675
 20
195.5890909315
 11
160.2954885667
 21
184.549483007
  0
LINE
  5
326
100
AcDbEntity
  8
0
100
AcDbLine
 62
7
  6
BYLAYER
 10
160.4419409683
 20
184.6340368358
 11
141.1738941675
 21
195.7581971809
  0
LINE
  5
327
100
AcDbEntity
  8
0
100
AcDbLine
 62
7
  6
BYLAYER
 10
141.1738941675
 20
197.1053414414
 11
161.6086187992
 21
185.3076145748
  0
LINE
  5
328
100
AcDbEntity
  8
0
100
AcDbLine
 62
7
  6
BYLAYER
 10
40.3402334202
 20
255.3223100671
 11
75.342164815
 21
235.1143927183
  0
LINE
  5
329
100
AcDbEntity
  8
0
100
AcDbLine
 62
7
  6
BYLAYER
 10
83.8274815167
 20
230.2155036641
 11
118.8294129115
 21
210.0075863153
  0
LINE
  5
32A
100
AcDbEntity
  8
0
100
AcDbLine
 62
7
  6
BYLAYER
 10
162.31573169
 20
185.7158639557
 11
141.1738941675
 21
197.9218334045
  0
LINE
  5
32B
100
AcDbEntity
  8
0
100
AcDbLine
 62
7
  6
BYLAYER
 10
119.1829648301
 20
210.6199596008
 11
83.8274785728
 21
231.0319973268
  0
LINE
  5
32C
100
AcDbEntity
  8
0
100
AcDbLine
 62
7
  6
BYLAYER
 10
76.0492715962
 20
235.5226456265
 11
40.6937853388
 21
255.9346833526
  0
LINE
  5
32D
100
AcDbEntity
  8
0
100
AcDbLine
 62
7
  6
BYLAYER
 10
149.7298505978
 20
215.6003195826
 11
149.7298505978
 21
214.3755659569
  0
LINE
  5
32E
100
AcDbEntity
  8
0
100
AcDbLine
 62
7
  6
BYLAYER
 10
155.2455195971
 20
100.9640955754
 11
155.2455195971
 21
99.1677902577
  0
LINE
  5
32F
100
AcDbEntity
  8
0
100
AcDbLine
 62
7
  6
BYLAYER
 10
129.0824126632
 20
168.1617176356
 11
135.0927952795
 21
171.6317929435
  0
LINE
  5
330
100
AcDbEntity
  8
0
100
AcDbLine
 62
7
  6
BYLAYER
 10
198.0250367915
 20
207.9655226381
 11
204.0354194079
 21
211.435597946
  0
LINE
  5
331
100
AcDbEntity
  8
0
100
AcDbLine
 62
7
  6
BYLAYER
 10
198.0250367915
 20
206.3325178038
 11
195.4739020469
 21
204.8596282643
  0
LINE
  5
332
100
AcDbEntity
  8
0
100
AcDbLine
 62
7
  6
BYLAYER
 10
192.6510476287
 20
203.2298622344
 11
141.1738941675
 21
173.509691232
  0
LINE
  5
333
100
AcDbEntity
  8
0
100
AcDbLine
 62
7
  6
BYLAYER
 10
137.6439300241
 20
171.4716776489
 11
136.5070391683
 21
170.8152973253
  0
LINE
  5
334
100
AcDbEntity
  8
0
100
AcDbLine
 62
7
  6
BYLAYER
 10
196.1810117721
 20
204.4513875097
 11
193.3581573539
 21
202.8216214799
  0
LINE
  5
335
100
AcDbEntity
  8
0
100
AcDbLine
 62
7
  6
BYLAYER
 10
141.1738941675
 20
172.6932029242
 11
138.3510397493
 21
171.0634368943
  0
LINE
  5
336
100
AcDbEntity
  8
0
100
AcDbLine
 62
7
  6
BYLAYER
 10
93.0198461204
 20
143.2171231797
 11
92.2520823639
 21
142.7738572142
  0
LINE
  5
337
100
AcDbEntity
  8
0
100
AcDbLine
 62
7
  6
BYLAYER
 10
91.6663071971
 20
141.2109293211
 11
73.5744994289
 21
130.7656815857
  0
LINE
  5
338
100
AcDbEntity
  8
0
100
AcDbLine
 62
7
  6
BYLAYER
 10
93.0905570929
 20
140.8084406837
 11
92.2520823639
 21
140.3243499628
  0
LINE
  5
339
100
AcDbEntity
  8
0
100
AcDbLine
 62
7
  6
BYLAYER
 10
91.6663071971
 20
138.7614220697
 11
73.5744994289
 21
128.3161743343
  0
LINE
  5
33A
100
AcDbEntity
  8
0
100
AcDbLine
 62
7
  6
BYLAYER
 10
142.2345499233
 20
211.6811827601
 11
141.484578918
 21
211.6069191134
  0
LINE
  5
33B
100
AcDbEntity
  8
0
100
AcDbLine
 62
7
  6
BYLAYER
 10
141.1738941675
 20
203.0248428362
 11
166.7351306725
 21
188.2673899174
  0
LINE
  5
33C
100
AcDbEntity
  8
0
100
AcDbLine
 62
7
  6
BYLAYER
 10
168.8564693449
 20
189.4921380602
 11
141.1738941675
 21
205.4743187255
  0
LINE
  5
33D
100
AcDbEntity
  8
0
100
AcDbLine
 62
7
  6
BYLAYER
 10
141.1738941675
 20
206.7691171849
 11
169.9778137341
 21
190.1395426806
  0
LINE
  5
33E
100
AcDbEntity
  8
0
100
AcDbLine
 62
7
  6
BYLAYER
 10
170.684930375
 20
190.5477942267
 11
141.1738941675
 21
207.5856134782
  0
LINE
  5
33F
100
AcDbEntity
  8
0
100
AcDbLine
 62
7
  6
BYLAYER
 10
239.8858353693
 20
151.7088360831
 11
241.5121877372
 21
150.7698823477
  0
LINE
  5
340
100
AcDbEntity
  8
0
100
AcDbLine
 62
7
  6
BYLAYER
 10
142.0157639896
 20
209.4089587211
 11
172.6849476556
 21
191.7024978494
  0
LINE
  5
341
100
AcDbEntity
  8
0
100
AcDbLine
 62
7
  6
BYLAYER
 10
173.3920642965
 20
192.1107493954
 11
142.6322474966
 21
209.8695361476
  0
LINE
  5
342
100
AcDbEntity
  8
0
100
AcDbLine
 62
7
  6
BYLAYER
 10
142.2345499233
 20
211.6811827601
 11
141.1738805874
 21
212.2935466331
  0
LINE
  5
343
100
AcDbEntity
  8
0
100
AcDbLine
 62
7
  6
BYLAYER
 10
144.4254748073
 20
210.9048502382
 11
175.1852916073
 21
193.146063486
  0
LINE
  5
344
100
AcDbEntity
  8
0
100
AcDbLine
 62
7
  6
BYLAYER
 10
144.7179604522
 20
211.0737158961
 11
175.4777772522
 21
193.3149291438
  0
LINE
  5
345
100
AcDbEntity
  8
0
100
AcDbLine
 62
7
  6
BYLAYER
 10
212.7332356708
 20
169.4918597701
 11
212.7037522736
 21
169.508894908
  0
LINE
  5
346
100
AcDbEntity
  8
0
100
AcDbLine
 62
7
  6
BYLAYER
 10
182.1153888681
 20
135.8282530949
 11
189.6814629272
 21
122.7235011583
  0
LINE
  5
347
100
AcDbEntity
  8
0
100
AcDbLine
 62
7
  6
BYLAYER
 10
141.484578918
 20
211.6069191134
 11
141.1738941675
 21
212.293570155
  0
LINE
  5
348
100
AcDbEntity
  8
0
100
AcDbLine
 62
7
  6
BYLAYER
 10
154.538312721
 20
160.4051721942
 11
154.7876777668
 21
158.6281996407
  0
LINE
  5
349
100
AcDbEntity
  8
0
100
AcDbLine
 62
7
  6
BYLAYER
 10
163.1998327806
 20
281.4768999285
 11
163.1998327806
 21
284.0016465473
  0
LINE
  5
34A
100
AcDbEntity
  8
0
100
AcDbLine
 62
7
  6
BYLAYER
 10
92.8430996007
 20
132.9496945917
 11
93.3734304226
 21
133.2558794068
  0
LINE
  5
34B
100
AcDbEntity
  8
0
100
AcDbLine
 62
7
  6
BYLAYER
 10
118.1222708027
 20
145.8712146977
 11
118.82937464
 21
146.2794588516
  0
LINE
  5
34C
100
AcDbEntity
  8
0
100
AcDbLine
 62
7
  6
BYLAYER
 10
105.747821173
 20
135.8687895984
 11
103.8599437432
 21
134.7788295623
  0
LINE
  5
34D
100
AcDbEntity
  8
0
100
AcDbLine
 62
7
  6
BYLAYER
 10
98.3231984986
 20
129.9899499713
 11
99.0303023358
 21
130.3981941251
  0
LINE
  5
34E
100
AcDbEntity
  8
0
100
AcDbLine
 62
7
  6
BYLAYER
 10
143.3689523625
 20
223.0731331895
 11
141.1031837838
 21
223.2755283708
  0
LINE
  5
34F
100
AcDbEntity
  8
0
100
AcDbLine
 62
7
  6
BYLAYER
 10
138.9818722721
 20
217.8081248963
 11
139.3075725032
 21
217.7396756672
  0
LINE
  5
350
100
AcDbEntity
  8
0
100
AcDbLine
 62
7
  6
BYLAYER
 10
137.800308148
 20
218.1026139476
 11
139.6182657256
 21
217.0530393953
  0
LINE
  5
351
100
AcDbEntity
  8
0
100
AcDbLine
 62
7
  6
BYLAYER
 10
138.9818722721
 20
217.8081248963
 11
138.1360466452
 21
218.2964515023
  0
LINE
  5
352
100
AcDbEntity
  8
0
100
AcDbLine
 62
7
  6
BYLAYER
 10
56.4268192211
 20
266.0794901114
 11
57.3460227509
 21
265.5487997165
  0
LINE
  5
353
100
AcDbEntity
  8
0
100
AcDbLine
 62
7
  6
BYLAYER
 10
221.2596473507
 20
172.02726423
 11
209.261168629
 21
178.9544324363
  0
LINE
  5
354
100
AcDbEntity
  8
0
100
AcDbLine
 62
7
  6
BYLAYER
 10
225.9911819672
 20
169.4064772556
 11
222.8091739597
 21
171.2435688748
  0
LINE
  5
355
100
AcDbEntity
  8
0
100
AcDbLine
 62
7
  6
BYLAYER
 10
223.0185878194
 20
172.2657405744
 11
226.9811273393
 21
169.9780190711
  0
LINE
  5
356
100
AcDbEntity
  8
0
100
AcDbLine
 62
7
  6
BYLAYER
 10
60.1744743249
 20
267.1817972465
 11
57.8410268951
 21
268.5289832709
  0
LINE
  5
357
100
AcDbEntity
  8
0
100
AcDbLine
 62
7
  6
BYLAYER
 10
142.4680157676
 20
219.7928574829
 11
149.3762986792
 21
215.8044487142
  0
LINE
  5
358
100
AcDbEntity
  8
0
100
AcDbLine
 62
7
  6
BYLAYER
 10
149.6262944374
 20
215.8292126565
 11
142.5785221003
 21
219.8981538607
  0
LINE
  5
359
100
AcDbEntity
  8
0
100
AcDbLine
 62
7
  6
BYLAYER
 10
62.6140042924
 20
268.5902521226
 11
141.1031837838
 21
223.2755283708
  0
LINE
  5
35A
100
AcDbEntity
  8
0
100
AcDbLine
 62
7
  6
BYLAYER
 10
64.0836920192
 20
268.4589687617
 11
65.4979114695
 21
267.6424872527
  0
LINE
  5
35B
100
AcDbEntity
  8
0
100
AcDbLine
 62
7
  6
BYLAYER
 10
66.2939923215
 20
267.5713754322
 11
143.3689523625
 21
223.0731331895
  0
LINE
  5
35C
100
AcDbEntity
  8
0
100
AcDbLine
 62
7
  6
BYLAYER
 10
147.1354186362
 20
222.7981832748
 11
186.8403280326
 21
199.8750617369
  0
LINE
  5
35D
100
AcDbEntity
  8
0
100
AcDbLine
 62
7
  6
BYLAYER
 10
203.8235396714
 20
130.8883842357
 11
196.2574656124
 21
143.9931361723
  0
LINE
  5
35E
100
AcDbEntity
  8
0
100
AcDbLine
 62
7
  6
BYLAYER
 10
172.2154067051
 20
285.9407498407
 11
172.2153913754
 21
291.2130162985
  0
LINE
  5
35F
100
AcDbEntity
  8
0
100
AcDbLine
 62
7
  6
BYLAYER
 10
98.4999774019
 20
129.6837685555
 11
100.0909610356
 21
130.6023179017
  0
LINE
  5
360
100
AcDbEntity
  8
0
100
AcDbLine
 62
7
  6
BYLAYER
 10
101.6693027739
 20
130.6563608814
 11
87.7166939318
 21
122.6008664953
  0
LINE
  5
361
100
AcDbEntity
  8
0
100
AcDbLine
 62
7
  6
BYLAYER
 10
148.5279301047
 20
156.9350968863
 11
154.538312721
 21
160.4051721942
  0
LINE
  5
362
100
AcDbEntity
  8
0
100
AcDbLine
 62
7
  6
BYLAYER
 10
217.4705542331
 20
196.7389018888
 11
223.4809368494
 21
200.2089771967
  0
LINE
  5
363
100
AcDbEntity
  8
0
100
AcDbLine
 62
7
  6
BYLAYER
 10
217.7199192788
 20
194.9619293352
 11
154.7876777668
 21
158.6281996407
  0
LINE
  5
364
100
AcDbEntity
  8
0
100
AcDbLine
 62
7
  6
BYLAYER
 10
116.2938189068
 20
128.0771866521
 11
117.7686865005
 21
128.9286967715
  0
LINE
  5
365
100
AcDbEntity
  8
0
100
AcDbLine
 62
7
  6
BYLAYER
 10
192.297501598
 20
238.5436128114
 11
193.0474726034
 21
238.6178764581
  0
LINE
  5
366
100
AcDbEntity
  8
0
100
AcDbLine
 62
7
  6
BYLAYER
 10
79.2312521115
 20
232.2566436066
 11
76.0492715962
 21
232.256635958
  0
LINE
  5
367
100
AcDbEntity
  8
0
100
AcDbLine
 62
7
  6
BYLAYER
 10
55.5790330115
 20
234.6848720859
 11
55.1284538162
 21
234.7341344423
  0
LINE
  5
368
100
AcDbEntity
  8
0
100
AcDbLine
 62
7
  6
BYLAYER
 10
225.5876059179
 20
178.8510072411
 11
212.0505089485
 21
186.6664770109
  0
LINE
  5
369
100
AcDbEntity
  8
0
100
AcDbLine
 62
7
  6
BYLAYER
 10
189.371636332
 20
201.3365045413
 11
149.6667269356
 21
224.2596260792
  0
LINE
  5
36A
100
AcDbEntity
  8
0
100
AcDbLine
 62
7
  6
BYLAYER
 10
72.0293308167
 20
270.8826548906
 11
149.1042908577
 21
226.3844126479
  0
LINE
  5
36B
100
AcDbEntity
  8
0
100
AcDbLine
 62
7
  6
BYLAYER
 10
71.4111922184
 20
272.6894777215
 11
72.8254116687
 21
271.8729962124
  0
LINE
  5
36C
100
AcDbEntity
  8
0
100
AcDbLine
 62
7
  6
BYLAYER
 10
193.3581573539
 20
202.8216214799
 11
192.6510476287
 21
203.2298622344
  0
LINE
  5
36D
100
AcDbEntity
  8
0
100
AcDbLine
 62
7
  6
BYLAYER
 10
72.5134580134
 20
274.0607195516
 11
151.0026375048
 21
228.7459957999
  0
LINE
  5
36E
100
AcDbEntity
  8
0
100
AcDbLine
 62
7
  6
BYLAYER
 10
196.1810117721
 20
204.4513875097
 11
194.9137857957
 21
205.183041687
  0
LINE
  5
36F
100
AcDbEntity
  8
0
100
AcDbLine
 62
7
  6
BYLAYER
 10
184.8022009236
 20
235.8492296146
 11
184.8022009236
 21
234.6244759889
  0
LINE
  5
370
100
AcDbEntity
  8
0
100
AcDbLine
 62
7
  6
BYLAYER
 10
116.2938189068
 20
125.6276794008
 11
117.839397473
 21
126.5200142755
  0
LINE
  5
371
100
AcDbEntity
  8
0
100
AcDbLine
 62
7
  6
BYLAYER
 10
101.8588884348
 20
114.4360514049
 11
115.7080731797
 21
122.431834217
  0
LINE
  5
372
100
AcDbEntity
  8
0
100
AcDbLine
 62
7
  6
BYLAYER
 10
101.8588884348
 20
111.9865441535
 11
115.7080731797
 21
119.9823269656
  0
LINE
  5
373
100
AcDbEntity
  8
0
100
AcDbLine
 62
7
  6
BYLAYER
 10
117.5919399809
 20
118.6612681835
 11
118.1222708027
 21
118.9674529986
  0
LINE
  5
374
100
AcDbEntity
  8
0
100
AcDbLine
 62
7
  6
BYLAYER
 10
76.0492715962
 20
235.5226456265
 11
79.2312521115
 21
235.5226532751
  0
LINE
  5
375
100
AcDbEntity
  8
0
100
AcDbLine
 62
7
  6
BYLAYER
 10
198.0250367915
 20
206.3325178038
 11
217.7199192788
 21
194.9619293352
  0
LINE
  5
376
100
AcDbEntity
  8
0
100
AcDbLine
 62
7
  6
BYLAYER
 10
198.0250367915
 20
207.9655226381
 11
217.4705542331
 21
196.7389018888
  0
LINE
  5
377
100
AcDbEntity
  8
0
100
AcDbLine
 62
7
  6
BYLAYER
 10
204.0354194079
 20
211.435597946
 11
223.4809368494
 21
200.2089771967
  0
LINE
  5
378
100
AcDbEntity
  8
0
100
AcDbLine
 62
7
  6
BYLAYER
 10
227.7730092744
 20
200.4365368119
 11
208.0353515397
 21
211.8318210225
  0
LINE
  5
379
100
AcDbEntity
  8
0
100
AcDbLine
 62
7
  6
BYLAYER
 10
191.4842217865
 20
265.1472697477
 11
191.4842217865
 21
267.6720163665
  0
LINE
  5
37A
100
AcDbEntity
  8
0
100
AcDbLine
 62
7
  6
BYLAYER
 10
193.3581573539
 20
247.0352273675
 11
193.3581573539
 21
242.4219887107
  0
LINE
  5
37B
100
AcDbEntity
  8
0
100
AcDbLine
 62
7
  6
BYLAYER
 10
193.3581573539
 20
237.9312254165
 11
193.3581573539
 21
202.8216214799
  0
LINE
  5
37C
100
AcDbEntity
  8
0
100
AcDbLine
 62
7
  6
BYLAYER
 10
194.9137857957
 20
205.183041687
 11
194.9137857957
 21
248.977732228
  0
LINE
  5
37D
100
AcDbEntity
  8
0
100
AcDbLine
 62
7
  6
BYLAYER
 10
195.5501792492
 20
250.467657206
 11
195.5501792492
 21
251.4443185504
  0
LINE
  5
37E
100
AcDbEntity
  8
0
100
AcDbLine
 62
7
  6
BYLAYER
 10
196.2574656124
 20
135.2565603091
 11
196.2574656124
 21
143.9931361723
  0
LINE
  5
37F
100
AcDbEntity
  8
0
100
AcDbLine
 62
7
  6
BYLAYER
 10
196.433948647
 20
270.5297254436
 11
196.433948647
 21
267.2637157751
  0
LINE
  5
380
100
AcDbEntity
  8
0
100
AcDbLine
 62
7
  6
BYLAYER
 10
198.0250367915
 20
207.9655226381
 11
198.0250367915
 21
206.3325178038
  0
LINE
  5
381
100
AcDbEntity
  8
0
100
AcDbLine
 62
7
  6
BYLAYER
 10
146.0530931702
 20
130.9942913473
 11
157.6158862579
 21
137.6700332003
  0
LINE
  5
382
100
AcDbEntity
  8
0
100
AcDbLine
 62
7
  6
BYLAYER
 10
161.7137978152
 20
140.0359494183
 11
212.7332356708
 21
169.4918597701
  0
LINE
  5
383
100
AcDbEntity
  8
0
100
AcDbLine
 62
7
  6
BYLAYER
 10
222.5121699669
 20
175.1376964173
 11
232.3197613103
 21
180.8000781196
  0
LINE
  5
384
100
AcDbEntity
  8
0
100
AcDbLine
 62
7
  6
BYLAYER
 10
226.9811273393
 20
177.3265408252
 11
225.9911819672
 21
176.7549990098
  0
LINE
  5
385
100
AcDbEntity
  8
0
100
AcDbLine
 62
7
  6
BYLAYER
 10
152.3816725132
 20
134.2567825918
 11
151.3917271411
 21
133.6852407764
  0
LINE
  5
386
100
AcDbEntity
  8
0
100
AcDbLine
 62
7
  6
BYLAYER
 10
124.1326916906
 20
117.3344984789
 11
123.4255834375
 21
116.9262517755
  0
LINE
  5
387
100
AcDbEntity
  8
0
100
AcDbLine
 62
7
  6
BYLAYER
 10
151.3917271411
 20
126.3367190222
 11
152.3816725132
 21
126.9082608376
  0
LINE
  5
388
100
AcDbEntity
  8
0
100
AcDbLine
 62
7
  6
BYLAYER
 10
225.9911819672
 20
169.4064772556
 11
226.9811273393
 21
169.9780190711
  0
LINE
  5
389
100
AcDbEntity
  8
0
100
AcDbLine
 62
7
  6
BYLAYER
 10
185.4277606636
 20
247.3556525368
 11
183.5294140166
 21
247.525226878
  0
LINE
  5
38A
100
AcDbEntity
  8
0
100
AcDbLine
 62
7
  6
BYLAYER
 10
174.4024803284
 20
240.4595153927
 11
184.9057570839
 21
234.395582915
  0
LINE
  5
38B
100
AcDbEntity
  8
0
100
AcDbLine
 62
7
  6
BYLAYER
 10
184.8022009236
 20
234.6244759889
 11
174.54893273
 21
240.5440692214
  0
LINE
  5
38C
100
AcDbEntity
  8
0
100
AcDbLine
 62
7
  6
BYLAYER
 10
175.6096156466
 20
241.1564511334
 11
184.8022009236
 21
235.8492296146
  0
LINE
  5
38D
100
AcDbEntity
  8
0
100
AcDbLine
 62
7
  6
BYLAYER
 10
185.1557528422
 20
236.4616029001
 11
176.3167285374
 21
241.5647005143
  0
LINE
  5
38E
100
AcDbEntity
  8
0
100
AcDbLine
 62
7
  6
BYLAYER
 10
208.730585207
 20
120.350613017
 11
208.730585207
 21
119.5341105999
  0
LINE
  5
38F
100
AcDbEntity
  8
0
100
AcDbLine
 62
7
  6
BYLAYER
 10
209.3163657567
 20
120.3505921089
 11
209.3163657567
 21
121.167094526
  0
LINE
  5
390
100
AcDbEntity
  8
0
100
AcDbLine
 62
7
  6
BYLAYER
 10
210.0458034962
 20
130.8065600605
 11
210.0458034962
 21
123.6615325169
  0
LINE
  5
391
100
AcDbEntity
  8
0
100
AcDbLine
 62
7
  6
BYLAYER
 10
210.6315840459
 20
130.8306509374
 11
210.6315840459
 21
124.4780140259
  0
LINE
  5
392
100
AcDbEntity
  8
0
100
AcDbLine
 62
7
  6
BYLAYER
 10
170.4482520972
 20
106.8427613028
 11
171.1553559344
 21
108.0675078738
  0
LINE
  5
393
100
AcDbEntity
  8
0
100
AcDbLine
 62
7
  6
BYLAYER
 10
146.0530931702
 20
115.0078012475
 11
182.1153888681
 21
135.8282530949
  0
LINE
  5
394
100
AcDbEntity
  8
0
100
AcDbLine
 62
7
  6
BYLAYER
 10
196.2574656124
 20
143.9931361723
 11
232.3197613103
 21
164.8135880198
  0
LINE
  5
395
100
AcDbEntity
  8
0
100
AcDbLine
 62
7
  6
BYLAYER
 10
65.4979114695
 20
267.6424872527
 11
66.2939923215
 21
267.5713754322
  0
LINE
  5
396
100
AcDbEntity
  8
0
100
AcDbLine
 62
7
  6
BYLAYER
 10
62.6140042924
 20
268.5902521226
 11
64.0836920192
 21
268.4589687617
  0
LINE
  5
397
100
AcDbEntity
  8
0
100
AcDbLine
 62
7
  6
BYLAYER
 10
57.8410268955
 20
268.5289832712
 11
57.341029134
 21
268.5785075502
  0
LINE
  5
398
100
AcDbEntity
  8
0
100
AcDbLine
 62
7
  6
BYLAYER
 10
181.2360733018
 20
244.4048685848
 11
182.8978098711
 21
243.4454862333
  0
LINE
  5
399
100
AcDbEntity
  8
0
100
AcDbLine
 62
7
  6
BYLAYER
 10
192.297488018
 20
238.5435892895
 11
193.3581573539
 21
237.9312254165
  0
LINE
  5
39A
100
AcDbEntity
  8
0
100
AcDbLine
 62
7
  6
BYLAYER
 10
185.1202138625
 20
244.728584117
 11
192.297501598
 21
240.5848688542
  0
LINE
  5
39B
100
AcDbEntity
  8
0
100
AcDbLine
 62
7
  6
BYLAYER
 10
105.0402345253
 20
292.8399506297
 11
183.5294140166
 21
247.525226878
  0
LINE
  5
39C
100
AcDbEntity
  8
0
100
AcDbLine
 62
7
  6
BYLAYER
 10
106.1425003203
 20
292.7414881091
 11
107.5567197706
 21
291.9250066
  0
LINE
  5
39D
100
AcDbEntity
  8
0
100
AcDbLine
 62
7
  6
BYLAYER
 10
193.3581573539
 20
242.4219887107
 11
187.2415525349
 21
245.9533322597
  0
LINE
  5
39E
100
AcDbEntity
  8
0
100
AcDbLine
 62
7
  6
BYLAYER
 10
108.3528006226
 20
291.8538947796
 11
185.4277606636
 21
247.3556525368
  0
LINE
  5
39F
100
AcDbEntity
  8
0
100
AcDbLine
 62
7
  6
BYLAYER
 10
181.9384303829
 20
244.8103722141
 11
182.8978098711
 21
243.4454862333
  0
LINE
  5
3A0
100
AcDbEntity
  8
0
100
AcDbLine
 62
7
  6
BYLAYER
 10
232.3197613103
 20
164.8135880198
 11
239.8858353693
 21
151.7088360831
  0
LINE
  5
3A1
100
AcDbEntity
  8
0
100
AcDbLine
 62
7
  6
BYLAYER
 10
193.0474726034
 20
238.6178764581
 11
193.3581573539
 21
237.9312254165
  0
LINE
  5
3A2
100
AcDbEntity
  8
0
100
AcDbLine
 62
7
  6
BYLAYER
 10
215.7026386098
 20
263.4875281443
 11
215.7026386098
 21
265.9370353957
  0
LINE
  5
3A3
100
AcDbEntity
  8
0
100
AcDbLine
 62
7
  6
BYLAYER
 10
184.9438807601
 20
115.2117664572
 11
186.5972794527
 21
117.2686292025
  0
LINE
  5
3A4
100
AcDbEntity
  8
0
100
AcDbLine
 62
7
  6
BYLAYER
 10
185.8984585838
 20
129.2758205128
 11
196.2574656124
 21
135.2565603091
  0
LINE
  5
3A5
100
AcDbEntity
  8
0
100
AcDbLine
 62
7
  6
BYLAYER
 10
153.6191672293
 20
101.9030493108
 11
189.6814629272
 21
122.7235011583
  0
LINE
  5
3A6
100
AcDbEntity
  8
0
100
AcDbLine
 62
7
  6
BYLAYER
 10
203.8235396714
 20
130.8883842357
 11
239.8858353693
 21
151.7088360831
  0
LINE
  5
3A7
100
AcDbEntity
  8
0
100
AcDbLine
 62
7
  6
BYLAYER
 10
155.2455195971
 20
100.9640955754
 11
241.5121877372
 21
150.7698823477
  0
LINE
  5
3A8
100
AcDbEntity
  8
0
100
AcDbLine
 62
7
  6
BYLAYER
 10
191.2368186822
 20
248.2599551136
 11
193.3581573539
 21
247.0352273675
  0
LINE
  5
3A9
100
AcDbEntity
  8
0
100
AcDbLine
 62
7
  6
BYLAYER
 10
114.0881391178
 20
295.165174238
 11
191.1630991589
 21
250.6669319953
  0
LINE
  5
3AA
100
AcDbEntity
  8
0
100
AcDbLine
 62
7
  6
BYLAYER
 10
113.4700005195
 20
296.9719970688
 11
114.8842199698
 21
296.1555155598
  0
LINE
  5
3AB
100
AcDbEntity
  8
0
100
AcDbLine
 62
7
  6
BYLAYER
 10
114.9396882463
 20
298.8003195091
 11
193.4288677376
 21
253.4855957573
  0
LINE
  5
3AC
100
AcDbEntity
  8
0
100
AcDbLine
 62
7
  6
BYLAYER
 10
113.3486780842
 20
300.5761493312
 11
115.682125537
 21
299.2289633201
  0
LINE
  5
3AD
100
AcDbEntity
  8
0
100
AcDbLine
 62
7
  6
BYLAYER
 10
114.3486611498
 20
300.6752051192
 11
116.2678989387
 21
299.5671577325
  0
LINE
  5
3AE
100
AcDbEntity
  8
0
100
AcDbLine
 62
7
  6
BYLAYER
 10
217.7199192788
 20
194.9619293352
 11
217.4705542331
 21
196.7389018888
  0
LINE
  5
3AF
100
AcDbEntity
  8
0
100
AcDbLine
 62
7
  6
BYLAYER
 10
232.3197613103
 20
180.8000781196
 11
232.3197613103
 21
164.8135880198
  0
LINE
  5
3B0
100
AcDbEntity
  8
0
100
AcDbLine
 62
7
  6
BYLAYER
 10
221.0768868417
 20
137.3794465874
 11
225.1780890975
 21
139.7472626799
  0
LINE
  5
3B1
100
AcDbEntity
  8
0
100
AcDbLine
 62
7
  6
BYLAYER
 10
155.2455195971
 20
99.1677902577
 11
160.6631592767
 21
102.2956473143
  0
LINE
  5
3B2
100
AcDbEntity
  8
0
100
AcDbLine
 62
7
  6
BYLAYER
 10
186.5972794527
 20
117.2686292025
 11
210.1604278816
 21
130.8727380853
  0
LINE
  5
3B3
100
AcDbEntity
  8
0
100
AcDbLine
 62
7
  6
BYLAYER
 10
236.0945480576
 20
145.8457199735
 11
241.5121877372
 21
148.97357703
  0
LINE
  5
3B4
100
AcDbEntity
  8
0
100
AcDbLine
 62
7
  6
BYLAYER
 10
171.1553559344
 20
108.0675078738
 11
176.1050827949
 21
110.9252169509
  0
LINE
  5
3B5
100
AcDbEntity
  8
0
100
AcDbLine
 62
7
  6
BYLAYER
 10
162.3165579692
 20
102.1479535333
 11
170.4482520972
 21
106.8427613028
  0
LINE
  5
3B6
100
AcDbEntity
  8
0
100
AcDbLine
 62
7
  6
BYLAYER
 10
176.8121866321
 20
110.5169586877
 11
184.9438807601
 21
115.2117664572
  0
LINE
  5
3B7
100
AcDbEntity
  8
0
100
AcDbLine
 62
7
  6
BYLAYER
 10
211.8138265742
 20
130.7250443043
 11
219.9455207022
 21
135.4198520738
  0
LINE
  5
3B8
100
AcDbEntity
  8
0
100
AcDbLine
 62
7
  6
BYLAYER
 10
226.3094552371
 20
139.0940494587
 11
234.441149365
 21
143.7888572282
  0
LINE
  5
3B9
100
AcDbEntity
  8
0
100
AcDbLine
 62
7
  6
BYLAYER
 10
208.6315958404
 20
121.2120393857
 11
124.8397911119
 21
72.8351071411
  0
LINE
  5
3BA
100
AcDbEntity
  8
0
100
AcDbLine
 62
7
  6
BYLAYER
 10
208.2173719254
 20
120.2964675094
 11
124.4255671847
 21
71.9195352578
  0
LINE
  5
3BB
100
AcDbEntity
  8
0
100
AcDbLine
 62
7
  6
BYLAYER
 10
123.5033597076
 20
71.1449451509
 11
208.730585207
 21
120.350613017
  0
LINE
  5
3BC
100
AcDbEntity
  8
0
100
AcDbLine
 62
7
  6
BYLAYER
 10
208.730585207
 20
119.5341105999
 11
123.5033597076
 21
70.3284427337
  0
LINE
  5
3BD
100
AcDbEntity
  8
0
100
AcDbLine
 62
7
  6
BYLAYER
 10
179.9936004339
 20
286.5532022533
 11
176.8116199186
 21
286.5531946048
  0
LINE
  5
3BE
100
AcDbEntity
  8
0
100
AcDbLine
 62
7
  6
BYLAYER
 10
230.13522773
 20
196.3670402135
 11
232.3197613103
 21
180.8000781196
  0
LINE
  5
3BF
100
AcDbEntity
  8
0
100
AcDbLine
 62
7
  6
BYLAYER
 10
241.5121877372
 20
150.7698823477
 11
241.5121877372
 21
148.97357703
  0
LINE
  5
3C0
100
AcDbEntity
  8
0
100
AcDbLine
 62
7
  6
BYLAYER
 10
219.9455207022
 20
135.4198520738
 11
221.0768868417
 21
137.3794465874
  0
LINE
  5
3C1
100
AcDbEntity
  8
0
100
AcDbLine
 62
7
  6
BYLAYER
 10
234.441149365
 20
143.7888572282
 11
236.0945480576
 21
145.8457199735
  0
LINE
  5
3C2
100
AcDbEntity
  8
0
100
AcDbLine
 62
7
  6
BYLAYER
 10
208.3163612798
 20
118.6185387166
 11
123.0891357804
 21
69.4128708505
  0
LINE
  5
3C3
100
AcDbEntity
  8
0
100
AcDbLine
 62
7
  6
BYLAYER
 10
107.5567197706
 20
291.9250066
 11
108.3528006226
 21
291.8538947796
  0
LINE
  5
3C4
100
AcDbEntity
  8
0
100
AcDbLine
 62
7
  6
BYLAYER
 10
105.0402345253
 20
292.8399506297
 11
106.1425003203
 21
292.7414881091
  0
LINE
  5
3C5
100
AcDbEntity
  8
0
100
AcDbLine
 62
7
  6
BYLAYER
 10
112.8486802859
 20
300.6256735891
 11
113.3486780597
 21
300.5761493171
  0
LINE
  5
3C6
100
AcDbEntity
  8
0
100
AcDbLine
 62
7
  6
BYLAYER
 10
180.4935883712
 20
286.4336265696
 11
179.9936004339
 21
286.5532022533
  0
LINE
  5
3C7
100
AcDbEntity
  8
0
100
AcDbLine
 62
7
  6
BYLAYER
 10
136.8599071999
 20
311.4558882791
 11
172.2153934572
 21
291.0438505531
  0
LINE
  5
3C8
100
AcDbEntity
  8
0
100
AcDbLine
 62
7
  6
BYLAYER
 10
179.9936004339
 20
286.5532022533
 11
215.3490866912
 21
266.1411645273
  0
LINE
  5
3C9
100
AcDbEntity
  8
0
100
AcDbLine
 62
7
  6
BYLAYER
 10
137.1099029581
 20
311.4806522214
 11
172.2153913756
 21
291.2129475503
  0
LINE
  5
3CA
100
AcDbEntity
  8
0
100
AcDbLine
 62
7
  6
BYLAYER
 10
180.493594032
 20
286.4336331407
 11
215.5990824495
 21
266.1659284696
  0
ARC
  5
3CB
100
AcDbEntity
  8
0
100
AcDbCircle
 62
7
  6
BYLAYER
 10
193.9568435173
 20
194.3076774048
 40
19.6409946845
100
AcDbArc
 50
337.1050066544
 51
338.2553903204
  0
ARC
  5
3CC
100
AcDbEntity
  8
0
100
AcDbCircle
 62
7
  6
BYLAYER
 10
101.8567874368
 20
124.1193619103
 40
6.9551806001
100
AcDbArc
 50
88.8822040333
 51
89.3615447269
  0
ARC
  5
3CD
100
AcDbEntity
  8
0
100
AcDbCircle
 62
7
  6
BYLAYER
 10
101.8569556379
 20
124.1562629722
 40
6.9182799592
100
AcDbArc
 50
89.3595322944
 51
91.4265013771
  0
ARC
  5
3CE
100
AcDbEntity
  8
0
100
AcDbCircle
 62
7
  6
BYLAYER
 10
101.8548674615
 20
124.2458284416
 40
6.828690265
100
AcDbArc
 50
91.4276942047
 51
92.4782891854
  0
ARC
  5
3CF
100
AcDbEntity
  8
0
100
AcDbCircle
 62
7
  6
BYLAYER
 10
122.6927762176
 20
120.0337768237
 40
2.8808265096
100
AcDbArc
 50
298.0308620693
 51
299.9884336754
  0
ARC
  5
3D0
100
AcDbEntity
  8
0
100
AcDbCircle
 62
7
  6
BYLAYER
 10
207.3163657567
 20
120.3505921089
 40
2.0
100
AcDbArc
 50
299.9998519061
 51
360.0
  0
ARC
  5
3D1
100
AcDbEntity
  8
0
100
AcDbCircle
 62
7
  6
BYLAYER
 10
122.0891402573
 20
71.1449242428
 40
2.0
100
AcDbArc
 50
240.0005612632
 51
299.9998519061
  0
ARC
  5
3D2
100
AcDbEntity
  8
0
100
AcDbCircle
 62
7
  6
BYLAYER
 10
48.7265062733
 20
113.326598137
 40
2.0
100
AcDbArc
 50
179.9092808797
 51
234.8518059792
  0
ARC
  5
3D3
100
AcDbEntity
  8
0
100
AcDbCircle
 62
7
  6
BYLAYER
 10
39.6330618718
 20
182.2451494382
 40
2.0
100
AcDbArc
 50
180.0
 51
240.0005612632
  0
ARC
  5
3D4
100
AcDbEntity
  8
0
100
AcDbCircle
 62
7
  6
BYLAYER
 10
53.8424443807
 20
227.861401273
 40
0.9783432898
100
AcDbArc
 50
292.255774961
 51
298.2239665773
  0
ARC
  5
3D5
100
AcDbEntity
  8
0
100
AcDbCircle
 62
7
  6
BYLAYER
 10
53.9279978592
 20
228.0073496665
 40
0.9768869388
100
AcDbArc
 50
1.7689135887
 51
7.7430845521
  0
ARC
  5
3D6
100
AcDbEntity
  8
0
100
AcDbCircle
 62
7
  6
BYLAYER
 10
47.3988319858
 20
113.3266364475
 40
0.6722327926
100
AcDbArc
 50
180.003265289
 51
184.7767441616
  0
ARC
  5
3D7
100
AcDbEntity
  8
0
100
AcDbCircle
 62
7
  6
BYLAYER
 10
47.8827286953
 20
112.1274937007
 40
0.5336975401
100
AcDbArc
 50
221.6219542864
 51
234.8101218542
  0
SPLINE
  5
3D8
100
AcDbEntity
  8
0
100
AcDbSpline
 62
7
  6
BYLAYER
 70
0
 71
3
 72
11
 73
7
 74
0
 42
0.0000001
 43
0.0000001
 44
0.0000000001
 40
0.0
 40
0.0
 40
0.0
 40
0.0
 40
0.2177227832
 40
0.4508712161
 40
0.7104668615
 40
1.0
 40
1.0
 40
1.0
 40
1.0
 10
201.9819132504
 20
269.2029427564
 30
0.0
 10
201.9819180287
 20
269.0791924711
 30
0.0
 10
201.9364095214
 20
268.8211763516
 30
0.0
 10
201.7407089788
 20
268.4615811717
 30
0.0
 10
201.4313138416
 20
268.1367830435
 30
0.0
 10
201.1726805727
 20
267.958443265
 30
0.0
 10
201.0301618605
 20
267.8761605392
 30
0.0
  0
SPLINE
  5
3D9
100
AcDbEntity
  8
0
100
AcDbSpline
 62
7
  6
BYLAYER
 70
0
 71
3
 72
11
 73
7
 74
0
 42
0.0000001
 43
0.0000001
 44
0.0000000001
 40
0.0
 40
0.0
 40
0.0
 40
0.0
 40
0.2503175381
 40
0.5128518051
 40
0.7685584828
 40
1.0
 40
1.0
 40
1.0
 40
1.0
 10
200.4241098084
 20
267.5388796896
 30
0.0
 10
200.1012055824
 20
267.6526321511
 30
0.0
 10
199.410402713
 20
267.8060947698
 30
0.0
 10
198.3537928285
 20
267.8339916199
 30
0.0
 10
197.3359531222
 20
267.6683674525
 30
0.0
 10
196.708079301
 20
267.4219842372
 30
0.0
 10
196.433948647
 20
267.2637157751
 30
0.0
  0
SPLINE
  5
3DA
100
AcDbEntity
  8
0
100
AcDbSpline
 62
7
  6
BYLAYER
 70
0
 71
3
 72
11
 73
7
 74
0
 42
0.0000001
 43
0.0000001
 44
0.0000000001
 40
0.0
 40
0.0
 40
0.0
 40
0.0
 40
0.2177227832
 40
0.4508712161
 40
0.7104668615
 40
1.0
 40
1.0
 40
1.0
 40
1.0
 10
145.4131352386
 20
301.862203118
 30
0.0
 10
145.413140017
 20
301.7384528327
 30
0.0
 10
145.3676315096
 20
301.4804367132
 30
0.0
 10
145.171930967
 20
301.1208415333
 30
0.0
 10
144.8625358299
 20
300.7960434052
 30
0.0
 10
144.603902561
 20
300.6177036266
 30
0.0
 10
144.4613838487
 20
300.5354209009
 30
0.0
  0
SPLINE
  5
3DB
100
AcDbEntity
  8
0
100
AcDbSpline
 62
7
  6
BYLAYER
 70
0
 71
3
 72
11
 73
7
 74
0
 42
0.0000001
 43
0.0000001
 44
0.0000000001
 40
0.0
 40
0.0
 40
0.0
 40
0.0
 40
0.2503175381
 40
0.5128518051
 40
0.7685584828
 40
1.0
 40
1.0
 40
1.0
 40
1.0
 10
143.8553317966
 20
300.1981400512
 30
0.0
 10
143.5324275707
 20
300.3118925128
 30
0.0
 10
142.8416247012
 20
300.4653551314
 30
0.0
 10
141.7850148167
 20
300.4932519816
 30
0.0
 10
140.7671751104
 20
300.3276278141
 30
0.0
 10
140.1393012892
 20
300.0812445988
 30
0.0
 10
139.8651706352
 20
299.9229761367
 30
0.0
  0
SPLINE
  5
3DC
100
AcDbEntity
  8
0
100
AcDbSpline
 62
7
  6
BYLAYER
 70
0
 71
3
 72
11
 73
7
 74
0
 42
0.0000001
 43
0.0000001
 44
0.0000000001
 40
0.0
 40
0.0
 40
0.0
 40
0.0
 40
0.2177227832
 40
0.4508712161
 40
0.7104668615
 40
1.0
 40
1.0
 40
1.0
 40
1.0
 10
65.5104016334
 20
255.7306137305
 30
0.0
 10
65.5104064118
 20
255.6068634452
 30
0.0
 10
65.4648979045
 20
255.3488473258
 30
0.0
 10
65.2691973618
 20
254.9892521459
 30
0.0
 10
64.9598022247
 20
254.6644540177
 30
0.0
 10
64.7011689558
 20
254.4861142391
 30
0.0
 10
64.5586502435
 20
254.4038315134
 30
0.0
  0
SPLINE
  5
3DD
100
AcDbEntity
  8
0
100
AcDbSpline
 62
7
  6
BYLAYER
 70
0
 71
3
 72
11
 73
7
 74
0
 42
0.0000001
 43
0.0000001
 44
0.0000000001
 40
0.0
 40
0.0
 40
0.0
 40
0.0
 40
0.2503175381
 40
0.5128518051
 40
0.7685584828
 40
1.0
 40
1.0
 40
1.0
 40
1.0
 10
63.9525981915
 20
254.0665506637
 30
0.0
 10
63.6296939655
 20
254.1803031253
 30
0.0
 10
62.9388910961
 20
254.3337657439
 30
0.0
 10
61.8822812115
 20
254.3616625941
 30
0.0
 10
60.8644415052
 20
254.1960384266
 30
0.0
 10
60.236567684
 20
253.9496552114
 30
0.0
 10
59.9624370301
 20
253.7913867492
 30
0.0
  0
SPLINE
  5
3DE
100
AcDbEntity
  8
0
100
AcDbSpline
 62
7
  6
BYLAYER
 70
0
 71
3
 72
11
 73
7
 74
0
 42
0.0000001
 43
0.0000001
 44
0.0000000001
 40
0.0
 40
0.0
 40
0.0
 40
0.0
 40
0.2177227832
 40
0.4508712161
 40
0.7104668615
 40
1.0
 40
1.0
 40
1.0
 40
1.0
 10
122.0791796452
 20
223.0713533689
 30
0.0
 10
122.0791844235
 20
222.9476030836
 30
0.0
 10
122.0336759162
 20
222.6895869641
 30
0.0
 10
121.8379753736
 20
222.3299917842
 30
0.0
 10
121.5285802365
 20
222.005193656
 30
0.0
 10
121.2699469676
 20
221.8268538775
 30
0.0
 10
121.1274282553
 20
221.7445711518
 30
0.0
  0
SPLINE
  5
3DF
100
AcDbEntity
  8
0
100
AcDbSpline
 62
7
  6
BYLAYER
 70
0
 71
3
 72
11
 73
7
 74
0
 42
0.0000001
 43
0.0000001
 44
0.0000000001
 40
0.0
 40
0.0
 40
0.0
 40
0.0
 40
0.2503175381
 40
0.5128518051
 40
0.7685584828
 40
1.0
 40
1.0
 40
1.0
 40
1.0
 10
120.5213762032
 20
221.4072903021
 30
0.0
 10
120.1984719773
 20
221.5210427637
 30
0.0
 10
119.5076691078
 20
221.6745053823
 30
0.0
 10
118.4510592233
 20
221.7024022325
 30
0.0
 10
117.433219517
 20
221.536778065
 30
0.0
 10
116.8053456958
 20
221.2903948497
 30
0.0
 10
116.5312150418
 20
221.1321263876
 30
0.0
  0
SPLINE
  5
3E0
100
AcDbEntity
  8
0
100
AcDbSpline
 62
7
  6
BYLAYER
 70
0
 71
3
 72
11
 73
7
 74
0
 42
0.0000001
 43
0.0000001
 44
0.0000000001
 40
0.0
 40
0.0
 40
0.0
 40
0.0
 40
0.2177825102
 40
0.4509091639
 40
0.7102957096
 40
1.0
 40
1.0
 40
1.0
 40
1.0
 10
149.141776544
 20
126.1138629879
 30
0.0
 10
148.993336658
 20
126.1995628744
 30
0.0
 10
148.7156113483
 20
126.4330438143
 30
0.0
 10
148.4199402329
 20
126.9164785676
 30
0.0
 10
148.2443290783
 20
127.5122516546
 30
0.0
 10
148.2097598737
 20
127.9458735279
 30
0.0
 10
148.2097598737
 20
128.1738812069
 30
0.0
  0
SPLINE
  5
3E1
100
AcDbEntity
  8
0
100
AcDbSpline
 62
7
  6
BYLAYER
 70
0
 71
3
 72
11
 73
7
 74
0
 42
0.0000001
 43
0.0000001
 44
0.0000000001
 40
0.0
 40
0.0
 40
0.0
 40
0.0
 40
0.2177825102
 40
0.4509091639
 40
0.7102957096
 40
1.0
 40
1.0
 40
1.0
 40
1.0
 10
223.7412313701
 20
169.1836212213
 30
0.0
 10
223.5927914841
 20
169.2693211078
 30
0.0
 10
223.3150661744
 20
169.5028020478
 30
0.0
 10
223.0193950589
 20
169.986236801
 30
0.0
 10
222.8437839044
 20
170.5820098881
 30
0.0
 10
222.8092146997
 20
171.0156317613
 30
0.0
 10
222.8092146997
 20
171.2436394403
 30
0.0
  0
SPLINE
  5
3E2
100
AcDbEntity
  8
0
100
AcDbSpline
 62
7
  6
BYLAYER
 70
0
 71
3
 72
12
 73
8
 74
0
 42
0.0000001
 43
0.0000001
 44
0.0000000001
 40
0.0
 40
0.0
 40
0.0
 40
0.0
 40
0.2155813909
 40
0.342481804
 40
0.477388639
 40
0.7515239864
 40
1.0
 40
1.0
 40
1.0
 40
1.0
 10
105.863572547
 20
121.3361417912
 30
0.0
 10
105.4991705962
 20
121.746635966
 30
0.0
 10
104.719836475
 20
122.2166417654
 30
0.0
 10
103.5616967782
 20
122.5815213348
 30
0.0
 10
102.2081109171
 20
122.7964008748
 30
0.0
 10
100.5183450686
 20
122.7243241834
 30
0.0
 10
99.2247340284
 20
122.3048039386
 30
0.0
 10
98.6768357923
 20
121.9884766327
 30
0.0
  0
SPLINE
  5
3E3
100
AcDbEntity
  8
0
100
AcDbSpline
 62
7
  6
BYLAYER
 70
0
 71
3
 72
11
 73
7
 74
0
 42
0.0000001
 43
0.0000001
 44
0.0000000001
 40
0.0
 40
0.0
 40
0.0
 40
0.0
 40
0.2177648073
 40
0.4508950352
 40
0.7103684932
 40
1.0
 40
1.0
 40
1.0
 40
1.0
 10
106.3587352272
 20
122.6009007925
 30
0.0
 10
106.3586671514
 20
122.4295190186
 30
0.0
 10
106.2956017517
 20
122.0722605059
 30
0.0
 10
106.0246238004
 20
121.5744629489
 30
0.0
 10
105.5964191924
 20
121.124596493
 30
0.0
 10
105.2382264584
 20
120.877787169
 30
0.0
 10
105.0408233186
 20
120.7638170935
 30
0.0
  0
SPLINE
  5
3E4
100
AcDbEntity
  8
0
100
AcDbSpline
 62
7
  6
BYLAYER
 70
0
 71
3
 72
11
 73
7
 74
0
 42
0.0000001
 43
0.0000001
 44
0.0000000001
 40
0.0
 40
0.0
 40
0.0
 40
0.0
 40
0.2177648073
 40
0.4508950352
 40
0.7103684932
 40
1.0
 40
1.0
 40
1.0
 40
1.0
 10
78.0743462213
 20
138.9305309733
 30
0.0
 10
78.0742781456
 20
138.7591491994
 30
0.0
 10
78.0112127458
 20
138.4018906867
 30
0.0
 10
77.7402347945
 20
137.9040931297
 30
0.0
 10
77.3120301865
 20
137.4542266738
 30
0.0
 10
76.9538374525
 20
137.2074173498
 30
0.0
 10
76.7564343127
 20
137.0934472743
 30
0.0
  0
SPLINE
  5
3E5
100
AcDbEntity
  8
0
100
AcDbSpline
 62
7
  6
BYLAYER
 70
0
 71
3
 72
12
 73
8
 74
0
 42
0.0000001
 43
0.0000001
 44
0.0000000001
 40
0.0
 40
0.0
 40
0.0
 40
0.0
 40
0.2155813909
 40
0.342481804
 40
0.477388639
 40
0.7515239864
 40
1.0
 40
1.0
 40
1.0
 40
1.0
 10
77.5791835411
 20
137.665771972
 30
0.0
 10
77.2147815903
 20
138.0762661468
 30
0.0
 10
76.4354474691
 20
138.5462719462
 30
0.0
 10
75.2773077723
 20
138.9111515156
 30
0.0
 10
73.9237219112
 20
139.1260310556
 30
0.0
 10
72.2339560627
 20
139.0539543642
 30
0.0
 10
70.9403450225
 20
138.6344341194
 30
0.0
 10
70.3924467864
 20
138.3181068136
 30
0.0
  0
SPLINE
  5
3E6
100
AcDbEntity
  8
0
100
AcDbSpline
 62
7
  6
BYLAYER
 70
0
 71
3
 72
11
 73
7
 74
0
 42
0.0000001
 43
0.0000001
 44
0.0000000001
 40
0.0
 40
0.0
 40
0.0
 40
0.0
 40
0.2177648073
 40
0.4508950352
 40
0.7103684932
 40
1.0
 40
1.0
 40
1.0
 40
1.0
 10
49.7899572154
 20
155.2601611541
 30
0.0
 10
49.7898891397
 20
155.0887793803
 30
0.0
 10
49.7268237399
 20
154.7315208675
 30
0.0
 10
49.4558457886
 20
154.2337233105
 30
0.0
 10
49.0276411807
 20
153.7838568546
 30
0.0
 10
48.6694484466
 20
153.5370475307
 30
0.0
 10
48.4720453068
 20
153.4230774551
 30
0.0
  0
SPLINE
  5
3E7
100
AcDbEntity
  8
0
100
AcDbSpline
 62
7
  6
BYLAYER
 70
0
 71
3
 72
12
 73
8
 74
0
 42
0.0000001
 43
0.0000001
 44
0.0000000001
 40
0.0
 40
0.0
 40
0.0
 40
0.0
 40
0.2155813909
 40
0.342481804
 40
0.477388639
 40
0.7515239864
 40
1.0
 40
1.0
 40
1.0
 40
1.0
 10
49.2947945352
 20
153.9954021528
 30
0.0
 10
48.9303925844
 20
154.4058963277
 30
0.0
 10
48.1510584632
 20
154.8759021271
 30
0.0
 10
46.9929187664
 20
155.2407816964
 30
0.0
 10
45.6393329054
 20
155.4556612364
 30
0.0
 10
43.9495670568
 20
155.383584545
 30
0.0
 10
42.6559560166
 20
154.9640643003
 30
0.0
 10
42.1080577805
 20
154.6477369944
 30
0.0
  0
SPLINE
  5
3E8
100
AcDbEntity
  8
0
100
AcDbSpline
 62
7
  6
BYLAYER
 70
0
 71
3
 72
11
 73
7
 74
0
 42
0.0000001
 43
0.0000001
 44
0.0000000001
 40
0.0
 40
0.0
 40
0.0
 40
0.0
 40
0.2895396729
 40
0.5491163863
 40
0.7822545095
 40
1.0
 40
1.0
 40
1.0
 40
1.0
 10
191.2368458422
 20
248.2600021572
 30
0.0
 10
191.3684037478
 20
248.3359566961
 30
0.0
 10
191.6303331707
 20
248.460397559
 30
0.0
 10
192.0327603948
 20
248.5578070426
 30
0.0
 10
192.4105500475
 20
248.5483200142
 30
0.0
 10
192.6377992322
 20
248.4655606381
 30
0.0
 10
192.7367364625
 20
248.4084404407
 30
0.0
  0
SPLINE
  5
3E9
100
AcDbEntity
  8
0
100
AcDbSpline
 62
7
  6
BYLAYER
 70
0
 71
3
 72
11
 73
7
 74
0
 42
0.0000001
 43
0.0000001
 44
0.0000000001
 40
0.0
 40
0.0
 40
0.0
 40
0.0
 40
0.2372542275
 40
0.5000017852
 40
0.7627483734
 40
1.0
 40
1.0
 40
1.0
 40
1.0
 10
141.1738941675
 20
216.9068088117
 30
0.0
 10
141.1738941675
 20
217.2545866474
 30
0.0
 10
141.3042858911
 20
217.9880060489
 30
0.0
 10
141.75909906
 20
219.0184366942
 30
0.0
 10
142.4240648082
 20
219.9275319923
 30
0.0
 10
142.9940240908
 20
220.4071622916
 30
0.0
 10
143.2952056791
 20
220.5810485247
 30
0.0
  0
SPLINE
  5
3EA
100
AcDbEntity
  8
0
100
AcDbSpline
 62
7
  6
BYLAYER
 70
0
 71
3
 72
9
 73
5
 74
0
 42
0.0000001
 43
0.0000001
 44
0.0000000001
 40
0.0
 40
0.0
 40
0.0
 40
0.0
 40
0.5500403563
 40
1.0
 40
1.0
 40
1.0
 40
1.0
 10
149.7298505978
 20
215.6003195826
 30
0.0
 10
149.7298505978
 20
215.6479920517
 30
0.0
 10
149.7179509541
 20
215.7365469149
 30
0.0
 10
149.6600912759
 20
215.8097537459
 30
0.0
 10
149.6263175
 20
215.8292526261
 30
0.0
  0
SPLINE
  5
3EB
100
AcDbEntity
  8
0
100
AcDbSpline
 62
7
  6
BYLAYER
 70
0
 71
3
 72
9
 73
5
 74
0
 42
0.0000001
 43
0.0000001
 44
0.0000000001
 40
0.0
 40
0.0
 40
0.0
 40
0.0
 40
0.4999964594
 40
1.0
 40
1.0
 40
1.0
 40
1.0
 10
149.3762986792
 20
213.7631926714
 30
0.0
 10
149.4812399093
 20
213.8237801571
 30
0.0
 10
149.647096533
 20
214.015095119
 30
0.0
 10
149.7298505978
 20
214.2543887266
 30
0.0
 10
149.7298505978
 20
214.3755659569
 30
0.0
  0
SPLINE
  5
3EC
100
AcDbEntity
  8
0
100
AcDbSpline
 62
7
  6
BYLAYER
 70
0
 71
3
 72
11
 73
7
 74
0
 42
0.0000001
 43
0.0000001
 44
0.0000000001
 40
0.0
 40
0.0
 40
0.0
 40
0.0
 40
0.2372446848
 40
0.5000016179
 40
0.7627576706
 40
1.0
 40
1.0
 40
1.0
 40
1.0
 10
141.1738941675
 20
207.8028068608
 30
0.0
 10
141.1738941675
 20
207.9766886902
 30
0.0
 10
141.239129922
 20
208.3433848909
 30
0.0
 10
141.4664362321
 20
208.858655308
 30
0.0
 10
141.7990169496
 20
209.3131438924
 30
0.0
 10
142.0839651121
 20
209.5529870549
 30
0.0
 10
142.2345499233
 20
209.6399267173
 30
0.0
  0
SPLINE
  5
3ED
100
AcDbEntity
  8
0
100
AcDbSpline
 62
7
  6
BYLAYER
 70
0
 71
3
 72
9
 73
5
 74
0
 42
0.0000001
 43
0.0000001
 44
0.0000000001
 40
0.0
 40
0.0
 40
0.0
 40
0.0
 40
0.5500403563
 40
1.0
 40
1.0
 40
1.0
 40
1.0
 10
215.7026386098
 20
265.9370353957
 30
0.0
 10
215.7026386098
 20
265.9847078649
 30
0.0
 10
215.6907389661
 20
266.0732627281
 30
0.0
 10
215.632879288
 20
266.146469559
 30
0.0
 10
215.5991055121
 20
266.1659684393
 30
0.0
  0
SPLINE
  5
3EE
100
AcDbEntity
  8
0
100
AcDbSpline
 62
7
  6
BYLAYER
 70
0
 71
3
 72
9
 73
5
 74
0
 42
0.0000001
 43
0.0000001
 44
0.0000000001
 40
0.0
 40
0.0
 40
0.0
 40
0.0
 40
0.4999964594
 40
1.0
 40
1.0
 40
1.0
 40
1.0
 10
215.3490866912
 20
262.8751548588
 30
0.0
 10
215.4540279213
 20
262.9357423446
 30
0.0
 10
215.6198845451
 20
263.1270573064
 30
0.0
 10
215.7026386098
 20
263.3663509141
 30
0.0
 10
215.7026386098
 20
263.4875281443
 30
0.0
  0
SPLINE
  5
3EF
100
AcDbEntity
  8
0
100
AcDbSpline
 62
7
  6
BYLAYER
 70
0
 71
3
 72
9
 73
5
 74
0
 42
0.0000001
 43
0.0000001
 44
0.0000000001
 40
0.0
 40
0.0
 40
0.0
 40
0.0
 40
0.4801696372
 40
1.0
 40
1.0
 40
1.0
 40
1.0
 10
194.9137857957
 20
248.977732228
 30
0.0
 10
194.9137857957
 20
249.2410907533
 30
0.0
 10
195.0562526644
 20
249.7878621931
 30
0.0
 10
195.3565983754
 20
250.2583372094
 30
0.0
 10
195.5501792492
 20
250.467657206
 30
0.0
  0
SPLINE
  5
3F0
100
AcDbEntity
  8
0
100
AcDbSpline
 62
7
  6
BYLAYER
 70
0
 71
3
 72
9
 73
5
 74
0
 42
0.0000001
 43
0.0000001
 44
0.0000000001
 40
0.0
 40
0.0
 40
0.0
 40
0.0
 40
0.5500380887
 40
1.0
 40
1.0
 40
1.0
 40
1.0
 10
136.8599071999
 20
311.4558882791
 30
0.0
 10
136.9011910387
 20
311.4797233722
 30
0.0
 10
136.9838284754
 20
311.5136937012
 30
0.0
 10
137.0761534012
 20
311.500190358
 30
0.0
 10
137.1099260402
 20
311.4806921798
 30
0.0
  0
SPLINE
  5
3F1
100
AcDbEntity
  8
0
100
AcDbSpline
 62
7
  6
BYLAYER
 70
0
 71
3
 72
15
 73
11
 74
0
 42
0.0000001
 43
0.0000001
 44
0.0000000001
 40
0.0
 40
0.0
 40
0.0
 40
0.0
 40
0.1288244605
 40
0.2705976782
 40
0.4178986235
 40
0.5623949216
 40
0.69620836
 40
0.8136001012
 40
0.9130679301
 40
1.0
 40
1.0
 40
1.0
 40
1.0
 10
116.1777013948
 20
218.8868620747
 30
0.0
 10
115.9371353124
 20
218.7479720113
 30
0.0
 10
115.3923662718
 20
218.5232577754
 30
0.0
 10
114.5046238764
 20
218.3455555361
 30
0.0
 10
113.5655780323
 20
218.31968692
 30
0.0
 10
112.6523028776
 20
218.4479233742
 30
0.0
 10
111.8375771601
 20
218.7201525582
 30
0.0
 10
111.1849921426
 20
219.1178053897
 30
0.0
 10
110.7428296722
 20
219.6205668651
 30
0.0
 10
110.6297440294
 20
220.0261950385
 30
0.0
 10
110.6297367914
 20
220.2136447619
 30
0.0
  0
SPLINE
  5
3F2
100
AcDbEntity
  8
0
100
AcDbSpline
 62
7
  6
BYLAYER
 70
0
 71
3
 72
15
 73
11
 74
0
 42
0.0000001
 43
0.0000001
 44
0.0000000001
 40
0.0
 40
0.0
 40
0.0
 40
0.0
 40
0.1288244605
 40
0.2705976782
 40
0.4178986235
 40
0.5623949216
 40
0.69620836
 40
0.8136001012
 40
0.9130679301
 40
1.0
 40
1.0
 40
1.0
 40
1.0
 10
59.608923383
 20
251.5461224363
 30
0.0
 10
59.3683573006
 20
251.4072323729
 30
0.0
 10
58.82358826
 20
251.182518137
 30
0.0
 10
57.9358458646
 20
251.0048158977
 30
0.0
 10
56.9968000206
 20
250.9789472816
 30
0.0
 10
56.0835248658
 20
251.1071837358
 30
0.0
 10
55.2687991483
 20
251.3794129198
 30
0.0
 10
54.6162141309
 20
251.7770657513
 30
0.0
 10
54.1740516605
 20
252.2798272267
 30
0.0
 10
54.0609660176
 20
252.6854554001
 30
0.0
 10
54.0609587797
 20
252.8729051235
 30
0.0
  0
SPLINE
  5
3F3
100
AcDbEntity
  8
0
100
AcDbSpline
 62
7
  6
BYLAYER
 70
0
 71
3
 72
11
 73
7
 74
0
 42
0.0000001
 43
0.0000001
 44
0.0000000001
 40
0.0
 40
0.0
 40
0.0
 40
0.0
 40
0.2509274042
 40
0.500496272
 40
0.7494292761
 40
1.0
 40
1.0
 40
1.0
 40
1.0
 10
46.8255295926
 20
114.8898718795
 30
0.0
 10
46.5982459426
 20
115.0210911875
 30
0.0
 10
46.181098835
 20
115.352306359
 30
0.0
 10
45.7290601205
 20
116.004693751
 30
0.0
 10
45.4635980573
 20
116.7505920211
 30
0.0
 10
45.4112879872
 20
117.2754347146
 30
0.0
 10
45.4112879842
 20
117.5375047342
 30
0.0
  0
SPLINE
  5
3F4
100
AcDbEntity
  8
0
100
AcDbSpline
 62
7
  6
BYLAYER
 70
0
 71
3
 72
11
 73
7
 74
0
 42
0.0000001
 43
0.0000001
 44
0.0000000001
 40
0.0
 40
0.0
 40
0.0
 40
0.0
 40
0.2503931945
 40
0.4994163183
 40
0.7492706588
 40
1.0
 40
1.0
 40
1.0
 40
1.0
 10
124.4255671847
 20
71.9195352578
 30
0.0
 10
124.1987710946
 20
71.7885952558
 30
0.0
 10
123.7179780201
 20
71.5722761313
 30
0.0
 10
122.9393981189
 20
71.4271344554
 30
0.0
 10
122.1482269283
 20
71.4941367366
 30
0.0
 10
121.6527070995
 20
71.6893581295
 30
0.0
 10
121.4256055956
 20
71.8204722776
 30
0.0
  0
SPLINE
  5
3F5
100
AcDbEntity
  8
0
100
AcDbSpline
 62
7
  6
BYLAYER
 70
0
 71
3
 72
11
 73
7
 74
0
 42
0.0000001
 43
0.0000001
 44
0.0000000001
 40
0.0
 40
0.0
 40
0.0
 40
0.0
 40
0.2177589942
 40
0.4508736834
 40
0.7103294788
 40
1.0
 40
1.0
 40
1.0
 40
1.0
 10
118.4203932557
 20
73.5555023657
 30
0.0
 10
118.288472521
 20
73.6316919046
 30
0.0
 10
118.0415737897
 20
73.8391477636
 30
0.0
 10
117.7788041217
 20
74.2689430897
 30
0.0
 10
117.6227071822
 20
74.7985245188
 30
0.0
 10
117.5919399807
 20
75.183990189
 30
0.0
 10
117.5919399809
 20
75.3866400756
 30
0.0
  0
SPLINE
  5
3F6
100
AcDbEntity
  8
0
100
AcDbSpline
 62
7
  6
BYLAYER
 70
0
 71
3
 72
11
 73
7
 74
0
 42
0.0000001
 43
0.0000001
 44
0.0000000001
 40
0.0
 40
0.0
 40
0.0
 40
0.0
 40
0.2177449315
 40
0.4508848156
 40
0.7104612496
 40
1.0
 40
1.0
 40
1.0
 40
1.0
 10
120.000744864
 20
147.9124218686
 30
0.0
 10
120.0007448919
 20
147.7600979029
 30
0.0
 10
119.944801443
 20
147.4425152295
 30
0.0
 10
119.7038689093
 20
146.999966225
 30
0.0
 10
119.3231003189
 20
146.6002231716
 30
0.0
 10
119.0047861789
 20
146.3807321463
 30
0.0
 10
118.82937464
 20
146.2794588516
 30
0.0
  0
SPLINE
  5
3F7
100
AcDbEntity
  8
0
100
AcDbSpline
 62
7
  6
BYLAYER
 70
0
 71
3
 72
9
 73
5
 74
0
 42
0.0000001
 43
0.0000001
 44
0.0000000001
 40
0.0
 40
0.0
 40
0.0
 40
0.0
 40
0.5000384508
 40
1.0
 40
1.0
 40
1.0
 40
1.0
 10
208.2173719331
 20
120.2964675139
 30
0.0
 10
208.9359837064
 20
120.7113557491
 30
0.0
 10
210.1151329301
 20
121.9885836339
 30
0.0
 10
210.6315840459
 20
123.6483614703
 30
0.0
 10
210.6315840459
 20
124.4780140259
 30
0.0
  0
SPLINE
  5
3F8
100
AcDbEntity
  8
0
100
AcDbSpline
 62
7
  6
BYLAYER
 70
0
 71
3
 72
11
 73
7
 74
0
 42
0.0000001
 43
0.0000001
 44
0.0000000001
 40
0.0
 40
0.0
 40
0.0
 40
0.0
 40
0.2177449315
 40
0.4508848156
 40
0.7104612496
 40
1.0
 40
1.0
 40
1.0
 40
1.0
 10
70.5030641038
 20
176.4892746851
 30
0.0
 10
70.5030641317
 20
176.3369507194
 30
0.0
 10
70.4471206827
 20
176.0193680459
 30
0.0
 10
70.2061881491
 20
175.5768190414
 30
0.0
 10
69.8254195586
 20
175.1770759881
 30
0.0
 10
69.5071054186
 20
174.9575849627
 30
0.0
 10
69.3316938797
 20
174.856311668
 30
0.0
  0
SPLINE
  5
3F9
100
AcDbEntity
  8
0
100
AcDbSpline
 62
7
  6
BYLAYER
 70
0
 71
3
 72
11
 73
7
 74
0
 42
0.0000001
 43
0.0000001
 44
0.0000000001
 40
0.0
 40
0.0
 40
0.0
 40
0.0
 40
0.2177589942
 40
0.4508736834
 40
0.7103294788
 40
1.0
 40
1.0
 40
1.0
 40
1.0
 10
68.9227124954
 20
102.1323551821
 30
0.0
 10
68.7907917607
 20
102.2085447211
 30
0.0
 10
68.5438930294
 20
102.41600058
 30
0.0
 10
68.2811233613
 20
102.8457959061
 30
0.0
 10
68.125026422
 20
103.3753773353
 30
0.0
 10
68.0942592206
 20
103.7608430055
 30
0.0
 10
68.0942592206
 20
103.963492892
 30
0.0
  0
SPLINE
  5
3FA
100
AcDbEntity
  8
0
100
AcDbSpline
 62
7
  6
BYLAYER
 70
0
 71
3
 72
11
 73
7
 74
0
 42
0.0000001
 43
0.0000001
 44
0.0000000001
 40
0.0
 40
0.0
 40
0.0
 40
0.0
 40
0.2177589942
 40
0.4508736834
 40
0.7103294788
 40
1.0
 40
1.0
 40
1.0
 40
1.0
 10
93.6715528755
 20
87.8439287739
 30
0.0
 10
93.5396321409
 20
87.9201183129
 30
0.0
 10
93.2927334096
 20
88.1275741718
 30
0.0
 10
93.0299637415
 20
88.5573694979
 30
0.0
 10
92.8738668021
 20
89.0869509271
 30
0.0
 10
92.8430996007
 20
89.4724165973
 30
0.0
 10
92.8430996007
 20
89.6750664838
 30
0.0
  0
SPLINE
  5
3FB
100
AcDbEntity
  8
0
100
AcDbSpline
 62
7
  6
BYLAYER
 70
0
 71
3
 72
11
 73
7
 74
0
 42
0.0000001
 43
0.0000001
 44
0.0000000001
 40
0.0
 40
0.0
 40
0.0
 40
0.0
 40
0.2177449315
 40
0.4508848156
 40
0.7104612496
 40
1.0
 40
1.0
 40
1.0
 40
1.0
 10
95.2519044839
 20
162.2008482769
 30
0.0
 10
95.2519045118
 20
162.0485243112
 30
0.0
 10
95.1959610628
 20
161.7309416377
 30
0.0
 10
94.9550285292
 20
161.2883926332
 30
0.0
 10
94.5742599388
 20
160.8886495799
 30
0.0
 10
94.2559457988
 20
160.6691585545
 30
0.0
 10
94.0805342598
 20
160.5678852598
 30
0.0
  0
SPLINE
  5
3FC
100
AcDbEntity
  8
0
100
AcDbSpline
 62
7
  6
BYLAYER
 70
0
 71
3
 72
9
 73
5
 74
0
 42
0.0000001
 43
0.0000001
 44
0.0000000001
 40
0.0
 40
0.0
 40
0.0
 40
0.0
 40
0.4862074068
 40
1.0
 40
1.0
 40
1.0
 40
1.0
 10
101.26600605
 20
80.8529540554
 30
0.0
 10
92.0860430887
 20
84.9351409842
 30
0.0
 10
73.6668717049
 20
94.3932346769
 30
0.0
 10
56.2560260266
 20
105.5793084528
 30
0.0
 10
47.5751198122
 20
111.6912666057
 30
0.0
  0
SPLINE
  5
3FD
100
AcDbEntity
  8
0
100
AcDbSpline
 62
7
  6
BYLAYER
 70
0
 71
3
 72
10
 73
6
 74
0
 42
0.0000001
 43
0.0000001
 44
0.0000000001
 40
0.0
 40
0.0
 40
0.0
 40
0.0
 40
0.4976822402
 40
0.7481410228
 40
1.0
 40
1.0
 40
1.0
 40
1.0
 10
112.848680284
 20
300.625673588
 30
0.0
 10
113.0732666862
 20
300.7553378464
 30
0.0
 10
113.4622650342
 20
300.8830046513
 30
0.0
 10
113.9871080596
 20
300.8384314832
 30
0.0
 10
114.2350056205
 20
300.7408226852
 30
0.0
 10
114.3486611498
 20
300.6752051192
 30
0.0
  0
SPLINE
  5
3FE
100
AcDbEntity
  8
0
100
AcDbSpline
 62
7
  6
BYLAYER
 70
0
 71
3
 72
8
 73
4
 74
0
 42
0.0000001
 43
0.0000001
 44
0.0000000001
 40
0.0
 40
0.0
 40
0.0
 40
0.0
 40
1.0
 40
1.0
 40
1.0
 40
1.0
 10
56.1339230583
 20
266.4877342008
 30
0.0
 10
56.1339230243
 20
267.2924728248
 30
0.0
 10
56.6441040022
 20
268.1761400395
 30
0.0
 10
57.341029134
 20
268.5785075502
 30
0.0
  0
SPLINE
  5
3FF
100
AcDbEntity
  8
0
100
AcDbSpline
 62
7
  6
BYLAYER
 70
0
 71
3
 72
9
 73
5
 74
0
 42
0.0000001
 43
0.0000001
 44
0.0000000001
 40
0.0
 40
0.0
 40
0.0
 40
0.0
 40
0.4499603239
 40
1.0
 40
1.0
 40
1.0
 40
1.0
 10
40.4437664985
 20
252.6438697833
 30
0.0
 10
40.4099926859
 20
252.6633686391
 30
0.0
 10
40.3521338658
 20
252.7365760163
 30
0.0
 10
40.3402334202
 20
252.8251304536
 30
0.0
 10
40.3402334202
 20
252.8728028157
 30
0.0
  0
SPLINE
  5
400
100
AcDbEntity
  8
0
100
AcDbSpline
 62
7
  6
BYLAYER
 70
0
 71
3
 72
11
 73
7
 74
0
 42
0.0000001
 43
0.0000001
 44
0.0000000001
 40
0.0
 40
0.0
 40
0.0
 40
0.0
 40
0.195497263
 40
0.2840654529
 40
0.5783906877
 40
1.0
 40
1.0
 40
1.0
 40
1.0
 10
56.1249670307
 20
223.2611493063
 30
0.0
 10
56.116031029
 20
223.253499532
 30
0.0
 10
56.0906895955
 20
223.2241894188
 30
0.0
 10
56.1178070105
 20
223.2659850147
 30
0.0
 10
56.1258566026
 20
223.3052258812
 30
0.0
 10
56.1339230583
 20
223.3510383025
 30
0.0
 10
56.1339230583
 20
223.3764066586
 30
0.0
  0
SPLINE
  5
401
100
AcDbEntity
  8
0
100
AcDbSpline
 62
7
  6
BYLAYER
 70
0
 71
3
 72
11
 73
7
 74
0
 42
0.0000001
 43
0.0000001
 44
0.0000000001
 40
0.0
 40
0.0
 40
0.0
 40
0.0
 40
0.2419346663
 40
0.5000084347
 40
0.7580784832
 40
1.0
 40
1.0
 40
1.0
 40
1.0
 10
37.6330618718
 20
211.6392364776
 30
0.0
 10
37.6330618744
 20
212.5169297566
 30
0.0
 10
37.9405026864
 20
214.3342964363
 30
0.0
 10
39.0536981083
 20
216.8728041589
 30
0.0
 10
40.6955039354
 20
219.1060597391
 30
0.0
 10
42.1156248761
 20
220.2809484516
 30
0.0
 10
42.875689374
 20
220.7197692744
 30
0.0
  0
SPLINE
  5
402
100
AcDbEntity
  8
0
100
AcDbSpline
 62
7
  6
BYLAYER
 70
0
 71
3
 72
9
 73
5
 74
0
 42
0.0000001
 43
0.0000001
 44
0.0000000001
 40
0.0
 40
0.0
 40
0.0
 40
0.0
 40
0.4499625918
 40
1.0
 40
1.0
 40
1.0
 40
1.0
 10
118.9329460092
 20
207.3291460204
 30
0.0
 10
118.9667186454
 20
207.3096477981
 30
0.0
 10
119.0590436153
 20
207.2961454711
 30
0.0
 10
119.1416810841
 20
207.3301148927
 30
0.0
 10
119.1829648301
 20
207.3539499323
 30
0.0
  0
SPLINE
  5
403
100
AcDbEntity
  8
0
100
AcDbSpline
 62
7
  6
BYLAYER
 70
0
 71
3
 72
11
 73
7
 74
0
 42
0.0000001
 43
0.0000001
 44
0.0000000001
 40
0.0
 40
0.0
 40
0.0
 40
0.0
 40
0.2177227832
 40
0.4508712161
 40
0.7104668615
 40
1.0
 40
1.0
 40
1.0
 40
1.0
 10
93.7947906393
 20
239.4009835497
 30
0.0
 10
93.7947954177
 20
239.2772332644
 30
0.0
 10
93.7492869103
 20
239.019217145
 30
0.0
 10
93.5535863677
 20
238.659621965
 30
0.0
 10
93.2441912306
 20
238.3348238369
 30
0.0
 10
92.9855579617
 20
238.1564840583
 30
0.0
 10
92.8430392494
 20
238.0742013326
 30
0.0
  0
SPLINE
  5
404
100
AcDbEntity
  8
0
100
AcDbSpline
 62
7
  6
BYLAYER
 70
0
 71
3
 72
11
 73
7
 74
0
 42
0.0000001
 43
0.0000001
 44
0.0000000001
 40
0.0
 40
0.0
 40
0.0
 40
0.0
 40
0.2503175381
 40
0.5128518051
 40
0.7685584828
 40
1.0
 40
1.0
 40
1.0
 40
1.0
 10
92.2369871973
 20
237.7369204829
 30
0.0
 10
91.9140829714
 20
237.8506729445
 30
0.0
 10
91.223280102
 20
238.0041355631
 30
0.0
 10
90.1666702174
 20
238.0320324133
 30
0.0
 10
89.1488305111
 20
237.8664082458
 30
0.0
 10
88.5209566899
 20
237.6200250306
 30
0.0
 10
88.246826036
 20
237.4617565684
 30
0.0
  0
SPLINE
  5
405
100
AcDbEntity
  8
0
100
AcDbSpline
 62
7
  6
BYLAYER
 70
0
 71
3
 72
9
 73
5
 74
0
 42
0.0000001
 43
0.0000001
 44
0.0000000001
 40
0.0
 40
0.0
 40
0.0
 40
0.0
 40
0.4499625918
 40
1.0
 40
1.0
 40
1.0
 40
1.0
 10
184.9057340213
 20
234.3955429453
 30
0.0
 10
184.9395066575
 20
234.3760447231
 30
0.0
 10
185.0318316274
 20
234.3625423961
 30
0.0
 10
185.1144690962
 20
234.3965118176
 30
0.0
 10
185.1557528422
 20
234.4203468573
 30
0.0
  0
SPLINE
  5
406
100
AcDbEntity
  8
0
100
AcDbSpline
 62
7
  6
BYLAYER
 70
0
 71
3
 72
15
 73
11
 74
0
 42
0.0000001
 43
0.0000001
 44
0.0000000001
 40
0.0
 40
0.0
 40
0.0
 40
0.0
 40
0.1288244605
 40
0.2705976782
 40
0.4178986235
 40
0.5623949216
 40
0.69620836
 40
0.8136001012
 40
0.9130679301
 40
1.0
 40
1.0
 40
1.0
 40
1.0
 10
196.080435
 20
265.0184514621
 30
0.0
 10
195.8398689176
 20
264.8795613988
 30
0.0
 10
195.2950998769
 20
264.6548471628
 30
0.0
 10
194.4073574816
 20
264.4771449236
 30
0.0
 10
193.4683116375
 20
264.4512763075
 30
0.0
 10
192.5550364827
 20
264.5795127617
 30
0.0
 10
191.7403107653
 20
264.8517419457
 30
0.0
 10
191.0877257478
 20
265.2493947772
 30
0.0
 10
190.6455632774
 20
265.7521562526
 30
0.0
 10
190.5324776345
 20
266.1577844259
 30
0.0
 10
190.5324703966
 20
266.3452341493
 30
0.0
  0
SPLINE
  5
407
100
AcDbEntity
  8
0
100
AcDbSpline
 62
7
  6
BYLAYER
 70
0
 71
3
 72
15
 73
11
 74
0
 42
0.0000001
 43
0.0000001
 44
0.0000000001
 40
0.0
 40
0.0
 40
0.0
 40
0.0
 40
0.1288244605
 40
0.2705976782
 40
0.4178986235
 40
0.5623949216
 40
0.69620836
 40
0.8136001012
 40
0.9130679301
 40
1.0
 40
1.0
 40
1.0
 40
1.0
 10
139.5116569882
 20
297.6777118238
 30
0.0
 10
139.2710909058
 20
297.5388217604
 30
0.0
 10
138.7263218652
 20
297.3141075245
 30
0.0
 10
137.8385794698
 20
297.1364052852
 30
0.0
 10
136.8995336258
 20
297.1105366691
 30
0.0
 10
135.986258471
 20
297.2387731233
 30
0.0
 10
135.1715327535
 20
297.5110023073
 30
0.0
 10
134.518947736
 20
297.9086551388
 30
0.0
 10
134.0767852656
 20
298.4114166142
 30
0.0
 10
133.9636996228
 20
298.8170447876
 30
0.0
 10
133.9636923848
 20
299.004494511
 30
0.0
  0
SPLINE
  5
408
100
AcDbEntity
  8
0
100
AcDbSpline
 62
7
  6
BYLAYER
 70
0
 71
3
 72
15
 73
11
 74
0
 42
0.0000001
 43
0.0000001
 44
0.0000000001
 40
0.0
 40
0.0
 40
0.0
 40
0.0
 40
0.1288244605
 40
0.2705976782
 40
0.4178986235
 40
0.5623949216
 40
0.69620836
 40
0.8136001012
 40
0.9130679301
 40
1.0
 40
1.0
 40
1.0
 40
1.0
 10
167.7960459941
 20
281.3480816429
 30
0.0
 10
167.5554799117
 20
281.2091915796
 30
0.0
 10
167.0107108711
 20
280.9844773437
 30
0.0
 10
166.1229684757
 20
280.8067751044
 30
0.0
 10
165.1839226316
 20
280.7809064883
 30
0.0
 10
164.2706474769
 20
280.9091429425
 30
0.0
 10
163.4559217594
 20
281.1813721265
 30
0.0
 10
162.8033367419
 20
281.579024958
 30
0.0
 10
162.3611742715
 20
282.0817864334
 30
0.0
 10
162.2480886287
 20
282.4874146067
 30
0.0
 10
162.2480813907
 20
282.6748643302
 30
0.0
  0
SPLINE
  5
409
100
AcDbEntity
  8
0
100
AcDbSpline
 62
7
  6
BYLAYER
 70
0
 71
3
 72
9
 73
5
 74
0
 42
0.0000001
 43
0.0000001
 44
0.0000000001
 40
0.0
 40
0.0
 40
0.0
 40
0.0
 40
0.4999998047
 40
1.0
 40
1.0
 40
1.0
 40
1.0
 10
40.3402334202
 20
255.3223100671
 30
0.0
 10
40.3402334202
 20
255.4434863919
 30
0.0
 10
40.4229869418
 20
255.6827799641
 30
0.0
 10
40.5888433246
 20
255.8740954141
 30
0.0
 10
40.6937853388
 20
255.9346833526
 30
0.0
  0
SPLINE
  5
40A
100
AcDbEntity
  8
0
100
AcDbSpline
 62
7
  6
BYLAYER
 70
0
 71
3
 72
11
 73
7
 74
0
 42
0.0000001
 43
0.0000001
 44
0.0000000001
 40
0.0
 40
0.0
 40
0.0
 40
0.0
 40
0.289702809
 40
0.549088757
 40
0.7822160314
 40
1.0
 40
1.0
 40
1.0
 40
1.0
 10
204.0354194079
 20
211.435597946
 30
0.0
 10
204.3864450186
 20
211.6382614671
 30
0.0
 10
205.0847480537
 20
211.9704644999
 30
0.0
 10
206.1580548721
 20
212.2296583797
 30
0.0
 10
207.1651318027
 20
212.204167982
 30
0.0
 10
207.7714471355
 20
211.9841367908
 30
0.0
 10
208.0353315806
 20
211.8317864515
 30
0.0
  0
SPLINE
  5
40B
100
AcDbEntity
  8
0
100
AcDbSpline
 62
7
  6
BYLAYER
 70
0
 71
3
 72
11
 73
7
 74
0
 42
0.0000001
 43
0.0000001
 44
0.0000000001
 40
0.0
 40
0.0
 40
0.0
 40
0.0
 40
0.2895416688
 40
0.549118971
 40
0.7822562702
 40
1.0
 40
1.0
 40
1.0
 40
1.0
 10
47.0577257617
 20
189.3488652521
 30
0.0
 10
46.9261666227
 20
189.2729100013
 30
0.0
 10
46.6874302857
 20
189.1082931385
 30
0.0
 10
46.4018544267
 20
188.808485948
 30
0.0
 10
46.2211744714
 20
188.476567553
 30
0.0
 10
46.1792227605
 20
188.238384603
 30
0.0
 10
46.179222796
 20
188.1241429898
 30
0.0
  0
SPLINE
  5
40C
100
AcDbEntity
  8
0
100
AcDbSpline
 62
7
  6
BYLAYER
 70
0
 71
3
 72
9
 73
5
 74
0
 42
0.0000001
 43
0.0000001
 44
0.0000000001
 40
0.0
 40
0.0
 40
0.0
 40
0.0
 40
0.2621697668
 40
1.0
 40
1.0
 40
1.0
 40
1.0
 10
46.892095995
 20
114.7764577511
 30
0.0
 10
46.8755674144
 20
114.7544877468
 30
0.0
 10
46.8159773321
 20
114.6682130024
 30
0.0
 10
46.7713554161
 20
114.5710723629
 30
0.0
 10
46.7509810905
 20
114.4964283581
 30
0.0
  0
SPLINE
  5
40D
100
AcDbEntity
  8
0
100
AcDbSpline
 62
7
  6
BYLAYER
 70
0
 71
3
 72
8
 73
4
 74
0
 42
0.0000001
 43
0.0000001
 44
0.0000000001
 40
0.0
 40
0.0
 40
0.0
 40
0.0
 40
1.0
 40
1.0
 40
1.0
 40
1.0
 10
46.7509810905
 20
114.4964283581
 30
0.0
 10
46.7350357738
 20
114.4380106062
 30
0.0
 10
46.7266181604
 20
114.3769597674
 30
0.0
 10
46.7266181792
 20
114.3164049422
 30
0.0
  0
SPLINE
  5
40E
100
AcDbEntity
  8
0
100
AcDbSpline
 62
7
  6
BYLAYER
 70
0
 71
3
 72
9
 73
5
 74
0
 42
0.0000001
 43
0.0000001
 44
0.0000000001
 40
0.0
 40
0.0
 40
0.0
 40
0.0
 40
0.5540378648
 40
1.0
 40
1.0
 40
1.0
 40
1.0
 10
101.7267086586
 20
84.5461448005
 30
0.0
 10
101.4245731837
 20
84.5175332981
 30
0.0
 10
100.8811931668
 20
84.4509804363
 30
0.0
 10
100.3352177132
 20
84.3946294756
 30
0.0
 10
100.0909610356
 20
84.3908337707
 30
0.0
  0
SPLINE
  5
40F
100
AcDbEntity
  8
0
100
AcDbSpline
 62
7
  6
BYLAYER
 70
0
 71
3
 72
9
 73
5
 74
0
 42
0.0000001
 43
0.0000001
 44
0.0000000001
 40
0.0
 40
0.0
 40
0.0
 40
0.0
 40
0.5540378648
 40
1.0
 40
1.0
 40
1.0
 40
1.0
 10
76.9778682784
 20
98.8345712087
 30
0.0
 10
76.6757328036
 20
98.8059597064
 30
0.0
 10
76.1323527866
 20
98.7394068446
 30
0.0
 10
75.5863773331
 20
98.6830558838
 30
0.0
 10
75.3421206555
 20
98.6792601789
 30
0.0
  0
SPLINE
  5
410
100
AcDbEntity
  8
0
100
AcDbSpline
 62
7
  6
BYLAYER
 70
0
 71
3
 72
9
 73
5
 74
0
 42
0.0000001
 43
0.0000001
 44
0.0000000001
 40
0.0
 40
0.0
 40
0.0
 40
0.0
 40
0.2671444907
 40
1.0
 40
1.0
 40
1.0
 40
1.0
 10
78.2312182558
 20
149.5448456724
 30
0.0
 10
78.1661024636
 20
149.5448455159
 30
0.0
 10
77.9231239846
 20
149.5310344503
 30
0.0
 10
77.678812491
 20
149.4650598477
 30
0.0
 10
77.5241126941
 20
149.3757444115
 30
0.0
  0
SPLINE
  5
411
100
AcDbEntity
  8
0
100
AcDbSpline
 62
7
  6
BYLAYER
 70
0
 71
3
 72
9
 73
5
 74
0
 42
0.0000001
 43
0.0000001
 44
0.0000000001
 40
0.0
 40
0.0
 40
0.0
 40
0.0
 40
0.2291142508
 40
1.0
 40
1.0
 40
1.0
 40
1.0
 10
80.2312170364
 20
149.7139500411
 30
0.0
 10
80.1828222146
 20
149.6860094444
 30
0.0
 10
79.9608736286
 20
149.5829070378
 30
0.0
 10
79.7121321161
 20
149.5448492321
 30
0.0
 10
79.5241114747
 20
149.5448487801
 30
0.0
  0
SPLINE
  5
412
100
AcDbEntity
  8
0
100
AcDbSpline
 62
7
  6
BYLAYER
 70
0
 71
3
 72
15
 73
11
 74
0
 42
0.0000001
 43
0.0000001
 44
0.0000000001
 40
0.0
 40
0.0
 40
0.0
 40
0.0
 40
0.1288281168
 40
0.2705730231
 40
0.4178855965
 40
0.5623847015
 40
0.6962026063
 40
0.8135940147
 40
0.9130657345
 40
1.0
 40
1.0
 40
1.0
 40
1.0
 10
76.7564343127
 20
137.0934472743
 30
0.0
 10
76.4233295128
 20
136.9011302763
 30
0.0
 10
75.6691155721
 20
136.5899476603
 30
0.0
 10
74.4399397525
 20
136.3440049985
 30
0.0
 10
73.1397561771
 20
136.3080493464
 30
0.0
 10
71.8751493929
 20
136.4856653341
 30
0.0
 10
70.7470331974
 20
136.8625574807
 30
0.0
 10
69.8433783216
 20
137.4131622282
 30
0.0
 10
69.231242339
 20
138.1093249026
 30
0.0
 10
69.074431778
 20
138.6709750623
 30
0.0
 10
69.0745348778
 20
138.9305303659
 30
0.0
  0
SPLINE
  5
413
100
AcDbEntity
  8
0
100
AcDbSpline
 62
7
  6
BYLAYER
 70
0
 71
3
 72
11
 73
7
 74
0
 42
0.0000001
 43
0.0000001
 44
0.0000000001
 40
0.0
 40
0.0
 40
0.0
 40
0.0
 40
0.2372416196
 40
0.5000015492
 40
0.7627606319
 40
1.0
 40
1.0
 40
1.0
 40
1.0
 10
148.2097598737
 20
128.1738812069
 30
0.0
 10
148.2097598737
 20
128.6955220071
 30
0.0
 10
148.4054229431
 20
129.795620659
 30
0.0
 10
149.0873465901
 20
131.3414488952
 30
0.0
 10
150.0851010909
 20
132.704927509
 30
0.0
 10
150.9399765696
 20
133.4244240191
 30
0.0
 10
151.3917271411
 20
133.6852407764
 30
0.0
  0
SPLINE
  5
414
100
AcDbEntity
  8
0
100
AcDbSpline
 62
7
  6
BYLAYER
 70
0
 71
3
 72
11
 73
7
 74
0
 42
0.0000001
 43
0.0000001
 44
0.0000000001
 40
0.0
 40
0.0
 40
0.0
 40
0.0
 40
0.289702809
 40
0.549088757
 40
0.7822160314
 40
1.0
 40
1.0
 40
1.0
 40
1.0
 10
152.3816725132
 20
134.2567825918
 30
0.0
 10
152.5791244193
 20
134.3707808224
 30
0.0
 10
152.9719198766
 20
134.5576450284
 30
0.0
 10
153.5756549619
 20
134.7034415858
 30
0.0
 10
154.1421357353
 20
134.689103237
 30
0.0
 10
154.48318811
 20
134.565335692
 30
0.0
 10
154.6316231104
 20
134.4796386261
 30
0.0
  0
SPLINE
  5
415
100
AcDbEntity
  8
0
100
AcDbSpline
 62
7
  6
BYLAYER
 70
0
 71
3
 72
11
 73
7
 74
0
 42
0.0000001
 43
0.0000001
 44
0.0000000001
 40
0.0
 40
0.0
 40
0.0
 40
0.0
 40
0.2372416196
 40
0.5000015492
 40
0.7627606319
 40
1.0
 40
1.0
 40
1.0
 40
1.0
 10
222.8092146997
 20
171.2436394403
 30
0.0
 10
222.8092146997
 20
171.7652802406
 30
0.0
 10
223.0048777692
 20
172.8653788924
 30
0.0
 10
223.6868014162
 20
174.4112071287
 30
0.0
 10
224.684555917
 20
175.7746857424
 30
0.0
 10
225.5394313956
 20
176.4941822526
 30
0.0
 10
225.9911819672
 20
176.7549990098
 30
0.0
  0
SPLINE
  5
416
100
AcDbEntity
  8
0
100
AcDbSpline
 62
7
  6
BYLAYER
 70
0
 71
3
 72
11
 73
7
 74
0
 42
0.0000001
 43
0.0000001
 44
0.0000000001
 40
0.0
 40
0.0
 40
0.0
 40
0.0
 40
0.289702809
 40
0.549088757
 40
0.7822160314
 40
1.0
 40
1.0
 40
1.0
 40
1.0
 10
226.9811273393
 20
177.3265408252
 30
0.0
 10
227.1785792453
 20
177.4405390559
 30
0.0
 10
227.5713747026
 20
177.6274032618
 30
0.0
 10
228.1751097879
 20
177.7731998192
 30
0.0
 10
228.7415905614
 20
177.7588614705
 30
0.0
 10
229.0826429361
 20
177.6350939254
 30
0.0
 10
229.2310779365
 20
177.5493968596
 30
0.0
  0
SPLINE
  5
417
100
AcDbEntity
  8
0
100
AcDbSpline
 62
7
  6
BYLAYER
 70
0
 71
3
 72
11
 73
7
 74
0
 42
0.0000001
 43
0.0000001
 44
0.0000000001
 40
0.0
 40
0.0
 40
0.0
 40
0.0
 40
0.2372416196
 40
0.5000015492
 40
0.7627606319
 40
1.0
 40
1.0
 40
1.0
 40
1.0
 10
123.4255819655
 20
158.3637450676
 30
0.0
 10
123.4255819655
 20
159.2911064903
 30
0.0
 10
123.7734274222
 20
161.246837427
 30
0.0
 10
124.985736128
 20
163.9949765136
 30
0.0
 10
126.7595219072
 20
166.4189384936
 30
0.0
 10
128.279300536
 20
167.6980434005
 30
0.0
 10
129.0824126632
 20
168.1617176356
 30
0.0
  0
SPLINE
  5
418
100
AcDbEntity
  8
0
100
AcDbSpline
 62
7
  6
BYLAYER
 70
0
 71
3
 72
9
 73
5
 74
0
 42
0.0000001
 43
0.0000001
 44
0.0000000001
 40
0.0
 40
0.0
 40
0.0
 40
0.0
 40
0.2245233449
 40
1.0
 40
1.0
 40
1.0
 40
1.0
 10
101.9281199527
 20
130.9151768486
 30
0.0
 10
101.9164803941
 20
130.8900970264
 30
0.0
 10
101.8529776701
 20
130.7837097503
 30
0.0
 10
101.7520056592
 20
130.7041091294
 30
0.0
 10
101.6693027739
 20
130.6563608814
 30
0.0
  0
SPLINE
  5
419
100
AcDbEntity
  8
0
100
AcDbSpline
 62
7
  6
BYLAYER
 70
0
 71
3
 72
9
 73
5
 74
0
 42
0.0000001
 43
0.0000001
 44
0.0000000001
 40
0.0
 40
0.0
 40
0.0
 40
0.0
 40
0.2798206107
 40
1.0
 40
1.0
 40
1.0
 40
1.0
 10
103.8599437432
 20
134.7788295623
 30
0.0
 10
103.8301398961
 20
134.7616224058
 30
0.0
 10
103.7273808177
 20
134.69478303
 30
0.0
 10
103.638413474
 20
134.6003559084
 30
0.0
 10
103.6011265645
 20
134.5200135951
 30
0.0
  0
SPLINE
  5
41A
100
AcDbEntity
  8
0
100
AcDbSpline
 62
7
  6
BYLAYER
 70
0
 71
3
 72
15
 73
11
 74
0
 42
0.0000001
 43
0.0000001
 44
0.0000000001
 40
0.0
 40
0.0
 40
0.0
 40
0.0
 40
0.1288281168
 40
0.2705730231
 40
0.4178855965
 40
0.5623847015
 40
0.6962026063
 40
0.8135940147
 40
0.9130657345
 40
1.0
 40
1.0
 40
1.0
 40
1.0
 10
105.0408233186
 20
120.7638170935
 30
0.0
 10
104.7077185186
 20
120.5715000955
 30
0.0
 10
103.953504578
 20
120.2603174795
 30
0.0
 10
102.7243287584
 20
120.0143748177
 30
0.0
 10
101.424145183
 20
119.9784191656
 30
0.0
 10
100.1595383988
 20
120.1560351533
 30
0.0
 10
99.0314222033
 20
120.5329272999
 30
0.0
 10
98.1277673275
 20
121.0835320474
 30
0.0
 10
97.5156313449
 20
121.7796947218
 30
0.0
 10
97.3588207839
 20
122.3413448815
 30
0.0
 10
97.3589238837
 20
122.6009001851
 30
0.0
  0
SPLINE
  5
41B
100
AcDbEntity
  8
0
100
AcDbSpline
 62
7
  6
BYLAYER
 70
0
 71
3
 72
9
 73
5
 74
0
 42
0.0000001
 43
0.0000001
 44
0.0000000001
 40
0.0
 40
0.0
 40
0.0
 40
0.0
 40
0.4492438796
 40
1.0
 40
1.0
 40
1.0
 40
1.0
 10
116.0009634545
 20
120.3905701238
 30
0.0
 10
116.0009640162
 20
120.312675621
 30
0.0
 10
115.9328780953
 20
120.1388604854
 30
0.0
 10
115.790775035
 20
120.030074619
 30
0.0
 10
115.7080731797
 20
119.9823269656
 30
0.0
  0
SPLINE
  5
41C
100
AcDbEntity
  8
0
100
AcDbSpline
 62
7
  6
BYLAYER
 70
0
 71
3
 72
9
 73
5
 74
0
 42
0.0000001
 43
0.0000001
 44
0.0000000001
 40
0.0
 40
0.0
 40
0.0
 40
0.0
 40
0.5507561204
 40
1.0
 40
1.0
 40
1.0
 40
1.0
 10
116.2938189068
 20
125.6276794008
 30
0.0
 10
116.2111170515
 20
125.5799317473
 30
0.0
 10
116.0690139912
 20
125.471145881
 30
0.0
 10
116.0009280703
 20
125.2973307454
 30
0.0
 10
116.000928632
 20
125.2194362425
 30
0.0
  0
SPLINE
  5
41D
100
AcDbEntity
  8
0
100
AcDbSpline
 62
7
  6
BYLAYER
 70
0
 71
3
 72
9
 73
5
 74
0
 42
0.0000001
 43
0.0000001
 44
0.0000000001
 40
0.0
 40
0.0
 40
0.0
 40
0.0
 40
0.2629033482
 40
1.0
 40
1.0
 40
1.0
 40
1.0
 10
98.6768357923
 20
121.9884766327
 30
0.0
 10
98.6102438592
 20
121.9500299917
 30
0.0
 10
98.3611149385
 20
121.7968844228
 30
0.0
 10
98.1287398384
 20
121.6150577645
 30
0.0
 10
97.9751885245
 20
121.4637338976
 30
0.0
  0
SPLINE
  5
41E
100
AcDbEntity
  8
0
100
AcDbSpline
 62
7
  6
BYLAYER
 70
0
 71
3
 72
9
 73
5
 74
0
 42
0.0000001
 43
0.0000001
 44
0.0000000001
 40
0.0
 40
0.0
 40
0.0
 40
0.0
 40
0.2629033482
 40
1.0
 40
1.0
 40
1.0
 40
1.0
 10
70.3924467864
 20
138.3181068136
 30
0.0
 10
70.3258548533
 20
138.2796601725
 30
0.0
 10
70.0767259326
 20
138.1265146036
 30
0.0
 10
69.8443508325
 20
137.9446879453
 30
0.0
 10
69.6907995186
 20
137.7933640784
 30
0.0
  0
SPLINE
  5
41F
100
AcDbEntity
  8
0
100
AcDbSpline
 62
7
  6
BYLAYER
 70
0
 71
3
 72
9
 73
5
 74
0
 42
0.0000001
 43
0.0000001
 44
0.0000000001
 40
0.0
 40
0.0
 40
0.0
 40
0.0
 40
0.5507561204
 40
1.0
 40
1.0
 40
1.0
 40
1.0
 10
92.2520823639
 20
140.3243499628
 30
0.0
 10
92.1693805086
 20
140.2766023094
 30
0.0
 10
92.0272774483
 20
140.167816443
 30
0.0
 10
91.9591915274
 20
139.9940013075
 30
0.0
 10
91.9591920891
 20
139.9161068046
 30
0.0
  0
SPLINE
  5
420
100
AcDbEntity
  8
0
100
AcDbSpline
 62
7
  6
BYLAYER
 70
0
 71
3
 72
9
 73
5
 74
0
 42
0.0000001
 43
0.0000001
 44
0.0000000001
 40
0.0
 40
0.0
 40
0.0
 40
0.0
 40
0.4492438796
 40
1.0
 40
1.0
 40
1.0
 40
1.0
 10
91.9591974719
 20
139.1696652279
 30
0.0
 10
91.9591980336
 20
139.091770725
 30
0.0
 10
91.8911121127
 20
138.9179555895
 30
0.0
 10
91.7490090524
 20
138.8091697231
 30
0.0
 10
91.6663071971
 20
138.7614220697
 30
0.0
  0
SPLINE
  5
421
100
AcDbEntity
  8
0
100
AcDbSpline
 62
7
  6
BYLAYER
 70
0
 71
3
 72
9
 73
5
 74
0
 42
0.0000001
 43
0.0000001
 44
0.0000000001
 40
0.0
 40
0.0
 40
0.0
 40
0.0
 40
0.2324916781
 40
1.0
 40
1.0
 40
1.0
 40
1.0
 10
66.3831283104
 20
153.9660823005
 30
0.0
 10
66.3513105413
 20
153.9477124125
 30
0.0
 10
66.209848244
 20
153.8767238358
 30
0.0
 10
66.0547028161
 20
153.8351967441
 30
0.0
 10
65.934841652
 20
153.8166541138
 30
0.0
  0
SPLINE
  5
422
100
AcDbEntity
  8
0
100
AcDbSpline
 62
7
  6
BYLAYER
 70
0
 71
3
 72
9
 73
5
 74
0
 42
0.0000001
 43
0.0000001
 44
0.0000000001
 40
0.0
 40
0.0
 40
0.0
 40
0.0
 40
0.266282923
 40
1.0
 40
1.0
 40
1.0
 40
1.0
 10
59.6910059237
 20
152.8507270879
 30
0.0
 10
59.6494325831
 20
152.8442956546
 30
0.0
 10
59.4944674363
 20
152.814064024
 30
0.0
 10
59.3431038786
 20
152.7592556388
 30
0.0
 10
59.2427192651
 20
152.7012989012
 30
0.0
  0
SPLINE
  5
423
100
AcDbEntity
  8
0
100
AcDbSpline
 62
7
  6
BYLAYER
 70
0
 71
3
 72
9
 73
5
 74
0
 42
0.0000001
 43
0.0000001
 44
0.0000000001
 40
0.0
 40
0.0
 40
0.0
 40
0.0
 40
0.2629033482
 40
1.0
 40
1.0
 40
1.0
 40
1.0
 10
42.1080577805
 20
154.6477369944
 30
0.0
 10
42.0414658474
 20
154.6092903534
 30
0.0
 10
41.7923369267
 20
154.4561447844
 30
0.0
 10
41.5599618266
 20
154.2743181261
 30
0.0
 10
41.4064105127
 20
154.1229942592
 30
0.0
  0
SPLINE
  5
424
100
AcDbEntity
  8
0
100
AcDbSpline
 62
7
  6
BYLAYER
 70
0
 71
3
 72
9
 73
5
 74
0
 42
0.0000001
 43
0.0000001
 44
0.0000000001
 40
0.0
 40
0.0
 40
0.0
 40
0.0
 40
0.2671444907
 40
1.0
 40
1.0
 40
1.0
 40
1.0
 10
45.7042062267
 20
163.42501093
 30
0.0
 10
45.6390904344
 20
163.4250107735
 30
0.0
 10
45.3961119554
 20
163.4111997079
 30
0.0
 10
45.1518004619
 20
163.3452251053
 30
0.0
 10
44.997100665
 20
163.255909669
 30
0.0
  0
SPLINE
  5
425
100
AcDbEntity
  8
0
100
AcDbSpline
 62
7
  6
BYLAYER
 70
0
 71
3
 72
9
 73
5
 74
0
 42
0.0000001
 43
0.0000001
 44
0.0000000001
 40
0.0
 40
0.0
 40
0.0
 40
0.0
 40
0.2291142508
 40
1.0
 40
1.0
 40
1.0
 40
1.0
 10
54.7752728191
 20
163.5941322954
 30
0.0
 10
54.7268779972
 20
163.5661916988
 30
0.0
 10
54.5049294113
 20
163.4630892921
 30
0.0
 10
54.2561878987
 20
163.4250314864
 30
0.0
 10
54.0681672573
 20
163.4250310345
 30
0.0
  0
SPLINE
  5
426
100
AcDbEntity
  8
0
100
AcDbSpline
 62
7
  6
BYLAYER
 70
0
 71
3
 72
15
 73
11
 74
0
 42
0.0000001
 43
0.0000001
 44
0.0000000001
 40
0.0
 40
0.0
 40
0.0
 40
0.0
 40
0.1288281168
 40
0.2705730231
 40
0.4178855965
 40
0.5623847015
 40
0.6962026063
 40
0.8135940147
 40
0.9130657345
 40
1.0
 40
1.0
 40
1.0
 40
1.0
 10
48.4720453068
 20
153.4230774551
 30
0.0
 10
48.1389405069
 20
153.2307604571
 30
0.0
 10
47.3847265663
 20
152.9195778411
 30
0.0
 10
46.1555507466
 20
152.6736351793
 30
0.0
 10
44.8553671712
 20
152.6376795272
 30
0.0
 10
43.590760387
 20
152.8152955149
 30
0.0
 10
42.4626441916
 20
153.1921876615
 30
0.0
 10
41.5589893158
 20
153.742792409
 30
0.0
 10
40.9468533332
 20
154.4389550834
 30
0.0
 10
40.7900427721
 20
155.0006052431
 30
0.0
 10
40.7901458719
 20
155.2601605467
 30
0.0
  0
SPLINE
  5
427
100
AcDbEntity
  8
0
100
AcDbSpline
 62
7
  6
BYLAYER
 70
0
 71
3
 72
9
 73
5
 74
0
 42
0.0000001
 43
0.0000001
 44
0.0000000001
 40
0.0
 40
0.0
 40
0.0
 40
0.0
 40
0.5540378648
 40
1.0
 40
1.0
 40
1.0
 40
1.0
 10
52.2290278986
 20
113.1229976167
 30
0.0
 10
51.9268924237
 20
113.0943861144
 30
0.0
 10
51.3835124066
 20
113.0278332529
 30
0.0
 10
50.837536953
 20
112.971482292
 30
0.0
 10
50.5932802753
 20
112.9676865871
 30
0.0
  0
SPLINE
  5
428
100
AcDbEntity
  8
0
100
AcDbSpline
 62
7
  6
BYLAYER
 70
0
 71
3
 72
11
 73
7
 74
0
 42
0.0000001
 43
0.0000001
 44
0.0000000001
 40
0.0
 40
0.0
 40
0.0
 40
0.0
 40
0.2372446848
 40
0.5000016179
 40
0.7627576706
 40
1.0
 40
1.0
 40
1.0
 40
1.0
 10
193.3581573539
 20
242.4219887107
 30
0.0
 10
193.3581573539
 20
242.2481068813
 30
0.0
 10
193.2929215994
 20
241.8814106805
 30
0.0
 10
193.0656152893
 20
241.3661402634
 30
0.0
 10
192.7330345717
 20
240.911651679
 30
0.0
 10
192.4480864092
 20
240.6718085165
 30
0.0
 10
192.297501598
 20
240.5848688542
 30
0.0
  0
SPLINE
  5
429
100
AcDbEntity
  8
0
100
AcDbSpline
 62
7
  6
BYLAYER
 70
0
 71
3
 72
11
 73
7
 74
0
 42
0.0000001
 43
0.0000001
 44
0.0000000001
 40
0.0
 40
0.0
 40
0.0
 40
0.0
 40
0.2177227832
 40
0.4508712161
 40
0.7104668615
 40
1.0
 40
1.0
 40
1.0
 40
1.0
 10
133.9636923848
 20
299.004494511
 30
0.0
 10
133.9636876065
 20
299.1282447963
 30
0.0
 10
134.0091961138
 20
299.3862609158
 30
0.0
 10
134.2048966564
 20
299.7458560957
 30
0.0
 10
134.5142917936
 20
300.0706542238
 30
0.0
 10
134.7729250625
 20
300.2489940024
 30
0.0
 10
134.9154437747
 20
300.3312767281
 30
0.0
  0
SPLINE
  5
42A
100
AcDbEntity
  8
0
100
AcDbSpline
 62
7
  6
BYLAYER
 70
0
 71
3
 72
9
 73
5
 74
0
 42
0.0000001
 43
0.0000001
 44
0.0000000001
 40
0.0
 40
0.0
 40
0.0
 40
0.0
 40
0.4499625918
 40
1.0
 40
1.0
 40
1.0
 40
1.0
 10
215.5991055121
 20
266.1659684393
 30
0.0
 10
215.5653328759
 20
266.1854666615
 30
0.0
 10
215.473007906
 20
266.1989689885
 30
0.0
 10
215.3903704372
 20
266.1649995669
 30
0.0
 10
215.3490866912
 20
266.1411645273
 30
0.0
  0
SPLINE
  5
42B
100
AcDbEntity
  8
0
100
AcDbSpline
 62
7
  6
BYLAYER
 70
0
 71
3
 72
11
 73
7
 74
0
 42
0.0000001
 43
0.0000001
 44
0.0000000001
 40
0.0
 40
0.0
 40
0.0
 40
0.0
 40
0.2308789928
 40
0.4858012509
 40
0.7482357284
 40
1.0
 40
1.0
 40
1.0
 40
1.0
 10
119.8900451156
 20
144.8506128114
 30
0.0
 10
120.1371281585
 20
144.7079625773
 30
0.0
 10
120.7018581535
 20
144.484200586
 30
0.0
 10
121.6185156477
 20
144.3286119781
 30
0.0
 10
122.5738842788
 20
144.3439878743
 30
0.0
 10
123.201382451
 20
144.4732622673
 30
0.0
 10
123.4968695767
 20
144.5706238085
 30
0.0
  0
SPLINE
  5
42C
100
AcDbEntity
  8
0
100
AcDbSpline
 62
7
  6
BYLAYER
 70
0
 71
3
 72
11
 73
7
 74
0
 42
0.0000001
 43
0.0000001
 44
0.0000000001
 40
0.0
 40
0.0
 40
0.0
 40
0.0
 40
0.2895392506
 40
0.5491157405
 40
0.7822554452
 40
1.0
 40
1.0
 40
1.0
 40
1.0
 10
118.8293510882
 20
149.5453984851
 30
0.0
 10
119.0047659213
 20
149.4441249751
 30
0.0
 10
119.3230861361
 20
149.2246332437
 30
0.0
 10
119.7038622711
 20
148.8248871524
 30
0.0
 10
119.9448001765
 20
148.3823339566
 30
0.0
 10
120.0007448361
 20
148.064747534
 30
0.0
 10
120.000744864
 20
147.9124218686
 30
0.0
  0
SPLINE
  5
42D
100
AcDbEntity
  8
0
100
AcDbSpline
 62
7
  6
BYLAYER
 70
0
 71
3
 72
11
 73
7
 74
0
 42
0.0000001
 43
0.0000001
 44
0.0000000001
 40
0.0
 40
0.0
 40
0.0
 40
0.0
 40
0.2372514255
 40
0.4999993765
 40
0.7627476671
 40
1.0
 40
1.0
 40
1.0
 40
1.0
 10
99.0303023358
 20
157.7101999781
 30
0.0
 10
99.4318773489
 20
157.9420480361
 30
0.0
 10
100.3656807285
 20
158.2804214334
 30
0.0
 10
101.8587245398
 20
158.4422341442
 30
0.0
 10
103.3517709076
 20
158.2804284522
 30
0.0
 10
104.2855783644
 20
157.9420596244
 30
0.0
 10
104.6871565853
 20
157.7102135755
 30
0.0
  0
SPLINE
  5
42E
100
AcDbEntity
  8
0
100
AcDbSpline
 62
7
  6
BYLAYER
 70
0
 71
3
 72
11
 73
7
 74
0
 42
0.0000001
 43
0.0000001
 44
0.0000000001
 40
0.0
 40
0.0
 40
0.0
 40
0.0
 40
0.2895392506
 40
0.5491157405
 40
0.7822554452
 40
1.0
 40
1.0
 40
1.0
 40
1.0
 10
94.0805107081
 20
163.8338248933
 30
0.0
 10
94.2559255412
 20
163.7325513833
 30
0.0
 10
94.574245756
 20
163.5130596519
 30
0.0
 10
94.955021891
 20
163.1133135606
 30
0.0
 10
95.1959597964
 20
162.6707603648
 30
0.0
 10
95.251904456
 20
162.3531739423
 30
0.0
 10
95.2519044839
 20
162.2008482769
 30
0.0
  0
SPLINE
  5
42F
100
AcDbEntity
  8
0
100
AcDbSpline
 62
7
  6
BYLAYER
 70
0
 71
3
 72
11
 73
7
 74
0
 42
0.0000001
 43
0.0000001
 44
0.0000000001
 40
0.0
 40
0.0
 40
0.0
 40
0.0
 40
0.2372514255
 40
0.4999993765
 40
0.7627476671
 40
1.0
 40
1.0
 40
1.0
 40
1.0
 10
74.2814619557
 20
171.9986263863
 30
0.0
 10
74.6830369688
 20
172.2304744443
 30
0.0
 10
75.6168403484
 20
172.5688478416
 30
0.0
 10
77.1098841597
 20
172.7306605524
 30
0.0
 10
78.6029305275
 20
172.5688548604
 30
0.0
 10
79.5367379842
 20
172.2304860326
 30
0.0
 10
79.9383162051
 20
171.9986399837
 30
0.0
  0
SPLINE
  5
430
100
AcDbEntity
  8
0
100
AcDbSpline
 62
7
  6
BYLAYER
 70
0
 71
3
 72
11
 73
7
 74
0
 42
0.0000001
 43
0.0000001
 44
0.0000000001
 40
0.0
 40
0.0
 40
0.0
 40
0.0
 40
0.2895392506
 40
0.5491157405
 40
0.7822554452
 40
1.0
 40
1.0
 40
1.0
 40
1.0
 10
69.3316703279
 20
178.1222513015
 30
0.0
 10
69.507085161
 20
178.0209777916
 30
0.0
 10
69.8254053759
 20
177.8014860601
 30
0.0
 10
70.2061815108
 20
177.4017399688
 30
0.0
 10
70.4471194162
 20
176.959186773
 30
0.0
 10
70.5030640758
 20
176.6416003505
 30
0.0
 10
70.5030641038
 20
176.4892746851
 30
0.0
  0
SPLINE
  5
431
100
AcDbEntity
  8
0
100
AcDbSpline
 62
7
  6
BYLAYER
 70
0
 71
3
 72
9
 73
5
 74
0
 42
0.0000001
 43
0.0000001
 44
0.0000000001
 40
0.0
 40
0.0
 40
0.0
 40
0.0
 40
0.2368382726
 40
1.0
 40
1.0
 40
1.0
 40
1.0
 10
49.5326215756
 20
186.2870527945
 30
0.0
 10
49.6110292245
 20
186.3323212016
 30
0.0
 10
49.9490649414
 20
186.5113012333
 30
0.0
 10
50.3102038784
 20
186.6449778332
 30
0.0
 10
50.5907601471
 20
186.7249702658
 30
0.0
  0
SPLINE
  5
432
100
AcDbEntity
  8
0
100
AcDbSpline
 62
7
  6
BYLAYER
 70
0
 71
3
 72
11
 73
7
 74
0
 42
0.0000001
 43
0.0000001
 44
0.0000000001
 40
0.0
 40
0.0
 40
0.0
 40
0.0
 40
0.2543321532
 40
0.5165685102
 40
0.7700760532
 40
1.0
 40
1.0
 40
1.0
 40
1.0
 10
50.5907601471
 20
186.7249702658
 30
0.0
 10
50.975905004
 20
186.834783082
 30
0.0
 10
51.782978692
 20
186.9755470322
 30
0.0
 10
53.0015627998
 20
186.9699842781
 30
0.0
 10
54.162356927
 20
186.7563142354
 30
0.0
 10
54.8759220736
 20
186.4680926394
 30
0.0
 10
55.189475825
 20
186.2870663919
 30
0.0
  0
SPLINE
  5
433
100
AcDbEntity
  8
0
100
AcDbSpline
 62
7
  6
BYLAYER
 70
0
 71
3
 72
10
 73
6
 74
0
 42
0.0000001
 43
0.0000001
 44
0.0000000001
 40
0.0
 40
0.0
 40
0.0
 40
0.0
 40
0.2184096415
 40
0.4522587983
 40
1.0
 40
1.0
 40
1.0
 40
1.0
 10
124.4255207269
 20
71.9196157256
 30
0.0
 10
124.4914832188
 20
71.9576989687
 30
0.0
 10
124.6150703483
 20
72.0613557573
 30
0.0
 10
124.7991411325
 20
72.362793305
 30
0.0
 10
124.8397911119
 20
72.644091293
 30
0.0
 10
124.8397911119
 20
72.8351071411
 30
0.0
  0
SPLINE
  5
434
100
AcDbEntity
  8
0
100
AcDbSpline
 62
7
  6
BYLAYER
 70
0
 71
3
 72
9
 73
5
 74
0
 42
0.0000001
 43
0.0000001
 44
0.0000000001
 40
0.0
 40
0.0
 40
0.0
 40
0.0
 40
0.254531766
 40
1.0
 40
1.0
 40
1.0
 40
1.0
 10
211.555855201
 20
186.3344754248
 30
0.0
 10
211.5966913722
 20
186.3642742656
 30
0.0
 10
211.7582381926
 20
186.479814021
 30
0.0
 10
211.9242708569
 20
186.5891143721
 30
0.0
 10
212.0505089485
 20
186.6664770109
 30
0.0
  0
SPLINE
  5
435
100
AcDbEntity
  8
0
100
AcDbSpline
 62
7
  6
BYLAYER
 70
0
 71
3
 72
9
 73
5
 74
0
 42
0.0000001
 43
0.0000001
 44
0.0000000001
 40
0.0
 40
0.0
 40
0.0
 40
0.0
 40
0.5500403563
 40
1.0
 40
1.0
 40
1.0
 40
1.0
 10
118.8294129115
 20
207.5580790639
 30
0.0
 10
118.8294129115
 20
207.5104065948
 30
0.0
 10
118.8413125552
 20
207.4218517316
 30
0.0
 10
118.8991722334
 20
207.3486449006
 30
0.0
 10
118.9329460092
 20
207.3291460204
 30
0.0
  0
SPLINE
  5
436
100
AcDbEntity
  8
0
100
AcDbSpline
 62
7
  6
BYLAYER
 70
0
 71
3
 72
9
 73
5
 74
0
 42
0.0000001
 43
0.0000001
 44
0.0000000001
 40
0.0
 40
0.0
 40
0.0
 40
0.0
 40
0.4999964594
 40
1.0
 40
1.0
 40
1.0
 40
1.0
 10
119.1829648301
 20
210.6199596008
 30
0.0
 10
119.0780236
 20
210.559372115
 30
0.0
 10
118.9121669763
 20
210.3680571532
 30
0.0
 10
118.8294129115
 20
210.1287635455
 30
0.0
 10
118.8294129115
 20
210.0075863153
 30
0.0
  0
SPLINE
  5
437
100
AcDbEntity
  8
0
100
AcDbSpline
 62
7
  6
BYLAYER
 70
0
 71
3
 72
9
 73
5
 74
0
 42
0.0000001
 43
0.0000001
 44
0.0000000001
 40
0.0
 40
0.0
 40
0.0
 40
0.0
 40
0.2645429084
 40
1.0
 40
1.0
 40
1.0
 40
1.0
 10
208.730585207
 20
120.350613017
 30
0.0
 10
208.7636032676
 20
120.3696758894
 30
0.0
 10
208.886101144
 20
120.4455328457
 30
0.0
 10
208.9993927194
 20
120.5372739298
 30
0.0
 10
209.0722231005
 20
120.6142835055
 30
0.0
  0
SPLINE
  5
438
100
AcDbEntity
  8
0
100
AcDbSpline
 62
7
  6
BYLAYER
 70
0
 71
3
 72
9
 73
5
 74
0
 42
0.0000001
 43
0.0000001
 44
0.0000000001
 40
0.0
 40
0.0
 40
0.0
 40
0.0
 40
0.5259157667
 40
1.0
 40
1.0
 40
1.0
 40
1.0
 10
209.0722231005
 20
120.6142835055
 30
0.0
 10
209.1463707645
 20
120.6926859532
 30
0.0
 10
209.2687670989
 20
120.8629484798
 30
0.0
 10
209.316253881
 20
121.0698185241
 30
0.0
 10
209.3162538508
 20
121.1670945252
 30
0.0
  0
SPLINE
  5
439
100
AcDbEntity
  8
0
100
AcDbSpline
 62
7
  6
BYLAYER
 70
0
 71
3
 72
11
 73
7
 74
0
 42
0.0000001
 43
0.0000001
 44
0.0000000001
 40
0.0
 40
0.0
 40
0.0
 40
0.0
 40
0.2372531816
 40
0.5000006935
 40
0.7627478297
 40
1.0
 40
1.0
 40
1.0
 40
1.0
 10
120.6749325829
 20
71.1449383522
 30
0.0
 10
120.8757222234
 20
71.0290150217
 30
0.0
 10
121.3426260491
 20
70.8598288216
 30
0.0
 10
122.0891487785
 20
70.7789437408
 30
0.0
 10
122.8356701238
 20
70.8598323885
 30
0.0
 10
123.3025717589
 20
71.0290208666
 30
0.0
 10
123.5033597076
 20
71.1449451509
 30
0.0
  0
SPLINE
  5
43A
100
AcDbEntity
  8
0
100
AcDbSpline
 62
7
  6
BYLAYER
 70
0
 71
3
 72
10
 73
6
 74
0
 42
0.0000001
 43
0.0000001
 44
0.0000000001
 40
0.0
 40
0.0
 40
0.0
 40
0.0
 40
0.2184084238
 40
0.4522569524
 40
1.0
 40
1.0
 40
1.0
 40
1.0
 10
210.6314911298
 20
124.4780140259
 30
0.0
 10
210.6314911331
 20
124.401850369
 30
0.0
 10
210.603515682
 20
124.2429987945
 30
0.0
 10
210.4345024654
 20
123.932882282
 30
0.0
 10
210.2112229401
 20
123.7570369073
 30
0.0
 10
210.0458034962
 20
123.6615325169
 30
0.0
  0
SPLINE
  5
43B
100
AcDbEntity
  8
0
100
AcDbSpline
 62
7
  6
BYLAYER
 70
0
 71
3
 72
9
 73
5
 74
0
 42
0.0000001
 43
0.0000001
 44
0.0000000001
 40
0.0
 40
0.0
 40
0.0
 40
0.0
 40
0.4754903387
 40
1.0
 40
1.0
 40
1.0
 40
1.0
 10
104.3336017227
 20
84.0616903234
 30
0.0
 10
103.9656295764
 20
84.274134335
 30
0.0
 10
103.0966988597
 20
84.554967203
 30
0.0
 10
102.193319726
 20
84.5903317456
 30
0.0
 10
101.7267086586
 20
84.5461448004
 30
0.0
  0
SPLINE
  5
43C
100
AcDbEntity
  8
0
100
AcDbSpline
 62
7
  6
BYLAYER
 70
0
 71
3
 72
9
 73
5
 74
0
 42
0.0000001
 43
0.0000001
 44
0.0000000001
 40
0.0
 40
0.0
 40
0.0
 40
0.0
 40
0.4754903387
 40
1.0
 40
1.0
 40
1.0
 40
1.0
 10
54.8359209624
 20
112.6385431398
 30
0.0
 10
54.4679488162
 20
112.8509871514
 30
0.0
 10
53.5990180996
 20
113.1318200193
 30
0.0
 10
52.695638966
 20
113.1671845621
 30
0.0
 10
52.2290278986
 20
113.122997617
 30
0.0
  0
SPLINE
  5
43D
100
AcDbEntity
  8
0
100
AcDbSpline
 62
7
  6
BYLAYER
 70
0
 71
3
 72
9
 73
5
 74
0
 42
0.0000001
 43
0.0000001
 44
0.0000000001
 40
0.0
 40
0.0
 40
0.0
 40
0.0
 40
0.4754903387
 40
1.0
 40
1.0
 40
1.0
 40
1.0
 10
79.5847613426
 20
98.3501167316
 30
0.0
 10
79.2167891963
 20
98.5625607432
 30
0.0
 10
78.3478584796
 20
98.8433936112
 30
0.0
 10
77.4444793459
 20
98.8787581538
 30
0.0
 10
76.9778682784
 20
98.8345712087
 30
0.0
  0
SPLINE
  5
43E
100
AcDbEntity
  8
0
100
AcDbSpline
 62
7
  6
BYLAYER
 70
0
 71
3
 72
9
 73
5
 74
0
 42
0.0000001
 43
0.0000001
 44
0.0000000001
 40
0.0
 40
0.0
 40
0.0
 40
0.0
 40
0.549105839
 40
1.0
 40
1.0
 40
1.0
 40
1.0
 10
47.3122985989
 20
112.5101098292
 30
0.0
 10
47.1558883636
 20
112.6004112778
 30
0.0
 10
46.8871223044
 20
112.8045696779
 30
0.0
 10
46.7412806347
 20
113.1228689569
 30
0.0
 10
46.7289340316
 20
113.2706573581
 30
0.0
  0
SPLINE
  5
43F
100
AcDbEntity
  8
0
100
AcDbSpline
 62
7
  6
BYLAYER
 70
0
 71
3
 72
9
 73
5
 74
0
 42
0.0000001
 43
0.0000001
 44
0.0000000001
 40
0.0
 40
0.0
 40
0.0
 40
0.0
 40
0.5139063216
 40
1.0
 40
1.0
 40
1.0
 40
1.0
 10
47.8696891874
 20
112.1184329751
 30
0.0
 10
56.4336378829
 20
106.1123142663
 30
0.0
 10
73.6008711793
 20
95.1207056382
 30
0.0
 10
91.7524914162
 20
85.8211117846
 30
0.0
 10
100.7951339738
 20
81.805802407
 30
0.0
  0
SPLINE
  5
440
100
AcDbEntity
  8
0
100
AcDbSpline
 62
7
  6
BYLAYER
 70
0
 71
3
 72
11
 73
7
 74
0
 42
0.0000001
 43
0.0000001
 44
0.0000000001
 40
0.0
 40
0.0
 40
0.0
 40
0.0
 40
0.2177648073
 40
0.4508950352
 40
0.7103684932
 40
1.0
 40
1.0
 40
1.0
 40
1.0
 10
97.3589238837
 20
122.6009001851
 30
0.0
 10
97.3589919594
 20
122.772281959
 30
0.0
 10
97.4220573592
 20
123.1295404717
 30
0.0
 10
97.6930353105
 20
123.6273380287
 30
0.0
 10
98.1212399184
 20
124.0772044846
 30
0.0
 10
98.4794326525
 20
124.3240138085
 30
0.0
 10
98.6768357923
 20
124.4379838841
 30
0.0
  0
SPLINE
  5
441
100
AcDbEntity
  8
0
100
AcDbSpline
 62
7
  6
BYLAYER
 70
0
 71
3
 72
9
 73
5
 74
0
 42
0.0000001
 43
0.0000001
 44
0.0000000001
 40
0.0
 40
0.0
 40
0.0
 40
0.0
 40
0.539211884
 40
1.0
 40
1.0
 40
1.0
 40
1.0
 10
100.7947702569
 20
81.8059933484
 30
0.0
 10
100.8026476177
 20
81.64332945
 30
0.0
 10
100.8534261297
 20
81.3406083394
 30
0.0
 10
101.0134787692
 20
81.071491902
 30
0.0
 10
101.1129586831
 20
80.9741693421
 30
0.0
  0
SPLINE
  5
442
100
AcDbEntity
  8
0
100
AcDbSpline
 62
7
  6
BYLAYER
 70
0
 71
3
 72
8
 73
4
 74
0
 42
0.0000001
 43
0.0000001
 44
0.0000000001
 40
0.0
 40
0.0
 40
0.0
 40
0.0
 40
1.0
 40
1.0
 40
1.0
 40
1.0
 10
101.1129586831
 20
80.9741693421
 30
0.0
 10
101.1589264815
 20
80.9291984164
 30
0.0
 10
101.210790225
 20
80.8894921951
 30
0.0
 10
101.2664820997
 20
80.8573388477
 30
0.0
  0
SPLINE
  5
443
100
AcDbEntity
  8
0
100
AcDbSpline
 62
7
  6
BYLAYER
 70
0
 71
3
 72
11
 73
7
 74
0
 42
0.0000001
 43
0.0000001
 44
0.0000000001
 40
0.0
 40
0.0
 40
0.0
 40
0.0
 40
0.2372465442
 40
0.4999994739
 40
0.7627526898
 40
1.0
 40
1.0
 40
1.0
 40
1.0
 10
123.5033597076
 20
70.3284427337
 30
0.0
 10
123.3025761309
 20
70.2125209736
 30
0.0
 10
122.8356774993
 20
70.0433237758
 30
0.0
 10
122.0891483685
 20
69.9624272027
 30
0.0
 10
121.3426181118
 20
70.043320369
 30
0.0
 10
120.8757176438
 20
70.2125152485
 30
0.0
 10
120.6749325829
 20
70.328435935
 30
0.0
  0
SPLINE
  5
444
100
AcDbEntity
  8
0
100
AcDbSpline
 62
7
  6
BYLAYER
 70
0
 71
3
 72
10
 73
6
 74
0
 42
0.0000001
 43
0.0000001
 44
0.0000000001
 40
0.0
 40
0.0
 40
0.0
 40
0.0
 40
0.547742446
 40
0.7815912071
 40
1.0
 40
1.0
 40
1.0
 40
1.0
 10
120.6749325829
 20
70.328435935
 30
0.0
 10
120.6749325829
 20
70.1374194267
 30
0.0
 10
120.7155823102
 20
69.8561207074
 30
0.0
 10
120.8996536037
 20
69.5546828821
 30
0.0
 10
121.0232410949
 20
69.451026775
 30
0.0
 10
121.0892036816
 20
69.4129441075
 30
0.0
  0
SPLINE
  5
445
100
AcDbEntity
  8
0
100
AcDbSpline
 62
7
  6
BYLAYER
 70
0
 71
3
 72
9
 73
5
 74
0
 42
0.0000001
 43
0.0000001
 44
0.0000000001
 40
0.0
 40
0.0
 40
0.0
 40
0.0
 40
0.2853590722
 40
1.0
 40
1.0
 40
1.0
 40
1.0
 10
208.730585207
 20
119.5341105999
 30
0.0
 10
208.730585207
 20
119.4534884722
 30
0.0
 10
208.7135618306
 20
119.1731473716
 30
0.0
 10
208.6084050944
 20
118.8847269826
 30
0.0
 10
208.4688658994
 20
118.7387986546
 30
0.0
  0
SPLINE
  5
446
100
AcDbEntity
  8
0
100
AcDbSpline
 62
7
  6
BYLAYER
 70
0
 71
3
 72
8
 73
4
 74
0
 42
0.0000001
 43
0.0000001
 44
0.0000000001
 40
0.0
 40
0.0
 40
0.0
 40
0.0
 40
1.0
 40
1.0
 40
1.0
 40
1.0
 10
208.4688658994
 20
118.7387986546
 30
0.0
 10
208.4241274227
 20
118.6920117207
 30
0.0
 10
208.3723765773
 20
118.6509862675
 30
0.0
 10
208.316314822
 20
118.6186191844
 30
0.0
  0
SPLINE
  5
447
100
AcDbEntity
  8
0
100
AcDbSpline
 62
7
  6
BYLAYER
 70
0
 71
3
 72
11
 73
7
 74
0
 42
0.0000001
 43
0.0000001
 44
0.0000000001
 40
0.0
 40
0.0
 40
0.0
 40
0.0
 40
0.2177227832
 40
0.4508712161
 40
0.7104668615
 40
1.0
 40
1.0
 40
1.0
 40
1.0
 10
162.2480813907
 20
282.6748643302
 30
0.0
 10
162.2480766124
 20
282.7986146155
 30
0.0
 10
162.2935851197
 20
283.0566307349
 30
0.0
 10
162.4892856623
 20
283.4162259149
 30
0.0
 10
162.7986807994
 20
283.741024043
 30
0.0
 10
163.0573140683
 20
283.9193638216
 30
0.0
 10
163.1998327806
 20
284.0016465473
 30
0.0
  0
SPLINE
  5
448
100
AcDbEntity
  8
0
100
AcDbSpline
 62
7
  6
BYLAYER
 70
0
 71
3
 72
11
 73
7
 74
0
 42
0.0000001
 43
0.0000001
 44
0.0000000001
 40
0.0
 40
0.0
 40
0.0
 40
0.0
 40
0.2177648073
 40
0.4508950352
 40
0.7103684932
 40
1.0
 40
1.0
 40
1.0
 40
1.0
 10
69.0745348778
 20
138.9305303659
 30
0.0
 10
69.0746029535
 20
139.1019121398
 30
0.0
 10
69.1376683533
 20
139.4591706525
 30
0.0
 10
69.4086463046
 20
139.9569682095
 30
0.0
 10
69.8368509126
 20
140.4068346654
 30
0.0
 10
70.1950436466
 20
140.6536439894
 30
0.0
 10
70.3924467864
 20
140.7676140649
 30
0.0
  0
SPLINE
  5
449
100
AcDbEntity
  8
0
100
AcDbSpline
 62
7
  6
BYLAYER
 70
0
 71
3
 72
11
 73
7
 74
0
 42
0.0000001
 43
0.0000001
 44
0.0000000001
 40
0.0
 40
0.0
 40
0.0
 40
0.0
 40
0.2177227832
 40
0.4508712161
 40
0.7104668615
 40
1.0
 40
1.0
 40
1.0
 40
1.0
 10
54.0609587797
 20
252.8729051235
 30
0.0
 10
54.0609540013
 20
252.9966554088
 30
0.0
 10
54.1064625086
 20
253.2546715283
 30
0.0
 10
54.3021630513
 20
253.6142667082
 30
0.0
 10
54.6115581884
 20
253.9390648364
 30
0.0
 10
54.8701914573
 20
254.1174046149
 30
0.0
 10
55.0127101696
 20
254.1996873407
 30
0.0
  0
SPLINE
  5
44A
100
AcDbEntity
  8
0
100
AcDbSpline
 62
7
  6
BYLAYER
 70
0
 71
3
 72
9
 73
5
 74
0
 42
0.0000001
 43
0.0000001
 44
0.0000000001
 40
0.0
 40
0.0
 40
0.0
 40
0.0
 40
0.2942018288
 40
1.0
 40
1.0
 40
1.0
 40
1.0
 10
47.3122985989
 20
112.5101098292
 30
0.0
 10
47.3047682137
 20
112.435230535
 30
0.0
 10
47.2941199754
 20
112.1820466975
 30
0.0
 10
47.3637799503
 20
111.9079094689
 30
0.0
 10
47.4837664957
 20
111.773005016
 30
0.0
  0
SPLINE
  5
44B
100
AcDbEntity
  8
0
100
AcDbSpline
 62
7
  6
BYLAYER
 70
0
 71
3
 72
9
 73
5
 74
0
 42
0.0000001
 43
0.0000001
 44
0.0000000001
 40
0.0
 40
0.0
 40
0.0
 40
0.0
 40
0.5253083778
 40
1.0
 40
1.0
 40
1.0
 40
1.0
 10
101.559589297
 20
131.0681316847
 30
0.0
 10
101.0987167957
 20
131.0481761321
 30
0.0
 10
100.2229063516
 20
130.9237047415
 30
0.0
 10
99.3913096927
 20
130.6066205757
 30
0.0
 10
99.0303023358
 20
130.3981941251
 30
0.0
  0
SPLINE
  5
44C
100
AcDbEntity
  8
0
100
AcDbSpline
 62
7
  6
BYLAYER
 70
0
 71
3
 72
9
 73
5
 74
0
 42
0.0000001
 43
0.0000001
 44
0.0000000001
 40
0.0
 40
0.0
 40
0.0
 40
0.0
 40
0.2358543195
 40
1.0
 40
1.0
 40
1.0
 40
1.0
 10
100.0909610356
 20
130.6023179017
 30
0.0
 10
100.1591749156
 20
130.6417009686
 30
0.0
 10
100.4553754339
 20
130.7965292951
 30
0.0
 10
100.7743395252
 20
130.9056676706
 30
0.0
 10
101.0219455216
 20
130.967443478
 30
0.0
  0
SPLINE
  5
44D
100
AcDbEntity
  8
0
100
AcDbSpline
 62
7
  6
BYLAYER
 70
0
 71
3
 72
9
 73
5
 74
0
 42
0.0000001
 43
0.0000001
 44
0.0000000001
 40
0.0
 40
0.0
 40
0.0
 40
0.0
 40
0.2463030612
 40
1.0
 40
1.0
 40
1.0
 40
1.0
 10
101.0219455216
 20
130.967443478
 30
0.0
 10
101.0655322977
 20
130.9783180462
 30
0.0
 10
101.2431672092
 20
131.0197477331
 30
0.0
 10
101.4232480062
 20
131.0505854669
 30
0.0
 10
101.559589297
 20
131.0681316847
 30
0.0
  0
SPLINE
  5
44E
100
AcDbEntity
  8
0
100
AcDbSpline
 62
7
  6
BYLAYER
 70
0
 71
3
 72
8
 73
4
 74
0
 42
0.0000001
 43
0.0000001
 44
0.0000000001
 40
0.0
 40
0.0
 40
0.0
 40
0.0
 40
1.0
 40
1.0
 40
1.0
 40
1.0
 10
209.3162728407
 20
120.3505921089
 30
0.0
 10
209.3162728435
 20
120.2863125228
 30
0.0
 10
209.3067575692
 20
120.2214484068
 30
0.0
 10
209.2888531522
 20
120.1597127036
 30
0.0
  0
SPLINE
  5
44F
100
AcDbEntity
  8
0
100
AcDbSpline
 62
7
  6
BYLAYER
 70
0
 71
3
 72
9
 73
5
 74
0
 42
0.0000001
 43
0.0000001
 44
0.0000000001
 40
0.0
 40
0.0
 40
0.0
 40
0.0
 40
0.2216985599
 40
1.0
 40
1.0
 40
1.0
 40
1.0
 10
209.2888531522
 20
120.1597127036
 30
0.0
 10
209.2713384893
 20
120.0993209001
 30
0.0
 10
209.1558489576
 20
119.8369676159
 30
0.0
 10
208.9217601258
 20
119.6444848318
 30
0.0
 10
208.730585207
 20
119.5341105999
 30
0.0
  0
SPLINE
  5
450
100
AcDbEntity
  8
0
100
AcDbSpline
 62
7
  6
BYLAYER
 70
0
 71
3
 72
11
 73
7
 74
0
 42
0.0000001
 43
0.0000001
 44
0.0000000001
 40
0.0
 40
0.0
 40
0.0
 40
0.0
 40
0.2896705212
 40
0.5491263166
 40
0.7822410058
 40
1.0
 40
1.0
 40
1.0
 40
1.0
 10
98.4999774019
 20
86.4091404477
 30
0.0
 10
98.4999774019
 20
86.2064905611
 30
0.0
 10
98.5307446033
 20
85.8210248909
 30
0.0
 10
98.6868415426
 20
85.2914434617
 30
0.0
 10
98.9496112107
 20
84.8616481357
 30
0.0
 10
99.196509942
 20
84.6541922767
 30
0.0
 10
99.3284306767
 20
84.5780027377
 30
0.0
  0
SPLINE
  5
451
100
AcDbEntity
  8
0
100
AcDbSpline
 62
7
  6
BYLAYER
 70
0
 71
3
 72
10
 73
6
 74
0
 42
0.0000001
 43
0.0000001
 44
0.0000000001
 40
0.0
 40
0.0
 40
0.0
 40
0.0
 40
0.2184096415
 40
0.4522587983
 40
1.0
 40
1.0
 40
1.0
 40
1.0
 10
123.0890893226
 20
69.4129513183
 30
0.0
 10
123.1550518145
 20
69.4510345614
 30
0.0
 10
123.278638944
 20
69.5546913499
 30
0.0
 10
123.4627097283
 20
69.8561288977
 30
0.0
 10
123.5033597076
 20
70.1374268856
 30
0.0
 10
123.5033597076
 20
70.3284427337
 30
0.0
  0
SPLINE
  5
452
100
AcDbEntity
  8
0
100
AcDbSpline
 62
7
  6
BYLAYER
 70
0
 71
3
 72
10
 73
6
 74
0
 42
0.0000001
 43
0.0000001
 44
0.0000000001
 40
0.0
 40
0.0
 40
0.0
 40
0.0
 40
0.2184031616
 40
0.452246679
 40
1.0
 40
1.0
 40
1.0
 40
1.0
 10
46.7266181792
 20
114.3164049422
 30
0.0
 10
46.7266182029
 20
114.2402429956
 30
0.0
 10
46.7545912726
 20
114.0813950278
 30
0.0
 10
46.9235936698
 20
113.7712722804
 30
0.0
 10
47.1468750926
 20
113.5954217789
 30
0.0
 10
47.3122985989
 20
113.4999166336
 30
0.0
  0
SPLINE
  5
453
100
AcDbEntity
  8
0
100
AcDbSpline
 62
7
  6
BYLAYER
 70
0
 71
3
 72
11
 73
7
 74
0
 42
0.0000001
 43
0.0000001
 44
0.0000000001
 40
0.0
 40
0.0
 40
0.0
 40
0.0
 40
0.2177648073
 40
0.4508950352
 40
0.7103684932
 40
1.0
 40
1.0
 40
1.0
 40
1.0
 10
40.7901458719
 20
155.2601605467
 30
0.0
 10
40.7902139477
 20
155.4315423206
 30
0.0
 10
40.8532793474
 20
155.7888008333
 30
0.0
 10
41.1242572987
 20
156.2865983903
 30
0.0
 10
41.5524619067
 20
156.7364648462
 30
0.0
 10
41.9106546407
 20
156.9832741702
 30
0.0
 10
42.1080577805
 20
157.0972442458
 30
0.0
  0
SPLINE
  5
454
100
AcDbEntity
  8
0
100
AcDbSpline
 62
7
  6
BYLAYER
 70
0
 71
3
 72
11
 73
7
 74
0
 42
0.0000001
 43
0.0000001
 44
0.0000000001
 40
0.0
 40
0.0
 40
0.0
 40
0.0
 40
0.2177434119
 40
0.4508805377
 40
0.710457812
 40
1.0
 40
1.0
 40
1.0
 40
1.0
 10
46.179222796
 20
188.1241429898
 30
0.0
 10
46.1792228314
 20
188.0099000699
 30
0.0
 10
46.2211754233
 20
187.7717142691
 30
0.0
 10
46.4018594494
 20
187.4397927587
 30
0.0
 10
46.6874408865
 20
187.1399832537
 30
0.0
 10
46.9261818061
 20
186.975365945
 30
0.0
 10
47.0577434255
 20
186.899410527
 30
0.0
  0
SPLINE
  5
455
100
AcDbEntity
  8
0
100
AcDbSpline
 62
7
  6
BYLAYER
 70
0
 71
3
 72
11
 73
7
 74
0
 42
0.0000001
 43
0.0000001
 44
0.0000000001
 40
0.0
 40
0.0
 40
0.0
 40
0.0
 40
0.2896705212
 40
0.5491263166
 40
0.7822410058
 40
1.0
 40
1.0
 40
1.0
 40
1.0
 10
73.7511370218
 20
100.6975668559
 30
0.0
 10
73.7511370218
 20
100.4949169693
 30
0.0
 10
73.7819042232
 20
100.1094512991
 30
0.0
 10
73.9380011625
 20
99.5798698699
 30
0.0
 10
74.2007708306
 20
99.1500745439
 30
0.0
 10
74.4476695619
 20
98.9426186849
 30
0.0
 10
74.5795902965
 20
98.8664291459
 30
0.0
  0
SPLINE
  5
456
100
AcDbEntity
  8
0
100
AcDbSpline
 62
7
  6
BYLAYER
 70
0
 71
3
 72
9
 73
5
 74
0
 42
0.0000001
 43
0.0000001
 44
0.0000000001
 40
0.0
 40
0.0
 40
0.0
 40
0.0
 40
0.4492438796
 40
1.0
 40
1.0
 40
1.0
 40
1.0
 10
91.9591920891
 20
142.365614056
 30
0.0
 10
91.9591915274
 20
142.4435085589
 30
0.0
 10
92.0272774483
 20
142.6173236944
 30
0.0
 10
92.1693805086
 20
142.7261095608
 30
0.0
 10
92.2520823639
 20
142.7738572142
 30
0.0
  0
SPLINE
  5
457
100
AcDbEntity
  8
0
100
AcDbSpline
 62
7
  6
BYLAYER
 70
0
 71
3
 72
9
 73
5
 74
0
 42
0.0000001
 43
0.0000001
 44
0.0000000001
 40
0.0
 40
0.0
 40
0.0
 40
0.0
 40
0.5507561204
 40
1.0
 40
1.0
 40
1.0
 40
1.0
 10
91.6663071971
 20
141.2109293211
 30
0.0
 10
91.7490090524
 20
141.2586769745
 30
0.0
 10
91.8911121127
 20
141.3674628409
 30
0.0
 10
91.9591980336
 20
141.5412779764
 30
0.0
 10
91.9591974719
 20
141.6191724793
 30
0.0
  0
SPLINE
  5
458
100
AcDbEntity
  8
0
100
AcDbSpline
 62
7
  6
BYLAYER
 70
0
 71
3
 72
15
 73
11
 74
0
 42
0.0000001
 43
0.0000001
 44
0.0000000001
 40
0.0
 40
0.0
 40
0.0
 40
0.0
 40
0.1288281168
 40
0.2705730231
 40
0.4178855965
 40
0.5623847015
 40
0.6962026063
 40
0.8135940147
 40
0.9130657345
 40
1.0
 40
1.0
 40
1.0
 40
1.0
 10
70.3924467864
 20
140.7676140649
 30
0.0
 10
70.7255515863
 20
140.9599310629
 30
0.0
 10
71.479765527
 20
141.2711136789
 30
0.0
 10
72.7089413466
 20
141.5170563407
 30
0.0
 10
74.009124922
 20
141.5530119928
 30
0.0
 10
75.2737317062
 20
141.3753960051
 30
0.0
 10
76.4018479017
 20
140.9985038585
 30
0.0
 10
77.3055027775
 20
140.447899111
 30
0.0
 10
77.9176387601
 20
139.7517364366
 30
0.0
 10
78.0744493211
 20
139.1900862769
 30
0.0
 10
78.0743462213
 20
138.9305309733
 30
0.0
  0
SPLINE
  5
459
100
AcDbEntity
  8
0
100
AcDbSpline
 62
7
  6
BYLAYER
 70
0
 71
3
 72
10
 73
6
 74
0
 42
0.0000001
 43
0.0000001
 44
0.0000000001
 40
0.0
 40
0.0
 40
0.0
 40
0.0
 40
0.5477412016
 40
0.7815903585
 40
1.0
 40
1.0
 40
1.0
 40
1.0
 10
208.6315958526
 20
121.2120393927
 30
0.0
 10
208.6315958526
 20
121.021023546
 30
0.0
 10
208.5909458738
 20
120.7397255602
 30
0.0
 10
208.4068750927
 20
120.4382880136
 30
0.0
 10
208.2832879652
 20
120.3346312246
 30
0.0
 10
208.2173254742
 20
120.296547981
 30
0.0
  0
SPLINE
  5
45A
100
AcDbEntity
  8
0
100
AcDbSpline
 62
7
  6
BYLAYER
 70
0
 71
3
 72
11
 73
7
 74
0
 42
0.0000001
 43
0.0000001
 44
0.0000000001
 40
0.0
 40
0.0
 40
0.0
 40
0.0
 40
0.239745544
 40
0.5024994666
 40
0.7639225108
 40
1.0
 40
1.0
 40
1.0
 40
1.0
 10
124.0466122517
 20
117.4908868593
 30
0.0
 10
123.7433093697
 20
117.3293316218
 30
0.0
 10
123.0508406709
 20
117.0956354617
 30
0.0
 10
121.9529549127
 20
116.9919181079
 30
0.0
 10
120.862963764
 20
117.1196754221
 30
0.0
 10
120.1830998273
 20
117.3694155694
 30
0.0
 10
119.8900451156
 20
117.5386069584
 30
0.0
  0
SPLINE
  5
45B
100
AcDbEntity
  8
0
100
AcDbSpline
 62
7
  6
BYLAYER
 70
0
 71
3
 72
11
 73
7
 74
0
 42
0.0000001
 43
0.0000001
 44
0.0000000001
 40
0.0
 40
0.0
 40
0.0
 40
0.0
 40
0.2372531816
 40
0.5000006935
 40
0.7627478297
 40
1.0
 40
1.0
 40
1.0
 40
1.0
 10
120.5971563127
 20
116.9262449768
 30
0.0
 10
120.7979459533
 20
116.8103216463
 30
0.0
 10
121.2648497789
 20
116.6411354462
 30
0.0
 10
122.0113725084
 20
116.5602503654
 30
0.0
 10
122.7578938537
 20
116.6411390131
 30
0.0
 10
123.2247954887
 20
116.8103274912
 30
0.0
 10
123.4255834375
 20
116.9262517755
 30
0.0
  0
SPLINE
  5
45C
100
AcDbEntity
  8
0
100
AcDbSpline
 62
7
  6
BYLAYER
 70
0
 71
3
 72
15
 73
11
 74
0
 42
0.0000001
 43
0.0000001
 44
0.0000000001
 40
0.0
 40
0.0
 40
0.0
 40
0.0
 40
0.1288244605
 40
0.2705976782
 40
0.4178986235
 40
0.5623949216
 40
0.69620836
 40
0.8136001012
 40
0.9130679301
 40
1.0
 40
1.0
 40
1.0
 40
1.0
 10
88.246826036
 20
240.727766237
 30
0.0
 10
88.4873921184
 20
240.8666563003
 30
0.0
 10
89.032161159
 20
241.0913705362
 30
0.0
 10
89.9199035543
 20
241.2690727755
 30
0.0
 10
90.8589493984
 20
241.2949413916
 30
0.0
 10
91.7722245532
 20
241.1667049374
 30
0.0
 10
92.5869502706
 20
240.8944757534
 30
0.0
 10
93.2395352881
 20
240.4968229219
 30
0.0
 10
93.6816977585
 20
239.9940614465
 30
0.0
 10
93.7947834014
 20
239.5884332732
 30
0.0
 10
93.7947906393
 20
239.4009835497
 30
0.0
  0
SPLINE
  5
45D
100
AcDbEntity
  8
0
100
AcDbSpline
 62
7
  6
BYLAYER
 70
0
 71
3
 72
15
 73
11
 74
0
 42
0.0000001
 43
0.0000001
 44
0.0000000001
 40
0.0
 40
0.0
 40
0.0
 40
0.0
 40
0.1288244605
 40
0.2705976782
 40
0.4178986235
 40
0.5623949216
 40
0.69620836
 40
0.8136001012
 40
0.9130679301
 40
1.0
 40
1.0
 40
1.0
 40
1.0
 10
116.5312150418
 20
224.3981360561
 30
0.0
 10
116.7717811242
 20
224.5370261195
 30
0.0
 10
117.3165501648
 20
224.7617403554
 30
0.0
 10
118.2042925602
 20
224.9394425947
 30
0.0
 10
119.1433384043
 20
224.9653112108
 30
0.0
 10
120.056613559
 20
224.8370747566
 30
0.0
 10
120.8713392765
 20
224.5648455726
 30
0.0
 10
121.523924294
 20
224.1671927411
 30
0.0
 10
121.9660867644
 20
223.6644312657
 30
0.0
 10
122.0791724073
 20
223.2588030923
 30
0.0
 10
122.0791796452
 20
223.0713533689
 30
0.0
  0
SPLINE
  5
45E
100
AcDbEntity
  8
0
100
AcDbSpline
 62
7
  6
BYLAYER
 70
0
 71
3
 72
11
 73
7
 74
0
 42
0.0000001
 43
0.0000001
 44
0.0000000001
 40
0.0
 40
0.0
 40
0.0
 40
0.0
 40
0.2372416196
 40
0.5000015492
 40
0.7627606319
 40
1.0
 40
1.0
 40
1.0
 40
1.0
 10
155.5636397807
 20
132.4196204071
 30
0.0
 10
155.5636397807
 20
131.8979796068
 30
0.0
 10
155.3679767113
 20
130.797880955
 30
0.0
 10
154.6860530643
 20
129.2520527188
 30
0.0
 10
153.6882985635
 20
127.888574105
 30
0.0
 10
152.8334230848
 20
127.1690775949
 30
0.0
 10
152.3816725132
 20
126.9082608376
 30
0.0
  0
SPLINE
  5
45F
100
AcDbEntity
  8
0
100
AcDbSpline
 62
7
  6
BYLAYER
 70
0
 71
3
 72
11
 73
7
 74
0
 42
0.0000001
 43
0.0000001
 44
0.0000000001
 40
0.0
 40
0.0
 40
0.0
 40
0.0
 40
0.289702809
 40
0.549088757
 40
0.7822160314
 40
1.0
 40
1.0
 40
1.0
 40
1.0
 10
151.3917271411
 20
126.3367190222
 30
0.0
 10
151.1942752351
 20
126.2227207916
 30
0.0
 10
150.8014797778
 20
126.0358565856
 30
0.0
 10
150.1977446925
 20
125.8900600282
 30
0.0
 10
149.6312639191
 20
125.904398377
 30
0.0
 10
149.2902115444
 20
126.028165922
 30
0.0
 10
149.141776544
 20
126.1138629879
 30
0.0
  0
SPLINE
  5
460
100
AcDbEntity
  8
0
100
AcDbSpline
 62
7
  6
BYLAYER
 70
0
 71
3
 72
11
 73
7
 74
0
 42
0.0000001
 43
0.0000001
 44
0.0000000001
 40
0.0
 40
0.0
 40
0.0
 40
0.0
 40
0.2897013151
 40
0.5490856393
 40
0.7822149584
 40
1.0
 40
1.0
 40
1.0
 40
1.0
 10
120.5971563127
 20
73.6516168724
 30
0.0
 10
120.597156312
 20
73.4489443034
 30
0.0
 10
120.6278791115
 20
73.0635037675
 30
0.0
 10
120.7839742284
 20
72.5339253978
 30
0.0
 10
121.0467870341
 20
72.1041963355
 30
0.0
 10
121.2936567249
 20
71.8966512444
 30
0.0
 10
121.4256055956
 20
71.8204722776
 30
0.0
  0
SPLINE
  5
461
100
AcDbEntity
  8
0
100
AcDbSpline
 62
7
  6
BYLAYER
 70
0
 71
3
 72
11
 73
7
 74
0
 42
0.0000001
 43
0.0000001
 44
0.0000000001
 40
0.0
 40
0.0
 40
0.0
 40
0.0
 40
0.2372465442
 40
0.4999994739
 40
0.7627526898
 40
1.0
 40
1.0
 40
1.0
 40
1.0
 10
123.4255834375
 20
73.651623686
 30
0.0
 10
123.2247998607
 20
73.5357019259
 30
0.0
 10
122.7579012292
 20
73.3665047281
 30
0.0
 10
122.0113720983
 20
73.2856081549
 30
0.0
 10
121.2648418417
 20
73.3665013213
 30
0.0
 10
120.7979413737
 20
73.5356962008
 30
0.0
 10
120.5971563127
 20
73.6516168873
 30
0.0
  0
SPLINE
  5
462
100
AcDbEntity
  8
0
100
AcDbSpline
 62
7
  6
BYLAYER
 70
0
 71
3
 72
9
 73
5
 74
0
 42
0.0000001
 43
0.0000001
 44
0.0000000001
 40
0.0
 40
0.0
 40
0.0
 40
0.0
 40
0.2211108424
 40
1.0
 40
1.0
 40
1.0
 40
1.0
 10
56.1488184555
 20
223.2962089352
 30
0.0
 10
56.1175079509
 20
223.2866880109
 30
0.0
 10
55.9694289898
 20
223.2636270627
 30
0.0
 10
55.8195408489
 20
223.3187459966
 30
0.0
 10
55.719703608
 20
223.3763857505
 30
0.0
  0
SPLINE
  5
463
100
AcDbEntity
  8
0
100
AcDbSpline
 62
7
  6
BYLAYER
 70
0
 71
3
 72
11
 73
7
 74
0
 42
0.0000001
 43
0.0000001
 44
0.0000000001
 40
0.0
 40
0.0
 40
0.0
 40
0.0
 40
0.2372518726
 40
0.4999985505
 40
0.7627460182
 40
1.0
 40
1.0
 40
1.0
 40
1.0
 10
208.6315958404
 20
121.2120393857
 30
0.0
 10
208.8323837714
 20
121.3279636628
 30
0.0
 10
209.2123568339
 20
121.6477174831
 30
0.0
 10
209.6556673173
 20
122.2537813169
 30
0.0
 10
209.9588758241
 20
122.9407349319
 30
0.0
 10
210.0458034962
 20
123.4296808682
 30
0.0
 10
210.0458034962
 20
123.6615325169
 30
0.0
  0
SPLINE
  5
464
100
AcDbEntity
  8
0
100
AcDbSpline
 62
7
  6
BYLAYER
 70
0
 71
3
 72
13
 73
9
 74
0
 42
0.0000001
 43
0.0000001
 44
0.0000000001
 40
0.0
 40
0.0
 40
0.0
 40
0.0
 40
0.2738777046
 40
0.3908005491
 40
0.5000031145
 40
0.6092051576
 40
0.7261265358
 40
1.0
 40
1.0
 40
1.0
 40
1.0
 10
123.4255834375
 20
73.6516236787
 30
0.0
 10
123.4255834363
 20
73.460608568
 30
0.0
 10
123.4661387399
 20
73.1793706612
 30
0.0
 10
123.6504471666
 20
72.8778116513
 30
0.0
 10
123.833096576
 20
72.7244568125
 30
0.0
 10
124.0572275698
 20
72.6429499856
 30
0.0
 10
124.4105352485
 20
72.63410743
 30
0.0
 10
124.6743694879
 20
72.739601492
 30
0.0
 10
124.8397911119
 20
72.8351071411
 30
0.0
  0
SPLINE
  5
465
100
AcDbEntity
  8
0
100
AcDbSpline
 62
7
  6
BYLAYER
 70
0
 71
3
 72
11
 73
7
 74
0
 42
0.0000001
 43
0.0000001
 44
0.0000000001
 40
0.0
 40
0.0
 40
0.0
 40
0.0
 40
0.2372416196
 40
0.5000015492
 40
0.7627606319
 40
1.0
 40
1.0
 40
1.0
 40
1.0
 10
230.1630946068
 20
175.4893786406
 30
0.0
 10
230.1630946068
 20
174.9677378403
 30
0.0
 10
229.9674315373
 20
173.8676391884
 30
0.0
 10
229.2855078904
 20
172.3218109522
 30
0.0
 10
228.2877533896
 20
170.9583323385
 30
0.0
 10
227.4328779109
 20
170.2388358283
 30
0.0
 10
226.9811273393
 20
169.9780190711
 30
0.0
  0
SPLINE
  5
466
100
AcDbEntity
  8
0
100
AcDbSpline
 62
7
  6
BYLAYER
 70
0
 71
3
 72
11
 73
7
 74
0
 42
0.0000001
 43
0.0000001
 44
0.0000000001
 40
0.0
 40
0.0
 40
0.0
 40
0.0
 40
0.289702809
 40
0.549088757
 40
0.7822160314
 40
1.0
 40
1.0
 40
1.0
 40
1.0
 10
225.9911819672
 20
169.4064772556
 30
0.0
 10
225.7937300612
 20
169.292479025
 30
0.0
 10
225.4009346039
 20
169.1056148191
 30
0.0
 10
224.7971995186
 20
168.9598182617
 30
0.0
 10
224.2307187451
 20
168.9741566104
 30
0.0
 10
223.8896663704
 20
169.0979241554
 30
0.0
 10
223.7412313701
 20
169.1836212213
 30
0.0
  0
SPLINE
  5
467
100
AcDbEntity
  8
0
100
AcDbSpline
 62
7
  6
BYLAYER
 70
0
 71
3
 72
9
 73
5
 74
0
 42
0.0000001
 43
0.0000001
 44
0.0000000001
 40
0.0
 40
0.0
 40
0.0
 40
0.0
 40
0.2564968891
 40
1.0
 40
1.0
 40
1.0
 40
1.0
 10
222.5121699669
 20
175.1376964173
 30
0.0
 10
222.3676762415
 20
174.889406454
 30
0.0
 10
221.8391612422
 20
173.9019319797
 30
0.0
 10
221.4467614363
 20
172.8386855158
 30
0.0
 10
221.2596473507
 20
172.02726423
 30
0.0
  0
SPLINE
  5
468
100
AcDbEntity
  8
0
100
AcDbSpline
 62
7
  6
BYLAYER
 70
0
 71
3
 72
12
 73
8
 74
0
 42
0.0000001
 43
0.0000001
 44
0.0000000001
 40
0.0
 40
0.0
 40
0.0
 40
0.0
 40
0.3028936438
 40
0.5687192384
 40
0.7965649991
 40
0.9001425338
 40
1.0
 40
1.0
 40
1.0
 40
1.0
 10
221.2596473507
 20
172.02726423
 30
0.0
 10
220.5640709709
 20
171.3724222286
 30
0.0
 10
219.1471864256
 20
170.2498996628
 30
0.0
 10
216.8644206449
 20
169.1457016077
 30
0.0
 10
214.9565206178
 20
168.8567737001
 30
0.0
 10
213.6053829337
 20
169.0858661
 30
0.0
 10
213.0071240855
 20
169.3363655365
 30
0.0
 10
212.7332356708
 20
169.4918597701
 30
0.0
  0
SPLINE
  5
469
100
AcDbEntity
  8
0
100
AcDbSpline
 62
7
  6
BYLAYER
 70
0
 71
3
 72
9
 73
5
 74
0
 42
0.0000001
 43
0.0000001
 44
0.0000000001
 40
0.0
 40
0.0
 40
0.0
 40
0.0
 40
0.5405127202
 40
1.0
 40
1.0
 40
1.0
 40
1.0
 10
161.7137978152
 20
140.0359494183
 30
0.0
 10
161.0955720895
 20
139.4362504499
 30
0.0
 10
159.8383554808
 20
138.4348399728
 30
0.0
 10
158.3359020633
 20
137.8029922345
 30
0.0
 10
157.6158862579
 20
137.6700332003
 30
0.0
  0
SPLINE
  5
46A
100
AcDbEntity
  8
0
100
AcDbSpline
 62
7
  6
BYLAYER
 70
0
 71
3
 72
15
 73
11
 74
0
 42
0.0000001
 43
0.0000001
 44
0.0000000001
 40
0.0
 40
0.0
 40
0.0
 40
0.0
 40
0.1288244605
 40
0.2705976782
 40
0.4178986235
 40
0.5623949216
 40
0.69620836
 40
0.8136001012
 40
0.9130679301
 40
1.0
 40
1.0
 40
1.0
 40
1.0
 10
59.9624370301
 20
257.0573964178
 30
0.0
 10
60.2030031125
 20
257.1962864811
 30
0.0
 10
60.7477721531
 20
257.4210007171
 30
0.0
 10
61.6355145485
 20
257.5987029563
 30
0.0
 10
62.5745603925
 20
257.6245715724
 30
0.0
 10
63.4878355473
 20
257.4963351182
 30
0.0
 10
64.3025612648
 20
257.2241059342
 30
0.0
 10
64.9551462822
 20
256.8264531027
 30
0.0
 10
65.3973087526
 20
256.3236916273
 30
0.0
 10
65.5103943955
 20
255.918063454
 30
0.0
 10
65.5104016334
 20
255.7306137305
 30
0.0
  0
SPLINE
  5
46B
100
AcDbEntity
  8
0
100
AcDbSpline
 62
7
  6
BYLAYER
 70
0
 71
3
 72
11
 73
7
 74
0
 42
0.0000001
 43
0.0000001
 44
0.0000000001
 40
0.0
 40
0.0
 40
0.0
 40
0.0
 40
0.2177227832
 40
0.4508712161
 40
0.7104668615
 40
1.0
 40
1.0
 40
1.0
 40
1.0
 10
110.6297367914
 20
220.2136447619
 30
0.0
 10
110.6297320131
 20
220.3373950472
 30
0.0
 10
110.6752405204
 20
220.5954111666
 30
0.0
 10
110.870941063
 20
220.9550063466
 30
0.0
 10
111.1803362002
 20
221.2798044747
 30
0.0
 10
111.438969469
 20
221.4581442533
 30
0.0
 10
111.5814881813
 20
221.540426979
 30
0.0
  0
SPLINE
  5
46C
100
AcDbEntity
  8
0
100
AcDbSpline
 62
7
  6
BYLAYER
 70
0
 71
3
 72
9
 73
5
 74
0
 42
0.0000001
 43
0.0000001
 44
0.0000000001
 40
0.0
 40
0.0
 40
0.0
 40
0.0
 40
0.4492438796
 40
1.0
 40
1.0
 40
1.0
 40
1.0
 10
116.000928632
 20
127.6689434939
 30
0.0
 10
116.0009280703
 20
127.7468379968
 30
0.0
 10
116.0690139912
 20
127.9206531323
 30
0.0
 10
116.2111170515
 20
128.0294389987
 30
0.0
 10
116.2938189068
 20
128.0771866521
 30
0.0
  0
SPLINE
  5
46D
100
AcDbEntity
  8
0
100
AcDbSpline
 62
7
  6
BYLAYER
 70
0
 71
3
 72
9
 73
5
 74
0
 42
0.0000001
 43
0.0000001
 44
0.0000000001
 40
0.0
 40
0.0
 40
0.0
 40
0.0
 40
0.5507561204
 40
1.0
 40
1.0
 40
1.0
 40
1.0
 10
115.7080731797
 20
122.431834217
 30
0.0
 10
115.790775035
 20
122.4795818704
 30
0.0
 10
115.9328780953
 20
122.5883677368
 30
0.0
 10
116.0009640162
 20
122.7621828724
 30
0.0
 10
116.0009634545
 20
122.8400773752
 30
0.0
  0
SPLINE
  5
46E
100
AcDbEntity
  8
0
100
AcDbSpline
 62
7
  6
BYLAYER
 70
0
 71
3
 72
15
 73
11
 74
0
 42
0.0000001
 43
0.0000001
 44
0.0000000001
 40
0.0
 40
0.0
 40
0.0
 40
0.0
 40
0.1288281168
 40
0.2705730231
 40
0.4178855965
 40
0.5623847015
 40
0.6962026063
 40
0.8135940147
 40
0.9130657345
 40
1.0
 40
1.0
 40
1.0
 40
1.0
 10
98.6768357923
 20
124.4379838841
 30
0.0
 10
99.0099405922
 20
124.6303008821
 30
0.0
 10
99.7641545328
 20
124.9414834981
 30
0.0
 10
100.9933303524
 20
125.1874261599
 30
0.0
 10
102.2935139279
 20
125.223381812
 30
0.0
 10
103.5581207121
 20
125.0457658243
 30
0.0
 10
104.6862369075
 20
124.6688736777
 30
0.0
 10
105.5898917833
 20
124.1182689302
 30
0.0
 10
106.2020277659
 20
123.4221062558
 30
0.0
 10
106.358838327
 20
122.8604560961
 30
0.0
 10
106.3587352272
 20
122.6009007925
 30
0.0
  0
SPLINE
  5
46F
100
AcDbEntity
  8
0
100
AcDbSpline
 62
7
  6
BYLAYER
 70
0
 71
3
 72
10
 73
6
 74
0
 42
0.0000001
 43
0.0000001
 44
0.0000000001
 40
0.0
 40
0.0
 40
0.0
 40
0.0
 40
0.2184079711
 40
0.4522563083
 40
1.0
 40
1.0
 40
1.0
 40
1.0
 10
37.6331547878
 20
211.6392364753
 30
0.0
 10
37.6331547911
 20
211.5630719971
 30
0.0
 10
37.6611308793
 20
211.4042185898
 30
0.0
 10
37.830147868
 20
211.0940988793
 30
0.0
 10
38.0534317435
 20
210.9182527052
 30
0.0
 10
38.2188541973
 20
210.8227481675
 30
0.0
  0
SPLINE
  5
470
100
AcDbEntity
  8
0
100
AcDbSpline
 62
7
  6
BYLAYER
 70
0
 71
3
 72
11
 73
7
 74
0
 42
0.0000001
 43
0.0000001
 44
0.0000000001
 40
0.0
 40
0.0
 40
0.0
 40
0.0
 40
0.2177825102
 40
0.4509091639
 40
0.7102957096
 40
1.0
 40
1.0
 40
1.0
 40
1.0
 10
154.6316231104
 20
134.4796386261
 30
0.0
 10
154.7800629964
 20
134.3939387396
 30
0.0
 10
155.0577883061
 20
134.1604577997
 30
0.0
 10
155.3534594215
 20
133.6770230464
 30
0.0
 10
155.5290705761
 20
133.0812499594
 30
0.0
 10
155.5636397807
 20
132.6476280861
 30
0.0
 10
155.5636397807
 20
132.4196204071
 30
0.0
  0
SPLINE
  5
471
100
AcDbEntity
  8
0
100
AcDbSpline
 62
7
  6
BYLAYER
 70
0
 71
3
 72
9
 73
5
 74
0
 42
0.0000001
 43
0.0000001
 44
0.0000000001
 40
0.0
 40
0.0
 40
0.0
 40
0.0
 40
0.22911547
 40
1.0
 40
1.0
 40
1.0
 40
1.0
 10
53.5984421438
 20
201.7562374115
 30
0.0
 10
53.5984421438
 20
201.8400604775
 30
0.0
 10
53.6309685194
 20
202.2057090134
 30
0.0
 10
53.7680855861
 20
202.5573796662
 30
0.0
 10
53.9091010222
 20
202.8016269219
 30
0.0
  0
SPLINE
  5
472
100
AcDbEntity
  8
0
100
AcDbSpline
 62
7
  6
BYLAYER
 70
0
 71
3
 72
8
 73
4
 74
0
 42
0.0000001
 43
0.0000001
 44
0.0000000001
 40
0.0
 40
0.0
 40
0.0
 40
0.0
 40
1.0
 40
1.0
 40
1.0
 40
1.0
 10
38.633125296
 20
180.5131693029
 30
0.0
 10
38.5774512446
 20
180.5453120143
 30
0.0
 10
38.5260292891
 20
180.5859890866
 30
0.0
 10
38.4815124873
 20
180.6323680501
 30
0.0
  0
SPLINE
  5
473
100
AcDbEntity
  8
0
100
AcDbSpline
 62
7
  6
BYLAYER
 70
0
 71
3
 72
9
 73
5
 74
0
 42
0.0000001
 43
0.0000001
 44
0.0000000001
 40
0.0
 40
0.0
 40
0.0
 40
0.0
 40
0.2216991805
 40
1.0
 40
1.0
 40
1.0
 40
1.0
 10
38.4815124873
 20
180.6323680501
 30
0.0
 10
38.4379683785
 20
180.6777336322
 30
0.0
 10
38.26850665
 20
180.9089332047
 30
0.0
 10
38.2188541973
 20
181.2079071101
 30
0.0
 10
38.2188541973
 20
181.4286611304
 30
0.0
  0
SPLINE
  5
474
100
AcDbEntity
  8
0
100
AcDbSpline
 62
7
  6
BYLAYER
 70
0
 71
3
 72
9
 73
5
 74
0
 42
0.0000001
 43
0.0000001
 44
0.0000000001
 40
0.0
 40
0.0
 40
0.0
 40
0.0
 40
0.2853608527
 40
1.0
 40
1.0
 40
1.0
 40
1.0
 10
38.2188541973
 20
181.4286611304
 30
0.0
 10
38.1490337247
 20
181.4689710872
 30
0.0
 10
37.9147653296
 20
181.6238791643
 30
0.0
 10
37.7175641339
 20
181.8591518193
 30
0.0
 10
37.6609567493
 20
182.0529566186
 30
0.0
  0
SPLINE
  5
475
100
AcDbEntity
  8
0
100
AcDbSpline
 62
7
  6
BYLAYER
 70
0
 71
3
 72
8
 73
4
 74
0
 42
0.0000001
 43
0.0000001
 44
0.0000000001
 40
0.0
 40
0.0
 40
0.0
 40
0.0
 40
1.0
 40
1.0
 40
1.0
 40
1.0
 10
37.6609567493
 20
182.0529566186
 30
0.0
 10
37.6428081162
 20
182.1150914836
 30
0.0
 10
37.6331547906
 20
182.1804183457
 30
0.0
 10
37.6331547878
 20
182.2451494382
 30
0.0
  0
SPLINE
  5
476
100
AcDbEntity
  8
0
100
AcDbSpline
 62
7
  6
BYLAYER
 70
0
 71
3
 72
9
 73
5
 74
0
 42
0.0000001
 43
0.0000001
 44
0.0000000001
 40
0.0
 40
0.0
 40
0.0
 40
0.0
 40
0.4492310396
 40
1.0
 40
1.0
 40
1.0
 40
1.0
 10
139.3075771037
 20
217.7396836466
 30
0.0
 10
139.4088666324
 20
217.6814456093
 30
0.0
 10
139.5834392652
 20
217.4623641444
 30
0.0
 10
139.6182657256
 20
217.1962864541
 30
0.0
 10
139.6182657256
 20
217.0530393953
 30
0.0
  0
SPLINE
  5
477
100
AcDbEntity
  8
0
100
AcDbSpline
 62
7
  6
BYLAYER
 70
0
 71
3
 72
11
 73
7
 74
0
 42
0.0000001
 43
0.0000001
 44
0.0000000001
 40
0.0
 40
0.0
 40
0.0
 40
0.0
 40
0.2372392641
 40
0.4999983132
 40
0.7627582764
 40
1.0
 40
1.0
 40
1.0
 40
1.0
 10
53.4216661845
 20
215.1094705291
 30
0.0
 10
52.6185544093
 20
214.6457964974
 30
0.0
 10
51.0987761202
 20
213.3666920735
 30
0.0
 10
49.324990336
 20
210.9427305965
 30
0.0
 10
48.1126811923
 20
208.1945912626
 30
0.0
 10
47.7648354868
 20
206.2388597903
 30
0.0
 10
47.7648354868
 20
205.3114979611
 30
0.0
  0
SPLINE
  5
478
100
AcDbEntity
  8
0
100
AcDbSpline
 62
7
  6
BYLAYER
 70
0
 71
3
 72
10
 73
6
 74
0
 42
0.0000001
 43
0.0000001
 44
0.0000000001
 40
0.0
 40
0.0
 40
0.0
 40
0.0
 40
0.5477398655
 40
0.7815894192
 40
1.0
 40
1.0
 40
1.0
 40
1.0
 10
43.875684903
 20
220.6207207127
 30
0.0
 10
43.7102642067
 20
220.7162242365
 30
0.0
 10
43.4463345077
 20
220.821663693
 30
0.0
 10
43.0932561561
 20
220.8129708567
 30
0.0
 10
42.9416968478
 20
220.7577711975
 30
0.0
 10
42.8757358316
 20
220.7196888065
 30
0.0
  0
SPLINE
  5
479
100
AcDbEntity
  8
0
100
AcDbSpline
 62
7
  6
BYLAYER
 70
0
 71
3
 72
11
 73
7
 74
0
 42
0.0000001
 43
0.0000001
 44
0.0000000001
 40
0.0
 40
0.0
 40
0.0
 40
0.0
 40
0.2346564626
 40
0.4944453768
 40
0.7572205613
 40
1.0
 40
1.0
 40
1.0
 40
1.0
 10
38.2188541973
 20
210.8227481471
 30
0.0
 10
38.2188541986
 20
211.6922758673
 30
0.0
 10
38.5257410759
 20
213.5259831872
 30
0.0
 10
39.6129922207
 20
216.1331130919
 30
0.0
 10
41.2250387765
 20
218.4894312168
 30
0.0
 10
42.6122135263
 20
219.783832011
 30
0.0
 10
43.3545999875
 20
220.2919583011
 30
0.0
  0
SPLINE
  5
47A
100
AcDbEntity
  8
0
100
AcDbSpline
 62
7
  6
BYLAYER
 70
0
 71
3
 72
9
 73
5
 74
0
 42
0.0000001
 43
0.0000001
 44
0.0000000001
 40
0.0
 40
0.0
 40
0.0
 40
0.0
 40
0.2543662522
 40
1.0
 40
1.0
 40
1.0
 40
1.0
 10
43.3545999875
 20
220.2919583011
 30
0.0
 10
43.3977157011
 20
220.3214688441
 30
0.0
 10
43.5682657596
 20
220.4359429284
 30
0.0
 10
43.7430475889
 20
220.5441429879
 30
0.0
 10
43.8756848958
 20
220.6207207156
 30
0.0
  0
SPLINE
  5
47B
100
AcDbEntity
  8
0
100
AcDbSpline
 62
7
  6
BYLAYER
 70
0
 71
3
 72
11
 73
7
 74
0
 42
0.0000001
 43
0.0000001
 44
0.0000000001
 40
0.0
 40
0.0
 40
0.0
 40
0.0
 40
0.2372446848
 40
0.5000016179
 40
0.7627576706
 40
1.0
 40
1.0
 40
1.0
 40
1.0
 10
61.0230324346
 20
220.3145976003
 30
0.0
 10
61.0230324346
 20
220.1986763807
 30
0.0
 10
60.9795419316
 20
219.9542122469
 30
0.0
 10
60.8280043915
 20
219.6106986355
 30
0.0
 10
60.6062839131
 20
219.3077062459
 30
0.0
 10
60.4163184715
 20
219.1478108042
 30
0.0
 10
60.3159285974
 20
219.0898510293
 30
0.0
  0
SPLINE
  5
47C
100
AcDbEntity
  8
0
100
AcDbSpline
 62
7
  6
BYLAYER
 70
0
 71
3
 72
11
 73
7
 74
0
 42
0.0000001
 43
0.0000001
 44
0.0000000001
 40
0.0
 40
0.0
 40
0.0
 40
0.0
 40
0.4044790623
 40
0.6574797328
 40
0.8258071743
 40
1.0
 40
1.0
 40
1.0
 40
1.0
 10
54.2129966186
 20
226.9559424247
 30
0.0
 10
54.1791655147
 20
226.9841661669
 30
0.0
 10
54.1273417065
 20
227.0333407574
 30
0.0
 10
54.0758522014
 20
227.1107000538
 30
0.0
 10
54.0794404393
 20
227.1816949043
 30
0.0
 10
54.1115693262
 20
227.206897345
 30
0.0
 10
54.1280435808
 20
227.2163108841
 30
0.0
  0
SPLINE
  5
47D
100
AcDbEntity
  8
0
100
AcDbSpline
 62
7
  6
BYLAYER
 70
0
 71
3
 72
9
 73
5
 74
0
 42
0.0000001
 43
0.0000001
 44
0.0000000001
 40
0.0
 40
0.0
 40
0.0
 40
0.0
 40
0.2770194707
 40
1.0
 40
1.0
 40
1.0
 40
1.0
 10
54.4319117206
 20
226.7153259794
 30
0.0
 10
54.4140404512
 20
226.7395132167
 30
0.0
 10
54.3476459182
 20
226.8253271351
 30
0.0
 10
54.2732118559
 20
226.9055919535
 30
0.0
 10
54.2129957447
 20
226.9559330772
 30
0.0
  0
SPLINE
  5
47E
100
AcDbEntity
  8
0
100
AcDbSpline
 62
7
  6
BYLAYER
 70
0
 71
3
 72
11
 73
7
 74
0
 42
0.0000001
 43
0.0000001
 44
0.0000000001
 40
0.0
 40
0.0
 40
0.0
 40
0.0
 40
0.4047268795
 40
0.6561128049
 40
0.8233223701
 40
1.0
 40
1.0
 40
1.0
 40
1.0
 10
54.8960083342
 20
228.1389563926
 30
0.0
 10
54.8543594915
 20
228.1541789561
 30
0.0
 10
54.7862775593
 20
228.1749924435
 30
0.0
 10
54.6926252643
 20
228.1841522838
 30
0.0
 10
54.6336287182
 20
228.1435131656
 30
0.0
 10
54.6280178063
 20
228.1029416202
 30
0.0
 10
54.6280188905
 20
228.0835840783
 30
0.0
  0
SPLINE
  5
47F
100
AcDbEntity
  8
0
100
AcDbSpline
 62
7
  6
BYLAYER
 70
0
 71
3
 72
9
 73
5
 74
0
 42
0.0000001
 43
0.0000001
 44
0.0000000001
 40
0.0
 40
0.0
 40
0.0
 40
0.0
 40
0.4999692492
 40
1.0
 40
1.0
 40
1.0
 40
1.0
 10
54.8960608449
 20
233.5019220786
 30
0.0
 10
54.8636312972
 20
233.7392068104
 30
0.0
 10
54.9776253505
 20
234.2433970105
 30
0.0
 10
55.3573765462
 20
234.5940539213
 30
0.0
 10
55.5791246699
 20
234.6845945238
 30
0.0
  0
SPLINE
  5
480
100
AcDbEntity
  8
0
100
AcDbSpline
 62
7
  6
BYLAYER
 70
0
 71
3
 72
11
 73
7
 74
0
 42
0.0000001
 43
0.0000001
 44
0.0000000001
 40
0.0
 40
0.0
 40
0.0
 40
0.0
 40
0.2177850417
 40
0.4509143609
 40
0.7102986851
 40
1.0
 40
1.0
 40
1.0
 40
1.0
 10
46.8255295927
 20
114.8898718795
 30
0.0
 10
46.6935807223
 20
114.9660508461
 30
0.0
 10
46.4467110324
 20
115.1735959365
 30
0.0
 10
46.1838982261
 20
115.6033249967
 30
0.0
 10
46.0278031101
 20
116.1329033647
 30
0.0
 10
45.997080311
 20
116.5183438989
 30
0.0
 10
45.9970803097
 20
116.721016467
 30
0.0
  0
SPLINE
  5
481
100
AcDbEntity
  8
0
100
AcDbSpline
 62
7
  6
BYLAYER
 70
0
 71
3
 72
9
 73
5
 74
0
 42
0.0000001
 43
0.0000001
 44
0.0000000001
 40
0.0
 40
0.0
 40
0.0
 40
0.0
 40
0.4499625918
 40
1.0
 40
1.0
 40
1.0
 40
1.0
 10
149.6263175
 20
215.8292526261
 30
0.0
 10
149.5925448638
 20
215.8487508483
 30
0.0
 10
149.500219894
 20
215.8622531754
 30
0.0
 10
149.4175824252
 20
215.8282837538
 30
0.0
 10
149.3762986792
 20
215.8044487142
 30
0.0
  0
SPLINE
  5
482
100
AcDbEntity
  8
0
100
AcDbSpline
 62
7
  6
BYLAYER
 70
0
 71
3
 72
11
 73
7
 74
0
 42
0.0000001
 43
0.0000001
 44
0.0000000001
 40
0.0
 40
0.0
 40
0.0
 40
0.0
 40
0.2177227832
 40
0.4508712161
 40
0.7104668615
 40
1.0
 40
1.0
 40
1.0
 40
1.0
 10
190.5324703966
 20
266.3452341493
 30
0.0
 10
190.5324656182
 20
266.4689844347
 30
0.0
 10
190.5779741256
 20
266.7270005541
 30
0.0
 10
190.7736746682
 20
267.086595734
 30
0.0
 10
191.0830698053
 20
267.4113938622
 30
0.0
 10
191.3417030742
 20
267.5897336408
 30
0.0
 10
191.4842217865
 20
267.6720163665
 30
0.0
  0
SPLINE
  5
483
100
AcDbEntity
  8
0
100
AcDbSpline
 62
7
  6
BYLAYER
 70
0
 71
3
 72
11
 73
7
 74
0
 42
0.0000001
 43
0.0000001
 44
0.0000000001
 40
0.0
 40
0.0
 40
0.0
 40
0.0
 40
0.2177442246
 40
0.4508817658
 40
0.7104588047
 40
1.0
 40
1.0
 40
1.0
 40
1.0
 10
192.7367364625
 20
248.4084404407
 30
0.0
 10
192.8356770387
 20
248.3513183117
 30
0.0
 10
193.0209823713
 20
248.1958913053
 30
0.0
 10
193.2181019009
 20
247.8734478029
 30
0.0
 10
193.3349614106
 20
247.4762144507
 30
0.0
 10
193.3581573539
 20
247.1871439444
 30
0.0
 10
193.3581573539
 20
247.0352273675
 30
0.0
  0
SPLINE
  5
484
100
AcDbEntity
  8
0
100
AcDbSpline
 62
7
  6
BYLAYER
 70
0
 71
3
 72
9
 73
5
 74
0
 42
0.0000001
 43
0.0000001
 44
0.0000000001
 40
0.0
 40
0.0
 40
0.0
 40
0.0
 40
0.266282923
 40
1.0
 40
1.0
 40
1.0
 40
1.0
 10
65.934841652
 20
156.2661613652
 30
0.0
 10
65.9764149926
 20
156.2725927985
 30
0.0
 10
66.1313801393
 20
156.3028244291
 30
0.0
 10
66.282743697
 20
156.3576328142
 30
0.0
 10
66.3831283104
 20
156.4155895518
 30
0.0
  0
SPLINE
  5
485
100
AcDbEntity
  8
0
100
AcDbSpline
 62
7
  6
BYLAYER
 70
0
 71
3
 72
9
 73
5
 74
0
 42
0.0000001
 43
0.0000001
 44
0.0000000001
 40
0.0
 40
0.0
 40
0.0
 40
0.0
 40
0.2324916781
 40
1.0
 40
1.0
 40
1.0
 40
1.0
 10
59.2427192651
 20
155.1508061526
 30
0.0
 10
59.2745370343
 20
155.1691760405
 30
0.0
 10
59.4159993316
 20
155.2401646172
 30
0.0
 10
59.5711447595
 20
155.2816917089
 30
0.0
 10
59.6910059237
 20
155.3002343393
 30
0.0
  0
SPLINE
  5
486
100
AcDbEntity
  8
0
100
AcDbSpline
 62
7
  6
BYLAYER
 70
0
 71
3
 72
15
 73
11
 74
0
 42
0.0000001
 43
0.0000001
 44
0.0000000001
 40
0.0
 40
0.0
 40
0.0
 40
0.0
 40
0.1288281168
 40
0.2705730231
 40
0.4178855965
 40
0.5623847015
 40
0.6962026063
 40
0.8135940147
 40
0.9130657345
 40
1.0
 40
1.0
 40
1.0
 40
1.0
 10
42.1080577805
 20
157.0972442458
 30
0.0
 10
42.4411625805
 20
157.2895612437
 30
0.0
 10
43.1953765211
 20
157.6007438597
 30
0.0
 10
44.4245523407
 20
157.8466865215
 30
0.0
 10
45.7247359161
 20
157.8826421736
 30
0.0
 10
46.9893427003
 20
157.7050261859
 30
0.0
 10
48.1174588958
 20
157.3281340393
 30
0.0
 10
49.0211137716
 20
156.7775292919
 30
0.0
 10
49.6332497542
 20
156.0813666174
 30
0.0
 10
49.7900603152
 20
155.5197164577
 30
0.0
 10
49.7899572154
 20
155.2601611541
 30
0.0
  0
SPLINE
  5
487
100
AcDbEntity
  8
0
100
AcDbSpline
 62
7
  6
BYLAYER
 70
0
 71
3
 72
11
 73
7
 74
0
 42
0.0000001
 43
0.0000001
 44
0.0000000001
 40
0.0
 40
0.0
 40
0.0
 40
0.0
 40
0.2177825102
 40
0.4509091639
 40
0.7102957096
 40
1.0
 40
1.0
 40
1.0
 40
1.0
 10
229.2310779365
 20
177.5493968596
 30
0.0
 10
229.3795178224
 20
177.463696973
 30
0.0
 10
229.6572431321
 20
177.2302160331
 30
0.0
 10
229.9529142476
 20
176.7467812799
 30
0.0
 10
230.1285254021
 20
176.1510081928
 30
0.0
 10
230.1630946068
 20
175.7173863195
 30
0.0
 10
230.1630946068
 20
175.4893786406
 30
0.0
  0
SPLINE
  5
488
100
AcDbEntity
  8
0
100
AcDbSpline
 62
7
  6
BYLAYER
 70
0
 71
3
 72
15
 73
11
 74
0
 42
0.0000001
 43
0.0000001
 44
0.0000000001
 40
0.0
 40
0.0
 40
0.0
 40
0.0
 40
0.1288244605
 40
0.2705976782
 40
0.4178986235
 40
0.5623949216
 40
0.69620836
 40
0.8136001012
 40
0.9130679301
 40
1.0
 40
1.0
 40
1.0
 40
1.0
 10
196.433948647
 20
270.5297254436
 30
0.0
 10
196.6745147294
 20
270.668615507
 30
0.0
 10
197.21928377
 20
270.8933297429
 30
0.0
 10
198.1070261654
 20
271.0710319822
 30
0.0
 10
199.0460720094
 20
271.0969005983
 30
0.0
 10
199.9593471642
 20
270.9686641441
 30
0.0
 10
200.7740728817
 20
270.6964349601
 30
0.0
 10
201.4266578992
 20
270.2987821286
 30
0.0
 10
201.8688203696
 20
269.7960206532
 30
0.0
 10
201.9819060124
 20
269.3903924798
 30
0.0
 10
201.9819132504
 20
269.2029427564
 30
0.0
  0
SPLINE
  5
489
100
AcDbEntity
  8
0
100
AcDbSpline
 62
7
  6
BYLAYER
 70
0
 71
3
 72
11
 73
7
 74
0
 42
0.0000001
 43
0.0000001
 44
0.0000000001
 40
0.0
 40
0.0
 40
0.0
 40
0.0
 40
0.23721727
 40
0.499998382
 40
0.7627803746
 40
1.0
 40
1.0
 40
1.0
 40
1.0
 10
55.7197153839
 20
221.7434159337
 30
0.0
 10
55.8200951786
 20
221.8013698893
 30
0.0
 10
56.0100715254
 20
221.9612524519
 30
0.0
 10
56.2318042972
 20
222.2642559655
 30
0.0
 10
56.383345324
 20
222.6077857852
 30
0.0
 10
56.4268192211
 20
222.8522529238
 30
0.0
 10
56.4268192211
 20
222.9681625047
 30
0.0
  0
SPLINE
  5
48A
100
AcDbEntity
  8
0
100
AcDbSpline
 62
7
  6
BYLAYER
 70
0
 71
3
 72
9
 73
5
 74
0
 42
0.0000001
 43
0.0000001
 44
0.0000000001
 40
0.0
 40
0.0
 40
0.0
 40
0.0
 40
0.2872154688
 40
1.0
 40
1.0
 40
1.0
 40
1.0
 10
56.4268192211
 20
222.9681625047
 30
0.0
 10
56.389970802
 20
222.9894364682
 30
0.0
 10
56.2674955028
 20
223.0708994864
 30
0.0
 10
56.1657973493
 20
223.1984800636
 30
0.0
 10
56.1424149705
 20
223.3014519126
 30
0.0
  0
SPLINE
  5
48B
100
AcDbEntity
  8
0
100
AcDbSpline
 62
7
  6
BYLAYER
 70
0
 71
3
 72
8
 73
4
 74
0
 42
0.0000001
 43
0.0000001
 44
0.0000000001
 40
0.0
 40
0.0
 40
0.0
 40
0.0
 40
1.0
 40
1.0
 40
1.0
 40
1.0
 10
56.1424149705
 20
223.3014519126
 30
0.0
 10
56.1368469629
 20
223.3259724304
 30
0.0
 10
56.1339230567
 20
223.3512619076
 30
0.0
 10
56.1339230583
 20
223.3764066586
 30
0.0
  0
SPLINE
  5
48C
100
AcDbEntity
  8
0
100
AcDbSpline
 62
7
  6
BYLAYER
 70
0
 71
3
 72
13
 73
9
 74
0
 42
0.0000001
 43
0.0000001
 44
0.0000000001
 40
0.0
 40
0.0
 40
0.0
 40
0.0
 40
0.2738773092
 40
0.3907993621
 40
0.5000011017
 40
0.6092026793
 40
0.7261242267
 40
1.0
 40
1.0
 40
1.0
 40
1.0
 10
55.7197153839
 20
221.7434159337
 30
0.0
 10
55.5542925496
 20
221.838920691
 30
0.0
 10
55.331012024
 20
222.0146567894
 30
0.0
 10
55.1620093925
 20
222.3250467953
 30
0.0
 10
55.1205260904
 20
222.5598995074
 30
0.0
 10
55.1620060832
 20
222.7947524738
 30
0.0
 10
55.3310043548
 20
223.1051431698
 30
0.0
 10
55.5542823902
 20
223.2808803359
 30
0.0
 10
55.719703608
 20
223.3763857505
 30
0.0
  0
SPLINE
  5
48D
100
AcDbEntity
  8
0
100
AcDbSpline
 62
7
  6
BYLAYER
 70
0
 71
3
 72
15
 73
11
 74
0
 42
0.0000001
 43
0.0000001
 44
0.0000000001
 40
0.0
 40
0.0
 40
0.0
 40
0.0
 40
0.1288244605
 40
0.2705976782
 40
0.4178986235
 40
0.5623949216
 40
0.69620836
 40
0.8136001012
 40
0.9130679301
 40
1.0
 40
1.0
 40
1.0
 40
1.0
 10
139.8651706352
 20
303.1889858052
 30
0.0
 10
140.1057367176
 20
303.3278758686
 30
0.0
 10
140.6505057583
 20
303.5525901045
 30
0.0
 10
141.5382481536
 20
303.7302923438
 30
0.0
 10
142.4772939977
 20
303.7561609599
 30
0.0
 10
143.3905691525
 20
303.6279245057
 30
0.0
 10
144.2052948699
 20
303.3556953217
 30
0.0
 10
144.8578798874
 20
302.9580424902
 30
0.0
 10
145.3000423578
 20
302.4552810148
 30
0.0
 10
145.4131280007
 20
302.0496528414
 30
0.0
 10
145.4131352386
 20
301.862203118
 30
0.0
  0
SPLINE
  5
48E
100
AcDbEntity
  8
0
100
AcDbSpline
 62
7
  6
BYLAYER
 70
0
 71
3
 72
10
 73
6
 74
0
 42
0.0000001
 43
0.0000001
 44
0.0000000001
 40
0.0
 40
0.0
 40
0.0
 40
0.0
 40
0.5477436916
 40
0.7815920289
 40
1.0
 40
1.0
 40
1.0
 40
1.0
 10
45.9970803097
 20
116.7210164353
 30
0.0
 10
45.8316578571
 20
116.8165209723
 30
0.0
 10
45.6083739832
 20
116.9923671448
 30
0.0
 10
45.4393569939
 20
117.302486852
 30
0.0
 10
45.4113809044
 20
117.4613402579
 30
0.0
 10
45.4113809002
 20
117.5375047355
 30
0.0
  0
SPLINE
  5
48F
100
AcDbEntity
  8
0
100
AcDbSpline
 62
7
  6
BYLAYER
 70
0
 71
3
 72
11
 73
7
 74
0
 42
0.0000001
 43
0.0000001
 44
0.0000000001
 40
0.0
 40
0.0
 40
0.0
 40
0.0
 40
0.2896705212
 40
0.5491263166
 40
0.7822410058
 40
1.0
 40
1.0
 40
1.0
 40
1.0
 10
49.0022966416
 20
114.9859932641
 30
0.0
 10
49.0022966418
 20
114.7833433775
 30
0.0
 10
49.0330638432
 20
114.3978777074
 30
0.0
 10
49.1891607822
 20
113.8682962781
 30
0.0
 10
49.4519304505
 20
113.4385009521
 30
0.0
 10
49.6988291818
 20
113.2310450931
 30
0.0
 10
49.8307499164
 20
113.1548555541
 30
0.0
  0
SPLINE
  5
490
100
AcDbEntity
  8
0
100
AcDbSpline
 62
7
  6
BYLAYER
 70
0
 71
3
 72
9
 73
5
 74
0
 42
0.0000001
 43
0.0000001
 44
0.0000000001
 40
0.0
 40
0.0
 40
0.0
 40
0.0
 40
0.2723892771
 40
1.0
 40
1.0
 40
1.0
 40
1.0
 10
55.0300101683
 20
233.3956877914
 30
0.0
 10
55.0190185461
 20
233.4066817994
 30
0.0
 10
54.9776784461
 20
233.445991056
 30
0.0
 10
54.9319742419
 20
233.481101774
 30
0.0
 10
54.8960123637
 20
233.501868442
 30
0.0
  0
SPLINE
  5
491
100
AcDbEntity
  8
0
100
AcDbSpline
 62
7
  6
BYLAYER
 70
0
 71
3
 72
9
 73
5
 74
0
 42
0.0000001
 43
0.0000001
 44
0.0000000001
 40
0.0
 40
0.0
 40
0.0
 40
0.0
 40
0.4839077362
 40
1.0
 40
1.0
 40
1.0
 40
1.0
 10
55.0299484613
 20
233.3957507388
 30
0.0
 10
55.0299914671
 20
233.6320240228
 30
0.0
 10
55.2438956088
 20
234.1140879868
 30
0.0
 10
55.6569248424
 20
234.4212491024
 30
0.0
 10
55.8959903963
 20
234.5009076316
 30
0.0
  0
SPLINE
  5
492
100
AcDbEntity
  8
0
100
AcDbSpline
 62
7
  6
BYLAYER
 70
0
 71
3
 72
9
 73
5
 74
0
 42
0.0000001
 43
0.0000001
 44
0.0000000001
 40
0.0
 40
0.0
 40
0.0
 40
0.0
 40
0.2678462312
 40
1.0
 40
1.0
 40
1.0
 40
1.0
 10
55.8960104711
 20
234.5008879983
 30
0.0
 10
55.8698639883
 20
234.520649055
 30
0.0
 10
55.7703248961
 20
234.5917439618
 30
0.0
 10
55.6622438314
 20
234.6516778646
 30
0.0
 10
55.5790330115
 20
234.6848720859
 30
0.0
  0
SPLINE
  5
493
100
AcDbEntity
  8
0
100
AcDbSpline
 62
7
  6
BYLAYER
 70
0
 71
3
 72
9
 73
5
 74
0
 42
0.0000001
 43
0.0000001
 44
0.0000000001
 40
0.0
 40
0.0
 40
0.0
 40
0.0
 40
0.5028783867
 40
1.0
 40
1.0
 40
1.0
 40
1.0
 10
54.9044192679
 20
228.0375046638
 30
0.0
 10
54.9110151981
 20
227.8291575485
 30
0.0
 10
54.7960314323
 20
227.4062616033
 30
0.0
 10
54.4867584547
 20
227.0966966121
 30
0.0
 10
54.3051218719
 20
226.9993774149
 30
0.0
  0
SPLINE
  5
494
100
AcDbEntity
  8
0
100
AcDbSpline
 62
7
  6
BYLAYER
 70
0
 71
3
 72
9
 73
5
 74
0
 42
0.0000001
 43
0.0000001
 44
0.0000000001
 40
0.0
 40
0.0
 40
0.0
 40
0.0
 40
0.272382849
 40
1.0
 40
1.0
 40
1.0
 40
1.0
 10
55.2979379669
 20
227.8205000858
 30
0.0
 10
55.2649682813
 20
227.8534729084
 30
0.0
 10
55.1409651922
 20
227.971370263
 30
0.0
 10
55.003875053
 20
228.0766773403
 30
0.0
 10
54.8960043048
 20
228.1389568752
 30
0.0
  0
SPLINE
  5
495
100
AcDbEntity
  8
0
100
AcDbSpline
 62
7
  6
BYLAYER
 70
0
 71
3
 72
9
 73
5
 74
0
 42
0.0000001
 43
0.0000001
 44
0.0000000001
 40
0.0
 40
0.0
 40
0.0
 40
0.0
 40
0.516086349
 40
1.0
 40
1.0
 40
1.0
 40
1.0
 10
54.4319146718
 20
226.715326678
 30
0.0
 10
54.6709729911
 20
226.795012423
 30
0.0
 10
55.0840486905
 20
227.1020974086
 30
0.0
 10
55.2979381274
 20
227.5842215003
 30
0.0
 10
55.297938245
 20
227.8205020171
 30
0.0
  0
SPLINE
  5
496
100
AcDbEntity
  8
0
100
AcDbSpline
 62
7
  6
BYLAYER
 70
0
 71
3
 72
9
 73
5
 74
0
 42
0.0000001
 43
0.0000001
 44
0.0000000001
 40
0.0
 40
0.0
 40
0.0
 40
0.0
 40
0.2420151865
 40
1.0
 40
1.0
 40
1.0
 40
1.0
 10
56.4268192211
 20
266.0794901292
 30
0.0
 10
56.4268192206
 20
266.1036132101
 30
0.0
 10
56.428765297
 20
266.2032851942
 30
0.0
 10
56.4381176232
 20
266.3027662381
 30
0.0
 10
56.448679025
 20
266.3775772325
 30
0.0
  0
SPLINE
  5
497
100
AcDbEntity
  8
0
100
AcDbSpline
 62
7
  6
BYLAYER
 70
0
 71
3
 72
9
 73
5
 74
0
 42
0.0000001
 43
0.0000001
 44
0.0000000001
 40
0.0
 40
0.0
 40
0.0
 40
0.0
 40
0.238793427
 40
1.0
 40
1.0
 40
1.0
 40
1.0
 10
56.448679025
 20
266.3775772325
 30
0.0
 10
56.4582068051
 20
266.4450666358
 30
0.0
 10
56.5100578691
 20
266.7259631394
 30
0.0
 10
56.6058330087
 20
266.9980211703
 30
0.0
 10
56.6969088532
 20
267.1952816783
 30
0.0
  0
SPLINE
  5
498
100
AcDbEntity
  8
0
100
AcDbSpline
 62
7
  6
BYLAYER
 70
0
 71
3
 72
9
 73
5
 74
0
 42
0.0000001
 43
0.0000001
 44
0.0000000001
 40
0.0
 40
0.0
 40
0.0
 40
0.0
 40
0.2586044259
 40
1.0
 40
1.0
 40
1.0
 40
1.0
 10
56.6969088532
 20
267.1952816783
 30
0.0
 10
56.7503160013
 20
267.3109558315
 30
0.0
 10
56.981749599
 20
267.7456932784
 30
0.0
 10
57.3061081826
 20
268.1359447627
 30
0.0
 10
57.5938023565
 20
268.3610058903
 30
0.0
  0
SPLINE
  5
499
100
AcDbEntity
  8
0
100
AcDbSpline
 62
7
  6
BYLAYER
 70
0
 71
3
 72
9
 73
5
 74
0
 42
0.0000001
 43
0.0000001
 44
0.0000000001
 40
0.0
 40
0.0
 40
0.0
 40
0.0
 40
0.257859702
 40
1.0
 40
1.0
 40
1.0
 40
1.0
 10
57.5938023565
 20
268.3610058903
 30
0.0
 10
57.6140460977
 20
268.3768424266
 30
0.0
 10
57.6935253652
 20
268.436993695
 30
0.0
 10
57.7769642707
 20
268.4919969182
 30
0.0
 10
57.841026895
 20
268.5289832709
 30
0.0
  0
SPLINE
  5
49A
100
AcDbEntity
  8
0
100
AcDbSpline
 62
7
  6
BYLAYER
 70
0
 71
3
 72
10
 73
6
 74
0
 42
0.0000001
 43
0.0000001
 44
0.0000000001
 40
0.0
 40
0.0
 40
0.0
 40
0.0
 40
0.5477404653
 40
0.781589815
 40
1.0
 40
1.0
 40
1.0
 40
1.0
 10
113.3486781168
 20
300.5761493501
 30
0.0
 10
113.5140963721
 20
300.6716530589
 30
0.0
 10
113.7780221914
 20
300.7770935314
 30
0.0
 10
114.1310965047
 20
300.768403818
 30
0.0
 10
114.2826542934
 20
300.7132060558
 30
0.0
 10
114.3486146926
 20
300.6751246512
 30
0.0
  0
SPLINE
  5
49B
100
AcDbEntity
  8
0
100
AcDbSpline
 62
7
  6
BYLAYER
 70
0
 71
3
 72
9
 73
5
 74
0
 42
0.0000001
 43
0.0000001
 44
0.0000000001
 40
0.0
 40
0.0
 40
0.0
 40
0.0
 40
0.5500403563
 40
1.0
 40
1.0
 40
1.0
 40
1.0
 10
184.8022009236
 20
234.6244759889
 30
0.0
 10
184.8022009236
 20
234.5768035197
 30
0.0
 10
184.8141005673
 20
234.4882486565
 30
0.0
 10
184.8719602454
 20
234.4150418255
 30
0.0
 10
184.9057340213
 20
234.3955429453
 30
0.0
  0
SPLINE
  5
49C
100
AcDbEntity
  8
0
100
AcDbSpline
 62
7
  6
BYLAYER
 70
0
 71
3
 72
9
 73
5
 74
0
 42
0.0000001
 43
0.0000001
 44
0.0000000001
 40
0.0
 40
0.0
 40
0.0
 40
0.0
 40
0.4999964594
 40
1.0
 40
1.0
 40
1.0
 40
1.0
 10
185.1557528422
 20
236.4616029001
 30
0.0
 10
185.0508116121
 20
236.4010154143
 30
0.0
 10
184.8849549883
 20
236.2097004525
 30
0.0
 10
184.8022009236
 20
235.9704068448
 30
0.0
 10
184.8022009236
 20
235.8492296146
 30
0.0
  0
ELLIPSE
  5
49D
100
AcDbEntity
  8
0
100
AcDbEllipse
 62
7
  6
BYLAYER
 10
226.6120051514
 20
172.7223138088
 30
0.0
 11
2.3543282757
 21
6.6622060814
 31
0.0
 40
0.6665316926
 41
0.6927583693
 42
1.4414615718
  0
ELLIPSE
  5
49E
100
AcDbEntity
  8
0
100
AcDbEllipse
 62
7
  6
BYLAYER
 10
158.6024511621
 20
146.4235769122
 30
0.0
 11
3.0269934973
 21
8.5656935333
 31
0.0
 40
0.6665316926
 41
-2.1517517446
 42
3.4758278024
  0
ELLIPSE
  5
49F
100
AcDbEntity
  8
0
100
AcDbEllipse
 62
7
  6
BYLAYER
 10
224.4783970323
 20
193.1010869825
 30
0.0
 11
2.6906608865
 21
7.6139498074
 31
0.0
 40
0.6665316926
 41
5.3744270093
 42
6.9452233361
  0
ELLIPSE
  5
4A0
100
AcDbEntity
  8
0
100
AcDbEllipse
 62
7
  6
BYLAYER
 10
76.0492715962
 20
232.6648871666
 30
0.0
 11
0.7071067812
 21
0.0000025495
 31
0.0
 40
0.577354396
 41
3.1415905719
 42
4.7123868987
  0
ELLIPSE
  5
4A1
100
AcDbEntity
  8
0
100
AcDbEllipse
 62
7
  6
BYLAYER
 10
149.5253902876
 20
149.8272066721
 30
0.0
 11
2.6906608865
 21
7.6139498074
 31
0.0
 40
0.6665316926
 41
0.6620380289
 42
2.2328343557
  0
ELLIPSE
  5
4A2
100
AcDbEntity
  8
0
100
AcDbEllipse
 62
7
  6
BYLAYER
 10
76.0492715962
 20
235.114394418
 30
0.0
 11
0.7071067812
 21
0.0000025495
 31
0.0
 40
0.577354396
 41
1.5707942451
 42
3.1415905719
  0
ELLIPSE
  5
4A3
100
AcDbEntity
  8
0
100
AcDbEllipse
 62
7
  6
BYLAYER
 10
217.6456215694
 20
180.5119637604
 30
0.0
 11
4.0359913297
 21
11.420924711
 31
0.0
 40
0.6665316926
 41
-1.4815043348
 42
3.018245344
  0
ENDSEC
  0
SECTION
  2
OBJECTS
  0
DICTIONARY
  5
C
100
AcDbDictionary
280
0
281
1
  3
ACAD_GROUP
350
D
  3
ACAD_MLINESTYLE
350
17
  3
ACAD_LAYOUT
350
1A
  3
ACAD_PLOTSETTINGS
350
19
  3
ACAD_PLOTSTYLENAME
350
E
  0
DICTIONARY
  5
D
102
{ACAD_REACTORS
330
C
102
}
100
AcDbDictionary
280
0
281
1
  0
ACDBDICTIONARYWDFLT
  5
E
102
{ACAD_REACTORS
330
C
102
}
100
AcDbDictionary
281
1
  3
Normal
350
F
100
AcDbDictionaryWithDefault
340
F
  0
DICTIONARY
  5
17
102
{ACAD_REACTORS
330
C
102
}
100
AcDbDictionary
280
0
281
1
  3
Standard
350
18
  0
DICTIONARY
  5
19
102
{ACAD_REACTORS
330
C
102
}
100
AcDbDictionary
281
1
  0
DICTIONARY
  5
1A
102
{ACAD_REACTORS
330
C
102
}
100
AcDbDictionary
281
1
  3
Model
350
4A4
  3
Layout1
350
4A5
  0
ACDBPLACEHOLDER
  5
F
102
{ACAD_REACTORS
330
E
102
}
  0
MLINESTYLE
  5
18
102
{ACAD_REACTORS
330
17
102
}
100
AcDbMlineStyle
  2
STANDARD
 70
0
  3

 62
256
 51
90.0
 52
90.0
 71
2
 49
0.5
 62
256
  6
BYLAYER
 49
-0.5
 62
256
  6
BYLAYER
  0
LAYOUT
  5
4A4
102
{ACAD_REACTORS
330
1A
102
}
100
AcDbPlotSettings
  1

  2
none_device
  4

  6

 40
0.0
 41
0.0
 42
0.0
 43
0.0
 44
210.0
 45
297.0
 46
0.0
 47
0.0
 48
0.0
 49
0.0
140
0.0
141
0.0
142
1.0
143
1.0
 70
1024
 72
1
 73
0
 74
0
  7

 75
0
147
1.0
148
0.0
149
0.0
100
AcDbLayout
  1
Model
 70
0
 71
0
 10
0.0
 20
0.0
 11
210.0
 21
297.0
 12
0.0
 22
0.0
 32
0.0
 14
0.0
 24
0.0
 34
0.0
 15
0.0
 25
0.0
 35
0.0
146
0.0
 13
0.0
 23
0.0
 33
0.0
 16
1.0
 26
0.0
 36
0.0
 17
0.0
 27
1.0
 37
0.0
 76
0
330
210
345
0
346
0
  0
LAYOUT
  5
4A5
102
{ACAD_REACTORS
330
1A
102
}
100
AcDbPlotSettings
  1

  2
none_device
  4

  6

 40
0.0
 41
0.0
 42
0.0
 43
0.0
 44
210.0
 45
297.0
 46
0.0
 47
0.0
 48
0.0
 49
0.0
140
0.0
141
0.0
142
1.0
143
1.0
 70
0
 72
1
 73
0
 74
0
  7

 75
0
147
1.0
148
0.0
149
0.0
100
AcDbLayout
  1
Layout1
 70
0
 71
1
 10
0.0
 20
0.0
 11
210.0
 21
297.0
 12
0.0
 22
0.0
 32
0.0
 14
0.0
 24
0.0
 34
0.0
 15
0.0
 25
0.0
 35
0.0
146
0.0
 13
0.0
 23
0.0
 33
0.0
 16
1.0
 26
0.0
 36
0.0
 17
0.0
 27
1.0
 37
0.0
 76
0
330
211
345
0
346
0
  0
ENDSEC
  0
EOF
