999
DXF file: C:\Users\sesa63760\Dev\_Creo\CAD\MCADUE0002250_3D-CAD\drw0001_4.dxf
999
Pro/ENGINEER 2019471 by Parametric Technology Corporation
  0
SECTION
  2
HEADER
  9
$ACADVER
  1
AC1024
  9
$DWGCODEPAGE
  3
ANSI_1252
  9
$EXTMAX
 10
746.9958202717
 20
1056.4655172414
 30
0.0
  9
$EXTMIN
 10
0.0
 20
0.0
 30
0.0
  9
$LIMMIN
 10
0.0
 20
0.0
  9
$LIMMAX
 10
746.9958202717
 20
1056.4655172414
  9
$VIEWCTR
 10
373.4979101358
 20
528.2327586207
  9
$VIEWSIZE
 40
1056.4655172414
  9
$CLAYER
  8
0
  9
$LTSCALE
 40
68.8659003831
  9
$CELTYPE
  6
BYLAYER
  9
$DIMSCALE
 40
1.0
  9
$DIMASZ
 40
8.8928073842
  9
$DIMEXO
 40
1.0
  9
$DIMDLI
 40
47.5800766284
  9
$DIMEXE
 40
1.0
  9
$DIMCEN
 40
11.2689655172
  9
$DIMLFAC
 40
1.0
  9
$DIMBLK
  1
_FILLED
  9
$DIMALT
 70
0
  9
$DIMALTF
 40
0.0393700787
  9
$DIMTXT
 40
12.4499303379
  9
$DIMTOL
 70
1
  9
$DIMLIM
 70
0
  9
$DIMTFAC
 40
1.0
  9
$DIMTP
 40
0.01
  9
$DIMTM
 40
0.01
  9
$DIMGAP
 40
0.625
  9
$DIMDSEP
 70
46
  9
$AUNITS
 70
0
  9
$PDMODE
 70
3
  9
$PDSIZE
 40
0.3125
  9
$HANDSEED
  5
2DF
  9
$TILEMODE
 70
1
  9
$MEASUREMENT
 70
1
  9
$INSUNITS
 70
4
  0
ENDSEC
  0
SECTION
  2
CLASSES
  0
CLASS
  1
ACDBDICTIONARYWDFLT
  2
AcDbDictionaryWithDefault
  3
AutoCAD 2000
 90
0
 91
1
280
0
281
0
  0
CLASS
  1
ACDBPLACEHOLDER
  2
AcDbPlaceHolder
  3
AutoCAD 2000
 90
0
 91
1
280
0
281
0
  0
CLASS
  1
LAYOUT
  2
AcDbLayout
  3
AutoCAD 2000
 90
0
 91
0
280
0
281
0
  0
ENDSEC
  0
SECTION
  2
TABLES
  0
TABLE
  2
VPORT
  5
8
100
AcDbSymbolTable
 70
2
  0
VPORT
  5
1F4
100
AcDbSymbolTableRecord
100
AcDbViewportTableRecord
  2
*ACTIVE
 70
0
 10
0.0
 20
0.0
 11
1.0
 21
1.0
 12
373.4979101358
 22
528.2327586207
 13
0.0
 23
0.0
 14
1.0
 24
1.0
 15
0.0
 25
0.0
 16
0.0
 26
0.0
 36
1.0
 17
0.0
 27
0.0
 37
0.0
 40
1056.4655172414
 41
0.7070707071
 42
50.0
 43
0.0
 44
0.0
 50
0.0
 51
0.0
 71
0
 72
100
 73
1
 74
1
 75
0
 76
0
 77
0
 78
0
  0
ENDTAB
  0
TABLE
  2
LTYPE
  5
5
100
AcDbSymbolTable
 70
6
  0
LTYPE
  5
14
100
AcDbSymbolTableRecord
100
AcDbLinetypeTableRecord
  2
BYBLOCK
 70
0
  3

 72
65
 73
0
 40
0.0
  0
LTYPE
  5
15
100
AcDbSymbolTableRecord
100
AcDbLinetypeTableRecord
  2
BYLAYER
 70
0
  3

 72
65
 73
0
 40
0.0
  0
LTYPE
  5
16
100
AcDbSymbolTableRecord
100
AcDbLinetypeTableRecord
  2
CONTINUOUS
 70
64
  3
Solid line
 72
65
 73
0
 40
0.0
  0
LTYPE
  5
1F5
100
AcDbSymbolTableRecord
100
AcDbLinetypeTableRecord
  2
CENTER
 70
64
  3
____ _ ____ _ ____ _ ____ _ ____ _ ____ _ ____
 72
65
 73
4
 40
0.6
 49
0.375
 74
0
 49
-0.075
 74
0
 49
0.075
 74
0
 49
-0.075
 74
0
  0
LTYPE
  5
1F6
100
AcDbSymbolTableRecord
100
AcDbLinetypeTableRecord
  2
HIDDEN
 70
64
  3
- - - - - - - - - - - - - - - - - - - -
 72
65
 73
2
 40
0.2
 49
0.1
 74
0
 49
-0.1
 74
0
  0
LTYPE
  5
1F7
100
AcDbSymbolTableRecord
100
AcDbLinetypeTableRecord
  2
PHANTOM
 70
64
  3
_____ _ _ _____ _ _ _____ _ _ _____
 72
65
 73
6
 40
0.8
 49
0.45
 74
0
 49
-0.05
 74
0
 49
0.1
 74
0
 49
-0.05
 74
0
 49
0.1
 74
0
 49
-0.05
 74
0
  0
LTYPE
  5
1F8
100
AcDbSymbolTableRecord
100
AcDbLinetypeTableRecord
  2
DOT
 70
64
  3
. . . . . . . . . . . . . . . . . . . .
 72
65
 73
2
 40
0.2
 49
0.1
 74
0
 49
-0.1
 74
0
  0
LTYPE
  5
1F9
100
AcDbSymbolTableRecord
100
AcDbLinetypeTableRecord
  2
DASHED
 70
64
  3
- - - - - - - - - - - - - - - - - - - -
 72
65
 73
2
 40
0.2
 49
0.1
 74
0
 49
-0.1
 74
0
  0
ENDTAB
  0
TABLE
  2
LAYER
  5
2
100
AcDbSymbolTable
 70
36
  0
LAYER
  5
10
100
AcDbSymbolTableRecord
100
AcDbLayerTableRecord
  2
0
 70
0
 62
7
  6
CONTINUOUS
370
-3
390
F
  0
LAYER
  5
1FA
100
AcDbSymbolTableRecord
100
AcDbLayerTableRecord
  2
DEFAULT_1
 70
0
 62
7
  6
CENTER
370
-3
390
F
  0
LAYER
  5
1FB
100
AcDbSymbolTableRecord
100
AcDbLayerTableRecord
  2
DEFAULT_2
 70
0
 62
8
  6
HIDDEN
370
-3
390
F
  0
LAYER
  5
1FC
100
AcDbSymbolTableRecord
100
AcDbLayerTableRecord
  2
DEFAULT_3
 70
0
 62
7
  6
PHANTOM
370
-3
390
F
  0
LAYER
  5
1FD
100
AcDbSymbolTableRecord
100
AcDbLayerTableRecord
  2
00_COMPONENTS
 70
0
 62
7
  6
CONTINUOUS
370
-3
390
F
  0
LAYER
  5
1FE
100
AcDbSymbolTableRecord
100
AcDbLayerTableRecord
  2
01_1_DEFAULT_DATUMS
 70
0
 62
7
  6
CONTINUOUS
370
-3
390
F
  0
LAYER
  5
1FF
100
AcDbSymbolTableRecord
100
AcDbLayerTableRecord
  2
01_PLANES
 70
0
 62
7
  6
CONTINUOUS
370
-3
390
F
  0
LAYER
  5
200
100
AcDbSymbolTableRecord
100
AcDbLayerTableRecord
  2
02_COORD_SYS
 70
0
 62
7
  6
CONTINUOUS
370
-3
390
F
  0
LAYER
  5
201
100
AcDbSymbolTableRecord
100
AcDbLayerTableRecord
  2
03_AXES
 70
0
 62
7
  6
CONTINUOUS
370
-3
390
F
  0
LAYER
  5
202
100
AcDbSymbolTableRecord
100
AcDbLayerTableRecord
  2
04_POINTS
 70
0
 62
7
  6
CONTINUOUS
370
-3
390
F
  0
LAYER
  5
203
100
AcDbSymbolTableRecord
100
AcDbLayerTableRecord
  2
05_CURVES
 70
0
 62
7
  6
CONTINUOUS
370
-3
390
F
  0
LAYER
  5
204
100
AcDbSymbolTableRecord
100
AcDbLayerTableRecord
  2
06_SURFS
 70
0
 62
7
  6
CONTINUOUS
370
-3
390
F
  0
LAYER
  5
205
100
AcDbSymbolTableRecord
100
AcDbLayerTableRecord
  2
07_COSMETICS
 70
0
 62
7
  6
CONTINUOUS
370
-3
390
F
  0
LAYER
  5
206
100
AcDbSymbolTableRecord
100
AcDbLayerTableRecord
  2
10_NOTES
 70
0
 62
7
  6
CONTINUOUS
370
-3
390
F
  0
LAYER
  5
207
100
AcDbSymbolTableRecord
100
AcDbLayerTableRecord
  2
11_NOTES_PUB
 70
0
 62
7
  6
CONTINUOUS
370
-3
390
F
  0
LAYER
  5
208
100
AcDbSymbolTableRecord
100
AcDbLayerTableRecord
  2
13_REF_GTOL
 70
0
 62
7
  6
CONTINUOUS
370
-3
390
F
  0
LAYER
  5
209
100
AcDbSymbolTableRecord
100
AcDbLayerTableRecord
  2
16_MISC
 70
0
 62
7
  6
CONTINUOUS
370
-3
390
F
  0
LAYER
  5
20A
100
AcDbSymbolTableRecord
100
AcDbLayerTableRecord
  2
17_NO_PRINT
 70
0
 62
7
  6
CONTINUOUS
370
-3
390
F
  0
LAYER
  5
20B
100
AcDbSymbolTableRecord
100
AcDbLayerTableRecord
  2
18_DATUM_CAMS_JOINTS
 70
0
 62
7
  6
CONTINUOUS
370
-3
390
F
  0
LAYER
  5
20C
100
AcDbSymbolTableRecord
100
AcDbLayerTableRecord
  2
19_DATUM_FUNCTIONAL
 70
0
 62
7
  6
CONTINUOUS
370
-3
390
F
  0
LAYER
  5
20D
100
AcDbSymbolTableRecord
100
AcDbLayerTableRecord
  2
20_DATUM_KINEMATIC_SCHEME
 70
0
 62
7
  6
CONTINUOUS
370
-3
390
F
  0
ENDTAB
  0
TABLE
  2
STYLE
  5
3
100
AcDbSymbolTable
 70
1
  0
STYLE
  5
11
100
AcDbSymbolTableRecord
100
AcDbTextStyleTableRecord
  2
STANDARD
 70
0
 40
0.0
 41
0.8
 50
0.0
 71
0
 42
0.2
  3
txt
  4

  0
STYLE
  5
20E
100
AcDbSymbolTableRecord
100
AcDbTextStyleTableRecord
  2
TEXTSTYLE_1
 70
0
 40
0.0
 41
0.8
 50
0.0
 71
0
 42
0.2
  3
gdt
  4

  0
ENDTAB
  0
TABLE
  2
VIEW
  5
6
100
AcDbSymbolTable
 70
0
  0
ENDTAB
  0
TABLE
  2
UCS
  5
7
100
AcDbSymbolTable
 70
0
  0
ENDTAB
  0
TABLE
  2
APPID
  5
9
100
AcDbSymbolTable
 70
1
  0
APPID
  5
20F
100
AcDbSymbolTableRecord
100
AcDbRegAppTableRecord
  2
ACAD
 70
0
  0
ENDTAB
  0
TABLE
  2
BLOCK_RECORD
  5
1
100
AcDbSymbolTable
 70
0
  0
BLOCK_RECORD
  5
210
100
AcDbSymbolTableRecord
100
AcDbBlockTableRecord
  2
*Model_Space
  0
BLOCK_RECORD
  5
211
100
AcDbSymbolTableRecord
100
AcDbBlockTableRecord
  2
*Paper_Space
  0
BLOCK_RECORD
  5
212
100
AcDbSymbolTableRecord
100
AcDbBlockTableRecord
  2
_FILLED
  0
ENDTAB
  0
TABLE
  2
DIMSTYLE
  5
A
100
AcDbSymbolTable
 70
1
100
AcDbDimStyleTable
 71
0
  0
DIMSTYLE
105
213
100
AcDbSymbolTableRecord
100
AcDbDimStyleTableRecord
  2
STANDARD
 70
0
  3

  4

 40
1.0
 41
8.8928073842
 42
1.0
 43
0.38
 44
1.0
 45
0.0
 46
0.0
 47
0.01
 48
0.01
140
12.4499303379
141
0.09
142
0.0
143
25.4
144
1.0
145
0.0
146
1.0
147
0.625
 71
1
 72
0
 73
0
 74
0
 75
0
 76
0
 77
1
 78
8
 79
2
170
0
171
1
172
0
173
0
174
0
175
0
176
0
177
0
178
0
270
2
179
2
271
2
272
2
273
2
274
2
275
0
280
0
281
0
282
0
283
1
284
8
285
0
286
0
287
3
288
0
340
11
278
46
341
212
342
212
343
212
344
212
  0
ENDTAB
  0
ENDSEC
  0
SECTION
  2
BLOCKS
  0
BLOCK
  5
20
100
AcDbEntity
  8
0
100
AcDbBlockBegin
  2
*Model_Space
 70
0
 10
0.0
 20
0.0
 30
0.0
  3
*Model_Space
  1

  0
ENDBLK
  5
21
100
AcDbEntity
  8
0
100
AcDbBlockEnd
  0
BLOCK
  5
1C
100
AcDbEntity
  8
0
100
AcDbBlockBegin
  2
*Paper_Space
 70
0
 10
0.0
 20
0.0
 30
0.0
  3
*Paper_Space
  1

  0
ENDBLK
  5
1D
100
AcDbEntity
  8
0
100
AcDbBlockEnd
  0
BLOCK
  5
214
100
AcDbEntity
  8
0
100
AcDbBlockBegin
  2
_FILLED
 70
64
 10
0.0
 20
0.0
  3
_FILLED
  1

  0
SOLID
  5
215
100
AcDbEntity
  8
0
  6
BYBLOCK
 62
0
100
AcDbTrace
 10
0.0
 20
0.0
 11
-1.0
 21
0.25
 12
-1.0
 22
-0.25
 13
-1.0
 23
-0.25
  0
ENDBLK
  5
216
100
AcDbEntity
  8
0
  6
BYBLOCK
 62
0
100
AcDbBlockEnd
  0
ENDSEC
  0
SECTION
  2
ENTITIES
  0
LINE
  5
217
100
AcDbEntity
  8
0
100
AcDbLine
 62
7
  6
CONTINUOUS
 10
681.6961859979
 20
125.0
 11
84.6961859979
 21
125.0
  0
LINE
  5
218
100
AcDbEntity
  8
0
100
AcDbLine
 62
7
  6
CONTINUOUS
 10
683.1961859979
 20
126.5
 11
681.6961859979
 21
126.5
  0
LINE
  5
219
100
AcDbEntity
  8
0
100
AcDbLine
 62
7
  6
CONTINUOUS
 10
84.6961859979
 20
126.5
 11
83.1961859979
 21
126.5
  0
LINE
  5
21A
100
AcDbEntity
  8
0
100
AcDbLine
 62
7
  6
CONTINUOUS
 10
678.6967893419
 20
127.0
 11
86.2967893419
 21
127.0
  0
LINE
  5
21B
100
AcDbEntity
  8
0
100
AcDbLine
 62
7
  6
CONTINUOUS
 10
678.6967893419
 20
128.2
 11
679.9961859979
 21
128.2
  0
LINE
  5
21C
100
AcDbEntity
  8
0
100
AcDbLine
 62
7
  6
CONTINUOUS
 10
680.4967893419
 20
128.8
 11
678.6967893419
 21
128.8
  0
LINE
  5
21D
100
AcDbEntity
  8
0
100
AcDbLine
 62
7
  6
CONTINUOUS
 10
86.2967893419
 20
128.8
 11
84.4967893419
 21
128.8
  0
LINE
  5
21E
100
AcDbEntity
  8
0
100
AcDbLine
 62
7
  6
CONTINUOUS
 10
88.0967893419
 20
130.6
 11
676.8967893419
 21
130.6
  0
LINE
  5
21F
100
AcDbEntity
  8
0
100
AcDbLine
 62
7
  6
CONTINUOUS
 10
83.1961859979
 20
126.5
 11
83.1961859979
 21
923.5
  0
LINE
  5
220
100
AcDbEntity
  8
0
100
AcDbLine
 62
7
  6
CONTINUOUS
 10
84.4967893419
 20
128.8
 11
84.4967893419
 21
921.2
  0
LINE
  5
221
100
AcDbEntity
  8
0
100
AcDbLine
 62
7
  6
CONTINUOUS
 10
84.6961859979
 20
125.0
 11
84.6961859979
 21
126.5
  0
LINE
  5
222
100
AcDbEntity
  8
0
100
AcDbLine
 62
7
  6
CONTINUOUS
 10
84.6961859979
 20
923.5
 11
84.6961859979
 21
925.0
  0
LINE
  5
223
100
AcDbEntity
  8
0
100
AcDbLine
 62
7
  6
CONTINUOUS
 10
86.2967893419
 20
127.0
 11
86.2967893419
 21
128.8
  0
LINE
  5
224
100
AcDbEntity
  8
0
100
AcDbLine
 62
7
  6
CONTINUOUS
 10
86.2967893419
 20
921.2
 11
86.2967893419
 21
923.0
  0
LINE
  5
225
100
AcDbEntity
  8
0
100
AcDbLine
 62
7
  6
CONTINUOUS
 10
88.0967893419
 20
919.4
 11
88.0967893419
 21
130.6
  0
LINE
  5
226
100
AcDbEntity
  8
0
100
AcDbLine
 62
7
  6
CONTINUOUS
 10
112.2967893467
 20
447.4473295378
 11
112.2967893455
 21
602.6527243944
  0
LINE
  5
227
100
AcDbEntity
  8
0
100
AcDbLine
 62
7
  6
CONTINUOUS
 10
112.4016048958
 20
602.544815531
 11
112.4016048958
 21
447.555184469
  0
LINE
  5
228
100
AcDbEntity
  8
0
100
AcDbLine
 62
7
  6
CONTINUOUS
 10
114.1806284157
 20
451.3555390844
 11
114.1806284216
 21
598.7444613027
  0
LINE
  5
229
100
AcDbEntity
  8
0
100
AcDbLine
 62
7
  6
CONTINUOUS
 10
114.6533511214
 20
598.7444614921
 11
114.6533511197
 21
451.3555389292
  0
LINE
  5
22A
100
AcDbEntity
  8
0
100
AcDbLine
 62
7
  6
CONTINUOUS
 10
115.9336315984
 20
600.6498586881
 11
115.9336315984
 21
600.2470702347
  0
LINE
  5
22B
100
AcDbEntity
  8
0
100
AcDbLine
 62
7
  6
CONTINUOUS
 10
115.9336645676
 20
449.4501413119
 11
115.9336645676
 21
449.8529297653
  0
LINE
  5
22C
100
AcDbEntity
  8
0
100
AcDbLine
 62
7
  6
CONTINUOUS
 10
115.9967893419
 20
598.2
 11
115.9967893419
 21
590.2
  0
LINE
  5
22D
100
AcDbEntity
  8
0
100
AcDbLine
 62
7
  6
CONTINUOUS
 10
142.9967893419
 20
590.2
 11
142.9967893419
 21
598.2
  0
LINE
  5
22E
100
AcDbEntity
  8
0
100
AcDbLine
 62
7
  6
CONTINUOUS
 10
143.0599141163
 20
600.2470702347
 11
143.0599141163
 21
600.6498586881
  0
LINE
  5
22F
100
AcDbEntity
  8
0
100
AcDbLine
 62
7
  6
CONTINUOUS
 10
143.0599470855
 20
449.4501413119
 11
143.0599470855
 21
449.8529297653
  0
LINE
  5
230
100
AcDbEntity
  8
0
100
AcDbLine
 62
7
  6
CONTINUOUS
 10
144.3402275624
 20
451.3555385079
 11
144.3402275639
 21
598.7444610708
  0
LINE
  5
231
100
AcDbEntity
  8
0
100
AcDbLine
 62
7
  6
CONTINUOUS
 10
144.8129502681
 20
598.7444609155
 11
144.8129502622
 21
451.3555386973
  0
LINE
  5
232
100
AcDbEntity
  8
0
100
AcDbLine
 62
7
  6
CONTINUOUS
 10
146.5919737984
 20
447.5516637071
 11
146.591973788
 21
602.544815531
  0
LINE
  5
233
100
AcDbEntity
  8
0
100
AcDbLine
 62
7
  6
CONTINUOUS
 10
146.6967893419
 20
449.4475080195
 11
146.6967893371
 21
602.6527243959
  0
LINE
  5
234
100
AcDbEntity
  8
0
100
AcDbLine
 62
7
  6
CONTINUOUS
 10
144.8129502681
 20
598.7444609155
 11
146.5919737198
 21
602.544815531
  0
LINE
  5
235
100
AcDbEntity
  8
0
100
AcDbLine
 62
7
  6
CONTINUOUS
 10
144.87484442
 20
604.523744354
 11
143.059914121
 21
600.6498586258
  0
LINE
  5
236
100
AcDbEntity
  8
0
100
AcDbLine
 62
7
  6
CONTINUOUS
 10
143.0599434661
 20
449.4501416943
 11
144.87484442
 21
445.5762556461
  0
LINE
  5
237
100
AcDbEntity
  8
0
100
AcDbLine
 62
7
  6
CONTINUOUS
 10
146.5919737681
 20
447.5516637071
 11
144.8129502622
 21
451.3555386973
  0
LINE
  5
238
100
AcDbEntity
  8
0
100
AcDbLine
 62
7
  6
CONTINUOUS
 10
114.1806284157
 20
451.3555390844
 11
112.401604964
 21
447.555184469
  0
LINE
  5
239
100
AcDbEntity
  8
0
100
AcDbLine
 62
7
  6
CONTINUOUS
 10
114.1187342637
 20
445.5762556459
 11
115.9336645628
 21
449.4501413742
  0
LINE
  5
23A
100
AcDbEntity
  8
0
100
AcDbLine
 62
7
  6
CONTINUOUS
 10
146.591973788
 20
602.544815531
 11
146.6967893371
 21
602.6527243959
  0
LINE
  5
23B
100
AcDbEntity
  8
0
100
AcDbLine
 62
7
  6
CONTINUOUS
 10
144.5947147138
 20
604.5451844414
 11
144.6995192307
 21
604.6499999814
  0
LINE
  5
23C
100
AcDbEntity
  8
0
100
AcDbLine
 62
7
  6
CONTINUOUS
 10
146.6053054299
 20
447.5414089019
 11
146.5919737984
 21
447.5516637071
  0
LINE
  5
23D
100
AcDbEntity
  8
0
100
AcDbLine
 62
7
  6
CONTINUOUS
 10
144.6995302724
 20
445.45
 11
144.5947147138
 21
445.5548155586
  0
LINE
  5
23E
100
AcDbEntity
  8
0
100
AcDbLine
 62
7
  6
CONTINUOUS
 10
115.9336352177
 20
600.6498583056
 11
114.1187342638
 21
604.5237443539
  0
LINE
  5
23F
100
AcDbEntity
  8
0
100
AcDbLine
 62
7
  6
CONTINUOUS
 10
112.401604964
 20
602.544815531
 11
114.1806284216
 21
598.7444613027
  0
LINE
  5
240
100
AcDbEntity
  8
0
100
AcDbLine
 62
7
  6
CONTINUOUS
 10
112.2967893455
 20
447.4472756036
 11
112.4016048958
 21
447.555184469
  0
LINE
  5
241
100
AcDbEntity
  8
0
100
AcDbLine
 62
7
  6
CONTINUOUS
 10
114.2940594528
 20
445.4500000187
 11
114.39886397
 21
445.5548155586
  0
LINE
  5
242
100
AcDbEntity
  8
0
100
AcDbLine
 62
7
  6
CONTINUOUS
 10
114.2940594514
 20
604.6499999802
 11
114.39886397
 21
604.5451844414
  0
LINE
  5
243
100
AcDbEntity
  8
0
100
AcDbLine
 62
7
  6
CONTINUOUS
 10
112.2967893455
 20
602.6527243944
 11
112.4016048958
 21
602.544815531
  0
LINE
  5
244
100
AcDbEntity
  8
0
100
AcDbLine
 62
7
  6
CONTINUOUS
 10
679.9961859979
 20
921.8
 11
679.3961859979
 21
921.2
  0
LINE
  5
245
100
AcDbEntity
  8
0
100
AcDbLine
 62
7
  6
CONTINUOUS
 10
114.2941133878
 20
445.450000021
 11
144.6995302724
 21
445.45
  0
LINE
  5
246
100
AcDbEntity
  8
0
100
AcDbLine
 62
7
  6
CONTINUOUS
 10
114.39886397
 20
445.5548155586
 11
144.5947147138
 21
445.5548155586
  0
LINE
  5
247
100
AcDbEntity
  8
0
100
AcDbLine
 62
7
  6
CONTINUOUS
 10
146.4304194488
 20
446.45
 11
146.4047184015
 21
446.45
  0
LINE
  5
248
100
AcDbEntity
  8
0
100
AcDbLine
 62
7
  6
CONTINUOUS
 10
143.0599434661
 20
449.4501416943
 11
115.9336645628
 21
449.4501413742
  0
LINE
  5
249
100
AcDbEntity
  8
0
100
AcDbLine
 62
7
  6
CONTINUOUS
 10
143.0599295779
 20
449.8529299669
 11
115.9336645679
 21
449.8529295636
  0
LINE
  5
24A
100
AcDbEntity
  8
0
100
AcDbLine
 62
7
  6
CONTINUOUS
 10
144.8129502586
 20
451.3555385936
 11
144.3402275631
 21
451.3555385936
  0
LINE
  5
24B
100
AcDbEntity
  8
0
100
AcDbLine
 62
7
  6
CONTINUOUS
 10
114.1806284252
 20
451.3555391523
 11
114.6533511206
 21
451.3555391523
  0
LINE
  5
24C
100
AcDbEntity
  8
0
100
AcDbLine
 62
7
  6
CONTINUOUS
 10
679.9961859979
 20
128.2
 11
679.3961859979
 21
128.8
  0
LINE
  5
24D
100
AcDbEntity
  8
0
100
AcDbLine
 62
7
  6
CONTINUOUS
 10
121.6073977304
 20
573.4
 11
124.759701629
 21
573.4
  0
LINE
  5
24E
100
AcDbEntity
  8
0
100
AcDbLine
 62
7
  6
CONTINUOUS
 10
134.2338770548
 20
573.4
 11
137.3861809534
 21
573.4
  0
LINE
  5
24F
100
AcDbEntity
  8
0
100
AcDbLine
 62
7
  6
CONTINUOUS
 10
136.5399198215
 20
576.45
 11
134.216485349
 21
576.45
  0
LINE
  5
250
100
AcDbEntity
  8
0
100
AcDbLine
 62
7
  6
CONTINUOUS
 10
124.6770933348
 20
576.45
 11
122.3536588624
 21
576.45
  0
LINE
  5
251
100
AcDbEntity
  8
0
100
AcDbLine
 62
7
  6
CONTINUOUS
 10
137.3861809534
 20
576.6
 11
134.2338770548
 21
576.6
  0
LINE
  5
252
100
AcDbEntity
  8
0
100
AcDbLine
 62
7
  6
CONTINUOUS
 10
124.759701629
 20
576.6
 11
121.6073977304
 21
576.6
  0
LINE
  5
253
100
AcDbEntity
  8
0
100
AcDbLine
 62
7
  6
CONTINUOUS
 10
115.9967893419
 20
590.2
 11
142.9967893419
 21
590.2
  0
LINE
  5
254
100
AcDbEntity
  8
0
100
AcDbLine
 62
7
  6
CONTINUOUS
 10
142.9967893419
 20
598.2
 11
115.9967893419
 21
598.2
  0
LINE
  5
255
100
AcDbEntity
  8
0
100
AcDbLine
 62
7
  6
CONTINUOUS
 10
144.8129502586
 20
598.7444608477
 11
144.3402275631
 21
598.7444608477
  0
LINE
  5
256
100
AcDbEntity
  8
0
100
AcDbLine
 62
7
  6
CONTINUOUS
 10
114.1806284252
 20
598.7444614064
 11
114.6533511206
 21
598.7444614064
  0
LINE
  5
257
100
AcDbEntity
  8
0
100
AcDbLine
 62
7
  6
CONTINUOUS
 10
115.9336491057
 20
600.2470700331
 11
143.059914116
 21
600.2470704364
  0
LINE
  5
258
100
AcDbEntity
  8
0
100
AcDbLine
 62
7
  6
CONTINUOUS
 10
115.9336352177
 20
600.6498583056
 11
143.059914121
 21
600.6498586258
  0
LINE
  5
259
100
AcDbEntity
  8
0
100
AcDbLine
 62
7
  6
CONTINUOUS
 10
114.3988639701
 20
604.5451844414
 11
144.5947147142
 21
604.5451844414
  0
LINE
  5
25A
100
AcDbEntity
  8
0
100
AcDbLine
 62
7
  6
CONTINUOUS
 10
144.6994652971
 20
604.649999979
 11
114.2941133842
 21
604.649999979
  0
LINE
  5
25B
100
AcDbEntity
  8
0
100
AcDbLine
 62
7
  6
CONTINUOUS
 10
676.8967893419
 20
130.6
 11
676.8967893419
 21
919.4
  0
LINE
  5
25C
100
AcDbEntity
  8
0
100
AcDbLine
 62
7
  6
CONTINUOUS
 10
678.6967893419
 20
923.0
 11
678.6967893419
 21
921.2
  0
LINE
  5
25D
100
AcDbEntity
  8
0
100
AcDbLine
 62
7
  6
CONTINUOUS
 10
678.6967893419
 20
128.8
 11
678.6967893419
 21
127.0
  0
LINE
  5
25E
100
AcDbEntity
  8
0
100
AcDbLine
 62
7
  6
CONTINUOUS
 10
679.9961859979
 20
128.2
 11
679.9961859979
 21
128.8
  0
LINE
  5
25F
100
AcDbEntity
  8
0
100
AcDbLine
 62
7
  6
CONTINUOUS
 10
679.9961859979
 20
921.2
 11
679.9961859979
 21
921.8
  0
LINE
  5
260
100
AcDbEntity
  8
0
100
AcDbLine
 62
7
  6
CONTINUOUS
 10
680.4967893419
 20
921.2
 11
680.4967893419
 21
128.8
  0
LINE
  5
261
100
AcDbEntity
  8
0
100
AcDbLine
 62
7
  6
CONTINUOUS
 10
681.6961859979
 20
925.0
 11
681.6961859979
 21
923.5
  0
LINE
  5
262
100
AcDbEntity
  8
0
100
AcDbLine
 62
7
  6
CONTINUOUS
 10
681.6961859979
 20
126.5
 11
681.6961859979
 21
125.0
  0
LINE
  5
263
100
AcDbEntity
  8
0
100
AcDbLine
 62
7
  6
CONTINUOUS
 10
683.1961859979
 20
923.5
 11
683.1961859979
 21
126.5
  0
LINE
  5
264
100
AcDbEntity
  8
0
100
AcDbLine
 62
7
  6
CONTINUOUS
 10
676.8967893419
 20
919.4
 11
88.0967893419
 21
919.4
  0
LINE
  5
265
100
AcDbEntity
  8
0
100
AcDbLine
 62
7
  6
CONTINUOUS
 10
84.4967893419
 20
921.2
 11
86.2967893419
 21
921.2
  0
LINE
  5
266
100
AcDbEntity
  8
0
100
AcDbLine
 62
7
  6
CONTINUOUS
 10
678.6967893419
 20
921.2
 11
680.4967893419
 21
921.2
  0
LINE
  5
267
100
AcDbEntity
  8
0
100
AcDbLine
 62
7
  6
CONTINUOUS
 10
679.9961859979
 20
921.8
 11
678.6967893419
 21
921.8
  0
LINE
  5
268
100
AcDbEntity
  8
0
100
AcDbLine
 62
7
  6
CONTINUOUS
 10
86.2967893419
 20
923.0
 11
678.6967893419
 21
923.0
  0
LINE
  5
269
100
AcDbEntity
  8
0
100
AcDbLine
 62
7
  6
CONTINUOUS
 10
83.1961859979
 20
923.5
 11
84.6961859979
 21
923.5
  0
LINE
  5
26A
100
AcDbEntity
  8
0
100
AcDbLine
 62
7
  6
CONTINUOUS
 10
681.6961859979
 20
923.5
 11
683.1961859979
 21
923.5
  0
LINE
  5
26B
100
AcDbEntity
  8
0
100
AcDbLine
 62
7
  6
CONTINUOUS
 10
84.6961859979
 20
925.0
 11
681.6961859979
 21
925.0
  0
ARC
  5
26C
100
AcDbEntity
  8
0
100
AcDbCircle
 62
7
  6
CONTINUOUS
 10
130.2207087892
 20
-1.6618060388
 40
137.0572050844
100
AcDbArc
 50
108.648019048
 51
108.8733895589
  0
ARC
  5
26D
100
AcDbEntity
  8
0
100
AcDbCircle
 62
7
  6
CONTINUOUS
 10
130.2204947579
 20
1051.6611730741
 40
137.0565369125
100
AcDbArc
 50
251.1266088463
 51
251.3519811201
  0
ARC
  5
26E
100
AcDbEntity
  8
0
100
AcDbCircle
 62
7
  6
CONTINUOUS
 10
89.8032522591
 20
114.8095867881
 40
13.7665696423
100
AcDbArc
 50
111.2134959614
 51
112.2207962967
  0
ARC
  5
26F
100
AcDbEntity
  8
0
100
AcDbCircle
 62
7
  6
CONTINUOUS
 10
89.8032272806
 20
935.1903497132
 40
13.7665014032
100
AcDbArc
 50
247.7791767375
 51
248.7864938053
  0
ARC
  5
270
100
AcDbEntity
  8
0
100
AcDbCircle
 62
7
  6
CONTINUOUS
 10
75.19750854
 20
133.2807723215
 40
13.089792397
100
AcDbArc
 50
337.8761519886
 51
339.4312497967
  0
ARC
  5
271
100
AcDbEntity
  8
0
100
AcDbCircle
 62
7
  6
CONTINUOUS
 10
90.7775616631
 20
932.2992808011
 40
13.0897923962
100
AcDbArc
 50
247.8761519886
 51
249.4312497967
  0
ARC
  5
272
100
AcDbEntity
  8
0
100
AcDbCircle
 62
7
  6
CONTINUOUS
 10
674.2160170207
 20
117.7007191988
 40
13.0897923962
100
AcDbArc
 50
67.8761519886
 51
69.4312497967
  0
ARC
  5
273
100
AcDbEntity
  8
0
100
AcDbCircle
 62
7
  6
CONTINUOUS
 10
689.7960701433
 20
916.7192276787
 40
13.0897923965
100
AcDbArc
 50
157.8761519886
 51
159.4312497967
  0
ARC
  5
274
100
AcDbEntity
  8
0
100
AcDbCircle
 62
7
  6
CONTINUOUS
 10
678.0581448836
 20
118.3871855126
 40
9.8991182539
100
AcDbArc
 50
65.9181491152
 51
67.8194597218
  0
ARC
  5
275
100
AcDbEntity
  8
0
100
AcDbCircle
 62
7
  6
CONTINUOUS
 10
76.5833715108
 20
130.1380411142
 40
9.8991182535
100
AcDbArc
 50
335.9181491152
 51
337.8194597218
  0
ARC
  5
276
100
AcDbEntity
  8
0
100
AcDbCircle
 62
7
  6
CONTINUOUS
 10
689.8090004851
 20
919.8619588857
 40
9.8991182537
100
AcDbArc
 50
155.9181491153
 51
157.8194597219
  0
ARC
  5
277
100
AcDbEntity
  8
0
100
AcDbCircle
 62
7
  6
CONTINUOUS
 10
88.334227112
 20
931.6128144868
 40
9.8991182532
100
AcDbArc
 50
245.9181491152
 51
247.8194597218
  0
ARC
  5
278
100
AcDbEntity
  8
0
100
AcDbCircle
 62
7
  6
CONTINUOUS
 10
90.3297464207
 20
121.1078415126
 40
8.0910170954
100
AcDbArc
 50
124.4070275787
 51
126.2428872617
  0
ARC
  5
279
100
AcDbEntity
  8
0
100
AcDbCircle
 62
7
  6
CONTINUOUS
 10
129.4967893419
 20
575.0
 40
8.05
100
AcDbArc
 50
168.5356741483
 51
191.4643258517
  0
ARC
  5
27A
100
AcDbEntity
  8
0
100
AcDbCircle
 62
7
  6
CONTINUOUS
 10
129.4967893419
 20
575.0
 40
8.05
100
AcDbArc
 50
348.5356741483
 51
11.4643258517
  0
ARC
  5
27B
100
AcDbEntity
  8
0
100
AcDbCircle
 62
7
  6
CONTINUOUS
 10
129.4467893419
 20
574.95
 40
8.0
100
AcDbArc
 50
342.5907550106
 51
18.5236154133
  0
ARC
  5
27C
100
AcDbEntity
  8
0
100
AcDbCircle
 62
7
  6
CONTINUOUS
 10
129.4467893419
 20
574.95
 40
7.25
100
AcDbArc
 50
348.0594560394
 51
11.9405439606
  0
ARC
  5
27D
100
AcDbEntity
  8
0
100
AcDbCircle
 62
7
  6
CONTINUOUS
 10
129.4467893419
 20
574.95
 40
7.25
100
AcDbArc
 50
168.0594560394
 51
191.9405439606
  0
ARC
  5
27E
100
AcDbEntity
  8
0
100
AcDbCircle
 62
7
  6
CONTINUOUS
 10
129.4967893419
 20
575.0
 40
5.0
100
AcDbArc
 50
198.6629248849
 51
341.3370751151
  0
ARC
  5
27F
100
AcDbEntity
  8
0
100
AcDbCircle
 62
7
  6
CONTINUOUS
 10
129.4967893419
 20
575.0
 40
5.0
100
AcDbArc
 50
18.6629248849
 51
161.3370751151
  0
ARC
  5
280
100
AcDbEntity
  8
0
100
AcDbCircle
 62
7
  6
CONTINUOUS
 10
129.4467893419
 20
574.95
 40
5.0
100
AcDbArc
 50
17.4576031237
 51
125.6516981843
  0
ARC
  5
281
100
AcDbEntity
  8
0
100
AcDbCircle
 62
7
  6
CONTINUOUS
 10
129.4467893419
 20
574.95
 40
5.0
100
AcDbArc
 50
160.4987278873
 51
162.5423968763
  0
CIRCLE
  5
282
100
AcDbEntity
  8
0
100
AcDbCircle
 62
7
  6
CONTINUOUS
 10
129.4467893419
 20
574.95
 40
2.5
  0
ARC
  5
283
100
AcDbEntity
  8
0
100
AcDbCircle
 62
7
  6
CONTINUOUS
 10
114.2931723394
 20
447.4463830163
 40
1.9963832171
100
AcDbArc
 50
179.9728350307
 51
270.0270078927
  0
ARC
  5
284
100
AcDbEntity
  8
0
100
AcDbCircle
 62
7
  6
CONTINUOUS
 10
114.2931723384
 20
602.6536169859
 40
1.9963832148
100
AcDbArc
 50
89.9729921813
 51
180.0271651025
  0
ARC
  5
285
100
AcDbEntity
  8
0
100
AcDbCircle
 62
7
  6
CONTINUOUS
 10
144.7004063459
 20
602.6536169864
 40
1.9963832143
100
AcDbArc
 50
359.9728349841
 51
90.0270079062
  0
SPLINE
  5
286
100
AcDbEntity
  8
0
100
AcDbSpline
 62
7
  6
CONTINUOUS
 70
0
 71
3
 72
13
 73
9
 74
0
 42
0.0000001
 43
0.0000001
 44
0.0000000001
 40
0.0
 40
0.0
 40
0.0
 40
0.0
 40
0.3492159905
 40
0.6711556838
 40
0.8014384446
 40
0.9026708687
 40
0.9697058771
 40
1.0
 40
1.0
 40
1.0
 40
1.0
 10
146.6053054299
 20
447.5414089019
 30
0.0
 10
146.6020999332
 20
447.7616119346
 30
0.0
 10
146.6015152806
 20
448.1846323579
 30
0.0
 10
146.6104383142
 20
448.6909226672
 30
0.0
 10
146.6277448702
 20
449.0381734759
 30
0.0
 10
146.6380307003
 20
449.2288061011
 30
0.0
 10
146.6577659118
 20
449.3476390527
 30
0.0
 10
146.6630491326
 20
449.4150847291
 30
0.0
 10
146.6764684673
 20
449.4286825169
 30
0.0
  0
SPLINE
  5
287
100
AcDbEntity
  8
0
100
AcDbSpline
 62
7
  6
CONTINUOUS
 70
0
 71
3
 72
11
 73
7
 74
0
 42
0.0000001
 43
0.0000001
 44
0.0000000001
 40
0.0
 40
0.0
 40
0.0
 40
0.0
 40
0.0714463589
 40
0.2833583622
 40
0.605261674
 40
1.0
 40
1.0
 40
1.0
 40
1.0
 10
146.4047184015
 20
446.45
 30
0.0
 10
146.3781647566
 20
446.45
 30
0.0
 10
146.4499721126
 20
446.6202487128
 30
0.0
 10
146.4872786053
 20
446.767719189
 30
0.0
 10
146.590759175
 20
447.1370653423
 30
0.0
 10
146.6076381884
 20
447.3945393528
 30
0.0
 10
146.6053102455
 20
447.5412287267
 30
0.0
  0
SPLINE
  5
288
100
AcDbEntity
  8
0
100
AcDbSpline
 62
7
  6
CONTINUOUS
 70
0
 71
3
 72
9
 73
5
 74
0
 42
0.0000001
 43
0.0000001
 44
0.0000000001
 40
0.0
 40
0.0
 40
0.0
 40
0.0
 40
0.4981521231
 40
1.0
 40
1.0
 40
1.0
 40
1.0
 10
146.6967860558
 20
449.4475080195
 30
0.0
 10
146.6936664012
 20
449.4441283618
 30
0.0
 10
146.6865632647
 20
449.4381893659
 30
0.0
 10
146.6796112663
 20
449.432087248
 30
0.0
 10
146.6764684673
 20
449.4286825169
 30
0.0
  0
SPLINE
  5
289
100
AcDbEntity
  8
0
100
AcDbSpline
 62
7
  6
CONTINUOUS
 70
0
 71
3
 72
9
 73
5
 74
0
 42
0.0000001
 43
0.0000001
 44
0.0000000001
 40
0.0
 40
0.0
 40
0.0
 40
0.0
 40
0.4991044064
 40
1.0
 40
1.0
 40
1.0
 40
1.0
 10
115.9336645987
 20
449.4501413707
 30
0.0
 10
115.4701680027
 20
449.4694867761
 30
0.0
 10
114.5195560211
 20
449.9235156266
 30
0.0
 10
114.1985099035
 20
450.8903176233
 30
0.0
 10
114.1806284157
 20
451.3555390844
 30
0.0
  0
SPLINE
  5
28A
100
AcDbEntity
  8
0
100
AcDbSpline
 62
7
  6
CONTINUOUS
 70
0
 71
3
 72
10
 73
6
 74
0
 42
0.0000001
 43
0.0000001
 44
0.0000000001
 40
0.0
 40
0.0
 40
0.0
 40
0.0
 40
0.4975510147
 40
0.7488355811
 40
1.0
 40
1.0
 40
1.0
 40
1.0
 10
114.6533511197
 20
451.3555389292
 30
0.0
 10
114.6533390561
 20
450.9944283218
 30
0.0
 10
114.8049344226
 20
450.416070011
 30
0.0
 10
115.3796556966
 20
449.9343727991
 30
0.0
 10
115.7513754636
 20
449.8528572708
 30
0.0
 10
115.9336645679
 20
449.8529295636
 30
0.0
  0
SPLINE
  5
28B
100
AcDbEntity
  8
0
100
AcDbSpline
 62
7
  6
CONTINUOUS
 70
0
 71
3
 72
9
 73
5
 74
0
 42
0.0000001
 43
0.0000001
 44
0.0000000001
 40
0.0
 40
0.0
 40
0.0
 40
0.0
 40
0.4991044064
 40
1.0
 40
1.0
 40
1.0
 40
1.0
 10
143.0599140851
 20
600.6498586294
 30
0.0
 10
143.5234106811
 20
600.6305132239
 30
0.0
 10
144.4740226627
 20
600.1764843734
 30
0.0
 10
144.7950687803
 20
599.2096823767
 30
0.0
 10
144.8129502681
 20
598.7444609155
 30
0.0
  0
SPLINE
  5
28C
100
AcDbEntity
  8
0
100
AcDbSpline
 62
7
  6
CONTINUOUS
 70
0
 71
3
 72
10
 73
6
 74
0
 42
0.0000001
 43
0.0000001
 44
0.0000000001
 40
0.0
 40
0.0
 40
0.0
 40
0.0
 40
0.4975510147
 40
0.7488355811
 40
1.0
 40
1.0
 40
1.0
 40
1.0
 10
144.3402275639
 20
598.7444610708
 30
0.0
 10
144.3402396275
 20
599.1055716782
 30
0.0
 10
144.1886442612
 20
599.683929989
 30
0.0
 10
143.6139229872
 20
600.1656272009
 30
0.0
 10
143.2422032202
 20
600.2471427291
 30
0.0
 10
143.059914116
 20
600.2470704364
 30
0.0
  0
SPLINE
  5
28D
100
AcDbEntity
  8
0
100
AcDbSpline
 62
7
  6
CONTINUOUS
 70
0
 71
3
 72
10
 73
6
 74
0
 42
0.0000001
 43
0.0000001
 44
0.0000000001
 40
0.0
 40
0.0
 40
0.0
 40
0.0
 40
0.4971571458
 40
0.7484823364
 40
1.0
 40
1.0
 40
1.0
 40
1.0
 10
114.6533511214
 20
598.7444614921
 30
0.0
 10
114.6610812303
 20
599.1052583008
 30
0.0
 10
114.8025954521
 20
599.6816302542
 30
0.0
 10
115.3792358263
 20
600.1689625478
 30
0.0
 10
115.7512119971
 20
600.2400206999
 30
0.0
 10
115.9336491057
 20
600.2470700331
 30
0.0
  0
SPLINE
  5
28E
100
AcDbEntity
  8
0
100
AcDbSpline
 62
7
  6
CONTINUOUS
 70
0
 71
3
 72
10
 73
6
 74
0
 42
0.0000001
 43
0.0000001
 44
0.0000000001
 40
0.0
 40
0.0
 40
0.0
 40
0.0
 40
0.4971571458
 40
0.7484823364
 40
1.0
 40
1.0
 40
1.0
 40
1.0
 10
144.3402275624
 20
451.3555385079
 30
0.0
 10
144.3324974536
 20
450.9947416991
 30
0.0
 10
144.1909832317
 20
450.4183697457
 30
0.0
 10
143.6143428573
 20
449.9310374522
 30
0.0
 10
143.2423666864
 20
449.8599793
 30
0.0
 10
143.0599295779
 20
449.8529299669
 30
0.0
  0
SPLINE
  5
28F
100
AcDbEntity
  8
0
100
AcDbSpline
 62
7
  6
CONTINUOUS
 70
0
 71
3
 72
9
 73
5
 74
0
 42
0.0000001
 43
0.0000001
 44
0.0000000001
 40
0.0
 40
0.0
 40
0.0
 40
0.0
 40
0.4998238049
 40
1.0
 40
1.0
 40
1.0
 40
1.0
 10
146.5919713801
 20
602.5448155331
 30
0.0
 10
146.5929146544
 20
603.0099316094
 30
0.0
 10
146.2311198076
 20
603.9686479314
 30
0.0
 10
145.3348161936
 20
604.4525757312
 30
0.0
 10
144.8748444204
 20
604.5237443539
 30
0.0
  0
SPLINE
  5
290
100
AcDbEntity
  8
0
100
AcDbSpline
 62
7
  6
CONTINUOUS
 70
0
 71
3
 72
8
 73
4
 74
0
 42
0.0000001
 43
0.0000001
 44
0.0000000001
 40
0.0
 40
0.0
 40
0.0
 40
0.0
 40
1.0
 40
1.0
 40
1.0
 40
1.0
 10
144.8748444208
 20
445.5762556462
 30
0.0
 10
145.337877286
 20
445.647897893
 30
0.0
 10
145.7974642266
 20
445.9035837877
 30
0.0
 10
146.1042129704
 20
446.257755009
 30
0.0
  0
SPLINE
  5
291
100
AcDbEntity
  8
0
100
AcDbSpline
 62
7
  6
CONTINUOUS
 70
0
 71
3
 72
8
 73
4
 74
0
 42
0.0000001
 43
0.0000001
 44
0.0000000001
 40
0.0
 40
0.0
 40
0.0
 40
0.0
 40
1.0
 40
1.0
 40
1.0
 40
1.0
 10
146.1042129704
 20
446.257755009
 30
0.0
 10
146.4059780952
 20
446.606172158
 30
0.0
 10
146.5920567409
 20
447.090733459
 30
0.0
 10
146.5919737563
 20
447.5516637069
 30
0.0
  0
SPLINE
  5
292
100
AcDbEntity
  8
0
100
AcDbSpline
 62
7
  6
CONTINUOUS
 70
0
 71
3
 72
9
 73
5
 74
0
 42
0.0000001
 43
0.0000001
 44
0.0000000001
 40
0.0
 40
0.0
 40
0.0
 40
0.0
 40
0.4998238049
 40
1.0
 40
1.0
 40
1.0
 40
1.0
 10
112.4016073038
 20
447.5551844668
 30
0.0
 10
112.4006640295
 20
447.0900683918
 30
0.0
 10
112.7624588741
 20
446.1313520725
 30
0.0
 10
113.6587624838
 20
445.6474242718
 30
0.0
 10
114.1187342554
 20
445.5762556473
 30
0.0
  0
SPLINE
  5
293
100
AcDbEntity
  8
0
100
AcDbSpline
 62
7
  6
CONTINUOUS
 70
0
 71
3
 72
9
 73
5
 74
0
 42
0.0000001
 43
0.0000001
 44
0.0000000001
 40
0.0
 40
0.0
 40
0.0
 40
0.0
 40
0.4999075477
 40
1.0
 40
1.0
 40
1.0
 40
1.0
 10
112.4016065048
 20
602.5448155303
 30
0.0
 10
112.4006630738
 20
603.010008937
 30
0.0
 10
112.7625446183
 20
603.9687303518
 30
0.0
 10
113.6588400927
 20
604.4525877383
 30
0.0
 10
114.1187342638
 20
604.523744354
 30
0.0
  0
SPLINE
  5
294
100
AcDbEntity
  8
0
100
AcDbSpline
 62
7
  6
CONTINUOUS
 70
0
 71
3
 72
10
 73
6
 74
0
 42
0.0000001
 43
0.0000001
 44
0.0000000001
 40
0.0
 40
0.0
 40
0.0
 40
0.0
 40
0.2551518886
 40
0.510125774
 40
1.0
 40
1.0
 40
1.0
 40
1.0
 10
115.9336689283
 20
600.6497789896
 30
0.0
 10
115.6940790012
 20
600.6405743345
 30
0.0
 10
115.2121933912
 20
600.5228535552
 30
0.0
 10
114.4512485422
 20
599.9318360141
 30
0.0
 10
114.1997658771
 20
599.2043925389
 30
0.0
 10
114.1806483814
 20
598.7444540132
 30
0.0
  0
SPLINE
  5
295
100
AcDbEntity
  8
0
100
AcDbSpline
 62
7
  6
CONTINUOUS
 70
0
 71
3
 72
10
 73
6
 74
0
 42
0.0000001
 43
0.0000001
 44
0.0000000001
 40
0.0
 40
0.0
 40
0.0
 40
0.0
 40
0.2551518886
 40
0.510125774
 40
1.0
 40
1.0
 40
1.0
 40
1.0
 10
143.0599097555
 20
449.4502210104
 30
0.0
 10
143.2994996826
 20
449.4594256655
 30
0.0
 10
143.7813852926
 20
449.5771464448
 30
0.0
 10
144.5423301416
 20
450.1681639859
 30
0.0
 10
144.7938128068
 20
450.8956074611
 30
0.0
 10
144.8129303024
 20
451.3555459868
 30
0.0
  0
SPLINE
  5
296
100
AcDbEntity
  8
0
100
AcDbSpline
 62
7
  6
CONTINUOUS
 70
0
 71
3
 72
9
 73
5
 74
0
 42
0.0000001
 43
0.0000001
 44
0.0000000001
 40
0.0
 40
0.0
 40
0.0
 40
0.0
 40
0.4008720077
 40
1.0
 40
1.0
 40
1.0
 40
1.0
 10
86.2967893419
 20
921.2
 30
0.0
 10
86.6444661397
 20
921.2
 30
0.0
 10
87.4017947673
 20
920.5580545863
 30
0.0
 10
87.8177357946
 20
919.8383362871
 30
0.0
 10
88.0967893419
 20
919.4
 30
0.0
  0
SPLINE
  5
297
100
AcDbEntity
  8
0
100
AcDbSpline
 62
7
  6
CONTINUOUS
 70
0
 71
3
 72
9
 73
5
 74
0
 42
0.0000001
 43
0.0000001
 44
0.0000000001
 40
0.0
 40
0.0
 40
0.0
 40
0.0
 40
0.5991280617
 40
1.0
 40
1.0
 40
1.0
 40
1.0
 10
676.8967893419
 20
919.4
 30
0.0
 10
677.1758429223
 20
919.838336339
 30
0.0
 10
677.5917839439
 20
920.5580546598
 30
0.0
 10
678.3491126034
 20
921.2
 30
0.0
 10
678.6967893419
 20
921.2
 30
0.0
  0
SPLINE
  5
298
100
AcDbEntity
  8
0
100
AcDbSpline
 62
7
  6
CONTINUOUS
 70
0
 71
3
 72
9
 73
5
 74
0
 42
0.0000001
 43
0.0000001
 44
0.0000000001
 40
0.0
 40
0.0
 40
0.0
 40
0.0
 40
0.5991280617
 40
1.0
 40
1.0
 40
1.0
 40
1.0
 10
676.8967893419
 20
130.6
 30
0.0
 10
677.3351256809
 20
130.3209464197
 30
0.0
 10
678.0548440017
 20
129.905005398
 30
0.0
 10
678.6967893419
 20
129.1476767385
 30
0.0
 10
678.6967893419
 20
128.8
 30
0.0
  0
SPLINE
  5
299
100
AcDbEntity
  8
0
100
AcDbSpline
 62
7
  6
CONTINUOUS
 70
0
 71
3
 72
9
 73
5
 74
0
 42
0.0000001
 43
0.0000001
 44
0.0000000001
 40
0.0
 40
0.0
 40
0.0
 40
0.0
 40
0.4008720077
 40
1.0
 40
1.0
 40
1.0
 40
1.0
 10
678.6967893419
 20
921.2
 30
0.0
 10
678.6967893419
 20
920.8523232022
 30
0.0
 10
678.0548439282
 20
920.0949945747
 30
0.0
 10
677.335125629
 20
919.6790535473
 30
0.0
 10
676.8967893419
 20
919.4
 30
0.0
  0
SPLINE
  5
29A
100
AcDbEntity
  8
0
100
AcDbSpline
 62
7
  6
CONTINUOUS
 70
0
 71
3
 72
9
 73
5
 74
0
 42
0.0000001
 43
0.0000001
 44
0.0000000001
 40
0.0
 40
0.0
 40
0.0
 40
0.0
 40
0.4008720077
 40
1.0
 40
1.0
 40
1.0
 40
1.0
 10
678.6967893419
 20
128.8
 30
0.0
 10
678.3491125441
 20
128.8
 30
0.0
 10
677.5917839166
 20
129.4419454137
 30
0.0
 10
677.1758428892
 20
130.1616637129
 30
0.0
 10
676.8967893419
 20
130.6
 30
0.0
  0
SPLINE
  5
29B
100
AcDbEntity
  8
0
100
AcDbSpline
 62
7
  6
CONTINUOUS
 70
0
 71
3
 72
9
 73
5
 74
0
 42
0.0000001
 43
0.0000001
 44
0.0000000001
 40
0.0
 40
0.0
 40
0.0
 40
0.0
 40
0.5991280617
 40
1.0
 40
1.0
 40
1.0
 40
1.0
 10
88.0967893419
 20
130.6
 30
0.0
 10
87.8177357616
 20
130.161663661
 30
0.0
 10
87.4017947399
 20
129.4419453402
 30
0.0
 10
86.6444660804
 20
128.8
 30
0.0
 10
86.2967893419
 20
128.8
 30
0.0
  0
SPLINE
  5
29C
100
AcDbEntity
  8
0
100
AcDbSpline
 62
7
  6
CONTINUOUS
 70
0
 71
3
 72
9
 73
5
 74
0
 42
0.0000001
 43
0.0000001
 44
0.0000000001
 40
0.0
 40
0.0
 40
0.0
 40
0.0
 40
0.4008720077
 40
1.0
 40
1.0
 40
1.0
 40
1.0
 10
86.2967893419
 20
128.8
 30
0.0
 10
86.2967893419
 20
129.1476767978
 30
0.0
 10
86.9387347556
 20
129.9050054253
 30
0.0
 10
87.6584530548
 20
130.3209464527
 30
0.0
 10
88.0967893419
 20
130.6
 30
0.0
  0
SPLINE
  5
29D
100
AcDbEntity
  8
0
100
AcDbSpline
 62
7
  6
CONTINUOUS
 70
0
 71
3
 72
9
 73
5
 74
0
 42
0.0000001
 43
0.0000001
 44
0.0000000001
 40
0.0
 40
0.0
 40
0.0
 40
0.0
 40
0.5991280617
 40
1.0
 40
1.0
 40
1.0
 40
1.0
 10
88.0967893419
 20
919.4
 30
0.0
 10
87.6584530029
 20
919.6790535803
 30
0.0
 10
86.9387346821
 20
920.094994602
 30
0.0
 10
86.2967893419
 20
920.8523232615
 30
0.0
 10
86.2967893419
 20
921.2
 30
0.0
  0
SPLINE
  5
29E
100
AcDbEntity
  8
0
100
AcDbSpline
 62
7
  6
CONTINUOUS
 70
0
 71
3
 72
9
 73
5
 74
0
 42
0.0000001
 43
0.0000001
 44
0.0000000001
 40
0.0
 40
0.0
 40
0.0
 40
0.0
 40
0.35794649
 40
1.0
 40
1.0
 40
1.0
 40
1.0
 10
86.2967893419
 20
127.0
 30
0.0
 10
86.5049495415
 20
127.0
 30
0.0
 10
86.9803304764
 20
127.492973669
 30
0.0
 10
87.1826169736
 20
128.005256549
 30
0.0
 10
87.3235251288
 20
128.3510272282
 30
0.0
  0
SPLINE
  5
29F
100
AcDbEntity
  8
0
100
AcDbSpline
 62
7
  6
CONTINUOUS
 70
0
 71
3
 72
9
 73
5
 74
0
 42
0.0000001
 43
0.0000001
 44
0.0000000001
 40
0.0
 40
0.0
 40
0.0
 40
0.0
 40
0.2341192805
 40
1.0
 40
1.0
 40
1.0
 40
1.0
 10
87.4528436243
 20
128.6819217078
 30
0.0
 10
87.508445776
 20
128.8297183024
 30
0.0
 10
87.7365071687
 20
129.4645637585
 30
0.0
 10
87.9401050207
 20
130.1077616876
 30
0.0
 10
88.0967893419
 20
130.6
 30
0.0
  0
SPLINE
  5
2A0
100
AcDbEntity
  8
0
100
AcDbSpline
 62
7
  6
CONTINUOUS
 70
0
 71
3
 72
9
 73
5
 74
0
 42
0.0000001
 43
0.0000001
 44
0.0000000001
 40
0.0
 40
0.0
 40
0.0
 40
0.0
 40
0.2607439853
 40
1.0
 40
1.0
 40
1.0
 40
1.0
 10
676.8967893419
 20
130.6
 30
0.0
 10
676.9501300982
 20
130.4324250719
 30
0.0
 10
677.1549043596
 20
129.7898727095
 30
0.0
 10
677.3651715201
 20
129.1485892991
 30
0.0
 10
677.5407330315
 20
128.6819270805
 30
0.0
  0
SPLINE
  5
2A1
100
AcDbEntity
  8
0
100
AcDbSpline
 62
7
  6
CONTINUOUS
 70
0
 71
3
 72
8
 73
4
 74
0
 42
0.0000001
 43
0.0000001
 44
0.0000000001
 40
0.0
 40
0.0
 40
0.0
 40
0.0
 40
1.0
 40
1.0
 40
1.0
 40
1.0
 10
677.5407330315
 20
128.6819270805
 30
0.0
 10
677.6231812446
 20
128.4627704683
 30
0.0
 10
677.7101449398
 20
128.2450729145
 30
0.0
 10
677.8069782039
 20
128.0318813399
 30
0.0
  0
SPLINE
  5
2A2
100
AcDbEntity
  8
0
100
AcDbSpline
 62
7
  6
CONTINUOUS
 70
0
 71
3
 72
9
 73
5
 74
0
 42
0.0000001
 43
0.0000001
 44
0.0000000001
 40
0.0
 40
0.0
 40
0.0
 40
0.0
 40
0.629942645
 40
1.0
 40
1.0
 40
1.0
 40
1.0
 10
677.8069782039
 20
128.0318813399
 30
0.0
 10
677.9288458325
 20
127.763573214
 30
0.0
 10
678.1154762225
 20
127.3504108315
 30
0.0
 10
678.5236760711
 20
127.0
 30
0.0
 10
678.6967893419
 20
127.0
 30
0.0
  0
SPLINE
  5
2A3
100
AcDbEntity
  8
0
100
AcDbSpline
 62
7
  6
CONTINUOUS
 70
0
 71
3
 72
9
 73
5
 74
0
 42
0.0000001
 43
0.0000001
 44
0.0000000001
 40
0.0
 40
0.0
 40
0.0
 40
0.0
 40
0.2607439853
 40
1.0
 40
1.0
 40
1.0
 40
1.0
 10
88.0967893419
 20
919.4
 30
0.0
 10
88.0434485856
 20
919.5675749281
 30
0.0
 10
87.8386743243
 20
920.2101272905
 30
0.0
 10
87.6284071637
 20
920.8514107009
 30
0.0
 10
87.4528456524
 20
921.3180729195
 30
0.0
  0
SPLINE
  5
2A4
100
AcDbEntity
  8
0
100
AcDbSpline
 62
7
  6
CONTINUOUS
 70
0
 71
3
 72
8
 73
4
 74
0
 42
0.0000001
 43
0.0000001
 44
0.0000000001
 40
0.0
 40
0.0
 40
0.0
 40
0.0
 40
1.0
 40
1.0
 40
1.0
 40
1.0
 10
87.4528456524
 20
921.3180729195
 30
0.0
 10
87.3703974392
 20
921.5372295317
 30
0.0
 10
87.2834337441
 20
921.7549270855
 30
0.0
 10
87.1866004799
 20
921.9681186601
 30
0.0
  0
SPLINE
  5
2A5
100
AcDbEntity
  8
0
100
AcDbSpline
 62
7
  6
CONTINUOUS
 70
0
 71
3
 72
9
 73
5
 74
0
 42
0.0000001
 43
0.0000001
 44
0.0000000001
 40
0.0
 40
0.0
 40
0.0
 40
0.0
 40
0.629942645
 40
1.0
 40
1.0
 40
1.0
 40
1.0
 10
87.1866004799
 20
921.9681186601
 30
0.0
 10
87.0647328514
 20
922.236426786
 30
0.0
 10
86.8781024613
 20
922.6495891685
 30
0.0
 10
86.4699026127
 20
923.0
 30
0.0
 10
86.2967893419
 20
923.0
 30
0.0
  0
SPLINE
  5
2A6
100
AcDbEntity
  8
0
100
AcDbSpline
 62
7
  6
CONTINUOUS
 70
0
 71
3
 72
9
 73
5
 74
0
 42
0.0000001
 43
0.0000001
 44
0.0000000001
 40
0.0
 40
0.0
 40
0.0
 40
0.0
 40
0.35794649
 40
1.0
 40
1.0
 40
1.0
 40
1.0
 10
84.4967893419
 20
921.2
 30
0.0
 10
84.4967893419
 20
920.9918398004
 30
0.0
 10
84.9897630109
 20
920.5164588655
 30
0.0
 10
85.5020458909
 20
920.3141723683
 30
0.0
 10
85.8478165701
 20
920.1732642131
 30
0.0
  0
SPLINE
  5
2A7
100
AcDbEntity
  8
0
100
AcDbSpline
 62
7
  6
CONTINUOUS
 70
0
 71
3
 72
9
 73
5
 74
0
 42
0.0000001
 43
0.0000001
 44
0.0000000001
 40
0.0
 40
0.0
 40
0.0
 40
0.0
 40
0.2341192805
 40
1.0
 40
1.0
 40
1.0
 40
1.0
 10
86.1787110497
 20
920.0439457176
 30
0.0
 10
86.3265076443
 20
919.9883435659
 30
0.0
 10
86.9613531004
 20
919.7602821732
 30
0.0
 10
87.6045510295
 20
919.5566843212
 30
0.0
 10
88.0967893419
 20
919.4
 30
0.0
  0
SPLINE
  5
2A8
100
AcDbEntity
  8
0
100
AcDbSpline
 62
7
  6
CONTINUOUS
 70
0
 71
3
 72
9
 73
5
 74
0
 42
0.0000001
 43
0.0000001
 44
0.0000000001
 40
0.0
 40
0.0
 40
0.0
 40
0.0
 40
0.2607439853
 40
1.0
 40
1.0
 40
1.0
 40
1.0
 10
88.0967893419
 20
130.6
 30
0.0
 10
87.9292144138
 20
130.5466592437
 30
0.0
 10
87.2866620514
 20
130.3418849823
 30
0.0
 10
86.645378641
 20
130.1316178218
 30
0.0
 10
86.1787164224
 20
129.9560563105
 30
0.0
  0
SPLINE
  5
2A9
100
AcDbEntity
  8
0
100
AcDbSpline
 62
7
  6
CONTINUOUS
 70
0
 71
3
 72
8
 73
4
 74
0
 42
0.0000001
 43
0.0000001
 44
0.0000000001
 40
0.0
 40
0.0
 40
0.0
 40
0.0
 40
1.0
 40
1.0
 40
1.0
 40
1.0
 10
86.1787164224
 20
129.9560563105
 30
0.0
 10
85.9595598102
 20
129.8736080973
 30
0.0
 10
85.7418622564
 20
129.7866444022
 30
0.0
 10
85.5286706818
 20
129.689811138
 30
0.0
  0
SPLINE
  5
2AA
100
AcDbEntity
  8
0
100
AcDbSpline
 62
7
  6
CONTINUOUS
 70
0
 71
3
 72
9
 73
5
 74
0
 42
0.0000001
 43
0.0000001
 44
0.0000000001
 40
0.0
 40
0.0
 40
0.0
 40
0.0
 40
0.629942645
 40
1.0
 40
1.0
 40
1.0
 40
1.0
 10
85.5286706818
 20
129.689811138
 30
0.0
 10
85.2603625559
 20
129.5679435094
 30
0.0
 10
84.8472001734
 20
129.3813131194
 30
0.0
 10
84.4967893419
 20
128.9731132708
 30
0.0
 10
84.4967893419
 20
128.8
 30
0.0
  0
SPLINE
  5
2AB
100
AcDbEntity
  8
0
100
AcDbSpline
 62
7
  6
CONTINUOUS
 70
0
 71
3
 72
9
 73
5
 74
0
 42
0.0000001
 43
0.0000001
 44
0.0000000001
 40
0.0
 40
0.0
 40
0.0
 40
0.0
 40
0.2607439853
 40
1.0
 40
1.0
 40
1.0
 40
1.0
 10
676.8967893419
 20
919.4
 30
0.0
 10
677.06436427
 20
919.4533407563
 30
0.0
 10
677.7069166324
 20
919.6581150177
 30
0.0
 10
678.3482000428
 20
919.8683821782
 30
0.0
 10
678.8148622614
 20
920.0439436895
 30
0.0
  0
SPLINE
  5
2AC
100
AcDbEntity
  8
0
100
AcDbSpline
 62
7
  6
CONTINUOUS
 70
0
 71
3
 72
8
 73
4
 74
0
 42
0.0000001
 43
0.0000001
 44
0.0000000001
 40
0.0
 40
0.0
 40
0.0
 40
0.0
 40
1.0
 40
1.0
 40
1.0
 40
1.0
 10
678.8148622614
 20
920.0439436895
 30
0.0
 10
679.0340188736
 20
920.1263919027
 30
0.0
 10
679.2517164274
 20
920.2133555978
 30
0.0
 10
679.464908002
 20
920.310188862
 30
0.0
  0
SPLINE
  5
2AD
100
AcDbEntity
  8
0
100
AcDbSpline
 62
7
  6
CONTINUOUS
 70
0
 71
3
 72
9
 73
5
 74
0
 42
0.0000001
 43
0.0000001
 44
0.0000000001
 40
0.0
 40
0.0
 40
0.0
 40
0.0
 40
0.629942645
 40
1.0
 40
1.0
 40
1.0
 40
1.0
 10
679.464908002
 20
920.310188862
 30
0.0
 10
679.7332161279
 20
920.4320564906
 30
0.0
 10
680.1463785104
 20
920.6186868806
 30
0.0
 10
680.4967893419
 20
921.0268867292
 30
0.0
 10
680.4967893419
 20
921.2
 30
0.0
  0
SPLINE
  5
2AE
100
AcDbEntity
  8
0
100
AcDbSpline
 62
7
  6
CONTINUOUS
 70
0
 71
3
 72
9
 73
5
 74
0
 42
0.0000001
 43
0.0000001
 44
0.0000000001
 40
0.0
 40
0.0
 40
0.0
 40
0.0
 40
0.35794649
 40
1.0
 40
1.0
 40
1.0
 40
1.0
 10
680.4967893419
 20
128.8
 30
0.0
 10
680.4967893419
 20
129.0081601996
 30
0.0
 10
680.0038156729
 20
129.4835411345
 30
0.0
 10
679.4915327929
 20
129.6858276317
 30
0.0
 10
679.1457621137
 20
129.8267357869
 30
0.0
  0
SPLINE
  5
2AF
100
AcDbEntity
  8
0
100
AcDbSpline
 62
7
  6
CONTINUOUS
 70
0
 71
3
 72
9
 73
5
 74
0
 42
0.0000001
 43
0.0000001
 44
0.0000000001
 40
0.0
 40
0.0
 40
0.0
 40
0.0
 40
0.2341192805
 40
1.0
 40
1.0
 40
1.0
 40
1.0
 10
678.8148676341
 20
129.9560542824
 30
0.0
 10
678.6670710395
 20
130.0116564341
 30
0.0
 10
678.0322255834
 20
130.2397178268
 30
0.0
 10
677.3890276543
 20
130.4433156788
 30
0.0
 10
676.8967893419
 20
130.6
 30
0.0
  0
SPLINE
  5
2B0
100
AcDbEntity
  8
0
100
AcDbSpline
 62
7
  6
CONTINUOUS
 70
0
 71
3
 72
9
 73
5
 74
0
 42
0.0000001
 43
0.0000001
 44
0.0000000001
 40
0.0
 40
0.0
 40
0.0
 40
0.0
 40
0.35794649
 40
1.0
 40
1.0
 40
1.0
 40
1.0
 10
678.6967893419
 20
923.0
 30
0.0
 10
678.4886291423
 20
923.0
 30
0.0
 10
678.0132482074
 20
922.507026331
 30
0.0
 10
677.8109617102
 20
921.994743451
 30
0.0
 10
677.670053555
 20
921.6489727718
 30
0.0
  0
SPLINE
  5
2B1
100
AcDbEntity
  8
0
100
AcDbSpline
 62
7
  6
CONTINUOUS
 70
0
 71
3
 72
9
 73
5
 74
0
 42
0.0000001
 43
0.0000001
 44
0.0000000001
 40
0.0
 40
0.0
 40
0.0
 40
0.0
 40
0.2341192805
 40
1.0
 40
1.0
 40
1.0
 40
1.0
 10
677.5407350595
 20
921.3180782922
 30
0.0
 10
677.4851329078
 20
921.1702816976
 30
0.0
 10
677.2570715152
 20
920.5354362415
 30
0.0
 10
677.0534736632
 20
919.8922383124
 30
0.0
 10
676.8967893419
 20
919.4
 30
0.0
  0
SPLINE
  5
2B2
100
AcDbEntity
  8
0
100
AcDbSpline
 62
7
  6
CONTINUOUS
 70
0
 71
3
 72
8
 73
4
 74
0
 42
0.0000001
 43
0.0000001
 44
0.0000000001
 40
0.0
 40
0.0
 40
0.0
 40
0.0
 40
1.0
 40
1.0
 40
1.0
 40
1.0
 10
86.3961859979
 20
921.8
 30
0.0
 10
86.1089557678
 20
921.9828564437
 30
0.0
 10
85.8206292479
 20
922.1649835265
 30
0.0
 10
85.5462517602
 20
922.3666135796
 30
0.0
  0
SPLINE
  5
2B3
100
AcDbEntity
  8
0
100
AcDbSpline
 62
7
  6
CONTINUOUS
 70
0
 71
3
 72
9
 73
5
 74
0
 42
0.0000001
 43
0.0000001
 44
0.0000000001
 40
0.0
 40
0.0
 40
0.0
 40
0.0
 40
0.3145063116
 40
1.0
 40
1.0
 40
1.0
 40
1.0
 10
85.5462517602
 20
922.3666135796
 30
0.0
 10
85.4248465968
 20
922.455829826
 30
0.0
 10
85.0568863458
 20
922.7418598076
 30
0.0
 10
84.6961859979
 20
923.1716212179
 30
0.0
 10
84.6961859979
 20
923.5
 30
0.0
  0
SPLINE
  5
2B4
100
AcDbEntity
  8
0
100
AcDbSpline
 62
7
  6
CONTINUOUS
 70
0
 71
3
 72
9
 73
5
 74
0
 42
0.0000001
 43
0.0000001
 44
0.0000000001
 40
0.0
 40
0.0
 40
0.0
 40
0.0
 40
0.1989384143
 40
1.0
 40
1.0
 40
1.0
 40
1.0
 10
84.6961859979
 20
126.5
 30
0.0
 10
84.6961859979
 20
126.596204557
 30
0.0
 10
84.8124114588
 20
127.0808974737
 30
0.0
 10
85.2340983431
 20
127.4039969411
 30
0.0
 10
85.5462599968
 20
127.6333924679
 30
0.0
  0
SPLINE
  5
2B5
100
AcDbEntity
  8
0
100
AcDbSpline
 62
7
  6
CONTINUOUS
 70
0
 71
3
 72
8
 73
4
 74
0
 42
0.0000001
 43
0.0000001
 44
0.0000000001
 40
0.0
 40
0.0
 40
0.0
 40
0.0
 40
1.0
 40
1.0
 40
1.0
 40
1.0
 10
85.7577699305
 20
127.78328821
 30
0.0
 10
85.9672658828
 20
127.9271348894
 30
0.0
 10
86.1818138929
 20
128.0635264793
 30
0.0
 10
86.3961859979
 20
128.2
 30
0.0
  0
SPLINE
  5
2B6
100
AcDbEntity
  8
0
100
AcDbSpline
 62
7
  6
CONTINUOUS
 70
0
 71
3
 72
8
 73
4
 74
0
 42
0.0000001
 43
0.0000001
 44
0.0000000001
 40
0.0
 40
0.0
 40
0.0
 40
0.0
 40
1.0
 40
1.0
 40
1.0
 40
1.0
 10
86.2984884597
 20
128.0467740145
 30
0.0
 10
86.2291791103
 20
127.9383825495
 30
0.0
 10
86.1594430567
 20
127.8302533373
 30
0.0
 10
86.0883265849
 20
127.7230388651
 30
0.0
  0
SPLINE
  5
2B7
100
AcDbEntity
  8
0
100
AcDbSpline
 62
7
  6
CONTINUOUS
 70
0
 71
3
 72
8
 73
4
 74
0
 42
0.0000001
 43
0.0000001
 44
0.0000000001
 40
0.0
 40
0.0
 40
0.0
 40
0.0
 40
1.0
 40
1.0
 40
1.0
 40
1.0
 10
86.0883265849
 20
127.7230388651
 30
0.0
 10
86.0046860404
 20
127.5969432277
 30
0.0
 10
85.9191751694
 20
127.47199688
 30
0.0
 10
85.8295724183
 20
127.3500657623
 30
0.0
  0
SPLINE
  5
2B8
100
AcDbEntity
  8
0
100
AcDbSpline
 62
7
  6
CONTINUOUS
 70
0
 71
3
 72
9
 73
5
 74
0
 42
0.0000001
 43
0.0000001
 44
0.0000000001
 40
0.0
 40
0.0
 40
0.0
 40
0.0
 40
0.3145063116
 40
1.0
 40
1.0
 40
1.0
 40
1.0
 10
85.8295724183
 20
127.3500657623
 30
0.0
 10
85.7403561719
 20
127.2286605989
 30
0.0
 10
85.4543261903
 20
126.8607003479
 30
0.0
 10
85.02456478
 20
126.5
 30
0.0
 10
84.6961859979
 20
126.5
 30
0.0
  0
SPLINE
  5
2B9
100
AcDbEntity
  8
0
100
AcDbSpline
 62
7
  6
CONTINUOUS
 70
0
 71
3
 72
9
 73
5
 74
0
 42
0.0000001
 43
0.0000001
 44
0.0000000001
 40
0.0
 40
0.0
 40
0.0
 40
0.0
 40
0.4008720077
 40
1.0
 40
1.0
 40
1.0
 40
1.0
 10
681.6961859979
 20
126.5
 30
0.0
 10
681.3678245777
 20
126.5
 30
0.0
 10
680.6525697629
 20
127.1062817796
 30
0.0
 10
680.2597365704
 20
127.7860157288
 30
0.0
 10
679.9961859979
 20
128.2
 30
0.0
  0
SPLINE
  5
2BA
100
AcDbEntity
  8
0
100
AcDbSpline
 62
7
  6
CONTINUOUS
 70
0
 71
3
 72
9
 73
5
 74
0
 42
0.0000001
 43
0.0000001
 44
0.0000000001
 40
0.0
 40
0.0
 40
0.0
 40
0.0
 40
0.5991280617
 40
1.0
 40
1.0
 40
1.0
 40
1.0
 10
679.9961859979
 20
128.2
 30
0.0
 10
680.4101703181
 20
127.9364493963
 30
0.0
 10
681.0899042878
 20
127.5436162093
 30
0.0
 10
681.6961859979
 20
126.8283613642
 30
0.0
 10
681.6961859979
 20
126.5
 30
0.0
  0
SPLINE
  5
2BB
100
AcDbEntity
  8
0
100
AcDbSpline
 62
7
  6
CONTINUOUS
 70
0
 71
3
 72
9
 73
5
 74
0
 42
0.0000001
 43
0.0000001
 44
0.0000000001
 40
0.0
 40
0.0
 40
0.0
 40
0.0
 40
0.4008720077
 40
1.0
 40
1.0
 40
1.0
 40
1.0
 10
681.6961859979
 20
923.5
 30
0.0
 10
681.6961859979
 20
923.1716385798
 30
0.0
 10
681.0899042183
 20
922.456383765
 30
0.0
 10
680.4101702691
 20
922.0635505724
 30
0.0
 10
679.9961859979
 20
921.8
 30
0.0
  0
SPLINE
  5
2BC
100
AcDbEntity
  8
0
100
AcDbSpline
 62
7
  6
CONTINUOUS
 70
0
 71
3
 72
9
 73
5
 74
0
 42
0.0000001
 43
0.0000001
 44
0.0000000001
 40
0.0
 40
0.0
 40
0.0
 40
0.0
 40
0.1989384143
 40
1.0
 40
1.0
 40
1.0
 40
1.0
 10
84.6961859979
 20
923.5
 30
0.0
 10
84.7923905549
 20
923.5
 30
0.0
 10
85.2770834716
 20
923.3837745391
 30
0.0
 10
85.600182939
 20
922.9620876548
 30
0.0
 10
85.8295784658
 20
922.6499260011
 30
0.0
  0
SPLINE
  5
2BD
100
AcDbEntity
  8
0
100
AcDbSpline
 62
7
  6
CONTINUOUS
 70
0
 71
3
 72
8
 73
4
 74
0
 42
0.0000001
 43
0.0000001
 44
0.0000000001
 40
0.0
 40
0.0
 40
0.0
 40
0.0
 40
1.0
 40
1.0
 40
1.0
 40
1.0
 10
85.8295784658
 20
922.6499260011
 30
0.0
 10
85.9191792492
 20
922.5279971687
 30
0.0
 10
86.0046883736
 20
922.4030532782
 30
0.0
 10
86.088327246
 20
922.2769601396
 30
0.0
  0
SPLINE
  5
2BE
100
AcDbEntity
  8
0
100
AcDbSpline
 62
7
  6
CONTINUOUS
 70
0
 71
3
 72
8
 73
4
 74
0
 42
0.0000001
 43
0.0000001
 44
0.0000000001
 40
0.0
 40
0.0
 40
0.0
 40
0.0
 40
1.0
 40
1.0
 40
1.0
 40
1.0
 10
86.088327246
 20
922.2769601396
 30
0.0
 10
86.1594434723
 20
922.1697460187
 30
0.0
 10
86.2291792923
 20
922.061617166
 30
0.0
 10
86.298488411
 20
921.953226062
 30
0.0
  0
SPLINE
  5
2BF
100
AcDbEntity
  8
0
100
AcDbSpline
 62
7
  6
CONTINUOUS
 70
0
 71
3
 72
9
 73
5
 74
0
 42
0.0000001
 43
0.0000001
 44
0.0000000001
 40
0.0
 40
0.0
 40
0.0
 40
0.0
 40
0.5991280617
 40
1.0
 40
1.0
 40
1.0
 40
1.0
 10
679.9961859979
 20
921.8
 30
0.0
 10
680.2597366016
 20
922.2139843202
 30
0.0
 10
680.6525697886
 20
922.8937182899
 30
0.0
 10
681.3678246337
 20
923.5
 30
0.0
 10
681.6961859979
 20
923.5
 30
0.0
  0
LINE
  5
2C0
100
AcDbEntity
  8
0
100
AcDbLine
 62
7
  6
CONTINUOUS
 10
679.9961859979
 20
921.8
 11
680.2464954854
 21
921.8847437946
  0
SPLINE
  5
2C1
100
AcDbEntity
  8
0
100
AcDbSpline
 62
7
  6
CONTINUOUS
 70
0
 71
3
 72
9
 73
5
 74
0
 42
0.0000001
 43
0.0000001
 44
0.0000000001
 40
0.0
 40
0.0
 40
0.0
 40
0.0
 40
0.2630341473
 40
1.0
 40
1.0
 40
1.0
 40
1.0
 10
680.2464954854
 20
921.8847437946
 30
0.0
 10
680.3832924095
 20
921.9311527425
 30
0.0
 10
680.9029866174
 20
922.108527043
 30
0.0
 10
681.42070277
 20
922.2930353102
 30
0.0
 10
681.7953172591
 20
922.4462401483
 30
0.0
  0
SPLINE
  5
2C2
100
AcDbEntity
  8
0
100
AcDbSpline
 62
7
  6
CONTINUOUS
 70
0
 71
3
 72
9
 73
5
 74
0
 42
0.0000001
 43
0.0000001
 44
0.0000000001
 40
0.0
 40
0.0
 40
0.0
 40
0.0
 40
0.2692108487
 40
1.0
 40
1.0
 40
1.0
 40
1.0
 10
681.7953172591
 20
922.4462401483
 30
0.0
 10
681.8553812335
 20
922.4708043116
 30
0.0
 10
682.0777090375
 20
922.5638739838
 30
0.0
 10
682.2969273022
 20
922.6649560616
 30
0.0
 10
682.4527099265
 20
922.7471907149
 30
0.0
  0
SPLINE
  5
2C3
100
AcDbEntity
  8
0
100
AcDbSpline
 62
7
  6
CONTINUOUS
 70
0
 71
3
 72
9
 73
5
 74
0
 42
0.0000001
 43
0.0000001
 44
0.0000000001
 40
0.0
 40
0.0
 40
0.0
 40
0.0
 40
0.3430043993
 40
1.0
 40
1.0
 40
1.0
 40
1.0
 10
682.4527099265
 20
922.7471907149
 30
0.0
 10
682.5615497725
 20
922.8046451777
 30
0.0
 10
682.8592788952
 20
922.9746129214
 30
0.0
 10
683.1961859979
 20
923.2642629144
 30
0.0
 10
683.1961859979
 20
923.5
 30
0.0
  0
SPLINE
  5
2C4
100
AcDbEntity
  8
0
100
AcDbSpline
 62
7
  6
CONTINUOUS
 70
0
 71
3
 72
9
 73
5
 74
0
 42
0.0000001
 43
0.0000001
 44
0.0000000001
 40
0.0
 40
0.0
 40
0.0
 40
0.0
 40
0.3684247243
 40
1.0
 40
1.0
 40
1.0
 40
1.0
 10
683.1961859979
 20
126.5
 30
0.0
 10
683.1961859979
 20
126.6815373219
 30
0.0
 10
682.8156909226
 20
127.1054934334
 30
0.0
 10
682.3813710622
 20
127.2974256095
 30
0.0
 10
682.0973938547
 20
127.4247189125
 30
0.0
  0
SPLINE
  5
2C5
100
AcDbEntity
  8
0
100
AcDbSpline
 62
7
  6
CONTINUOUS
 70
0
 71
3
 72
9
 73
5
 74
0
 42
0.0000001
 43
0.0000001
 44
0.0000000001
 40
0.0
 40
0.0
 40
0.0
 40
0.0
 40
0.232854869
 40
1.0
 40
1.0
 40
1.0
 40
1.0
 10
681.7953224291
 20
127.553757729
 30
0.0
 10
681.6769516369
 20
127.6021675035
 30
0.0
 10
681.1653088134
 20
127.8020243482
 30
0.0
 10
680.6454865667
 20
127.9798967551
 30
0.0
 10
680.2464948833
 20
128.1152564088
 30
0.0
  0
LINE
  5
2C6
100
AcDbEntity
  8
0
100
AcDbLine
 62
7
  6
CONTINUOUS
 10
680.2464948833
 20
128.1152564088
 11
679.9961859979
 21
128.2
  0
SPLINE
  5
2C7
100
AcDbEntity
  8
0
100
AcDbSpline
 62
7
  6
CONTINUOUS
 70
0
 71
3
 72
9
 73
5
 74
0
 42
0.0000001
 43
0.0000001
 44
0.0000000001
 40
0.0
 40
0.0
 40
0.0
 40
0.0
 40
0.2621604849
 40
1.0
 40
1.0
 40
1.0
 40
1.0
 10
679.9961859979
 20
128.2
 30
0.0
 10
680.049709657
 20
128.0417416151
 30
0.0
 10
680.2541223833
 20
127.4382442448
 30
0.0
 10
680.4644410044
 20
126.8360757061
 30
0.0
 10
680.6424261462
 20
126.4008687388
 30
0.0
  0
SPLINE
  5
2C8
100
AcDbEntity
  8
0
100
AcDbSpline
 62
7
  6
CONTINUOUS
 70
0
 71
3
 72
9
 73
5
 74
0
 42
0.0000001
 43
0.0000001
 44
0.0000000001
 40
0.0
 40
0.0
 40
0.0
 40
0.0
 40
0.2692108487
 40
1.0
 40
1.0
 40
1.0
 40
1.0
 10
680.6424261462
 20
126.4008687388
 30
0.0
 10
680.6669903095
 20
126.3408047644
 30
0.0
 10
680.7600599817
 20
126.1184769604
 30
0.0
 10
680.8611420595
 20
125.8992586958
 30
0.0
 10
680.9433767128
 20
125.7434760714
 30
0.0
  0
SPLINE
  5
2C9
100
AcDbEntity
  8
0
100
AcDbSpline
 62
7
  6
CONTINUOUS
 70
0
 71
3
 72
9
 73
5
 74
0
 42
0.0000001
 43
0.0000001
 44
0.0000000001
 40
0.0
 40
0.0
 40
0.0
 40
0.0
 40
0.3430043993
 40
1.0
 40
1.0
 40
1.0
 40
1.0
 10
680.9433767128
 20
125.7434760714
 30
0.0
 10
681.0008311756
 20
125.6346362254
 30
0.0
 10
681.1707989194
 20
125.3369071027
 30
0.0
 10
681.4604489123
 20
125.0
 30
0.0
 10
681.6961859979
 20
125.0
 30
0.0
  0
SPLINE
  5
2CA
100
AcDbEntity
  8
0
100
AcDbSpline
 62
7
  6
CONTINUOUS
 70
0
 71
3
 72
9
 73
5
 74
0
 42
0.0000001
 43
0.0000001
 44
0.0000000001
 40
0.0
 40
0.0
 40
0.0
 40
0.0
 40
0.3684247243
 40
1.0
 40
1.0
 40
1.0
 40
1.0
 10
84.6961859979
 20
125.0
 30
0.0
 10
84.8777233198
 20
125.0
 30
0.0
 10
85.3016794313
 20
125.3804950753
 30
0.0
 10
85.4936116074
 20
125.8148149358
 30
0.0
 10
85.6209049104
 20
126.0987921432
 30
0.0
  0
SPLINE
  5
2CB
100
AcDbEntity
  8
0
100
AcDbSpline
 62
7
  6
CONTINUOUS
 70
0
 71
3
 72
8
 73
4
 74
0
 42
0.0000001
 43
0.0000001
 44
0.0000000001
 40
0.0
 40
0.0
 40
0.0
 40
0.0
 40
1.0
 40
1.0
 40
1.0
 40
1.0
 10
85.7499437269
 20
126.4008635688
 30
0.0
 10
85.8344733056
 20
126.6075539179
 30
0.0
 10
85.9134887073
 20
126.8165114517
 30
0.0
 10
85.9897873414
 20
127.0263796686
 30
0.0
  0
SPLINE
  5
2CC
100
AcDbEntity
  8
0
100
AcDbSpline
 62
7
  6
CONTINUOUS
 70
0
 71
3
 72
8
 73
4
 74
0
 42
0.0000001
 43
0.0000001
 44
0.0000000001
 40
0.0
 40
0.0
 40
0.0
 40
0.0
 40
1.0
 40
1.0
 40
1.0
 40
1.0
 10
85.9897873414
 20
127.0263796686
 30
0.0
 10
86.0981474025
 20
127.3244365483
 30
0.0
 10
86.2010411446
 20
127.6244693312
 30
0.0
 10
86.3029885431
 20
127.9247800608
 30
0.0
  0
SPLINE
  5
2CD
100
AcDbEntity
  8
0
100
AcDbSpline
 62
7
  6
CONTINUOUS
 70
0
 71
3
 72
8
 73
4
 74
0
 42
0.0000001
 43
0.0000001
 44
0.0000000001
 40
0.0
 40
0.0
 40
0.0
 40
0.0
 40
1.0
 40
1.0
 40
1.0
 40
1.0
 10
85.8857204544
 20
128.0266139334
 30
0.0
 10
85.5291434721
 20
127.9044529785
 30
0.0
 10
85.1732282096
 20
127.7798370591
 30
0.0
 10
84.8218993213
 20
127.6433143302
 30
0.0
  0
SPLINE
  5
2CE
100
AcDbEntity
  8
0
100
AcDbSpline
 62
7
  6
CONTINUOUS
 70
0
 71
3
 72
9
 73
5
 74
0
 42
0.0000001
 43
0.0000001
 44
0.0000000001
 40
0.0
 40
0.0
 40
0.0
 40
0.0
 40
0.2692108487
 40
1.0
 40
1.0
 40
1.0
 40
1.0
 10
84.5970547367
 20
127.5537598517
 30
0.0
 10
84.5369907623
 20
127.5291956884
 30
0.0
 10
84.3146629584
 20
127.4361260162
 30
0.0
 10
84.0954446937
 20
127.3350439384
 30
0.0
 10
83.9396620693
 20
127.2528092851
 30
0.0
  0
SPLINE
  5
2CF
100
AcDbEntity
  8
0
100
AcDbSpline
 62
7
  6
CONTINUOUS
 70
0
 71
3
 72
9
 73
5
 74
0
 42
0.0000001
 43
0.0000001
 44
0.0000000001
 40
0.0
 40
0.0
 40
0.0
 40
0.0
 40
0.3430043993
 40
1.0
 40
1.0
 40
1.0
 40
1.0
 10
83.9396620693
 20
127.2528092851
 30
0.0
 10
83.8308222233
 20
127.1953548223
 30
0.0
 10
83.5330931007
 20
127.0253870786
 30
0.0
 10
83.1961859979
 20
126.7357370856
 30
0.0
 10
83.1961859979
 20
126.5
 30
0.0
  0
SPLINE
  5
2D0
100
AcDbEntity
  8
0
100
AcDbSpline
 62
7
  6
CONTINUOUS
 70
0
 71
3
 72
8
 73
4
 74
0
 42
0.0000001
 43
0.0000001
 44
0.0000000001
 40
0.0
 40
0.0
 40
0.0
 40
0.0
 40
1.0
 40
1.0
 40
1.0
 40
1.0
 10
86.3029883414
 20
922.075220536
 30
0.0
 10
86.2010412155
 20
922.3755304633
 30
0.0
 10
86.0981477501
 20
922.6755624448
 30
0.0
 10
85.9897879985
 20
922.9736185354
 30
0.0
  0
SPLINE
  5
2D1
100
AcDbEntity
  8
0
100
AcDbSpline
 62
7
  6
CONTINUOUS
 70
0
 71
3
 72
8
 73
4
 74
0
 42
0.0000001
 43
0.0000001
 44
0.0000000001
 40
0.0
 40
0.0
 40
0.0
 40
0.0
 40
1.0
 40
1.0
 40
1.0
 40
1.0
 10
85.9897879985
 20
922.9736185354
 30
0.0
 10
85.913489797
 20
923.1834856062
 30
0.0
 10
85.8344748652
 20
923.3924420054
 30
0.0
 10
85.7499458496
 20
923.5991312612
 30
0.0
  0
SPLINE
  5
2D2
100
AcDbEntity
  8
0
100
AcDbSpline
 62
7
  6
CONTINUOUS
 70
0
 71
3
 72
9
 73
5
 74
0
 42
0.0000001
 43
0.0000001
 44
0.0000000001
 40
0.0
 40
0.0
 40
0.0
 40
0.0
 40
0.2692108487
 40
1.0
 40
1.0
 40
1.0
 40
1.0
 10
85.7499458496
 20
923.5991312612
 30
0.0
 10
85.7253816863
 20
923.6591952356
 30
0.0
 10
85.6323120141
 20
923.8815230396
 30
0.0
 10
85.5312299363
 20
924.1007413042
 30
0.0
 10
85.448995283
 20
924.2565239286
 30
0.0
  0
SPLINE
  5
2D3
100
AcDbEntity
  8
0
100
AcDbSpline
 62
7
  6
CONTINUOUS
 70
0
 71
3
 72
9
 73
5
 74
0
 42
0.0000001
 43
0.0000001
 44
0.0000000001
 40
0.0
 40
0.0
 40
0.0
 40
0.0
 40
0.3430043993
 40
1.0
 40
1.0
 40
1.0
 40
1.0
 10
85.448995283
 20
924.2565239286
 30
0.0
 10
85.3915408202
 20
924.3653637746
 30
0.0
 10
85.2215730765
 20
924.6630928973
 30
0.0
 10
84.9319230836
 20
925.0
 30
0.0
 10
84.6961859979
 20
925.0
 30
0.0
  0
SPLINE
  5
2D4
100
AcDbEntity
  8
0
100
AcDbSpline
 62
7
  6
CONTINUOUS
 70
0
 71
3
 72
9
 73
5
 74
0
 42
0.0000001
 43
0.0000001
 44
0.0000000001
 40
0.0
 40
0.0
 40
0.0
 40
0.0
 40
0.3684247243
 40
1.0
 40
1.0
 40
1.0
 40
1.0
 10
681.6961859979
 20
925.0
 30
0.0
 10
681.514648676
 20
925.0
 30
0.0
 10
681.0906925645
 20
924.6195049247
 30
0.0
 10
680.8987603885
 20
924.1851850642
 30
0.0
 10
680.7714670855
 20
923.9012078568
 30
0.0
  0
SPLINE
  5
2D5
100
AcDbEntity
  8
0
100
AcDbSpline
 62
7
  6
CONTINUOUS
 70
0
 71
3
 72
9
 73
5
 74
0
 42
0.0000001
 43
0.0000001
 44
0.0000000001
 40
0.0
 40
0.0
 40
0.0
 40
0.0
 40
0.232222428
 40
1.0
 40
1.0
 40
1.0
 40
1.0
 10
680.642428269
 20
923.5991364312
 30
0.0
 10
680.5864068487
 20
923.4621537669
 30
0.0
 10
680.3559310349
 20
922.8678649587
 30
0.0
 10
680.1529482844
 20
922.2635136443
 30
0.0
 10
679.9961859979
 20
921.8
 30
0.0
  0
SPLINE
  5
2D6
100
AcDbEntity
  8
0
100
AcDbSpline
 62
7
  6
CONTINUOUS
 70
0
 71
3
 72
9
 73
5
 74
0
 42
0.0000001
 43
0.0000001
 44
0.0000000001
 40
0.0
 40
0.0
 40
0.0
 40
0.0
 40
0.3684247243
 40
1.0
 40
1.0
 40
1.0
 40
1.0
 10
83.1961859979
 20
923.5
 30
0.0
 10
83.1961859979
 20
923.3184626781
 30
0.0
 10
83.5766810733
 20
922.8945065666
 30
0.0
 10
84.0110009337
 20
922.7025743905
 30
0.0
 10
84.2949781411
 20
922.5752810875
 30
0.0
  0
SPLINE
  5
2D7
100
AcDbEntity
  8
0
100
AcDbSpline
 62
7
  6
CONTINUOUS
 70
0
 71
3
 72
8
 73
4
 74
0
 42
0.0000001
 43
0.0000001
 44
0.0000000001
 40
0.0
 40
0.0
 40
0.0
 40
0.0
 40
1.0
 40
1.0
 40
1.0
 40
1.0
 10
84.8218967426
 20
922.3566866758
 30
0.0
 10
85.1732259712
 20
922.2201637384
 30
0.0
 10
85.529141602
 20
922.0955476771
 30
0.0
 10
85.8857189522
 20
921.9733865839
 30
0.0
  0
ELLIPSE
  5
2D8
100
AcDbEntity
  8
0
100
AcDbEllipse
 62
7
  6
CONTINUOUS
 10
144.6940446499
 20
447.4527446919
 30
0.0
 11
-1.4180924867
 21
1.418092487
 31
0.0
 40
0.9972646886
 41
-3.925621289
 42
-2.8792151572
  0
ELLIPSE
  5
2D9
100
AcDbEntity
  8
0
100
AcDbEllipse
 62
7
  6
CONTINUOUS
 10
144.4355730693
 20
602.3887837274
 30
0.0
 11
0.8948432419
 21
2.0007020819
 31
0.0
 40
0.8990644342
 41
0.2412008493
 42
0.382332373
  0
ELLIPSE
  5
2DA
100
AcDbEntity
  8
0
100
AcDbEllipse
 62
7
  6
CONTINUOUS
 10
114.5580056145
 20
447.7112162722
 30
0.0
 11
0.8948432426
 21
2.0007020813
 31
0.0
 40
0.8990644343
 41
-2.9003918039
 42
-2.759260283
  0
ELLIPSE
  5
2DB
100
AcDbEntity
  8
0
100
AcDbEllipse
 62
7
  6
CONTINUOUS
 10
144.4355730693
 20
447.7112162726
 30
0.0
 11
-0.8948432418
 21
2.0007020819
 31
0.0
 40
0.8990644342
 41
-3.5239250267
 42
-3.3827935028
  0
ELLIPSE
  5
2DC
100
AcDbEntity
  8
0
100
AcDbEllipse
 62
7
  6
CONTINUOUS
 10
114.5580056145
 20
602.3887837274
 30
0.0
 11
-0.8948432419
 21
2.0007020819
 31
0.0
 40
0.8990644342
 41
-0.3823323732
 42
-0.2412008493
  0
ENDSEC
  0
SECTION
  2
OBJECTS
  0
DICTIONARY
  5
C
100
AcDbDictionary
280
0
281
1
  3
ACAD_GROUP
350
D
  3
ACAD_MLINESTYLE
350
17
  3
ACAD_LAYOUT
350
1A
  3
ACAD_PLOTSETTINGS
350
19
  3
ACAD_PLOTSTYLENAME
350
E
  0
DICTIONARY
  5
D
102
{ACAD_REACTORS
330
C
102
}
100
AcDbDictionary
280
0
281
1
  0
ACDBDICTIONARYWDFLT
  5
E
102
{ACAD_REACTORS
330
C
102
}
100
AcDbDictionary
281
1
  3
Normal
350
F
100
AcDbDictionaryWithDefault
340
F
  0
DICTIONARY
  5
17
102
{ACAD_REACTORS
330
C
102
}
100
AcDbDictionary
280
0
281
1
  3
Standard
350
18
  0
DICTIONARY
  5
19
102
{ACAD_REACTORS
330
C
102
}
100
AcDbDictionary
281
1
  0
DICTIONARY
  5
1A
102
{ACAD_REACTORS
330
C
102
}
100
AcDbDictionary
281
1
  3
Model
350
2DD
  3
Layout1
350
2DE
  0
ACDBPLACEHOLDER
  5
F
102
{ACAD_REACTORS
330
E
102
}
  0
MLINESTYLE
  5
18
102
{ACAD_REACTORS
330
17
102
}
100
AcDbMlineStyle
  2
STANDARD
 70
0
  3

 62
256
 51
90.0
 52
90.0
 71
2
 49
0.5
 62
256
  6
BYLAYER
 49
-0.5
 62
256
  6
BYLAYER
  0
LAYOUT
  5
2DD
102
{ACAD_REACTORS
330
1A
102
}
100
AcDbPlotSettings
  1

  2
none_device
  4

  6

 40
0.0
 41
0.0
 42
0.0
 43
0.0
 44
210.0
 45
297.0
 46
0.0
 47
0.0
 48
0.0
 49
0.0
140
0.0
141
0.0
142
1.0
143
1.0
 70
1024
 72
1
 73
0
 74
0
  7

 75
0
147
1.0
148
0.0
149
0.0
100
AcDbLayout
  1
Model
 70
0
 71
0
 10
0.0
 20
0.0
 11
210.0
 21
297.0
 12
0.0
 22
0.0
 32
0.0
 14
0.0
 24
0.0
 34
0.0
 15
0.0
 25
0.0
 35
0.0
146
0.0
 13
0.0
 23
0.0
 33
0.0
 16
1.0
 26
0.0
 36
0.0
 17
0.0
 27
1.0
 37
0.0
 76
0
330
210
345
0
346
0
  0
LAYOUT
  5
2DE
102
{ACAD_REACTORS
330
1A
102
}
100
AcDbPlotSettings
  1

  2
none_device
  4

  6

 40
0.0
 41
0.0
 42
0.0
 43
0.0
 44
210.0
 45
297.0
 46
0.0
 47
0.0
 48
0.0
 49
0.0
140
0.0
141
0.0
142
1.0
143
1.0
 70
0
 72
1
 73
0
 74
0
  7

 75
0
147
1.0
148
0.0
149
0.0
100
AcDbLayout
  1
Layout1
 70
0
 71
1
 10
0.0
 20
0.0
 11
210.0
 21
297.0
 12
0.0
 22
0.0
 32
0.0
 14
0.0
 24
0.0
 34
0.0
 15
0.0
 25
0.0
 35
0.0
146
0.0
 13
0.0
 23
0.0
 33
0.0
 16
1.0
 26
0.0
 36
0.0
 17
0.0
 27
1.0
 37
0.0
 76
0
330
211
345
0
346
0
  0
ENDSEC
  0
EOF
