999
DXF file: C:\Users\sesa63760\Dev\_Creo\CAD\MCADUE0003044_3D-CAD\drw0001_4.dxf
999
Pro/ENGINEER 2019471 by Parametric Technology Corporation
  0
SECTION
  2
HEADER
  9
$ACADVER
  1
AC1024
  9
$DWGCODEPAGE
  3
ANSI_1252
  9
$EXTMAX
 10
373.4979101359
 20
528.2327586208
 30
0.0
  9
$EXTMIN
 10
0.0
 20
0.0
 30
0.0
  9
$LIMMIN
 10
0.0
 20
0.0
  9
$LIMMAX
 10
373.4979101359
 20
528.2327586208
  9
$VIEWCTR
 10
186.7489550679
 20
264.1163793104
  9
$VIEWSIZE
 40
528.2327586208
  9
$CLAYER
  8
0
  9
$LTSCALE
 40
34.4329501916
  9
$CELTYPE
  6
BYLAYER
  9
$DIMSCALE
 40
1.0
  9
$DIMASZ
 40
4.4464036921
  9
$DIMEXO
 40
1.0
  9
$DIMDLI
 40
23.7900383142
  9
$DIMEXE
 40
1.0
  9
$DIMCEN
 40
5.6344827586
  9
$DIMLFAC
 40
1.0
  9
$DIMBLK
  1
_FILLED
  9
$DIMALT
 70
0
  9
$DIMALTF
 40
0.0393700787
  9
$DIMTXT
 40
6.2249651689
  9
$DIMTOL
 70
1
  9
$DIMLIM
 70
0
  9
$DIMTFAC
 40
1.0
  9
$DIMTP
 40
0.01
  9
$DIMTM
 40
0.01
  9
$DIMGAP
 40
0.625
  9
$DIMDSEP
 70
46
  9
$AUNITS
 70
0
  9
$PDMODE
 70
3
  9
$PDSIZE
 40
0.3125
  9
$HANDSEED
  5
426
  9
$TILEMODE
 70
1
  9
$MEASUREMENT
 70
1
  9
$INSUNITS
 70
4
  0
ENDSEC
  0
SECTION
  2
CLASSES
  0
CLASS
  1
ACDBDICTIONARYWDFLT
  2
AcDbDictionaryWithDefault
  3
AutoCAD 2000
 90
0
 91
1
280
0
281
0
  0
CLASS
  1
ACDBPLACEHOLDER
  2
AcDbPlaceHolder
  3
AutoCAD 2000
 90
0
 91
1
280
0
281
0
  0
CLASS
  1
LAYOUT
  2
AcDbLayout
  3
AutoCAD 2000
 90
0
 91
0
280
0
281
0
  0
ENDSEC
  0
SECTION
  2
TABLES
  0
TABLE
  2
VPORT
  5
8
100
AcDbSymbolTable
 70
2
  0
VPORT
  5
1F4
100
AcDbSymbolTableRecord
100
AcDbViewportTableRecord
  2
*ACTIVE
 70
0
 10
0.0
 20
0.0
 11
1.0
 21
1.0
 12
186.7489550679
 22
264.1163793104
 13
0.0
 23
0.0
 14
1.0
 24
1.0
 15
0.0
 25
0.0
 16
0.0
 26
0.0
 36
1.0
 17
0.0
 27
0.0
 37
0.0
 40
528.2327586208
 41
0.7070707071
 42
50.0
 43
0.0
 44
0.0
 50
0.0
 51
0.0
 71
0
 72
100
 73
1
 74
1
 75
0
 76
0
 77
0
 78
0
  0
ENDTAB
  0
TABLE
  2
LTYPE
  5
5
100
AcDbSymbolTable
 70
6
  0
LTYPE
  5
14
100
AcDbSymbolTableRecord
100
AcDbLinetypeTableRecord
  2
BYBLOCK
 70
0
  3

 72
65
 73
0
 40
0.0
  0
LTYPE
  5
15
100
AcDbSymbolTableRecord
100
AcDbLinetypeTableRecord
  2
BYLAYER
 70
0
  3

 72
65
 73
0
 40
0.0
  0
LTYPE
  5
16
100
AcDbSymbolTableRecord
100
AcDbLinetypeTableRecord
  2
CONTINUOUS
 70
64
  3
Solid line
 72
65
 73
0
 40
0.0
  0
LTYPE
  5
1F5
100
AcDbSymbolTableRecord
100
AcDbLinetypeTableRecord
  2
CENTER
 70
64
  3
____ _ ____ _ ____ _ ____ _ ____ _ ____ _ ____
 72
65
 73
4
 40
0.6
 49
0.375
 74
0
 49
-0.075
 74
0
 49
0.075
 74
0
 49
-0.075
 74
0
  0
LTYPE
  5
1F6
100
AcDbSymbolTableRecord
100
AcDbLinetypeTableRecord
  2
HIDDEN
 70
64
  3
- - - - - - - - - - - - - - - - - - - -
 72
65
 73
2
 40
0.2
 49
0.1
 74
0
 49
-0.1
 74
0
  0
LTYPE
  5
1F7
100
AcDbSymbolTableRecord
100
AcDbLinetypeTableRecord
  2
PHANTOM
 70
64
  3
_____ _ _ _____ _ _ _____ _ _ _____
 72
65
 73
6
 40
0.8
 49
0.45
 74
0
 49
-0.05
 74
0
 49
0.1
 74
0
 49
-0.05
 74
0
 49
0.1
 74
0
 49
-0.05
 74
0
  0
LTYPE
  5
1F8
100
AcDbSymbolTableRecord
100
AcDbLinetypeTableRecord
  2
DOT
 70
64
  3
. . . . . . . . . . . . . . . . . . . .
 72
65
 73
2
 40
0.2
 49
0.1
 74
0
 49
-0.1
 74
0
  0
LTYPE
  5
1F9
100
AcDbSymbolTableRecord
100
AcDbLinetypeTableRecord
  2
DASHED
 70
64
  3
- - - - - - - - - - - - - - - - - - - -
 72
65
 73
2
 40
0.2
 49
0.1
 74
0
 49
-0.1
 74
0
  0
ENDTAB
  0
TABLE
  2
LAYER
  5
2
100
AcDbSymbolTable
 70
36
  0
LAYER
  5
10
100
AcDbSymbolTableRecord
100
AcDbLayerTableRecord
  2
0
 70
0
 62
7
  6
CONTINUOUS
370
-3
390
F
  0
LAYER
  5
1FA
100
AcDbSymbolTableRecord
100
AcDbLayerTableRecord
  2
DEFAULT_1
 70
0
 62
7
  6
CENTER
370
-3
390
F
  0
LAYER
  5
1FB
100
AcDbSymbolTableRecord
100
AcDbLayerTableRecord
  2
DEFAULT_2
 70
0
 62
8
  6
HIDDEN
370
-3
390
F
  0
LAYER
  5
1FC
100
AcDbSymbolTableRecord
100
AcDbLayerTableRecord
  2
DEFAULT_3
 70
0
 62
7
  6
PHANTOM
370
-3
390
F
  0
LAYER
  5
1FD
100
AcDbSymbolTableRecord
100
AcDbLayerTableRecord
  2
00_COMPONENTS
 70
0
 62
7
  6
CONTINUOUS
370
-3
390
F
  0
LAYER
  5
1FE
100
AcDbSymbolTableRecord
100
AcDbLayerTableRecord
  2
01_1_DEFAULT_DATUMS
 70
0
 62
7
  6
CONTINUOUS
370
-3
390
F
  0
LAYER
  5
1FF
100
AcDbSymbolTableRecord
100
AcDbLayerTableRecord
  2
01_PLANES
 70
0
 62
7
  6
CONTINUOUS
370
-3
390
F
  0
LAYER
  5
200
100
AcDbSymbolTableRecord
100
AcDbLayerTableRecord
  2
02_COORD_SYS
 70
0
 62
7
  6
CONTINUOUS
370
-3
390
F
  0
LAYER
  5
201
100
AcDbSymbolTableRecord
100
AcDbLayerTableRecord
  2
03_AXES
 70
0
 62
7
  6
CONTINUOUS
370
-3
390
F
  0
LAYER
  5
202
100
AcDbSymbolTableRecord
100
AcDbLayerTableRecord
  2
04_POINTS
 70
0
 62
7
  6
CONTINUOUS
370
-3
390
F
  0
LAYER
  5
203
100
AcDbSymbolTableRecord
100
AcDbLayerTableRecord
  2
05_CURVES
 70
0
 62
7
  6
CONTINUOUS
370
-3
390
F
  0
LAYER
  5
204
100
AcDbSymbolTableRecord
100
AcDbLayerTableRecord
  2
06_SURFS
 70
0
 62
7
  6
CONTINUOUS
370
-3
390
F
  0
LAYER
  5
205
100
AcDbSymbolTableRecord
100
AcDbLayerTableRecord
  2
07_COSMETICS
 70
0
 62
7
  6
CONTINUOUS
370
-3
390
F
  0
LAYER
  5
206
100
AcDbSymbolTableRecord
100
AcDbLayerTableRecord
  2
10_NOTES
 70
0
 62
7
  6
CONTINUOUS
370
-3
390
F
  0
LAYER
  5
207
100
AcDbSymbolTableRecord
100
AcDbLayerTableRecord
  2
11_NOTES_PUB
 70
0
 62
7
  6
CONTINUOUS
370
-3
390
F
  0
LAYER
  5
208
100
AcDbSymbolTableRecord
100
AcDbLayerTableRecord
  2
13_REF_GTOL
 70
0
 62
7
  6
CONTINUOUS
370
-3
390
F
  0
LAYER
  5
209
100
AcDbSymbolTableRecord
100
AcDbLayerTableRecord
  2
16_MISC
 70
0
 62
7
  6
CONTINUOUS
370
-3
390
F
  0
LAYER
  5
20A
100
AcDbSymbolTableRecord
100
AcDbLayerTableRecord
  2
17_NO_PRINT
 70
0
 62
7
  6
CONTINUOUS
370
-3
390
F
  0
LAYER
  5
20B
100
AcDbSymbolTableRecord
100
AcDbLayerTableRecord
  2
18_DATUM_CAMS_JOINTS
 70
0
 62
7
  6
CONTINUOUS
370
-3
390
F
  0
LAYER
  5
20C
100
AcDbSymbolTableRecord
100
AcDbLayerTableRecord
  2
19_DATUM_FUNCTIONAL
 70
0
 62
7
  6
CONTINUOUS
370
-3
390
F
  0
LAYER
  5
20D
100
AcDbSymbolTableRecord
100
AcDbLayerTableRecord
  2
20_DATUM_KINEMATIC_SCHEME
 70
0
 62
7
  6
CONTINUOUS
370
-3
390
F
  0
ENDTAB
  0
TABLE
  2
STYLE
  5
3
100
AcDbSymbolTable
 70
1
  0
STYLE
  5
11
100
AcDbSymbolTableRecord
100
AcDbTextStyleTableRecord
  2
STANDARD
 70
0
 40
0.0
 41
0.8
 50
0.0
 71
0
 42
0.2
  3
txt
  4

  0
STYLE
  5
20E
100
AcDbSymbolTableRecord
100
AcDbTextStyleTableRecord
  2
TEXTSTYLE_1
 70
0
 40
0.0
 41
0.8
 50
0.0
 71
0
 42
0.2
  3
gdt
  4

  0
ENDTAB
  0
TABLE
  2
VIEW
  5
6
100
AcDbSymbolTable
 70
0
  0
ENDTAB
  0
TABLE
  2
UCS
  5
7
100
AcDbSymbolTable
 70
0
  0
ENDTAB
  0
TABLE
  2
APPID
  5
9
100
AcDbSymbolTable
 70
1
  0
APPID
  5
20F
100
AcDbSymbolTableRecord
100
AcDbRegAppTableRecord
  2
ACAD
 70
0
  0
ENDTAB
  0
TABLE
  2
BLOCK_RECORD
  5
1
100
AcDbSymbolTable
 70
0
  0
BLOCK_RECORD
  5
210
100
AcDbSymbolTableRecord
100
AcDbBlockTableRecord
  2
*Model_Space
  0
BLOCK_RECORD
  5
211
100
AcDbSymbolTableRecord
100
AcDbBlockTableRecord
  2
*Paper_Space
  0
BLOCK_RECORD
  5
212
100
AcDbSymbolTableRecord
100
AcDbBlockTableRecord
  2
_FILLED
  0
ENDTAB
  0
TABLE
  2
DIMSTYLE
  5
A
100
AcDbSymbolTable
 70
1
100
AcDbDimStyleTable
 71
0
  0
DIMSTYLE
105
213
100
AcDbSymbolTableRecord
100
AcDbDimStyleTableRecord
  2
STANDARD
 70
0
  3

  4

 40
1.0
 41
4.4464036921
 42
1.0
 43
0.38
 44
1.0
 45
0.0
 46
0.0
 47
0.01
 48
0.01
140
6.2249651689
141
0.09
142
0.0
143
25.4
144
1.0
145
0.0
146
1.0
147
0.625
 71
1
 72
0
 73
0
 74
0
 75
0
 76
0
 77
1
 78
8
 79
2
170
0
171
1
172
0
173
0
174
0
175
0
176
0
177
0
178
0
270
2
179
2
271
2
272
2
273
2
274
2
275
0
280
0
281
0
282
0
283
1
284
8
285
0
286
0
287
3
288
0
340
11
278
46
341
212
342
212
343
212
344
212
  0
ENDTAB
  0
ENDSEC
  0
SECTION
  2
BLOCKS
  0
BLOCK
  5
20
100
AcDbEntity
  8
0
100
AcDbBlockBegin
  2
*Model_Space
 70
0
 10
0.0
 20
0.0
 30
0.0
  3
*Model_Space
  1

  0
ENDBLK
  5
21
100
AcDbEntity
  8
0
100
AcDbBlockEnd
  0
BLOCK
  5
1C
100
AcDbEntity
  8
0
100
AcDbBlockBegin
  2
*Paper_Space
 70
0
 10
0.0
 20
0.0
 30
0.0
  3
*Paper_Space
  1

  0
ENDBLK
  5
1D
100
AcDbEntity
  8
0
100
AcDbBlockEnd
  0
BLOCK
  5
214
100
AcDbEntity
  8
0
100
AcDbBlockBegin
  2
_FILLED
 70
64
 10
0.0
 20
0.0
  3
_FILLED
  1

  0
SOLID
  5
215
100
AcDbEntity
  8
0
  6
BYBLOCK
 62
0
100
AcDbTrace
 10
0.0
 20
0.0
 11
-1.0
 21
0.25
 12
-1.0
 22
-0.25
 13
-1.0
 23
-0.25
  0
ENDBLK
  5
216
100
AcDbEntity
  8
0
  6
BYBLOCK
 62
0
100
AcDbBlockEnd
  0
ENDSEC
  0
SECTION
  2
ENTITIES
  0
LINE
  5
217
100
AcDbEntity
  8
0
100
AcDbLine
 62
7
  6
CONTINUOUS
 10
41.598092999
 20
62.5
 11
341.598092999
 21
62.5
  0
LINE
  5
218
100
AcDbEntity
  8
0
100
AcDbLine
 62
7
  6
CONTINUOUS
 10
44.1235492842
 20
64.5
 11
338.1235492842
 21
64.5
  0
LINE
  5
219
100
AcDbEntity
  8
0
100
AcDbLine
 62
7
  6
CONTINUOUS
 10
43.1235492842
 20
65.5
 11
50.2969224582
 21
65.5
  0
LINE
  5
21A
100
AcDbEntity
  8
0
100
AcDbLine
 62
7
  6
CONTINUOUS
 10
331.9501761102
 20
65.5
 11
339.1235492842
 21
65.5
  0
LINE
  5
21B
100
AcDbEntity
  8
0
100
AcDbLine
 62
7
  6
CONTINUOUS
 10
52.2970608123
 20
66.2244353065
 11
52.8706372486
 21
66.2244353065
  0
LINE
  5
21C
100
AcDbEntity
  8
0
100
AcDbLine
 62
7
  6
CONTINUOUS
 10
329.3764613198
 20
66.2244353065
 11
329.9500377561
 21
66.2244353065
  0
LINE
  5
21D
100
AcDbEntity
  8
0
100
AcDbLine
 62
7
  6
CONTINUOUS
 10
328.1145931598
 20
67.7
 11
54.1325054086
 21
67.7
  0
LINE
  5
21E
100
AcDbEntity
  8
0
100
AcDbLine
 62
7
  6
CONTINUOUS
 10
52.8706372486
 20
66.2244353065
 11
49.127052099
 21
65.5
  0
LINE
  5
21F
100
AcDbEntity
  8
0
100
AcDbLine
 62
7
  6
CONTINUOUS
 10
48.5534756626
 20
65.5
 11
52.2970608123
 21
66.2244353065
  0
LINE
  5
220
100
AcDbEntity
  8
0
100
AcDbLine
 62
7
  6
CONTINUOUS
 10
333.1200464695
 20
65.5
 11
329.3764613198
 21
66.2244353065
  0
LINE
  5
221
100
AcDbEntity
  8
0
100
AcDbLine
 62
7
  6
CONTINUOUS
 10
329.9500377561
 20
66.2244353065
 11
333.6936229058
 21
65.5
  0
LINE
  5
222
100
AcDbEntity
  8
0
100
AcDbLine
 62
7
  6
CONTINUOUS
 10
41.598092999
 20
462.5
 11
41.598092999
 21
62.5
  0
LINE
  5
223
100
AcDbEntity
  8
0
100
AcDbLine
 62
7
  6
CONTINUOUS
 10
43.1235492842
 20
459.5
 11
43.1235492842
 21
65.5
  0
LINE
  5
224
100
AcDbEntity
  8
0
100
AcDbLine
 62
7
  6
CONTINUOUS
 10
43.798092999
 20
64.7
 11
43.798092999
 21
64.9928945283
  0
LINE
  5
225
100
AcDbEntity
  8
0
100
AcDbLine
 62
7
  6
CONTINUOUS
 10
43.798092999
 20
460.0071080907
 11
43.798092999
 21
460.3
  0
LINE
  5
226
100
AcDbEntity
  8
0
100
AcDbLine
 62
7
  6
CONTINUOUS
 10
44.1235492842
 20
460.5
 11
44.1235492842
 21
459.5
  0
LINE
  5
227
100
AcDbEntity
  8
0
100
AcDbLine
 62
7
  6
CONTINUOUS
 10
44.1235492842
 20
65.5
 11
44.1235492842
 21
64.5
  0
LINE
  5
228
100
AcDbEntity
  8
0
100
AcDbLine
 62
7
  6
CONTINUOUS
 10
44.4881046879
 20
65.5
 11
44.4881046879
 21
459.5
  0
LINE
  5
229
100
AcDbEntity
  8
0
100
AcDbLine
 62
7
  6
CONTINUOUS
 10
45.0616811242
 20
64.5
 11
45.0616811242
 21
65.5
  0
LINE
  5
22A
100
AcDbEntity
  8
0
100
AcDbLine
 62
7
  6
CONTINUOUS
 10
45.0616811242
 20
459.5
 11
45.0616811242
 21
460.5
  0
LINE
  5
22B
100
AcDbEntity
  8
0
100
AcDbLine
 62
7
  6
CONTINUOUS
 10
50.2969224582
 20
460.5
 11
50.2969224582
 21
459.5
  0
LINE
  5
22C
100
AcDbEntity
  8
0
100
AcDbLine
 62
7
  6
CONTINUOUS
 10
50.2969224582
 20
65.5
 11
50.2969224582
 21
64.5
  0
LINE
  5
22D
100
AcDbEntity
  8
0
100
AcDbLine
 62
7
  6
CONTINUOUS
 10
52.2970608123
 20
458.7755646935
 11
52.2970608123
 21
66.2244353065
  0
LINE
  5
22E
100
AcDbEntity
  8
0
100
AcDbLine
 62
7
  6
CONTINUOUS
 10
52.9183960535
 20
459.1354445964
 11
52.9183960535
 21
458.56186816
  0
LINE
  5
22F
100
AcDbEntity
  8
0
100
AcDbLine
 62
7
  6
CONTINUOUS
 10
52.9183960535
 20
65.8645554037
 11
52.9183960535
 21
66.4381318401
  0
LINE
  5
230
100
AcDbEntity
  8
0
100
AcDbLine
 62
7
  6
CONTINUOUS
 10
54.1325054086
 20
67.7
 11
54.1325054086
 21
457.3
  0
LINE
  5
231
100
AcDbEntity
  8
0
100
AcDbLine
 62
7
  6
CONTINUOUS
 10
85.5626681151
 20
240.9145120406
 11
85.5626681151
 21
258.93901456
  0
LINE
  5
232
100
AcDbEntity
  8
0
100
AcDbLine
 62
7
  6
CONTINUOUS
 10
85.5626669854
 20
266.0609835018
 11
85.5626669854
 21
274.4854728866
  0
LINE
  5
233
100
AcDbEntity
  8
0
100
AcDbLine
 62
7
  6
CONTINUOUS
 10
85.6844320848
 20
266.3088248904
 11
85.6844320848
 21
274.485463956
  0
LINE
  5
234
100
AcDbEntity
  8
0
100
AcDbLine
 62
7
  6
CONTINUOUS
 10
88.3250099765
 20
264.4978092949
 11
88.3250099765
 21
264.0978702158
  0
LINE
  5
235
100
AcDbEntity
  8
0
100
AcDbLine
 62
7
  6
CONTINUOUS
 10
88.3250099765
 20
260.9021297843
 11
88.3250099765
 21
260.5021907052
  0
LINE
  5
236
100
AcDbEntity
  8
0
100
AcDbLine
 62
7
  6
CONTINUOUS
 10
88.386090555
 20
264.0068601756
 11
88.386090555
 21
263.6069210948
  0
LINE
  5
237
100
AcDbEntity
  8
0
100
AcDbLine
 62
7
  6
CONTINUOUS
 10
88.3860905555
 20
261.3930789053
 11
88.3860905555
 21
260.9931398244
  0
LINE
  5
238
100
AcDbEntity
  8
0
100
AcDbLine
 62
7
  6
CONTINUOUS
 10
90.5626660471
 20
275.9140550186
 11
90.5626660471
 21
272.9181626979
  0
LINE
  5
239
100
AcDbEntity
  8
0
100
AcDbLine
 62
7
  6
CONTINUOUS
 10
90.5626641615
 20
252.0818379905
 11
90.5626641615
 21
239.4859449815
  0
LINE
  5
23A
100
AcDbEntity
  8
0
100
AcDbLine
 62
7
  6
CONTINUOUS
 10
90.6844320848
 20
239.4859449815
 11
90.6844320848
 21
252.0269443231
  0
LINE
  5
23B
100
AcDbEntity
  8
0
100
AcDbLine
 62
7
  6
CONTINUOUS
 10
90.6844320848
 20
272.973055677
 11
90.6844320848
 21
275.9140550186
  0
LINE
  5
23C
100
AcDbEntity
  8
0
100
AcDbLine
 62
7
  6
CONTINUOUS
 10
85.6839362704
 20
258.6911835351
 11
85.6825774601
 21
240.9255090653
  0
LINE
  5
23D
100
AcDbEntity
  8
0
100
AcDbLine
 62
7
  6
CONTINUOUS
 10
85.3427736939
 20
263.3728921229
 11
85.3671319616
 21
263.4698801366
  0
LINE
  5
23E
100
AcDbEntity
  8
0
100
AcDbLine
 62
7
  6
CONTINUOUS
 10
85.3671319616
 20
261.5301198635
 11
85.3427736939
 21
261.6271078772
  0
LINE
  5
23F
100
AcDbEntity
  8
0
100
AcDbLine
 62
7
  6
CONTINUOUS
 10
95.5626664836
 20
252.0269443231
 11
95.5626664836
 21
239.4859449815
  0
LINE
  5
240
100
AcDbEntity
  8
0
100
AcDbLine
 62
7
  6
CONTINUOUS
 10
95.5626650942
 20
272.9730559935
 11
95.5626650942
 21
275.9140460866
  0
LINE
  5
241
100
AcDbEntity
  8
0
100
AcDbLine
 62
7
  6
CONTINUOUS
 10
95.6844325174
 20
239.4859449815
 11
95.6844325174
 21
252.0818373003
  0
LINE
  5
242
100
AcDbEntity
  8
0
100
AcDbLine
 62
7
  6
CONTINUOUS
 10
95.6844340992
 20
272.918162156
 11
95.6844340992
 21
275.9140550186
  0
LINE
  5
243
100
AcDbEntity
  8
0
100
AcDbLine
 62
7
  6
CONTINUOUS
 10
97.8610080133
 20
260.9931398245
 11
97.8610080133
 21
261.3930789053
  0
LINE
  5
244
100
AcDbEntity
  8
0
100
AcDbLine
 62
7
  6
CONTINUOUS
 10
97.8610080129
 20
263.6069210948
 11
97.8610080129
 21
264.0068601757
  0
LINE
  5
245
100
AcDbEntity
  8
0
100
AcDbLine
 62
7
  6
CONTINUOUS
 10
97.9220885918
 20
260.5021907052
 11
97.9220885918
 21
260.9021297843
  0
LINE
  5
246
100
AcDbEntity
  8
0
100
AcDbLine
 62
7
  6
CONTINUOUS
 10
97.9220885918
 20
264.0978702158
 11
97.9220885918
 21
264.4978092949
  0
LINE
  5
247
100
AcDbEntity
  8
0
100
AcDbLine
 62
7
  6
CONTINUOUS
 10
100.5626727287
 20
240.9145079134
 11
100.5626727287
 21
258.6911944245
  0
LINE
  5
248
100
AcDbEntity
  8
0
100
AcDbLine
 62
7
  6
CONTINUOUS
 10
100.6844304533
 20
266.0609848839
 11
100.6844304533
 21
274.4854848209
  0
LINE
  5
249
100
AcDbEntity
  8
0
100
AcDbLine
 62
7
  6
CONTINUOUS
 10
100.684431583
 20
240.914536044
 11
100.684431583
 21
258.9390166384
  0
LINE
  5
24A
100
AcDbEntity
  8
0
100
AcDbLine
 62
7
  6
CONTINUOUS
 10
100.56452756
 20
274.474490709
 11
100.5631620248
 21
266.308816465
  0
LINE
  5
24B
100
AcDbEntity
  8
0
100
AcDbLine
 62
7
  6
CONTINUOUS
 10
81.5822618294
 20
235.7496644431
 11
81.5026127919
 21
235.5981802082
  0
LINE
  5
24C
100
AcDbEntity
  8
0
100
AcDbLine
 62
7
  6
CONTINUOUS
 10
104.664836739
 20
279.6503355569
 11
104.7444857765
 21
279.8018197918
  0
LINE
  5
24D
100
AcDbEntity
  8
0
100
AcDbLine
 62
7
  6
CONTINUOUS
 10
88.325011257
 20
260.9021297853
 11
88.3860918362
 21
260.9931398244
  0
LINE
  5
24E
100
AcDbEntity
  8
0
100
AcDbLine
 62
7
  6
CONTINUOUS
 10
88.3860918358
 20
264.0068601755
 11
88.325011257
 21
264.0978702148
  0
LINE
  5
24F
100
AcDbEntity
  8
0
100
AcDbLine
 62
7
  6
CONTINUOUS
 10
104.6648436833
 20
235.7496680944
 11
104.7444927687
 21
235.5981838847
  0
LINE
  5
250
100
AcDbEntity
  8
0
100
AcDbLine
 62
7
  6
CONTINUOUS
 10
81.582253502
 20
279.6503311785
 11
81.502604407
 21
279.8018153831
  0
LINE
  5
251
100
AcDbEntity
  8
0
100
AcDbLine
 62
7
  6
CONTINUOUS
 10
97.9220873114
 20
264.0978702148
 11
97.8610067322
 21
264.0068601756
  0
LINE
  5
252
100
AcDbEntity
  8
0
100
AcDbLine
 62
7
  6
CONTINUOUS
 10
98.7468598632
 20
268.8347589504
 11
98.6141074074
 21
268.685210958
  0
LINE
  5
253
100
AcDbEntity
  8
0
100
AcDbLine
 62
7
  6
CONTINUOUS
 10
87.6329911609
 20
256.3147890421
 11
87.5002387052
 21
256.1652410497
  0
LINE
  5
254
100
AcDbEntity
  8
0
100
AcDbLine
 62
7
  6
CONTINUOUS
 10
98.6141073193
 20
256.3147889637
 11
98.7468597728
 21
256.1652409695
  0
LINE
  5
255
100
AcDbEntity
  8
0
100
AcDbLine
 62
7
  6
CONTINUOUS
 10
87.6329912491
 20
268.6852110364
 11
87.5002387955
 21
268.8347590305
  0
LINE
  5
256
100
AcDbEntity
  8
0
100
AcDbLine
 62
7
  6
CONTINUOUS
 10
97.8610067325
 20
260.9931398245
 11
97.9220873114
 21
260.9021297853
  0
LINE
  5
257
100
AcDbEntity
  8
0
100
AcDbLine
 62
7
  6
CONTINUOUS
 10
99.055082946
 20
268.3257027263
 11
99.125299169
 21
268.3596915104
  0
LINE
  5
258
100
AcDbEntity
  8
0
100
AcDbLine
 62
7
  6
CONTINUOUS
 10
87.1920156227
 20
256.674297274
 11
87.1217993994
 21
256.6403084897
  0
LINE
  5
259
100
AcDbEntity
  8
0
100
AcDbLine
 62
7
  6
CONTINUOUS
 10
97.9220885918
 20
264.4978092948
 11
97.5528708514
 21
264.3440903012
  0
LINE
  5
25A
100
AcDbEntity
  8
0
100
AcDbLine
 62
7
  6
CONTINUOUS
 10
88.3250099765
 20
260.5021907052
 11
88.694227717
 21
260.6559096989
  0
LINE
  5
25B
100
AcDbEntity
  8
0
100
AcDbLine
 62
7
  6
CONTINUOUS
 10
97.4899938445
 20
264.2574682326
 11
97.1189796558
 21
264.1081372056
  0
LINE
  5
25C
100
AcDbEntity
  8
0
100
AcDbLine
 62
7
  6
CONTINUOUS
 10
88.7571047239
 20
260.7425317675
 11
89.1281189125
 21
260.8918627945
  0
LINE
  5
25D
100
AcDbEntity
  8
0
100
AcDbLine
 62
7
  6
CONTINUOUS
 10
107.6914599068
 20
242.4695764542
 11
105.0050205724
 21
242.9522544935
  0
LINE
  5
25E
100
AcDbEntity
  8
0
100
AcDbLine
 62
7
  6
CONTINUOUS
 10
89.1281189128
 20
264.1081372062
 11
88.7571047242
 21
264.2574682332
  0
LINE
  5
25F
100
AcDbEntity
  8
0
100
AcDbLine
 62
7
  6
CONTINUOUS
 10
97.1189796556
 20
260.8918627939
 11
97.4899938442
 21
260.7425317668
  0
LINE
  5
260
100
AcDbEntity
  8
0
100
AcDbLine
 62
7
  6
CONTINUOUS
 10
97.9220885918
 20
260.5021907052
 11
97.5528708545
 21
260.6559096976
  0
LINE
  5
261
100
AcDbEntity
  8
0
100
AcDbLine
 62
7
  6
CONTINUOUS
 10
88.3250099766
 20
264.4978092949
 11
88.6942277139
 21
264.3440903025
  0
LINE
  5
262
100
AcDbEntity
  8
0
100
AcDbLine
 62
7
  6
CONTINUOUS
 10
99.1252991001
 20
256.6403080547
 11
99.0550830106
 21
256.6742967742
  0
LINE
  5
263
100
AcDbEntity
  8
0
100
AcDbLine
 62
7
  6
CONTINUOUS
 10
87.1217994683
 20
268.3596919454
 11
87.1920155578
 21
268.3257032259
  0
LINE
  5
264
100
AcDbEntity
  8
0
100
AcDbLine
 62
7
  6
CONTINUOUS
 10
90.5626641615
 20
239.4859449815
 11
90.6844320848
 21
239.4859449815
  0
LINE
  5
265
100
AcDbEntity
  8
0
100
AcDbLine
 62
7
  6
CONTINUOUS
 10
95.5626664836
 20
239.4859449815
 11
95.6844325174
 21
239.4859449815
  0
LINE
  5
266
100
AcDbEntity
  8
0
100
AcDbLine
 62
7
  6
CONTINUOUS
 10
100.5626664836
 20
240.914536044
 11
100.684431583
 21
240.914536044
  0
LINE
  5
267
100
AcDbEntity
  8
0
100
AcDbLine
 62
7
  6
CONTINUOUS
 10
85.2679198032
 20
263.4822858514
 11
85.2473111507
 21
263.4865670543
  0
LINE
  5
268
100
AcDbEntity
  8
0
100
AcDbLine
 62
7
  6
CONTINUOUS
 10
85.3427737129
 20
263.3728921181
 11
85.3150393059
 21
263.3793927289
  0
LINE
  5
269
100
AcDbEntity
  8
0
100
AcDbLine
 62
7
  6
CONTINUOUS
 10
85.2473111507
 20
263.4865670543
 11
85.2371039313
 21
263.4895521465
  0
LINE
  5
26A
100
AcDbEntity
  8
0
100
AcDbLine
 62
7
  6
CONTINUOUS
 10
81.2420782191
 20
242.9522528168
 11
78.5556389701
 21
242.4695747367
  0
LINE
  5
26B
100
AcDbEntity
  8
0
100
AcDbLine
 62
7
  6
CONTINUOUS
 10
85.9803840786
 20
260.5021907052
 11
88.3250099766
 21
260.5021907052
  0
LINE
  5
26C
100
AcDbEntity
  8
0
100
AcDbLine
 62
7
  6
CONTINUOUS
 10
97.9220885918
 20
260.5021907053
 11
100.2667144898
 21
260.5021907052
  0
LINE
  5
26D
100
AcDbEntity
  8
0
100
AcDbLine
 62
7
  6
CONTINUOUS
 10
100.7757211249
 20
260.9021297833
 11
97.9220873114
 21
260.9021297853
  0
LINE
  5
26E
100
AcDbEntity
  8
0
100
AcDbLine
 62
7
  6
CONTINUOUS
 10
88.325011257
 20
260.9021297853
 11
85.4713774435
 21
260.9021297833
  0
LINE
  5
26F
100
AcDbEntity
  8
0
100
AcDbLine
 62
7
  6
CONTINUOUS
 10
100.7148367772
 20
260.9371617663
 11
99.8442290604
 21
260.9371617663
  0
LINE
  5
270
100
AcDbEntity
  8
0
100
AcDbLine
 62
7
  6
CONTINUOUS
 10
86.4028695079
 20
260.9371617663
 11
85.5322617912
 21
260.9371617663
  0
LINE
  5
271
100
AcDbEntity
  8
0
100
AcDbLine
 62
7
  6
CONTINUOUS
 10
86.8006003037
 20
260.9930789003
 11
88.3860918362
 21
260.9931398244
  0
LINE
  5
272
100
AcDbEntity
  8
0
100
AcDbLine
 62
7
  6
CONTINUOUS
 10
88.3860905556
 20
261.3930783482
 11
86.3129160031
 21
261.3930789053
  0
LINE
  5
273
100
AcDbEntity
  8
0
100
AcDbLine
 62
7
  6
CONTINUOUS
 10
99.9341825653
 20
261.3930789053
 11
97.861008013
 21
261.3930787691
  0
LINE
  5
274
100
AcDbEntity
  8
0
100
AcDbLine
 62
7
  6
CONTINUOUS
 10
97.8610080128
 20
263.6069216468
 11
99.9341825653
 21
263.6069210948
  0
LINE
  5
275
100
AcDbEntity
  8
0
100
AcDbLine
 62
7
  6
CONTINUOUS
 10
86.3129160031
 20
263.6069210948
 11
88.3860905554
 21
263.6069212285
  0
LINE
  5
276
100
AcDbEntity
  8
0
100
AcDbLine
 62
7
  6
CONTINUOUS
 10
99.4464982646
 20
264.0069210997
 11
97.8610067322
 21
264.0068601756
  0
LINE
  5
277
100
AcDbEntity
  8
0
100
AcDbLine
 62
7
  6
CONTINUOUS
 10
85.4283954575
 20
264.0628382338
 11
86.4028695079
 21
264.0628382338
  0
LINE
  5
278
100
AcDbEntity
  8
0
100
AcDbLine
 62
7
  6
CONTINUOUS
 10
99.8442290604
 20
264.0628382338
 11
100.8187031109
 21
264.0628382338
  0
LINE
  5
279
100
AcDbEntity
  8
0
100
AcDbLine
 62
7
  6
CONTINUOUS
 10
85.4713774435
 20
264.0978702168
 11
88.325011257
 21
264.0978702148
  0
LINE
  5
27A
100
AcDbEntity
  8
0
100
AcDbLine
 62
7
  6
CONTINUOUS
 10
97.9220873114
 20
264.0978702148
 11
100.7757211249
 21
264.0978702168
  0
LINE
  5
27B
100
AcDbEntity
  8
0
100
AcDbLine
 62
7
  6
CONTINUOUS
 10
100.2667144898
 20
264.4978092949
 11
97.9220885918
 21
264.4978092948
  0
LINE
  5
27C
100
AcDbEntity
  8
0
100
AcDbLine
 62
7
  6
CONTINUOUS
 10
88.3250099765
 20
264.4978092948
 11
85.9803840786
 21
264.4978092949
  0
LINE
  5
27D
100
AcDbEntity
  8
0
100
AcDbLine
 62
7
  6
CONTINUOUS
 10
97.8610067325
 20
260.9931398245
 11
99.4464556779
 21
260.993048438
  0
LINE
  5
27E
100
AcDbEntity
  8
0
100
AcDbLine
 62
7
  6
CONTINUOUS
 10
88.3860918358
 20
264.0068601755
 11
86.8006428904
 21
264.006951562
  0
LINE
  5
27F
100
AcDbEntity
  8
0
100
AcDbLine
 62
7
  6
CONTINUOUS
 10
85.3671319616
 20
263.4698801366
 11
85.2679198032
 21
263.4822858514
  0
LINE
  5
280
100
AcDbEntity
  8
0
100
AcDbLine
 62
7
  6
CONTINUOUS
 10
78.5556386615
 20
272.9304235459
 11
81.242077996
 21
272.4477455066
  0
LINE
  5
281
100
AcDbEntity
  8
0
100
AcDbLine
 62
7
  6
CONTINUOUS
 10
85.2679198032
 20
261.5177141486
 11
85.3671319616
 21
261.5301198635
  0
LINE
  5
282
100
AcDbEntity
  8
0
100
AcDbLine
 62
7
  6
CONTINUOUS
 10
85.6844320848
 20
274.485463956
 11
85.5626669854
 21
274.485463956
  0
LINE
  5
283
100
AcDbEntity
  8
0
100
AcDbLine
 62
7
  6
CONTINUOUS
 10
90.5626660471
 20
275.9140550186
 11
90.6844320848
 21
275.9140550186
  0
LINE
  5
284
100
AcDbEntity
  8
0
100
AcDbLine
 62
7
  6
CONTINUOUS
 10
95.5626664836
 20
275.9140550186
 11
95.6844340992
 21
275.9140550186
  0
LINE
  5
285
100
AcDbEntity
  8
0
100
AcDbLine
 62
7
  6
CONTINUOUS
 10
85.2679198032
 20
261.5177141487
 11
85.2371039313
 21
261.5104478536
  0
LINE
  5
286
100
AcDbEntity
  8
0
100
AcDbLine
 62
7
  6
CONTINUOUS
 10
85.315035385
 20
261.6206064174
 11
85.3335527387
 21
261.6248437002
  0
LINE
  5
287
100
AcDbEntity
  8
0
100
AcDbLine
 62
7
  6
CONTINUOUS
 10
105.0050203489
 20
272.4477471832
 11
107.6914595983
 21
272.9304252634
  0
LINE
  5
288
100
AcDbEntity
  8
0
100
AcDbLine
 62
7
  6
CONTINUOUS
 10
328.1145931598
 20
457.3
 11
328.1145931598
 21
67.7
  0
LINE
  5
289
100
AcDbEntity
  8
0
100
AcDbLine
 62
7
  6
CONTINUOUS
 10
329.3287025149
 20
459.1354445964
 11
329.3287025149
 21
458.56186816
  0
LINE
  5
28A
100
AcDbEntity
  8
0
100
AcDbLine
 62
7
  6
CONTINUOUS
 10
329.3287025149
 20
66.4381318401
 11
329.3287025149
 21
65.8645554072
  0
LINE
  5
28B
100
AcDbEntity
  8
0
100
AcDbLine
 62
7
  6
CONTINUOUS
 10
329.9500377561
 20
66.2244353065
 11
329.9500377561
 21
458.7755646935
  0
LINE
  5
28C
100
AcDbEntity
  8
0
100
AcDbLine
 62
7
  6
CONTINUOUS
 10
331.9501761102
 20
64.5
 11
331.9501761102
 21
65.5
  0
LINE
  5
28D
100
AcDbEntity
  8
0
100
AcDbLine
 62
7
  6
CONTINUOUS
 10
331.9501761102
 20
459.5
 11
331.9501761102
 21
460.5
  0
LINE
  5
28E
100
AcDbEntity
  8
0
100
AcDbLine
 62
7
  6
CONTINUOUS
 10
337.1854174442
 20
460.5
 11
337.1854174442
 21
459.5
  0
LINE
  5
28F
100
AcDbEntity
  8
0
100
AcDbLine
 62
7
  6
CONTINUOUS
 10
337.1854174442
 20
65.5
 11
337.1854174442
 21
64.5
  0
LINE
  5
290
100
AcDbEntity
  8
0
100
AcDbLine
 62
7
  6
CONTINUOUS
 10
337.7589938805
 20
459.5
 11
337.7589938805
 21
65.5
  0
LINE
  5
291
100
AcDbEntity
  8
0
100
AcDbLine
 62
7
  6
CONTINUOUS
 10
338.1235492842
 20
64.5
 11
338.1235492842
 21
65.5
  0
LINE
  5
292
100
AcDbEntity
  8
0
100
AcDbLine
 62
7
  6
CONTINUOUS
 10
338.1235492842
 20
459.5
 11
338.1235492842
 21
460.5
  0
LINE
  5
293
100
AcDbEntity
  8
0
100
AcDbLine
 62
7
  6
CONTINUOUS
 10
339.1235492842
 20
65.5
 11
339.1235492842
 21
459.5
  0
LINE
  5
294
100
AcDbEntity
  8
0
100
AcDbLine
 62
7
  6
CONTINUOUS
 10
339.398092999
 20
460.3
 11
339.398092999
 21
460.0071054717
  0
LINE
  5
295
100
AcDbEntity
  8
0
100
AcDbLine
 62
7
  6
CONTINUOUS
 10
339.398092999
 20
64.9928919093
 11
339.398092999
 21
64.7
  0
LINE
  5
296
100
AcDbEntity
  8
0
100
AcDbLine
 62
7
  6
CONTINUOUS
 10
341.598092999
 20
62.5
 11
341.598092999
 21
462.5
  0
LINE
  5
297
100
AcDbEntity
  8
0
100
AcDbLine
 62
7
  6
CONTINUOUS
 10
333.6936229058
 20
459.5
 11
329.9500377561
 21
458.7755646935
  0
LINE
  5
298
100
AcDbEntity
  8
0
100
AcDbLine
 62
7
  6
CONTINUOUS
 10
329.3764613198
 20
458.7755646935
 11
333.1200464694
 21
459.5
  0
LINE
  5
299
100
AcDbEntity
  8
0
100
AcDbLine
 62
7
  6
CONTINUOUS
 10
52.2970608123
 20
458.7755646935
 11
48.5534756626
 21
459.5
  0
LINE
  5
29A
100
AcDbEntity
  8
0
100
AcDbLine
 62
7
  6
CONTINUOUS
 10
49.1270520989
 20
459.5
 11
52.8706372486
 21
458.7755646935
  0
LINE
  5
29B
100
AcDbEntity
  8
0
100
AcDbLine
 62
7
  6
CONTINUOUS
 10
54.1325054086
 20
457.3
 11
328.1145931598
 21
457.3
  0
LINE
  5
29C
100
AcDbEntity
  8
0
100
AcDbLine
 62
7
  6
CONTINUOUS
 10
329.9500377561
 20
458.7755646936
 11
329.3764613198
 21
458.7755646936
  0
LINE
  5
29D
100
AcDbEntity
  8
0
100
AcDbLine
 62
7
  6
CONTINUOUS
 10
52.8706372486
 20
458.7755646936
 11
52.2970608123
 21
458.7755646936
  0
LINE
  5
29E
100
AcDbEntity
  8
0
100
AcDbLine
 62
7
  6
CONTINUOUS
 10
43.1235492842
 20
459.5
 11
50.2969224582
 21
459.5
  0
LINE
  5
29F
100
AcDbEntity
  8
0
100
AcDbLine
 62
7
  6
CONTINUOUS
 10
331.9501761102
 20
459.5
 11
339.1235492842
 21
459.5
  0
LINE
  5
2A0
100
AcDbEntity
  8
0
100
AcDbLine
 62
7
  6
CONTINUOUS
 10
44.1235492842
 20
460.5
 11
338.1235492842
 21
460.5
  0
LINE
  5
2A1
100
AcDbEntity
  8
0
100
AcDbLine
 62
7
  6
CONTINUOUS
 10
341.598092999
 20
462.5
 11
41.598092999
 21
462.5
  0
ARC
  5
2A2
100
AcDbEntity
  8
0
100
AcDbCircle
 62
7
  6
CONTINUOUS
 10
56.7340671357
 20
37.1826652148
 40
30.9093262415
100
AcDbArc
 50
114.065487805
 51
114.9475716323
  0
ARC
  5
2A3
100
AcDbEntity
  8
0
100
AcDbCircle
 62
7
  6
CONTINUOUS
 10
27.0162848187
 20
76.171733605
 40
20.6200477717
100
AcDbArc
 50
325.4910695181
 51
326.0858262794
  0
ARC
  5
2A4
100
AcDbEntity
  8
0
100
AcDbCircle
 62
7
  6
CONTINUOUS
 10
51.2933790939
 20
48.8650162305
 40
18.0221869666
100
AcDbArc
 50
114.9299099903
 51
116.4755492792
  0
ARC
  5
2A5
100
AcDbEntity
  8
0
100
AcDbCircle
 62
7
  6
CONTINUOUS
 10
34.4341825931
 20
74.4546176078
 40
13.5485070759
100
AcDbArc
 50
314.0103090631
 51
315.6779566754
  0
ARC
  5
2A6
100
AcDbEntity
  8
0
100
AcDbCircle
 62
7
  6
CONTINUOUS
 10
42.3341993602
 20
73.8143743149
 40
13.2377517771
100
AcDbArc
 50
324.2104804851
 51
325.0882603054
  0
ARC
  5
2A7
100
AcDbEntity
  8
0
100
AcDbCircle
 62
7
  6
CONTINUOUS
 10
44.2740551262
 20
72.4127928762
 40
10.8445398272
100
AcDbArc
 50
322.8554427826
 51
324.2235633894
  0
ARC
  5
2A8
100
AcDbEntity
  8
0
100
AcDbCircle
 62
7
  6
CONTINUOUS
 10
48.2170230927
 20
58.8153712384
 40
7.6327401121
100
AcDbArc
 50
126.1806378641
 51
127.9265812634
  0
ARC
  5
2A9
100
AcDbEntity
  8
0
100
AcDbCircle
 62
7
  6
CONTINUOUS
 10
49.2813770071
 20
71.6624761967
 40
6.3588906721
100
AcDbArc
 50
295.756048276
 51
299.1906637204
  0
ARC
  5
2AA
100
AcDbEntity
  8
0
100
AcDbCircle
 62
7
  6
CONTINUOUS
 10
39.9182505536
 20
68.3249286884
 40
5.2678198907
100
AcDbArc
 50
304.3238863112
 51
306.0448646923
  0
ARC
  5
2AB
100
AcDbEntity
  8
0
100
AcDbCircle
 62
7
  6
CONTINUOUS
 10
41.3028557786
 20
66.2997859047
 40
2.8511789691
100
AcDbArc
 50
293.9498667479
 51
297.1395656929
  0
ARC
  5
2AC
100
AcDbEntity
  8
0
100
AcDbCircle
 62
7
  6
CONTINUOUS
 10
22.9235492842
 20
257.7
 40
86.2
100
AcDbArc
 50
346.8037704616
 51
13.196229654
  0
ARC
  5
2AD
100
AcDbEntity
  8
0
100
AcDbCircle
 62
7
  6
CONTINUOUS
 10
22.9235492842
 20
257.7
 40
86.1252835857
100
AcDbArc
 50
349.8142063028
 51
10.1857866364
  0
ARC
  5
2AE
100
AcDbEntity
  8
0
100
AcDbCircle
 62
7
  6
CONTINUOUS
 10
88.0260361797
 20
248.4109442173
 40
20.214700431
100
AcDbArc
 50
50.7400501893
 51
50.8972153185
  0
ARC
  5
2AF
100
AcDbEntity
  8
0
100
AcDbCircle
 62
7
  6
CONTINUOUS
 10
88.6500909921
 20
249.1893325976
 40
19.2170601362
100
AcDbArc
 50
50.877347394
 51
52.8074636002
  0
ARC
  5
2B0
100
AcDbEntity
  8
0
100
AcDbCircle
 62
7
  6
CONTINUOUS
 10
88.5881661729
 20
250.2709404999
 40
17.5094393515
100
AcDbArc
 50
49.6094513347
 51
51.383616231
  0
ARC
  5
2B1
100
AcDbEntity
  8
0
100
AcDbCircle
 62
7
  6
CONTINUOUS
 10
93.0990974419
 20
262.4572589291
 40
8.3992114158
100
AcDbArc
 50
27.2943421917
 51
43.6371582762
  0
ARC
  5
2B2
100
AcDbEntity
  8
0
100
AcDbCircle
 62
7
  6
CONTINUOUS
 10
93.0845448738
 20
262.4999997636
 40
8.3927531342
100
AcDbArc
 50
334.8942123594
 51
25.1058058173
  0
ARC
  5
2B3
100
AcDbEntity
  8
0
100
AcDbCircle
 62
7
  6
CONTINUOUS
 10
80.4418328117
 20
251.0813483511
 40
8.1683870846
100
AcDbArc
 50
275.6222035445
 51
276.3743902968
  0
ARC
  5
2B4
100
AcDbEntity
  8
0
100
AcDbCircle
 62
7
  6
CONTINUOUS
 10
92.3321891839
 20
255.8445856095
 40
4.1580630646
100
AcDbArc
 50
244.8135852228
 51
246.6541736607
  0
ARC
  5
2B5
100
AcDbEntity
  8
0
100
AcDbCircle
 62
7
  6
CONTINUOUS
 10
90.0265453948
 20
243.1903673987
 40
3.7623799909
100
AcDbArc
 50
279.1077594418
 51
280.0695519551
  0
ARC
  5
2B6
100
AcDbEntity
  8
0
100
AcDbCircle
 62
7
  6
CONTINUOUS
 10
91.2191453853
 20
243.0181856306
 40
3.5927202526
100
AcDbArc
 50
259.4714778816
 51
260.4341061095
  0
ARC
  5
2B7
100
AcDbEntity
  8
0
100
AcDbCircle
 62
7
  6
CONTINUOUS
 10
80.5491512632
 20
242.5152368378
 40
2.3792925208
100
AcDbArc
 50
310.6533864536
 51
312.4942160326
  0
ARC
  5
2B8
100
AcDbEntity
  8
0
100
AcDbCircle
 62
7
  6
CONTINUOUS
 10
85.1235492842
 20
262.5
 40
1.0
100
AcDbArc
 50
284.0980898366
 51
75.9019101634
  0
ARC
  5
2B9
100
AcDbEntity
  8
0
100
AcDbCircle
 62
7
  6
CONTINUOUS
 10
85.1235492842
 20
262.5
 40
0.9
100
AcDbArc
 50
282.2842813965
 51
77.7154631422
  0
ARC
  5
2BA
100
AcDbEntity
  8
0
100
AcDbCircle
 62
7
  6
CONTINUOUS
 10
88.3860545567
 20
260.5931459172
 40
0.7999324318
100
AcDbArc
 50
21.9269224508
 51
89.9974215535
  0
ARC
  5
2BB
100
AcDbEntity
  8
0
100
AcDbCircle
 62
7
  6
CONTINUOUS
 10
88.3232238846
 20
260.5033057449
 40
0.399985055
100
AcDbArc
 50
22.3569621557
 51
89.7434171014
  0
ARC
  5
2BC
100
AcDbEntity
  8
0
100
AcDbCircle
 62
7
  6
CONTINUOUS
 10
88.3861982144
 20
260.593360046
 40
0.399779718
100
AcDbArc
 50
21.9098156616
 51
90.0146947426
  0
ARC
  5
2BD
100
AcDbEntity
  8
0
100
AcDbCircle
 62
7
  6
CONTINUOUS
 10
85.3676182421
 20
261.5301288194
 40
0.1004684167
100
AcDbArc
 50
173.3273562279
 51
187.0980610501
  0
ARC
  5
2BE
100
AcDbEntity
  8
0
100
AcDbCircle
 62
7
  6
CONTINUOUS
 10
98.2210624055
 20
248.4109441966
 40
20.2147004576
100
AcDbArc
 50
129.1027846817
 51
129.2599498106
  0
ARC
  5
2BF
100
AcDbEntity
  8
0
100
AcDbCircle
 62
7
  6
CONTINUOUS
 10
97.6796391168
 20
249.0841665724
 40
19.3507868167
100
AcDbArc
 50
127.199206211
 51
129.1159827947
  0
ARC
  5
2C0
100
AcDbEntity
  8
0
100
AcDbCircle
 62
7
  6
CONTINUOUS
 10
97.2997565611
 20
250.7059938584
 40
16.9453412184
100
AcDbArc
 50
128.5756803583
 51
130.418773431
  0
ARC
  5
2C1
100
AcDbEntity
  8
0
100
AcDbCircle
 62
7
  6
CONTINUOUS
 10
105.8053983654
 20
251.0787086637
 40
8.1657763265
100
AcDbArc
 50
263.6222439684
 51
264.375118033
  0
ARC
  5
2C2
100
AcDbEntity
  8
0
100
AcDbCircle
 62
7
  6
CONTINUOUS
 10
101.2215185934
 20
245.1182795614
 40
4.2550611774
100
AcDbArc
 50
261.0925043761
 51
261.980650257
  0
ARC
  5
2C3
100
AcDbEntity
  8
0
100
AcDbCircle
 62
7
  6
CONTINUOUS
 10
96.2204463178
 20
243.1897570823
 40
3.7617728795
100
AcDbArc
 50
259.9295577815
 51
260.8923465137
  0
ARC
  5
2C4
100
AcDbEntity
  8
0
100
AcDbCircle
 62
7
  6
CONTINUOUS
 10
100.0295516001
 20
244.5608755607
 40
3.7046994422
100
AcDbArc
 50
279.2945973767
 51
280.1820931592
  0
ARC
  5
2C5
100
AcDbEntity
  8
0
100
AcDbCircle
 62
7
  6
CONTINUOUS
 10
95.0279686339
 20
243.01816313
 40
3.5927071095
100
AcDbArc
 50
279.5656260539
 51
280.5284753814
  0
ARC
  5
2C6
100
AcDbEntity
  8
0
100
AcDbCircle
 62
7
  6
CONTINUOUS
 10
105.6931832181
 20
242.5115320846
 40
2.3733399541
100
AcDbArc
 50
227.5301543806
 51
229.3751665672
  0
ARC
  5
2C7
100
AcDbEntity
  8
0
100
AcDbCircle
 62
7
  6
CONTINUOUS
 10
93.1235492842
 20
257.7
 40
25.0
100
AcDbArc
 50
240.0421758082
 51
299.9578305783
  0
ARC
  5
2C8
100
AcDbEntity
  8
0
100
AcDbCircle
 62
7
  6
CONTINUOUS
 10
93.1235492842
 20
257.7
 40
25.0
100
AcDbArc
 50
60.0421757366
 51
119.9578307639
  0
ARC
  5
2C9
100
AcDbEntity
  8
0
100
AcDbCircle
 62
7
  6
CONTINUOUS
 10
93.1235492842
 20
257.7
 40
24.970714909
100
AcDbArc
 50
242.2651044887
 51
297.7348172815
  0
ARC
  5
2CA
100
AcDbEntity
  8
0
100
AcDbCircle
 62
7
  6
CONTINUOUS
 10
93.1235492842
 20
257.7
 40
24.970714909
100
AcDbArc
 50
62.2651044884
 51
117.7348192813
  0
ARC
  5
2CB
100
AcDbEntity
  8
0
100
AcDbCircle
 62
7
  6
CONTINUOUS
 10
93.1235492842
 20
257.7
 40
24.7995674796
100
AcDbArc
 50
242.2650132428
 51
297.7350048836
  0
ARC
  5
2CC
100
AcDbEntity
  8
0
100
AcDbCircle
 62
7
  6
CONTINUOUS
 10
93.1235492842
 20
257.7
 40
24.7995674796
100
AcDbArc
 50
62.2650132427
 51
117.7350084938
  0
ARC
  5
2CD
100
AcDbEntity
  8
0
100
AcDbCircle
 62
7
  6
CONTINUOUS
 10
93.123549593
 20
257.6806499151
 40
6.1574272504
100
AcDbArc
 50
246.6637163139
 51
293.3362859861
  0
ARC
  5
2CE
100
AcDbEntity
  8
0
100
AcDbCircle
 62
7
  6
CONTINUOUS
 10
93.1235492842
 20
257.6
 40
6.0034300864
100
AcDbArc
 50
188.8709384564
 51
351.129053126
  0
ARC
  5
2CF
100
AcDbEntity
  8
0
100
AcDbCircle
 62
7
  6
CONTINUOUS
 10
93.1235492842
 20
257.6
 40
5.8034605474
100
AcDbArc
 50
194.3133474827
 51
345.686652784
  0
ARC
  5
2D0
100
AcDbEntity
  8
0
100
AcDbCircle
 62
7
  6
CONTINUOUS
 10
93.914912822
 20
255.8445643831
 40
4.1580422138
100
AcDbArc
 50
293.3458987574
 51
295.1864687781
  0
ARC
  5
2D1
100
AcDbEntity
  8
0
100
AcDbCircle
 62
7
  6
CONTINUOUS
 10
93.1235492842
 20
262.5
 40
8.470583972
100
AcDbArc
 50
48.4048141731
 51
131.5951858235
  0
ARC
  5
2D2
100
AcDbEntity
  8
0
100
AcDbCircle
 62
7
  6
CONTINUOUS
 10
93.1235492842
 20
262.5
 40
8.470583972
100
AcDbArc
 50
228.4048143542
 51
311.5951858231
  0
ARC
  5
2D3
100
AcDbEntity
  8
0
100
AcDbCircle
 62
7
  6
CONTINUOUS
 10
93.1644747499
 20
262.5000002367
 40
8.3945124897
100
AcDbArc
 50
154.8997756284
 51
205.1002425483
  0
ARC
  5
2D4
100
AcDbEntity
  8
0
100
AcDbCircle
 62
7
  6
CONTINUOUS
 10
93.138470913
 20
262.4659298999
 40
8.3863304305
100
AcDbArc
 50
136.3607832136
 51
152.7269420889
  0
ARC
  5
2D5
100
AcDbEntity
  8
0
100
AcDbCircle
 62
7
  6
CONTINUOUS
 10
93.1235492842
 20
262.5
 40
8.270614433
100
AcDbArc
 50
228.4048140844
 51
311.595186183
  0
ARC
  5
2D6
100
AcDbEntity
  8
0
100
AcDbCircle
 62
7
  6
CONTINUOUS
 10
93.1235492842
 20
262.5
 40
8.270614433
100
AcDbArc
 50
48.4048140492
 51
131.595186138
  0
CIRCLE
  5
2D7
100
AcDbEntity
  8
0
100
AcDbCircle
 62
7
  6
CONTINUOUS
 10
93.1235492842
 20
262.5
 40
8.0384011428
  0
ARC
  5
2D8
100
AcDbEntity
  8
0
100
AcDbCircle
 62
7
  6
CONTINUOUS
 10
93.1235492842
 20
262.5
 40
7.9482849568
100
AcDbArc
 50
187.1518145498
 51
172.8481854502
  0
ARC
  5
2D9
100
AcDbEntity
  8
0
100
AcDbCircle
 62
7
  6
CONTINUOUS
 10
93.1235492842
 20
262.5
 40
7.9168049133
100
AcDbArc
 50
187.1274017506
 51
91.1793280922
  0
ARC
  5
2DA
100
AcDbEntity
  8
0
100
AcDbCircle
 62
7
  6
CONTINUOUS
 10
93.1235492842
 20
262.5
 40
7.9168049133
100
AcDbArc
 50
98.751674501
 51
114.1327302495
  0
ARC
  5
2DB
100
AcDbEntity
  8
0
100
AcDbCircle
 62
7
  6
CONTINUOUS
 10
93.1235492842
 20
262.5
 40
7.9168049133
100
AcDbArc
 50
119.8378589767
 51
135.2646135441
  0
ARC
  5
2DC
100
AcDbEntity
  8
0
100
AcDbCircle
 62
7
  6
CONTINUOUS
 10
93.1235492842
 20
262.5
 40
7.9168049133
100
AcDbArc
 50
140.7516745524
 51
156.4636999911
  0
ARC
  5
2DD
100
AcDbEntity
  8
0
100
AcDbCircle
 62
7
  6
CONTINUOUS
 10
93.1235492842
 20
262.5
 40
7.9168049133
100
AcDbArc
 50
168.4916063698
 51
172.8725982494
  0
ARC
  5
2DE
100
AcDbEntity
  8
0
100
AcDbCircle
 62
7
  6
CONTINUOUS
 10
93.1235492842
 20
262.5
 40
7.8522516364
100
AcDbArc
 50
11.4802759913
 51
168.5197240087
  0
ARC
  5
2DF
100
AcDbEntity
  8
0
100
AcDbCircle
 62
7
  6
CONTINUOUS
 10
93.1235492842
 20
262.5
 40
7.8504756666
100
AcDbArc
 50
191.4961352035
 51
348.5038647965
  0
ARC
  5
2E0
100
AcDbEntity
  8
0
100
AcDbCircle
 62
7
  6
CONTINUOUS
 10
93.1235492842
 20
262.5
 40
7.8172196534
100
AcDbArc
 50
11.7946063972
 51
168.2053936028
  0
ARC
  5
2E1
100
AcDbEntity
  8
0
100
AcDbCircle
 62
7
  6
CONTINUOUS
 10
93.1235492842
 20
262.5
 40
7.8168201438
100
AcDbArc
 50
168.5136797319
 51
172.8725982492
  0
ARC
  5
2E2
100
AcDbEntity
  8
0
100
AcDbCircle
 62
7
  6
CONTINUOUS
 10
93.1235492842
 20
262.5
 40
7.8168201438
100
AcDbArc
 50
191.7946063972
 51
10.5020518184
  0
ARC
  5
2E3
100
AcDbEntity
  8
0
100
AcDbCircle
 62
7
  6
CONTINUOUS
 10
93.1235492842
 20
262.5
 40
7.4172805753
100
AcDbArc
 50
15.6253091674
 51
164.3746908326
  0
ARC
  5
2E4
100
AcDbEntity
  8
0
100
AcDbCircle
 62
7
  6
CONTINUOUS
 10
93.1235492842
 20
262.5
 40
7.4172805753
100
AcDbArc
 50
195.6253091674
 51
344.3746908326
  0
ARC
  5
2E5
100
AcDbEntity
  8
0
100
AcDbCircle
 62
7
  6
CONTINUOUS
 10
93.1235492842
 20
262.5
 40
7.3938907273
100
AcDbArc
 50
182.8315187341
 51
184.9579005543
  0
ARC
  5
2E6
100
AcDbEntity
  8
0
100
AcDbCircle
 62
7
  6
CONTINUOUS
 10
93.1235492842
 20
262.5
 40
7.3938907273
100
AcDbArc
 50
175.0420994457
 51
176.8515355789
  0
ARC
  5
2E7
100
AcDbEntity
  8
0
100
AcDbCircle
 62
7
  6
CONTINUOUS
 10
94.0951642438
 20
262.0226192282
 40
7.2750978686
100
AcDbArc
 50
332.7468271923
 51
334.9216508804
  0
ARC
  5
2E8
100
AcDbEntity
  8
0
100
AcDbCircle
 62
7
  6
CONTINUOUS
 10
93.1235492842
 20
262.5
 40
7.1061092727
100
AcDbArc
 50
179.2044674834
 51
180.7955325166
  0
ARC
  5
2E9
100
AcDbEntity
  8
0
100
AcDbCircle
 62
7
  6
CONTINUOUS
 10
93.1235492842
 20
262.5
 40
6.9
100
AcDbArc
 50
9.2314696444
 51
15.6820605491
  0
ARC
  5
2EA
100
AcDbEntity
  8
0
100
AcDbCircle
 62
7
  6
CONTINUOUS
 10
93.1235492842
 20
262.5
 40
6.9
100
AcDbArc
 50
189.2314696444
 51
195.6820605491
  0
ARC
  5
2EB
100
AcDbEntity
  8
0
100
AcDbCircle
 62
7
  6
CONTINUOUS
 10
93.1235492842
 20
262.5
 40
6.5
100
AcDbArc
 50
13.4055602782
 51
13.8489172788
  0
ARC
  5
2EC
100
AcDbEntity
  8
0
100
AcDbCircle
 62
7
  6
CONTINUOUS
 10
93.1235492842
 20
262.5
 40
6.5
100
AcDbArc
 50
166.1510827211
 51
166.5943759315
  0
ARC
  5
2ED
100
AcDbEntity
  8
0
100
AcDbCircle
 62
7
  6
CONTINUOUS
 10
93.1235492842
 20
262.5
 40
6.5
100
AcDbArc
 50
193.4055602782
 51
193.8489172788
  0
ARC
  5
2EE
100
AcDbEntity
  8
0
100
AcDbCircle
 62
7
  6
CONTINUOUS
 10
93.1235492842
 20
262.5
 40
6.5
100
AcDbArc
 50
346.1510827211
 51
346.5943759315
  0
ARC
  5
2EF
100
AcDbEntity
  8
0
100
AcDbCircle
 62
7
  6
CONTINUOUS
 10
93.1235492842
 20
262.5
 40
5.1978092948
100
AcDbArc
 50
22.6037670358
 51
157.3962329645
  0
ARC
  5
2F0
100
AcDbEntity
  8
0
100
AcDbCircle
 62
7
  6
CONTINUOUS
 10
93.1235492842
 20
262.5
 40
5.1978092948
100
AcDbArc
 50
202.6037670358
 51
337.3962329645
  0
ARC
  5
2F1
100
AcDbEntity
  8
0
100
AcDbCircle
 62
7
  6
CONTINUOUS
 10
93.1235492842
 20
262.5
 40
4.7978702168
100
AcDbArc
 50
22.6038976363
 51
157.396248218
  0
ARC
  5
2F2
100
AcDbEntity
  8
0
100
AcDbCircle
 62
7
  6
CONTINUOUS
 10
93.1235492842
 20
262.5
 40
4.7978702168
100
AcDbArc
 50
202.6038976363
 51
337.396248218
  0
ARC
  5
2F3
100
AcDbEntity
  8
0
100
AcDbCircle
 62
7
  6
CONTINUOUS
 10
93.1235492842
 20
262.5
 40
4.7068601728
100
AcDbArc
 50
21.9244791776
 51
158.0755208195
  0
ARC
  5
2F4
100
AcDbEntity
  8
0
100
AcDbCircle
 62
7
  6
CONTINUOUS
 10
93.1235492842
 20
262.5
 40
4.7068601728
100
AcDbArc
 50
201.9244791776
 51
338.0755208195
  0
ARC
  5
2F5
100
AcDbEntity
  8
0
100
AcDbCircle
 62
7
  6
CONTINUOUS
 10
93.1235492842
 20
262.5
 40
4.3069210727
100
AcDbArc
 50
21.9245411378
 51
158.0753188355
  0
ARC
  5
2F6
100
AcDbEntity
  8
0
100
AcDbCircle
 62
7
  6
CONTINUOUS
 10
93.1235492842
 20
262.5
 40
4.3069210727
100
AcDbArc
 50
201.9245419768
 51
338.0753171602
  0
CIRCLE
  5
2F7
100
AcDbEntity
  8
0
100
AcDbCircle
 62
7
  6
CONTINUOUS
 10
93.1235492842
 20
262.5
 40
2.4826964218
  0
CIRCLE
  5
2F8
100
AcDbEntity
  8
0
100
AcDbCircle
 62
7
  6
CONTINUOUS
 10
93.1235492842
 20
262.5
 40
1.4828495677
  0
CIRCLE
  5
2F9
100
AcDbEntity
  8
0
100
AcDbCircle
 62
7
  6
CONTINUOUS
 10
93.1235492842
 20
262.5
 40
1.4021297831
  0
CIRCLE
  5
2FA
100
AcDbEntity
  8
0
100
AcDbCircle
 62
7
  6
CONTINUOUS
 10
93.1235492842
 20
262.5
 40
1.0021904046
  0
ARC
  5
2FB
100
AcDbEntity
  8
0
100
AcDbCircle
 62
7
  6
CONTINUOUS
 10
97.8610457982
 20
260.5931421072
 40
0.7999366628
100
AcDbArc
 50
90.0027063803
 51
158.0736305991
  0
ARC
  5
2FC
100
AcDbEntity
  8
0
100
AcDbCircle
 62
7
  6
CONTINUOUS
 10
97.9238730464
 20
260.50330818
 40
0.3999826127
100
AcDbArc
 50
90.2563499155
 51
157.6415256182
  0
ARC
  5
2FD
100
AcDbEntity
  8
0
100
AcDbCircle
 62
7
  6
CONTINUOUS
 10
97.860900403
 20
260.5933601465
 40
0.3997796701
100
AcDbArc
 50
89.9853138625
 51
158.0901987972
  0
ARC
  5
2FE
100
AcDbEntity
  8
0
100
AcDbCircle
 62
7
  6
CONTINUOUS
 10
163.3235492842
 20
257.7
 40
86.2
100
AcDbArc
 50
166.8037704616
 51
193.196229654
  0
ARC
  5
2FF
100
AcDbEntity
  8
0
100
AcDbCircle
 62
7
  6
CONTINUOUS
 10
163.3235492842
 20
257.7
 40
86.1252835857
100
AcDbArc
 50
169.8142063028
 51
190.1857866364
  0
ARC
  5
300
100
AcDbEntity
  8
0
100
AcDbCircle
 62
7
  6
CONTINUOUS
 10
56.7340866938
 20
487.8173774636
 40
30.9093731889
100
AcDbArc
 50
245.0524358045
 51
245.9345127454
  0
ARC
  5
301
100
AcDbEntity
  8
0
100
AcDbCircle
 62
7
  6
CONTINUOUS
 10
26.6743719056
 20
448.5950775437
 40
21.0339066021
100
AcDbArc
 50
33.8100144669
 51
34.504717161
  0
ARC
  5
302
100
AcDbEntity
  8
0
100
AcDbCircle
 62
7
  6
CONTINUOUS
 10
51.2934174481
 20
476.1350628359
 40
18.0222748355
100
AcDbArc
 50
243.5244661384
 51
245.070097292
  0
ARC
  5
303
100
AcDbEntity
  8
0
100
AcDbCircle
 62
7
  6
CONTINUOUS
 10
62.3617999925
 20
469.8646031484
 40
14.9767377779
100
AcDbArc
 50
229.4091453952
 51
230.0920447765
  0
ARC
  5
304
100
AcDbEntity
  8
0
100
AcDbCircle
 62
7
  6
CONTINUOUS
 10
34.4341734174
 20
450.5453729131
 40
13.5485202635
100
AcDbArc
 50
44.3220478157
 51
45.9896851257
  0
ARC
  5
305
100
AcDbEntity
  8
0
100
AcDbCircle
 62
7
  6
CONTINUOUS
 10
60.3450889832
 20
467.5260546693
 40
11.8887271083
100
AcDbArc
 50
227.3945362884
 51
229.456647912
  0
ARC
  5
306
100
AcDbEntity
  8
0
100
AcDbCircle
 62
7
  6
CONTINUOUS
 10
48.2170033817
 20
466.1846024465
 40
7.6327072385
100
AcDbArc
 50
232.0733932503
 51
233.8193342961
  0
ARC
  5
307
100
AcDbEntity
  8
0
100
AcDbCircle
 62
7
  6
CONTINUOUS
 10
49.2813770069
 20
453.3375238031
 40
6.3588906724
100
AcDbArc
 50
60.8093362794
 51
64.243951724
  0
ARC
  5
308
100
AcDbEntity
  8
0
100
AcDbCircle
 62
7
  6
CONTINUOUS
 10
41.3028603777
 20
458.7002232569
 40
2.8511687281
100
AcDbArc
 50
62.8604351244
 51
66.0502313477
  0
ARC
  5
309
100
AcDbEntity
  8
0
100
AcDbCircle
 62
7
  6
CONTINUOUS
 10
88.0282003345
 20
276.5863978977
 40
20.2112729086
100
AcDbArc
 50
309.1027760237
 51
309.2520115571
  0
ARC
  5
30A
100
AcDbEntity
  8
0
100
AcDbCircle
 62
7
  6
CONTINUOUS
 10
98.2188982236
 20
276.586397885
 40
20.2112728923
100
AcDbArc
 50
230.7479884428
 51
230.8972239764
  0
ARC
  5
30B
100
AcDbEntity
  8
0
100
AcDbCircle
 62
7
  6
CONTINUOUS
 10
88.5674594519
 20
275.9158334273
 40
19.3507868162
100
AcDbArc
 50
307.199206211
 51
309.1159827947
  0
ARC
  5
30C
100
AcDbEntity
  8
0
100
AcDbCircle
 62
7
  6
CONTINUOUS
 10
97.5970075765
 20
275.8106674028
 40
19.2170601366
100
AcDbArc
 50
230.877347394
 51
232.8074636002
  0
ARC
  5
30D
100
AcDbEntity
  8
0
100
AcDbCircle
 62
7
  6
CONTINUOUS
 10
97.6589323958
 20
274.7290595006
 40
17.509439352
100
AcDbArc
 50
229.6094513347
 51
231.3836162309
  0
ARC
  5
30E
100
AcDbEntity
  8
0
100
AcDbCircle
 62
7
  6
CONTINUOUS
 10
88.9473420072
 20
274.2940061419
 40
16.9453412186
100
AcDbArc
 50
308.5756803583
 51
310.418773431
  0
ARC
  5
30F
100
AcDbEntity
  8
0
100
AcDbCircle
 62
7
  6
CONTINUOUS
 10
93.1480105291
 20
262.5427496258
 40
8.3992241243
100
AcDbArc
 50
207.2943631262
 51
223.637156248
  0
ARC
  5
310
100
AcDbEntity
  8
0
100
AcDbCircle
 62
7
  6
CONTINUOUS
 10
93.1087007182
 20
262.5340034972
 40
8.3862315913
100
AcDbArc
 50
316.3607680377
 51
332.727154813
  0
ARC
  5
311
100
AcDbEntity
  8
0
100
AcDbCircle
 62
7
  6
CONTINUOUS
 10
80.4418329054
 20
264.3186452995
 40
8.1683936245
100
AcDbArc
 50
83.6256155497
 51
84.3778020333
  0
ARC
  5
312
100
AcDbEntity
  8
0
100
AcDbCircle
 62
7
  6
CONTINUOUS
 10
105.8052657568
 20
264.3186516477
 40
8.1683870859
100
AcDbArc
 50
95.6222035472
 51
96.3743902966
  0
ARC
  5
313
100
AcDbEntity
  8
0
100
AcDbCircle
 62
7
  6
CONTINUOUS
 10
92.1521955832
 20
262.9773656675
 40
7.2753409009
100
AcDbArc
 50
152.7476046351
 51
154.9224152287
  0
ARC
  5
314
100
AcDbEntity
  8
0
100
AcDbCircle
 62
7
  6
CONTINUOUS
 10
93.1235491104
 20
267.3213464725
 40
6.1555652198
100
AcDbArc
 50
66.6563553383
 51
113.3436404712
  0
ARC
  5
315
100
AcDbEntity
  8
0
100
AcDbCircle
 62
7
  6
CONTINUOUS
 10
93.1235492842
 20
267.4
 40
6.0034300864
100
AcDbArc
 50
8.8709384564
 51
171.129053126
  0
ARC
  5
316
100
AcDbEntity
  8
0
100
AcDbCircle
 62
7
  6
CONTINUOUS
 10
93.1235492842
 20
267.4
 40
5.8034605474
100
AcDbArc
 50
14.3133472776
 51
165.6866527847
  0
ARC
  5
317
100
AcDbEntity
  8
0
100
AcDbCircle
 62
7
  6
CONTINUOUS
 10
85.025579081
 20
270.2817144306
 40
4.2550672515
100
AcDbArc
 50
81.0925050532
 51
81.980649624
  0
ARC
  5
318
100
AcDbEntity
  8
0
100
AcDbCircle
 62
7
  6
CONTINUOUS
 10
93.9149115097
 20
269.1554189865
 40
4.1580580028
100
AcDbArc
 50
64.8135894672
 51
66.6541754515
  0
ARC
  5
319
100
AcDbEntity
  8
0
100
AcDbCircle
 62
7
  6
CONTINUOUS
 10
92.3321857824
 20
269.1554355381
 40
4.1580423004
100
AcDbArc
 50
113.3458987829
 51
115.1864688239
  0
ARC
  5
31A
100
AcDbEntity
  8
0
100
AcDbCircle
 62
7
  6
CONTINUOUS
 10
96.2204361426
 20
272.2102131673
 40
3.761789359
100
AcDbArc
 50
99.1074391589
 51
100.0702222988
  0
ARC
  5
31B
100
AcDbEntity
  8
0
100
AcDbCircle
 62
7
  6
CONTINUOUS
 10
90.0266683508
 20
272.2103379347
 40
3.7616751366
100
AcDbArc
 50
79.9294877425
 51
80.8923059876
  0
ARC
  5
31C
100
AcDbEntity
  8
0
100
AcDbCircle
 62
7
  6
CONTINUOUS
 10
86.2175469684
 20
270.8391244376
 40
3.7046994439
100
AcDbArc
 50
99.2945973735
 51
100.1820931556
  0
ARC
  5
31D
100
AcDbEntity
  8
0
100
AcDbCircle
 62
7
  6
CONTINUOUS
 10
95.0279445271
 20
272.3818223875
 40
3.5927198232
100
AcDbArc
 50
79.4714170315
 51
80.4339971795
  0
ARC
  5
31E
100
AcDbEntity
  8
0
100
AcDbCircle
 62
7
  6
CONTINUOUS
 10
91.2191314284
 20
272.3818268892
 40
3.5927170094
100
AcDbArc
 50
99.5655655904
 51
100.5284732424
  0
ARC
  5
31F
100
AcDbEntity
  8
0
100
AcDbCircle
 62
7
  6
CONTINUOUS
 10
83.1574249858
 20
262.5275651034
 40
2.6170884416
100
AcDbArc
 50
343.4402608907
 51
350.1067906471
  0
ARC
  5
320
100
AcDbEntity
  8
0
100
AcDbCircle
 62
7
  6
CONTINUOUS
 10
83.1574249858
 20
262.5275651034
 40
2.6170884416
100
AcDbArc
 50
9.5762636659
 51
14.9905354066
  0
ARC
  5
321
100
AcDbEntity
  8
0
100
AcDbCircle
 62
7
  6
CONTINUOUS
 10
83.1574249858
 20
262.5275651034
 40
2.6109791689
100
AcDbArc
 50
351.347090773
 51
8.33596354
  0
ARC
  5
322
100
AcDbEntity
  8
0
100
AcDbCircle
 62
7
  6
CONTINUOUS
 10
105.6950370798
 20
272.8893879633
 40
2.3739173848
100
AcDbArc
 50
130.6731349028
 51
132.5178443948
  0
ARC
  5
323
100
AcDbEntity
  8
0
100
AcDbCircle
 62
7
  6
CONTINUOUS
 10
80.5539153508
 20
272.8884679161
 40
2.3733399533
100
AcDbArc
 50
47.5301543802
 51
49.3751665674
  0
ARC
  5
324
100
AcDbEntity
  8
0
100
AcDbCircle
 62
7
  6
CONTINUOUS
 10
88.3860528066
 20
264.4068578131
 40
0.7999365855
100
AcDbArc
 50
270.0027037728
 51
338.0736259064
  0
ARC
  5
325
100
AcDbEntity
  8
0
100
AcDbCircle
 62
7
  6
CONTINUOUS
 10
97.8610439877
 20
264.4068540285
 40
0.7999323824
100
AcDbArc
 50
201.926923993
 51
269.997423266
  0
ARC
  5
326
100
AcDbEntity
  8
0
100
AcDbCircle
 62
7
  6
CONTINUOUS
 10
97.9238746838
 20
264.4966942551
 40
0.399985055
100
AcDbArc
 50
202.3569621558
 51
269.7434171016
  0
ARC
  5
327
100
AcDbEntity
  8
0
100
AcDbCircle
 62
7
  6
CONTINUOUS
 10
88.323225522
 20
264.4966918201
 40
0.3999826127
100
AcDbArc
 50
270.256349915
 51
337.6415256183
  0
ARC
  5
328
100
AcDbEntity
  8
0
100
AcDbCircle
 62
7
  6
CONTINUOUS
 10
97.860900354
 20
264.4066399541
 40
0.399779718
100
AcDbArc
 50
201.9098156607
 51
270.0146947434
  0
ARC
  5
329
100
AcDbEntity
  8
0
100
AcDbCircle
 62
7
  6
CONTINUOUS
 10
88.3861981654
 20
264.4066398536
 40
0.3997796701
100
AcDbArc
 50
269.9853138616
 51
338.0901987981
  0
ARC
  5
32A
100
AcDbEntity
  8
0
100
AcDbCircle
 62
7
  6
CONTINUOUS
 10
85.3368189493
 20
263.4770971357
 40
0.1004898605
100
AcDbArc
 50
172.8800776604
 51
186.9556119011
  0
ARC
  5
32B
100
AcDbEntity
  8
0
100
AcDbCircle
 62
7
  6
CONTINUOUS
 10
85.3366678845
 20
263.477410066
 40
0.1004612134
100
AcDbArc
 50
215.3107341399
 51
229.3499907768
  0
ARC
  5
32C
100
AcDbEntity
  8
0
100
AcDbCircle
 62
7
  6
CONTINUOUS
 10
400.643826752
 20
105.0887505783
 40
73.6610806036
100
AcDbArc
 50
212.5190222592
 51
212.7942380594
  0
ARC
  5
32D
100
AcDbEntity
  8
0
100
AcDbCircle
 62
7
  6
CONTINUOUS
 10
318.2488696996
 20
18.8828850543
 40
50.9676983494
100
AcDbArc
 50
65.8368444752
 51
66.1800422115
  0
ARC
  5
32E
100
AcDbEntity
  8
0
100
AcDbCircle
 62
7
  6
CONTINUOUS
 10
374.0250390188
 20
87.9452211077
 40
41.9994256139
100
AcDbArc
 50
212.8026326535
 51
213.1515435321
  0
ARC
  5
32F
100
AcDbEntity
  8
0
100
AcDbCircle
 62
7
  6
CONTINUOUS
 10
365.2627809888
 20
90.2603346944
 40
36.3985478971
100
AcDbArc
 50
222.8935487906
 51
223.5070098775
  0
ARC
  5
330
100
AcDbEntity
  8
0
100
AcDbCircle
 62
7
  6
CONTINUOUS
 10
326.2939608643
 20
46.1055113811
 40
23.0288344563
100
AcDbArc
 50
56.4437226127
 51
57.0825749586
  0
ARC
  5
331
100
AcDbEntity
  8
0
100
AcDbCircle
 62
7
  6
CONTINUOUS
 10
319.8852985767
 20
55.1353968525
 40
14.9767377767
100
AcDbArc
 50
49.4091453956
 51
50.0920447769
  0
ARC
  5
332
100
AcDbEntity
  8
0
100
AcDbCircle
 62
7
  6
CONTINUOUS
 10
321.9020095912
 20
57.4739453377
 40
11.8887270991
100
AcDbArc
 50
47.3945362872
 51
49.4566479125
  0
ARC
  5
333
100
AcDbEntity
  8
0
100
AcDbCircle
 62
7
  6
CONTINUOUS
 10
332.9657215615
 20
71.6624761971
 40
6.3588906726
100
AcDbArc
 50
240.8093362798
 51
244.2439517244
  0
ARC
  5
334
100
AcDbEntity
  8
0
100
AcDbCircle
 62
7
  6
CONTINUOUS
 10
343.2780112037
 20
68.3250377837
 40
5.2679527031
100
AcDbArc
 50
233.954588642
 51
235.6761932973
  0
ARC
  5
335
100
AcDbEntity
  8
0
100
AcDbCircle
 62
7
  6
CONTINUOUS
 10
341.8933256202
 20
66.2997767431
 40
2.8511687279
100
AcDbArc
 50
242.8604351243
 51
246.0502313478
  0
ARC
  5
336
100
AcDbEntity
  8
0
100
AcDbCircle
 62
7
  6
CONTINUOUS
 10
400.6439346608
 20
419.9111808695
 40
73.6612084475
100
AcDbArc
 50
147.2057636175
 51
147.4809781964
  0
ARC
  5
337
100
AcDbEntity
  8
0
100
AcDbCircle
 62
7
  6
CONTINUOUS
 10
318.2488488883
 20
506.1171611307
 40
50.9677490037
100
AcDbArc
 50
293.819956983
 51
294.1631565665
  0
ARC
  5
338
100
AcDbEntity
  8
0
100
AcDbCircle
 62
7
  6
CONTINUOUS
 10
374.0250193043
 20
437.0547917166
 40
41.9994020994
100
AcDbArc
 50
146.8484553176
 51
147.1973693046
  0
ARC
  5
339
100
AcDbEntity
  8
0
100
AcDbCircle
 62
7
  6
CONTINUOUS
 10
365.8801325636
 20
434.1620709466
 40
37.2439647316
100
AcDbArc
 50
136.5345944817
 51
137.1018908672
  0
ARC
  5
33A
100
AcDbEntity
  8
0
100
AcDbCircle
 62
7
  6
CONTINUOUS
 10
326.2939392803
 20
478.8945213519
 40
23.0288736667
100
AcDbArc
 50
302.9174195062
 51
303.5562758208
  0
ARC
  5
33B
100
AcDbEntity
  8
0
100
AcDbCircle
 62
7
  6
CONTINUOUS
 10
339.9128992047
 20
451.1856256877
 40
13.2377517728
100
AcDbArc
 50
144.2104804852
 51
145.0882603058
  0
ARC
  5
33C
100
AcDbEntity
  8
0
100
AcDbCircle
 62
7
  6
CONTINUOUS
 10
337.9730434355
 20
452.5872071287
 40
10.8445398189
100
AcDbArc
 50
142.8554427817
 51
144.2235633895
  0
ARC
  5
33D
100
AcDbEntity
  8
0
100
AcDbCircle
 62
7
  6
CONTINUOUS
 10
332.9657215613
 20
453.3375238033
 40
6.3588906721
100
AcDbArc
 50
115.7560482761
 51
119.1906637205
  0
ARC
  5
33E
100
AcDbEntity
  8
0
100
AcDbCircle
 62
7
  6
CONTINUOUS
 10
343.2779354444
 20
456.6750713117
 40
5.2678198907
100
AcDbArc
 50
124.3238863112
 51
126.0448646923
  0
ARC
  5
33F
100
AcDbEntity
  8
0
100
AcDbCircle
 62
7
  6
CONTINUOUS
 10
341.8933302194
 20
458.7002140953
 40
2.8511789691
100
AcDbArc
 50
113.949866748
 51
117.1395656929
  0
SPLINE
  5
340
100
AcDbEntity
  8
0
100
AcDbSpline
 62
7
  6
CONTINUOUS
 70
0
 71
3
 72
9
 73
5
 74
0
 42
0.0000001
 43
0.0000001
 44
0.0000000001
 40
0.0
 40
0.0
 40
0.0
 40
0.0
 40
0.5000381062
 40
1.0
 40
1.0
 40
1.0
 40
1.0
 10
105.6076111371
 20
236.0401708268
 30
0.0
 10
105.7645122978
 20
236.1306037361
 30
0.0
 10
106.0566378522
 20
236.352306314
 30
0.0
 10
106.2805965378
 20
236.6431853874
 30
0.0
 10
106.3708243795
 20
236.8001727294
 30
0.0
  0
SPLINE
  5
341
100
AcDbEntity
  8
0
100
AcDbSpline
 62
7
  6
CONTINUOUS
 70
0
 71
3
 72
9
 73
5
 74
0
 42
0.0000001
 43
0.0000001
 44
0.0000000001
 40
0.0
 40
0.0
 40
0.0
 40
0.0
 40
0.4999620612
 40
1.0
 40
1.0
 40
1.0
 40
1.0
 10
79.8762628537
 20
236.8001910445
 30
0.0
 10
79.9664910378
 20
236.6431991805
 30
0.0
 10
80.1904535268
 20
236.3523123914
 30
0.0
 10
80.4825852022
 20
236.1306042533
 30
0.0
 10
80.6394898449
 20
236.0401694338
 30
0.0
  0
SPLINE
  5
342
100
AcDbEntity
  8
0
100
AcDbSpline
 62
7
  6
CONTINUOUS
 70
0
 71
3
 72
9
 73
5
 74
0
 42
0.0000001
 43
0.0000001
 44
0.0000000001
 40
0.0
 40
0.0
 40
0.0
 40
0.0
 40
0.5000381065
 40
1.0
 40
1.0
 40
1.0
 40
1.0
 10
80.639487361
 20
279.3598291331
 30
0.0
 10
80.4825862405
 20
279.2693962492
 30
0.0
 10
80.1904607527
 20
279.0476937463
 30
0.0
 10
79.9665021126
 20
278.7568147539
 30
0.0
 10
79.8762743042
 20
278.5998274477
 30
0.0
  0
SPLINE
  5
343
100
AcDbEntity
  8
0
100
AcDbSpline
 62
7
  6
CONTINUOUS
 70
0
 71
3
 72
9
 73
5
 74
0
 42
0.0000001
 43
0.0000001
 44
0.0000000001
 40
0.0
 40
0.0
 40
0.0
 40
0.0
 40
0.4999620611
 40
1.0
 40
1.0
 40
1.0
 40
1.0
 10
106.3708355818
 20
278.5998091604
 30
0.0
 10
106.2806074271
 20
278.7568009896
 30
0.0
 10
106.0566449771
 20
279.0476877005
 30
0.0
 10
105.7645133564
 20
279.2693957568
 30
0.0
 10
105.6076087508
 20
279.359830551
 30
0.0
  0
SPLINE
  5
344
100
AcDbEntity
  8
0
100
AcDbSpline
 62
7
  6
CONTINUOUS
 70
0
 71
3
 72
16
 73
12
 74
0
 42
0.0000001
 43
0.0000001
 44
0.0000000001
 40
0.0
 40
0.0
 40
0.0
 40
0.0
 40
0.0048878682
 40
0.0194390561
 40
0.0436049944
 40
0.0771975088
 40
0.1711975719
 40
0.2968167343
 40
0.4487357821
 40
0.6210996261
 40
1.0
 40
1.0
 40
1.0
 40
1.0
 10
99.4345960643
 20
264.0558562078
 30
0.0
 10
99.4344362175
 20
264.0565045972
 30
0.0
 10
99.4388049382
 20
264.0565345265
 30
0.0
 10
99.4430535326
 20
264.0575586115
 30
0.0
 10
99.4538611855
 20
264.0579358912
 30
0.0
 10
99.4740078177
 20
264.0590253128
 30
0.0
 10
99.5089992617
 20
264.0599082429
 30
0.0
 10
99.5595641888
 20
264.0609603549
 30
0.0
 10
99.6210932469
 20
264.0617624938
 30
0.0
 10
99.7171339816
 20
264.0626127646
 30
0.0
 10
99.7924620156
 20
264.0628382338
 30
0.0
 10
99.8442290604
 20
264.0628382338
 30
0.0
  0
SPLINE
  5
345
100
AcDbEntity
  8
0
100
AcDbSpline
 62
7
  6
CONTINUOUS
 70
0
 71
3
 72
16
 73
12
 74
0
 42
0.0000001
 43
0.0000001
 44
0.0000000001
 40
0.0
 40
0.0
 40
0.0
 40
0.0
 40
0.3789326458
 40
0.5513173222
 40
0.7032423681
 40
0.8288572832
 40
0.9228492968
 40
0.9564348429
 40
0.9805845051
 40
0.9951192483
 40
1.0
 40
1.0
 40
1.0
 40
1.0
 10
86.4028695079
 20
264.0628382338
 30
0.0
 10
86.4546409901
 20
264.0628382338
 30
0.0
 10
86.5299763219
 20
264.0626125656
 30
0.0
 10
86.6260251783
 20
264.0617622238
 30
0.0
 10
86.6875573598
 20
264.0609598946
 30
0.0
 10
86.7381214548
 20
264.0599078951
 30
0.0
 10
86.773110248
 20
264.0590245849
 30
0.0
 10
86.7932527707
 20
264.0579360852
 30
0.0
 10
86.8040542232
 20
264.0575579125
 30
0.0
 10
86.8082996412
 20
264.0565358616
 30
0.0
 10
86.8126621182
 20
264.0565036535
 30
0.0
 10
86.8125025041
 20
264.0558562078
 30
0.0
  0
SPLINE
  5
346
100
AcDbEntity
  8
0
100
AcDbSpline
 62
7
  6
CONTINUOUS
 70
0
 71
3
 72
16
 73
12
 74
0
 42
0.0000001
 43
0.0000001
 44
0.0000000001
 40
0.0
 40
0.0
 40
0.0
 40
0.0
 40
0.0048878682
 40
0.0194390561
 40
0.0436049944
 40
0.0771975088
 40
0.1711975719
 40
0.2968167343
 40
0.4487357821
 40
0.6210996261
 40
1.0
 40
1.0
 40
1.0
 40
1.0
 10
86.8125025041
 20
260.9441437923
 30
0.0
 10
86.8126623509
 20
260.9434954029
 30
0.0
 10
86.8082936301
 20
260.9434654736
 30
0.0
 10
86.8040450358
 20
260.9424413885
 30
0.0
 10
86.7932373828
 20
260.9420641089
 30
0.0
 10
86.7730907507
 20
260.9409746873
 30
0.0
 10
86.7380993066
 20
260.9400917572
 30
0.0
 10
86.6875343795
 20
260.9390396452
 30
0.0
 10
86.6260053215
 20
260.9382375063
 30
0.0
 10
86.5299645868
 20
260.9373872355
 30
0.0
 10
86.4546365528
 20
260.9371617663
 30
0.0
 10
86.4028695079
 20
260.9371617663
 30
0.0
  0
SPLINE
  5
347
100
AcDbEntity
  8
0
100
AcDbSpline
 62
7
  6
CONTINUOUS
 70
0
 71
3
 72
13
 73
9
 74
0
 42
0.0000001
 43
0.0000001
 44
0.0000000001
 40
0.0
 40
0.0
 40
0.0
 40
0.0
 40
0.3835916275
 40
0.7109550707
 40
0.8360148379
 40
0.9280448653
 40
0.9834476275
 40
1.0
 40
1.0
 40
1.0
 40
1.0
 10
85.5322617912
 20
260.9371617663
 30
0.0
 10
85.5192517099
 20
260.9371617663
 30
0.0
 10
85.4953130322
 20
260.9370619346
 30
0.0
 10
85.466404086
 20
260.9368399597
 30
0.0
 10
85.4487640727
 20
260.9363739678
 30
0.0
 10
85.4380785547
 20
260.9362608529
 30
0.0
 10
85.4350787621
 20
260.9356859371
 30
0.0
 10
85.4301339486
 20
260.9357410109
 30
0.0
 10
85.4305686793
 20
260.9353857965
 30
0.0
  0
SPLINE
  5
348
100
AcDbEntity
  8
0
100
AcDbSpline
 62
7
  6
CONTINUOUS
 70
0
 71
3
 72
13
 73
9
 74
0
 42
0.0000001
 43
0.0000001
 44
0.0000000001
 40
0.0
 40
0.0
 40
0.0
 40
0.0
 40
0.0165846635
 40
0.0720409333
 40
0.1640809154
 40
0.2891107906
 40
0.6164117516
 40
1.0
 40
1.0
 40
1.0
 40
1.0
 10
100.816529889
 20
260.9353857965
 30
0.0
 10
100.8169654676
 20
260.9357417036
 30
0.0
 10
100.8120140471
 20
260.9356848129
 30
0.0
 10
100.8090126918
 20
260.9362613091
 30
0.0
 10
100.7983263194
 20
260.9363738391
 30
0.0
 10
100.780688574
 20
260.9368402366
 30
0.0
 10
100.7517832454
 20
260.9370618936
 30
0.0
 10
100.727846734
 20
260.9371617663
 30
0.0
 10
100.7148367772
 20
260.9371617663
 30
0.0
  0
SPLINE
  5
349
100
AcDbEntity
  8
0
100
AcDbSpline
 62
7
  6
CONTINUOUS
 70
0
 71
3
 72
16
 73
12
 74
0
 42
0.0000001
 43
0.0000001
 44
0.0000000001
 40
0.0
 40
0.0
 40
0.0
 40
0.0
 40
0.3789326458
 40
0.5513173222
 40
0.7032423681
 40
0.8288572832
 40
0.9228492968
 40
0.9564348429
 40
0.9805845051
 40
0.9951192483
 40
1.0
 40
1.0
 40
1.0
 40
1.0
 10
99.8442290604
 20
260.9371617663
 30
0.0
 10
99.7924575783
 20
260.9371617663
 30
0.0
 10
99.7171222464
 20
260.9373874344
 30
0.0
 10
99.62107339
 20
260.9382377763
 30
0.0
 10
99.5595412086
 20
260.9390401055
 30
0.0
 10
99.5089771135
 20
260.940092105
 30
0.0
 10
99.4739883203
 20
260.9409754152
 30
0.0
 10
99.4538457976
 20
260.9420639149
 30
0.0
 10
99.4430443451
 20
260.9424420875
 30
0.0
 10
99.4387989271
 20
260.9434641385
 30
0.0
 10
99.4344364501
 20
260.9434963466
 30
0.0
 10
99.4345960643
 20
260.9441437923
 30
0.0
  0
SPLINE
  5
34A
100
AcDbEntity
  8
0
100
AcDbSpline
 62
7
  6
CONTINUOUS
 70
0
 71
3
 72
8
 73
4
 74
0
 42
0.0000001
 43
0.0000001
 44
0.0000000001
 40
0.0
 40
0.0
 40
0.0
 40
0.0
 40
1.0
 40
1.0
 40
1.0
 40
1.0
 10
85.2679198032
 20
263.4822858514
 30
0.0
 10
85.2649873593
 20
263.4588416621
 30
0.0
 10
85.2712751147
 20
263.4328990689
 30
0.0
 10
85.2846174573
 20
263.4134000654
 30
0.0
  0
SPLINE
  5
34B
100
AcDbEntity
  8
0
100
AcDbSpline
 62
7
  6
CONTINUOUS
 70
0
 71
3
 72
8
 73
4
 74
0
 42
0.0000001
 43
0.0000001
 44
0.0000000001
 40
0.0
 40
0.0
 40
0.0
 40
0.0
 40
1.0
 40
1.0
 40
1.0
 40
1.0
 10
85.2846174573
 20
263.4134000654
 30
0.0
 10
85.2979584243
 20
263.3939030325
 30
0.0
 10
85.3198607874
 20
263.3786466352
 30
0.0
 10
85.3427736939
 20
263.3728921229
 30
0.0
  0
SPLINE
  5
34C
100
AcDbEntity
  8
0
100
AcDbSpline
 62
7
  6
CONTINUOUS
 70
0
 71
3
 72
8
 73
4
 74
0
 42
0.0000001
 43
0.0000001
 44
0.0000000001
 40
0.0
 40
0.0
 40
0.0
 40
0.0
 40
1.0
 40
1.0
 40
1.0
 40
1.0
 10
85.3427736939
 20
261.6271078772
 30
0.0
 10
85.3198704356
 20
261.621355788
 30
0.0
 10
85.2979770544
 20
261.6061108357
 30
0.0
 10
85.2846354838
 20
261.586626271
 30
0.0
  0
SPLINE
  5
34D
100
AcDbEntity
  8
0
100
AcDbSpline
 62
7
  6
CONTINUOUS
 70
0
 71
3
 72
8
 73
4
 74
0
 42
0.0000001
 43
0.0000001
 44
0.0000000001
 40
0.0
 40
0.0
 40
0.0
 40
0.0
 40
1.0
 40
1.0
 40
1.0
 40
1.0
 10
85.2846354838
 20
261.586626271
 30
0.0
 10
85.2756203663
 20
261.5734602577
 30
0.0
 10
85.2696896055
 20
261.5576509134
 30
0.0
 10
85.2678303741
 20
261.5418029006
 30
0.0
  0
SPLINE
  5
34E
100
AcDbEntity
  8
0
100
AcDbSpline
 62
7
  6
CONTINUOUS
 70
0
 71
3
 72
9
 73
5
 74
0
 42
0.0000001
 43
0.0000001
 44
0.0000000001
 40
0.0
 40
0.0
 40
0.0
 40
0.0
 40
0.4997371291
 40
1.0
 40
1.0
 40
1.0
 40
1.0
 10
85.2371039313
 20
261.5104478536
 30
0.0
 10
85.2349485534
 20
261.5276215439
 30
0.0
 10
85.2398114803
 20
261.5637616177
 30
0.0
 10
85.2623742198
 20
261.592451017
 30
0.0
 10
85.276249492
 20
261.6028283378
 30
0.0
  0
SPLINE
  5
34F
100
AcDbEntity
  8
0
100
AcDbSpline
 62
7
  6
CONTINUOUS
 70
0
 71
3
 72
8
 73
4
 74
0
 42
0.0000001
 43
0.0000001
 44
0.0000000001
 40
0.0
 40
0.0
 40
0.0
 40
0.0
 40
1.0
 40
1.0
 40
1.0
 40
1.0
 10
85.276249492
 20
261.6028283378
 30
0.0
 10
85.2876384188
 20
261.6113461199
 30
0.0
 10
85.3011384409
 20
261.6175803994
 30
0.0
 10
85.3150346439
 20
261.620606256
 30
0.0
  0
SPLINE
  5
350
100
AcDbEntity
  8
0
100
AcDbSpline
 62
7
  6
CONTINUOUS
 70
0
 71
3
 72
8
 73
4
 74
0
 42
0.0000001
 43
0.0000001
 44
0.0000000001
 40
0.0
 40
0.0
 40
0.0
 40
0.0
 40
1.0
 40
1.0
 40
1.0
 40
1.0
 10
85.3150386055
 20
263.3793928815
 30
0.0
 10
85.299099557
 20
263.3828628846
 30
0.0
 10
85.2836036526
 20
263.3905675736
 30
0.0
 10
85.2712237651
 20
263.4011898415
 30
0.0
  0
SPLINE
  5
351
100
AcDbEntity
  8
0
100
AcDbSpline
 62
7
  6
CONTINUOUS
 70
0
 71
3
 72
8
 73
4
 74
0
 42
0.0000001
 43
0.0000001
 44
0.0000000001
 40
0.0
 40
0.0
 40
0.0
 40
0.0
 40
1.0
 40
1.0
 40
1.0
 40
1.0
 10
85.2546885892
 20
263.4193424284
 30
0.0
 10
85.2452801678
 20
263.4326416353
 30
0.0
 10
85.2390470752
 20
263.4487576442
 30
0.0
 10
85.2370686672
 20
263.4649277771
 30
0.0
  0
SPLINE
  5
352
100
AcDbEntity
  8
0
100
AcDbSpline
 62
7
  6
CONTINUOUS
 70
0
 71
3
 72
9
 73
5
 74
0
 42
0.0000001
 43
0.0000001
 44
0.0000000001
 40
0.0
 40
0.0
 40
0.0
 40
0.0
 40
0.2503105061
 40
1.0
 40
1.0
 40
1.0
 40
1.0
 10
79.8762743042
 20
278.5998274477
 30
0.0
 10
79.8216482561
 20
278.5047825471
 30
0.0
 10
79.6181493966
 20
278.1166816382
 30
0.0
 10
79.4747060947
 20
277.6979820136
 30
0.0
 10
79.3997527096
 20
277.3783222742
 30
0.0
  0
SPLINE
  5
353
100
AcDbEntity
  8
0
100
AcDbSpline
 62
7
  6
CONTINUOUS
 70
0
 71
3
 72
9
 73
5
 74
0
 42
0.0000001
 43
0.0000001
 44
0.0000000001
 40
0.0
 40
0.0
 40
0.0
 40
0.0
 40
0.7496896281
 40
1.0
 40
1.0
 40
1.0
 40
1.0
 10
79.3997527471
 20
238.021677556
 30
0.0
 10
79.4747049068
 20
237.7020230542
 30
0.0
 10
79.6181456795
 20
237.2833306151
 30
0.0
 10
79.8216382306
 20
236.8952346023
 30
0.0
 10
79.8762628537
 20
236.8001910445
 30
0.0
  0
SPLINE
  5
354
100
AcDbEntity
  8
0
100
AcDbSpline
 62
7
  6
CONTINUOUS
 70
0
 71
3
 72
9
 73
5
 74
0
 42
0.0000001
 43
0.0000001
 44
0.0000000001
 40
0.0
 40
0.0
 40
0.0
 40
0.0
 40
0.2503105059
 40
1.0
 40
1.0
 40
1.0
 40
1.0
 10
106.3708243795
 20
236.8001727294
 30
0.0
 10
106.4254504141
 20
236.8952176176
 30
0.0
 10
106.6289492057
 20
237.2833184832
 30
0.0
 10
106.7723924855
 20
237.7020180373
 30
0.0
 10
106.8473458587
 20
238.0216777258
 30
0.0
  0
SPLINE
  5
355
100
AcDbEntity
  8
0
100
AcDbSpline
 62
7
  6
CONTINUOUS
 70
0
 71
3
 72
9
 73
5
 74
0
 42
0.0000001
 43
0.0000001
 44
0.0000000001
 40
0.0
 40
0.0
 40
0.0
 40
0.0
 40
0.7496896279
 40
1.0
 40
1.0
 40
1.0
 40
1.0
 10
106.8473458212
 20
277.3783224441
 30
0.0
 10
106.7723936478
 20
277.6979770046
 30
0.0
 10
106.6289528495
 20
278.1166695252
 30
0.0
 10
106.4254602205
 20
278.5047655882
 30
0.0
 10
106.3708355818
 20
278.5998091604
 30
0.0
  0
SPLINE
  5
356
100
AcDbEntity
  8
0
100
AcDbSpline
 62
7
  6
CONTINUOUS
 70
0
 71
3
 72
11
 73
7
 74
0
 42
0.0000001
 43
0.0000001
 44
0.0000000001
 40
0.0
 40
0.0
 40
0.0
 40
0.0
 40
0.1691435749
 40
0.4093691756
 40
0.6932375777
 40
1.0
 40
1.0
 40
1.0
 40
1.0
 10
106.8473553977
 20
277.378284514
 30
0.0
 10
106.8893061309
 20
277.126502262
 30
0.0
 10
107.0070558232
 20
276.5199451107
 30
0.0
 10
107.209092195
 20
275.4935387059
 30
0.0
 10
107.4475930418
 20
274.2625654811
 30
0.0
 10
107.6095914245
 20
273.3860822447
 30
0.0
 10
107.6914549909
 20
272.9304454013
 30
0.0
  0
SPLINE
  5
357
100
AcDbEntity
  8
0
100
AcDbSpline
 62
7
  6
CONTINUOUS
 70
0
 71
3
 72
11
 73
7
 74
0
 42
0.0000001
 43
0.0000001
 44
0.0000000001
 40
0.0
 40
0.0
 40
0.0
 40
0.0
 40
0.30676176
 40
0.5906298728
 40
0.8308557175
 40
1.0
 40
1.0
 40
1.0
 40
1.0
 10
107.6914516686
 20
242.4695444119
 30
0.0
 10
107.6095877659
 20
242.0139059014
 30
0.0
 10
107.4475886058
 20
241.1374189828
 30
0.0
 10
107.2090863597
 20
239.9064396685
 30
0.0
 10
107.0070483565
 20
238.8800263481
 30
0.0
 10
106.8892975177
 20
238.2734642865
 30
0.0
 10
106.847346256
 20
238.021679531
 30
0.0
  0
SPLINE
  5
358
100
AcDbEntity
  8
0
100
AcDbSpline
 62
7
  6
CONTINUOUS
 70
0
 71
3
 72
10
 73
6
 74
0
 42
0.0000001
 43
0.0000001
 44
0.0000000001
 40
0.0
 40
0.0
 40
0.0
 40
0.0
 40
0.1461176603
 40
0.366097782
 40
1.0
 40
1.0
 40
1.0
 40
1.0
 10
105.6076077269
 20
236.0401688192
 30
0.0
 10
105.5642417237
 20
236.0214330529
 30
0.0
 10
105.4574114633
 20
235.9703465453
 30
0.0
 10
105.1695934675
 20
235.8231135827
 30
0.0
 10
104.9258160475
 20
235.6935237866
 30
0.0
 10
104.7444205618
 20
235.5981455222
 30
0.0
  0
SPLINE
  5
359
100
AcDbEntity
  8
0
100
AcDbSpline
 62
7
  6
CONTINUOUS
 70
0
 71
3
 72
9
 73
5
 74
0
 42
0.0000001
 43
0.0000001
 44
0.0000000001
 40
0.0
 40
0.0
 40
0.0
 40
0.0
 40
0.6489862556
 40
1.0
 40
1.0
 40
1.0
 40
1.0
 10
81.50264799
 20
235.5981617015
 30
0.0
 10
81.3169488104
 20
235.6957994865
 30
0.0
 10
81.0310922362
 20
235.8464058522
 30
0.0
 10
80.7436588853
 20
235.995164754
 30
0.0
 10
80.6394899246
 20
236.0401693934
 30
0.0
  0
SPLINE
  5
35A
100
AcDbEntity
  8
0
100
AcDbSpline
 62
7
  6
CONTINUOUS
 70
0
 71
3
 72
9
 73
5
 74
0
 42
0.0000001
 43
0.0000001
 44
0.0000000001
 40
0.0
 40
0.0
 40
0.0
 40
0.0
 40
0.5194056627
 40
1.0
 40
1.0
 40
1.0
 40
1.0
 10
81.5822791496
 20
235.7496973736
 30
0.0
 10
81.4325013769
 20
235.8203535345
 30
0.0
 10
81.1474648986
 20
235.9634318326
 30
0.0
 10
80.8674099931
 20
236.1160427022
 30
0.0
 10
80.734838406
 20
236.1928863426
 30
0.0
  0
SPLINE
  5
35B
100
AcDbEntity
  8
0
100
AcDbSpline
 62
7
  6
CONTINUOUS
 70
0
 71
3
 72
10
 73
6
 74
0
 42
0.0000001
 43
0.0000001
 44
0.0000000001
 40
0.0
 40
0.0
 40
0.0
 40
0.0
 40
0.5919024937
 40
0.8182624465
 40
1.0
 40
1.0
 40
1.0
 40
1.0
 10
80.734838406
 20
236.1928863426
 30
0.0
 10
80.5550224797
 20
236.2971146368
 30
0.0
 10
80.3113442202
 20
236.4506464856
 30
0.0
 10
80.0314802455
 20
236.6628968284
 30
0.0
 10
79.9225071754
 20
236.7562197746
 30
0.0
 10
79.8762546198
 20
236.8001863123
 30
0.0
  0
SPLINE
  5
35C
100
AcDbEntity
  8
0
100
AcDbSpline
 62
7
  6
CONTINUOUS
 70
0
 71
3
 72
11
 73
7
 74
0
 42
0.0000001
 43
0.0000001
 44
0.0000000001
 40
0.0
 40
0.0
 40
0.0
 40
0.0
 40
0.1691435749
 40
0.4093691756
 40
0.6932375777
 40
1.0
 40
1.0
 40
1.0
 40
1.0
 10
79.3997431706
 20
238.0217154861
 30
0.0
 10
79.3577924374
 20
238.2734977381
 30
0.0
 10
79.2400427452
 20
238.8800548894
 30
0.0
 10
79.0380063734
 20
239.9064612942
 30
0.0
 10
78.7995055266
 20
241.137434519
 30
0.0
 10
78.6375071438
 20
242.0139177554
 30
0.0
 10
78.5556435775
 20
242.4695545988
 30
0.0
  0
SPLINE
  5
35D
100
AcDbEntity
  8
0
100
AcDbSpline
 62
7
  6
CONTINUOUS
 70
0
 71
3
 72
11
 73
7
 74
0
 42
0.0000001
 43
0.0000001
 44
0.0000000001
 40
0.0
 40
0.0
 40
0.0
 40
0.0
 40
0.30676176
 40
0.5906298728
 40
0.8308557175
 40
1.0
 40
1.0
 40
1.0
 40
1.0
 10
78.5556468998
 20
272.9304555881
 30
0.0
 10
78.6375108025
 20
273.3860940987
 30
0.0
 10
78.7995099626
 20
274.2625810173
 30
0.0
 10
79.0380122086
 20
275.4935603316
 30
0.0
 10
79.2400502119
 20
276.519973652
 30
0.0
 10
79.3578010507
 20
277.1265357135
 30
0.0
 10
79.3997523123
 20
277.378320469
 30
0.0
  0
SPLINE
  5
35E
100
AcDbEntity
  8
0
100
AcDbSpline
 62
7
  6
CONTINUOUS
 70
0
 71
3
 72
10
 73
6
 74
0
 42
0.0000001
 43
0.0000001
 44
0.0000000001
 40
0.0
 40
0.0
 40
0.0
 40
0.0
 40
0.1461176588
 40
0.3660977845
 40
1.0
 40
1.0
 40
1.0
 40
1.0
 10
80.6394908127
 20
279.3598311665
 30
0.0
 10
80.6828567831
 20
279.3785669045
 30
0.0
 10
80.7896869511
 20
279.4296533715
 30
0.0
 10
81.0775046992
 20
279.5768862027
 30
0.0
 10
81.3212819148
 20
279.7064758762
 30
0.0
 10
81.5026772363
 20
279.8018540702
 30
0.0
  0
SPLINE
  5
35F
100
AcDbEntity
  8
0
100
AcDbSpline
 62
7
  6
CONTINUOUS
 70
0
 71
3
 72
9
 73
5
 74
0
 42
0.0000001
 43
0.0000001
 44
0.0000000001
 40
0.0
 40
0.0
 40
0.0
 40
0.0
 40
0.6489862745
 40
1.0
 40
1.0
 40
1.0
 40
1.0
 10
104.7444505784
 20
279.8018382986
 30
0.0
 10
104.930149766
 20
279.7042005038
 30
0.0
 10
105.2160063489
 20
279.5535941358
 30
0.0
 10
105.503439709
 20
279.4048352344
 30
0.0
 10
105.6076086659
 20
279.3598305939
 30
0.0
  0
SPLINE
  5
360
100
AcDbEntity
  8
0
100
AcDbSpline
 62
7
  6
CONTINUOUS
 70
0
 71
3
 72
15
 73
11
 74
0
 42
0.0000001
 43
0.0000001
 44
0.0000000001
 40
0.0
 40
0.0
 40
0.0
 40
0.0
 40
0.0075839826
 40
0.0359448461
 40
0.1263506723
 40
0.2476173082
 40
0.3859711534
 40
0.5335476143
 40
0.6866048949
 40
1.0
 40
1.0
 40
1.0
 40
1.0
 10
87.1389315555
 20
268.2184733298
 30
0.0
 10
87.138014507
 20
268.2170199579
 30
0.0
 10
87.1511679966
 20
268.2285184189
 30
0.0
 10
87.1611857323
 20
268.2394275244
 30
0.0
 10
87.208988611
 20
268.2854028239
 30
0.0
 10
87.2612419518
 20
268.3375999867
 30
0.0
 10
87.3286921609
 20
268.4032162451
 30
0.0
 10
87.400104913
 20
268.4716797376
 30
0.0
 10
87.5016940225
 20
268.5670390103
 30
0.0
 10
87.5798652265
 20
268.638087002
 30
0.0
 10
87.6329912154
 20
268.6852110065
 30
0.0
  0
SPLINE
  5
361
100
AcDbEntity
  8
0
100
AcDbSpline
 62
7
  6
CONTINUOUS
 70
0
 71
3
 72
9
 73
5
 74
0
 42
0.0000001
 43
0.0000001
 44
0.0000000001
 40
0.0
 40
0.0
 40
0.0
 40
0.0
 40
0.2633220405
 40
1.0
 40
1.0
 40
1.0
 40
1.0
 10
87.1389277621
 20
268.2184770321
 30
0.0
 10
87.1462445366
 20
268.2261350336
 30
0.0
 10
87.1715506677
 20
268.257504629
 30
0.0
 10
87.1873370155
 20
268.2964435515
 30
0.0
 10
87.1919209963
 20
268.3257179814
 30
0.0
  0
SPLINE
  5
362
100
AcDbEntity
  8
0
100
AcDbSpline
 62
7
  6
CONTINUOUS
 70
0
 71
3
 72
8
 73
4
 74
0
 42
0.0000001
 43
0.0000001
 44
0.0000000001
 40
0.0
 40
0.0
 40
0.0
 40
0.0
 40
1.0
 40
1.0
 40
1.0
 40
1.0
 10
87.1217994683
 20
268.3596919454
 30
0.0
 10
87.1156211502
 20
268.3206718982
 30
0.0
 10
87.0965489853
 20
268.2820550541
 30
0.0
 10
87.0693324201
 20
268.2534195119
 30
0.0
  0
SPLINE
  5
363
100
AcDbEntity
  8
0
100
AcDbSpline
 62
7
  6
CONTINUOUS
 70
0
 71
3
 72
8
 73
4
 74
0
 42
0.0000001
 43
0.0000001
 44
0.0000000001
 40
0.0
 40
0.0
 40
0.0
 40
0.0
 40
1.0
 40
1.0
 40
1.0
 40
1.0
 10
87.0693324201
 20
256.7465804882
 30
0.0
 10
87.0965488887
 20
256.7179450476
 30
0.0
 10
87.115621017
 20
256.6793283847
 30
0.0
 10
87.1217993994
 20
256.6403084897
 30
0.0
  0
SPLINE
  5
364
100
AcDbEntity
  8
0
100
AcDbSpline
 62
7
  6
CONTINUOUS
 70
0
 71
3
 72
15
 73
11
 74
0
 42
0.0000001
 43
0.0000001
 44
0.0000000001
 40
0.0
 40
0.0
 40
0.0
 40
0.0
 40
0.3133774049
 40
0.466397925
 40
0.6140155367
 40
0.7523843622
 40
0.8735929923
 40
0.9640533142
 40
0.9923119877
 40
1.0
 40
1.0
 40
1.0
 40
1.0
 10
87.6329912395
 20
256.3147889723
 30
0.0
 10
87.5798686255
 20
256.3619105881
 30
0.0
 10
87.5017064719
 20
256.4329503656
 30
0.0
 10
87.4001189418
 20
256.5283055491
 30
0.0
 10
87.3286993351
 20
256.5967706699
 30
0.0
 10
87.2612692189
 20
256.6623976964
 30
0.0
 10
87.2089541335
 20
256.7145643809
 30
0.0
 10
87.1612947101
 20
256.7605920524
 30
0.0
 10
87.1511148599
 20
256.7714374631
 30
0.0
 10
87.1380219543
 20
256.7830125419
 30
0.0
 10
87.1389315226
 20
256.7815267691
 30
0.0
  0
SPLINE
  5
365
100
AcDbEntity
  8
0
100
AcDbSpline
 62
7
  6
CONTINUOUS
 70
0
 71
3
 72
9
 73
5
 74
0
 42
0.0000001
 43
0.0000001
 44
0.0000000001
 40
0.0
 40
0.0
 40
0.0
 40
0.0
 40
0.263325301
 40
1.0
 40
1.0
 40
1.0
 40
1.0
 10
87.1389210876
 20
256.7815166446
 30
0.0
 10
87.1462387809
 20
256.7738596171
 30
0.0
 10
87.1715481577
 20
256.7424936215
 30
0.0
 10
87.1873377414
 20
256.7035563053
 30
0.0
 10
87.1919228737
 20
256.6742827566
 30
0.0
  0
SPLINE
  5
366
100
AcDbEntity
  8
0
100
AcDbSpline
 62
7
  6
CONTINUOUS
 70
0
 71
3
 72
15
 73
11
 74
0
 42
0.0000001
 43
0.0000001
 44
0.0000000001
 40
0.0
 40
0.0
 40
0.0
 40
0.0
 40
0.0203445781
 40
0.0655322737
 40
0.1218187998
 40
0.1828567749
 40
0.3128531755
 40
0.4474757975
 40
0.7223445205
 40
1.0
 40
1.0
 40
1.0
 40
1.0
 10
99.0551673297
 20
256.6742137589
 30
0.0
 10
99.0537415174
 20
256.6704380104
 30
0.0
 10
99.0454106308
 20
256.6601220852
 30
0.0
 10
99.0345945115
 20
256.6385463093
 30
0.0
 10
99.0179568465
 20
256.6108910326
 30
0.0
 10
98.9933286506
 20
256.5684703213
 30
0.0
 10
98.9609458125
 20
256.5125605252
 30
0.0
 10
98.906768904
 20
256.4202628766
 30
0.0
 10
98.8356698697
 20
256.3039405017
 30
0.0
 10
98.7767911153
 20
256.2114807037
 30
0.0
 10
98.7468597726
 20
256.1652409693
 30
0.0
  0
SPLINE
  5
367
100
AcDbEntity
  8
0
100
AcDbSpline
 62
7
  6
CONTINUOUS
 70
0
 71
3
 72
15
 73
11
 74
0
 42
0.0000001
 43
0.0000001
 44
0.0000000001
 40
0.0
 40
0.0
 40
0.0
 40
0.0
 40
0.277654532
 40
0.552522205
 40
0.6871437771
 40
0.817139897
 40
0.8781724553
 40
0.9344896658
 40
0.9796465512
 40
1.0
 40
1.0
 40
1.0
 40
1.0
 10
87.5002387785
 20
256.165241037
 30
0.0
 10
87.4703069312
 20
256.2114804011
 30
0.0
 10
87.4114290335
 20
256.3039406082
 30
0.0
 10
87.3403310105
 20
256.4202634676
 30
0.0
 10
87.2861533727
 20
256.51256017
 30
0.0
 10
87.2537707528
 20
256.5684694954
 30
0.0
 10
87.2291405859
 20
256.6108935329
 30
0.0
 10
87.2125015572
 20
256.6385504963
 30
0.0
 10
87.2017182639
 20
256.660138348
 30
0.0
 10
87.1933283013
 20
256.6704272602
 30
0.0
 10
87.1919309628
 20
256.6742155264
 30
0.0
  0
SPLINE
  5
368
100
AcDbEntity
  8
0
100
AcDbSpline
 62
7
  6
CONTINUOUS
 70
0
 71
3
 72
15
 73
11
 74
0
 42
0.0000001
 43
0.0000001
 44
0.0000000001
 40
0.0
 40
0.0
 40
0.0
 40
0.0
 40
0.0075839826
 40
0.0359448459
 40
0.1263506719
 40
0.2476173075
 40
0.3859711527
 40
0.5335476136
 40
0.6866048943
 40
1.0
 40
1.0
 40
1.0
 40
1.0
 10
99.1081670129
 20
256.7815266702
 30
0.0
 10
99.1090840614
 20
256.7829800422
 30
0.0
 10
99.0959305719
 20
256.7714815814
 30
0.0
 10
99.0859128364
 20
256.7605724759
 30
0.0
 10
99.0381099582
 20
256.7145971771
 30
0.0
 10
98.9858566181
 20
256.6624000148
 30
0.0
 10
98.9184064096
 20
256.5967837571
 30
0.0
 10
98.8469936582
 20
256.5283202651
 30
0.0
 10
98.7454045496
 20
256.4329609932
 30
0.0
 10
98.6672333463
 20
256.3619130021
 30
0.0
 10
98.6141073578
 20
256.3147889979
 30
0.0
  0
SPLINE
  5
369
100
AcDbEntity
  8
0
100
AcDbSpline
 62
7
  6
CONTINUOUS
 70
0
 71
3
 72
9
 73
5
 74
0
 42
0.0000001
 43
0.0000001
 44
0.0000000001
 40
0.0
 40
0.0
 40
0.0
 40
0.0
 40
0.2633220405
 40
1.0
 40
1.0
 40
1.0
 40
1.0
 10
99.1081708063
 20
256.781522968
 30
0.0
 10
99.1008540318
 20
256.7738649665
 30
0.0
 10
99.0755479006
 20
256.7424953711
 30
0.0
 10
99.0597615529
 20
256.7035564485
 30
0.0
 10
99.0551775721
 20
256.6742820187
 30
0.0
  0
SPLINE
  5
36A
100
AcDbEntity
  8
0
100
AcDbSpline
 62
7
  6
CONTINUOUS
 70
0
 71
3
 72
8
 73
4
 74
0
 42
0.0000001
 43
0.0000001
 44
0.0000000001
 40
0.0
 40
0.0
 40
0.0
 40
0.0
 40
1.0
 40
1.0
 40
1.0
 40
1.0
 10
99.1252991001
 20
256.6403080547
 30
0.0
 10
99.1314774182
 20
256.6793281019
 30
0.0
 10
99.1505495831
 20
256.717944946
 30
0.0
 10
99.1777661482
 20
256.7465804882
 30
0.0
  0
SPLINE
  5
36B
100
AcDbEntity
  8
0
100
AcDbSpline
 62
7
  6
CONTINUOUS
 70
0
 71
3
 72
15
 73
11
 74
0
 42
0.0000001
 43
0.0000001
 44
0.0000000001
 40
0.0
 40
0.0
 40
0.0
 40
0.0
 40
0.1256235798
 40
0.2502472009
 40
0.3747688455
 40
0.4998838113
 40
0.6250004058
 40
0.7495131109
 40
0.8741872995
 40
1.0
 40
1.0
 40
1.0
 40
1.0
 10
90.6844827562
 20
239.4859697812
 30
0.0
 10
90.7303865021
 20
239.1941422483
 30
0.0
 10
90.922508194
 20
238.6241255768
 30
0.0
 10
91.4727883269
 20
237.914673423
 30
0.0
 10
92.2364422218
 20
237.4385898046
 30
0.0
 10
93.1226937479
 20
237.2708521543
 30
0.0
 10
94.0090482332
 20
237.4379548999
 30
0.0
 10
94.7731145125
 20
237.9135678526
 30
0.0
 10
95.324185141
 20
238.6231335669
 30
0.0
 10
95.5166129129
 20
239.1936922017
 30
0.0
 10
95.562619202
 20
239.4859538066
 30
0.0
  0
SPLINE
  5
36C
100
AcDbEntity
  8
0
100
AcDbSpline
 62
7
  6
CONTINUOUS
 70
0
 71
3
 72
9
 73
5
 74
0
 42
0.0000001
 43
0.0000001
 44
0.0000000001
 40
0.0
 40
0.0
 40
0.0
 40
0.0
 40
0.2370395712
 40
1.0
 40
1.0
 40
1.0
 40
1.0
 10
99.0551756949
 20
268.3257172436
 30
0.0
 10
99.0566501163
 20
268.3163038731
 30
0.0
 10
99.0659118227
 20
268.2771423935
 30
0.0
 10
99.0869885862
 20
268.2406548165
 30
0.0
 10
99.1081774812
 20
268.2184833558
 30
0.0
  0
SPLINE
  5
36D
100
AcDbEntity
  8
0
100
AcDbSpline
 62
7
  6
CONTINUOUS
 70
0
 71
3
 72
8
 73
4
 74
0
 42
0.0000001
 43
0.0000001
 44
0.0000000001
 40
0.0
 40
0.0
 40
0.0
 40
0.0
 40
1.0
 40
1.0
 40
1.0
 40
1.0
 10
99.1777661482
 20
268.2534195119
 30
0.0
 10
99.1505496797
 20
268.2820549525
 30
0.0
 10
99.1314775514
 20
268.3206716153
 30
0.0
 10
99.125299169
 20
268.3596915104
 30
0.0
  0
SPLINE
  5
36E
100
AcDbEntity
  8
0
100
AcDbSpline
 62
7
  6
CONTINUOUS
 70
0
 71
3
 72
8
 73
4
 74
0
 42
0.0000001
 43
0.0000001
 44
0.0000000001
 40
0.0
 40
0.0
 40
0.0
 40
0.0
 40
1.0
 40
1.0
 40
1.0
 40
1.0
 10
100.6844304533
 20
274.4854848209
 30
0.0
 10
100.6488124706
 20
274.4854976154
 30
0.0
 10
100.6129930374
 20
274.4872243772
 30
0.0
 10
100.5776004196
 20
274.483223946
 30
0.0
  0
SPLINE
  5
36F
100
AcDbEntity
  8
0
100
AcDbSpline
 62
7
  6
CONTINUOUS
 70
0
 71
3
 72
8
 73
4
 74
0
 42
0.0000001
 43
0.0000001
 44
0.0000000001
 40
0.0
 40
0.0
 40
0.0
 40
0.0
 40
1.0
 40
1.0
 40
1.0
 40
1.0
 10
100.5631620248
 20
266.308816465
 30
0.0
 10
100.6052811463
 20
266.2270577816
 30
0.0
 10
100.6454404092
 20
266.1442812173
 30
0.0
 10
100.6844304533
 20
266.0609848839
 30
0.0
  0
SPLINE
  5
370
100
AcDbEntity
  8
0
100
AcDbSpline
 62
7
  6
CONTINUOUS
 70
0
 71
3
 72
10
 73
6
 74
0
 42
0.0000001
 43
0.0000001
 44
0.0000000001
 40
0.0
 40
0.0
 40
0.0
 40
0.0
 40
0.2486523752
 40
0.4986124702
 40
1.0
 40
1.0
 40
1.0
 40
1.0
 10
104.0908467157
 20
240.7607472831
 30
0.0
 10
104.2211344214
 20
240.9083958299
 30
0.0
 10
104.4372050867
 20
241.2445385834
 30
0.0
 10
104.7389694724
 20
241.9785113874
 30
0.0
 10
104.8575439015
 20
242.5685062405
 30
0.0
 10
104.8984829619
 20
242.963450602
 30
0.0
  0
SPLINE
  5
371
100
AcDbEntity
  8
0
100
AcDbSpline
 62
7
  6
CONTINUOUS
 70
0
 71
3
 72
13
 73
9
 74
0
 42
0.0000001
 43
0.0000001
 44
0.0000000001
 40
0.0
 40
0.0
 40
0.0
 40
0.0
 40
0.2499469276
 40
0.374968366
 40
0.4999999424
 40
0.6250315556
 40
0.7500530295
 40
1.0
 40
1.0
 40
1.0
 40
1.0
 10
104.8983729379
 20
242.9634625243
 30
0.0
 10
105.1519423146
 20
245.4087269346
 30
0.0
 10
105.3677724324
 20
249.0943417029
 30
0.0
 10
105.4763202775
 20
254.0107136941
 30
0.0
 10
105.5008935668
 20
257.6999989478
 30
0.0
 10
105.4763203874
 20
261.3892845422
 30
0.0
 10
105.3677749476
 20
266.3056577161
 30
0.0
 10
105.1519435789
 20
269.991273272
 30
0.0
 10
104.8983728532
 20
272.4365379673
 30
0.0
  0
SPLINE
  5
372
100
AcDbEntity
  8
0
100
AcDbSpline
 62
7
  6
CONTINUOUS
 70
0
 71
3
 72
10
 73
6
 74
0
 42
0.0000001
 43
0.0000001
 44
0.0000000001
 40
0.0
 40
0.0
 40
0.0
 40
0.0
 40
0.5013869712
 40
0.7513465088
 40
1.0
 40
1.0
 40
1.0
 40
1.0
 10
104.898482634
 20
272.4365498695
 30
0.0
 10
104.857543032
 20
272.8314942041
 30
0.0
 10
104.7389698057
 20
273.4214890567
 30
0.0
 10
104.4372042697
 20
274.1554625902
 30
0.0
 10
104.2211325173
 20
274.4916055877
 30
0.0
 10
104.0908443839
 20
274.6392552477
 30
0.0
  0
SPLINE
  5
373
100
AcDbEntity
  8
0
100
AcDbSpline
 62
7
  6
CONTINUOUS
 70
0
 71
3
 72
16
 73
12
 74
0
 42
0.0000001
 43
0.0000001
 44
0.0000000001
 40
0.0
 40
0.0
 40
0.0
 40
0.0
 40
0.1252830219
 40
0.2491420573
 40
0.3110500737
 40
0.3730119864
 40
0.497169864
 40
0.6225796846
 40
0.7484637644
 40
0.874331323
 40
1.0
 40
1.0
 40
1.0
 40
1.0
 10
100.684431583
 20
240.9145271134
 30
0.0
 10
100.7137054279
 20
240.7307999313
 30
0.0
 10
100.8153258531
 20
240.3694117894
 30
0.0
 10
101.0920679861
 20
239.9825218714
 30
0.0
 10
101.3958403403
 20
239.7695204383
 30
0.0
 10
101.7401895745
 20
239.6305284586
 30
0.0
 10
102.2145541825
 20
239.6031933788
 30
0.0
 10
102.758695092
 20
239.7498383379
 30
0.0
 10
103.2571581002
 20
240.0126098706
 30
0.0
 10
103.7038588558
 20
240.3544836491
 30
0.0
 10
103.9671953519
 20
240.6209754014
 30
0.0
 10
104.0906988869
 20
240.7608787051
 30
0.0
  0
SPLINE
  5
374
100
AcDbEntity
  8
0
100
AcDbSpline
 62
7
  6
CONTINUOUS
 70
0
 71
3
 72
17
 73
13
 74
0
 42
0.0000001
 43
0.0000001
 44
0.0000000001
 40
0.0
 40
0.0
 40
0.0
 40
0.0
 40
0.1248650664
 40
0.1869881228
 40
0.24894061
 40
0.3110780729
 40
0.3735767146
 40
0.4363179028
 40
0.4992975899
 40
0.6246900011
 40
0.7499549393
 40
1.0
 40
1.0
 40
1.0
 40
1.0
 10
95.684476326
 20
239.4859521154
 30
0.0
 10
95.7338065801
 20
239.186276257
 30
0.0
 10
95.9036522031
 20
238.742471994
 30
0.0
 10
96.313596995
 20
238.2894893887
 30
0.0
 10
96.6977178345
 20
238.0395195162
 30
0.0
 10
97.1330394143
 20
237.8955592414
 30
0.0
 10
97.5910834269
 20
237.8576903463
 30
0.0
 10
98.0480695345
 20
237.9171646774
 30
0.0
 10
98.6317165604
 20
238.1062332173
 30
0.0
 10
99.2890802433
 20
238.5191153325
 30
0.0
 10
100.1156300264
 20
239.424283092
 30
0.0
 10
100.4789330518
 20
240.312117436
 30
0.0
 10
100.5626197963
 20
240.9145160197
 30
0.0
  0
SPLINE
  5
375
100
AcDbEntity
  8
0
100
AcDbSpline
 62
7
  6
CONTINUOUS
 70
0
 71
3
 72
11
 73
7
 74
0
 42
0.0000001
 43
0.0000001
 44
0.0000000001
 40
0.0
 40
0.0
 40
0.0
 40
0.0
 40
0.2513290512
 40
0.5026845742
 40
0.7535512018
 40
1.0
 40
1.0
 40
1.0
 40
1.0
 10
87.1218514663
 20
256.6403850891
 30
0.0
 10
87.200434621
 20
256.1499989076
 30
0.0
 10
87.4799772006
 20
255.1844629849
 30
0.0
 10
88.237284467
 20
253.8855933781
 30
0.0
 10
89.2790086017
 20
252.8151321176
 30
0.0
 10
90.1219579947
 20
252.2890724596
 30
0.0
 10
90.5626641615
 20
252.0818381713
 30
0.0
  0
SPLINE
  5
376
100
AcDbEntity
  8
0
100
AcDbSpline
 62
7
  6
CONTINUOUS
 70
0
 71
3
 72
11
 73
7
 74
0
 42
0.0000001
 43
0.0000001
 44
0.0000000001
 40
0.0
 40
0.0
 40
0.0
 40
0.0
 40
0.2464532321
 40
0.4973165
 40
0.7486697479
 40
1.0
 40
1.0
 40
1.0
 40
1.0
 10
95.6844325174
 20
252.0818373381
 30
0.0
 10
96.1251467132
 20
252.289075369
 30
0.0
 10
96.9680940634
 20
252.8151431978
 30
0.0
 10
98.0098180518
 20
253.8856000589
 30
0.0
 10
98.7671218714
 20
255.1844622932
 30
0.0
 10
99.0466635562
 20
256.1499964668
 30
0.0
 10
99.1252471021
 20
256.6403850891
 30
0.0
  0
SPLINE
  5
377
100
AcDbEntity
  8
0
100
AcDbSpline
 62
7
  6
CONTINUOUS
 70
0
 71
3
 72
8
 73
4
 74
0
 42
0.0000001
 43
0.0000001
 44
0.0000000001
 40
0.0
 40
0.0
 40
0.0
 40
0.0
 40
1.0
 40
1.0
 40
1.0
 40
1.0
 10
85.5626681151
 20
240.9145151792
 30
0.0
 10
85.59828607
 20
240.9145023953
 30
0.0
 10
85.6341054947
 20
240.9127755155
 30
0.0
 10
85.669498064
 20
240.9167761297
 30
0.0
  0
SPLINE
  5
378
100
AcDbEntity
  8
0
100
AcDbSpline
 62
7
  6
CONTINUOUS
 70
0
 71
3
 72
10
 73
6
 74
0
 42
0.0000001
 43
0.0000001
 44
0.0000000001
 40
0.0
 40
0.0
 40
0.0
 40
0.0
 40
0.2486523752
 40
0.4986124702
 40
1.0
 40
1.0
 40
1.0
 40
1.0
 10
82.1562518527
 20
274.639252717
 30
0.0
 10
82.025964147
 20
274.4916041702
 30
0.0
 10
81.8098934816
 20
274.1554614167
 30
0.0
 10
81.508129096
 20
273.4214886127
 30
0.0
 10
81.3895546668
 20
272.8314937596
 30
0.0
 10
81.3486156065
 20
272.4365493981
 30
0.0
  0
SPLINE
  5
379
100
AcDbEntity
  8
0
100
AcDbSpline
 62
7
  6
CONTINUOUS
 70
0
 71
3
 72
13
 73
9
 74
0
 42
0.0000001
 43
0.0000001
 44
0.0000000001
 40
0.0
 40
0.0
 40
0.0
 40
0.0
 40
0.2499469276
 40
0.374968366
 40
0.4999999424
 40
0.6250315556
 40
0.7500530295
 40
1.0
 40
1.0
 40
1.0
 40
1.0
 10
81.3487256304
 20
272.4365374758
 30
0.0
 10
81.0951562538
 20
269.9912730654
 30
0.0
 10
80.8793261359
 20
266.3056582972
 30
0.0
 10
80.7707782909
 20
261.389286306
 30
0.0
 10
80.7462050015
 20
257.7000010522
 30
0.0
 10
80.770778181
 20
254.0107154579
 30
0.0
 10
80.8793236208
 20
249.094342284
 30
0.0
 10
81.0951549895
 20
245.4087267281
 30
0.0
 10
81.3487257151
 20
242.9634620328
 30
0.0
  0
SPLINE
  5
37A
100
AcDbEntity
  8
0
100
AcDbSpline
 62
7
  6
CONTINUOUS
 70
0
 71
3
 72
10
 73
6
 74
0
 42
0.0000001
 43
0.0000001
 44
0.0000000001
 40
0.0
 40
0.0
 40
0.0
 40
0.0
 40
0.5013869712
 40
0.7513465088
 40
1.0
 40
1.0
 40
1.0
 40
1.0
 10
81.3486159343
 20
242.9634501306
 30
0.0
 10
81.3895555364
 20
242.5685057959
 30
0.0
 10
81.5081287627
 20
241.9785109434
 30
0.0
 10
81.8098942986
 20
241.2445374098
 30
0.0
 10
82.0259660511
 20
240.9083944124
 30
0.0
 10
82.1562541844
 20
240.7607447524
 30
0.0
  0
SPLINE
  5
37B
100
AcDbEntity
  8
0
100
AcDbSpline
 62
7
  6
CONTINUOUS
 70
0
 71
3
 72
16
 73
12
 74
0
 42
0.0000001
 43
0.0000001
 44
0.0000000001
 40
0.0
 40
0.0
 40
0.0
 40
0.0
 40
0.1252830219
 40
0.2491420573
 40
0.3110500737
 40
0.3730119864
 40
0.497169864
 40
0.6225796846
 40
0.7484637644
 40
0.874331323
 40
1.0
 40
1.0
 40
1.0
 40
1.0
 10
85.5626669854
 20
274.4854728866
 30
0.0
 10
85.5333931405
 20
274.6692000687
 30
0.0
 10
85.4317727152
 20
275.0305882107
 30
0.0
 10
85.1550305823
 20
275.4174781287
 30
0.0
 10
84.851258228
 20
275.6304795617
 30
0.0
 10
84.5069089939
 20
275.7694715415
 30
0.0
 10
84.0325443858
 20
275.7968066212
 30
0.0
 10
83.4884034764
 20
275.6501616622
 30
0.0
 10
82.9899404681
 20
275.3873901294
 30
0.0
 10
82.5432397126
 20
275.045516351
 30
0.0
 10
82.2799032165
 20
274.7790245987
 30
0.0
 10
82.1563996815
 20
274.639121295
 30
0.0
  0
SPLINE
  5
37C
100
AcDbEntity
  8
0
100
AcDbSpline
 62
7
  6
CONTINUOUS
 70
0
 71
3
 72
10
 73
6
 74
0
 42
0.0000001
 43
0.0000001
 44
0.0000000001
 40
0.0
 40
0.0
 40
0.0
 40
0.0
 40
0.2497400371
 40
0.4998780893
 40
1.0
 40
1.0
 40
1.0
 40
1.0
 10
82.0991997971
 20
274.6898147928
 30
0.0
 10
81.9605770914
 20
274.5420731054
 30
0.0
 10
81.7308526469
 20
274.201497106
 30
0.0
 10
81.4090325075
 20
273.4548748942
 30
0.0
 10
81.2843490682
 20
272.851245363
 30
0.0
 10
81.2420694195
 20
272.447748053
 30
0.0
  0
SPLINE
  5
37D
100
AcDbEntity
  8
0
100
AcDbSpline
 62
7
  6
CONTINUOUS
 70
0
 71
3
 72
16
 73
12
 74
0
 42
0.0000001
 43
0.0000001
 44
0.0000000001
 40
0.0
 40
0.0
 40
0.0
 40
0.0
 40
0.1253577555
 40
0.2492568438
 40
0.3111397407
 40
0.3731010809
 40
0.4973137196
 40
0.6227872435
 40
0.7485786595
 40
0.8743890207
 40
1.0
 40
1.0
 40
1.0
 40
1.0
 10
85.5626681151
 20
240.9145120406
 30
0.0
 10
85.5273076165
 20
240.7317406573
 30
0.0
 10
85.4341565273
 20
240.3687391782
 30
0.0
 10
85.1544858961
 20
239.9821293546
 30
0.0
 10
84.8511877556
 20
239.7688588479
 30
0.0
 10
84.5064778791
 20
239.6302383345
 30
0.0
 10
84.0320744437
 20
239.6037480321
 30
0.0
 10
83.4875647645
 20
239.7492623083
 30
0.0
 10
82.9896282986
 20
240.0129419973
 30
0.0
 10
82.5434085703
 20
240.3550840671
 30
0.0
 10
82.281264498
 20
240.6222931542
 30
0.0
 10
82.1564019554
 20
240.760876126
 30
0.0
  0
SPLINE
  5
37E
100
AcDbEntity
  8
0
100
AcDbSpline
 62
7
  6
CONTINUOUS
 70
0
 71
3
 72
10
 73
6
 74
0
 42
0.0000001
 43
0.0000001
 44
0.0000000001
 40
0.0
 40
0.0
 40
0.0
 40
0.0
 40
0.2448945608
 40
0.62101446
 40
1.0
 40
1.0
 40
1.0
 40
1.0
 10
85.5625457664
 20
240.9145359888
 30
0.0
 10
85.5671885829
 20
240.9137792222
 30
0.0
 10
85.5788488465
 20
240.9112466134
 30
0.0
 10
85.5982249966
 20
240.9102686599
 30
0.0
 10
85.6115475725
 20
240.9030206605
 30
0.0
 10
85.6170441029
 20
240.8982474531
 30
0.0
  0
SPLINE
  5
37F
100
AcDbEntity
  8
0
100
AcDbSpline
 62
7
  6
CONTINUOUS
 70
0
 71
3
 72
10
 73
6
 74
0
 42
0.0000001
 43
0.0000001
 44
0.0000000001
 40
0.0
 40
0.0
 40
0.0
 40
0.0
 40
0.2526614597
 40
0.6282949825
 40
1.0
 40
1.0
 40
1.0
 40
1.0
 10
85.6170441029
 20
240.8982474531
 30
0.0
 10
85.6213844426
 20
240.9006491293
 30
0.0
 10
85.6323054565
 20
240.9068202849
 30
0.0
 10
85.6524277874
 20
240.907816429
 30
0.0
 10
85.6658982392
 20
240.9140381001
 30
0.0
 10
85.6725745589
 20
240.9169847904
 30
0.0
  0
SPLINE
  5
380
100
AcDbEntity
  8
0
100
AcDbSpline
 62
7
  6
CONTINUOUS
 70
0
 71
3
 72
18
 73
14
 74
0
 42
0.0000001
 43
0.0000001
 44
0.0000000001
 40
0.0
 40
0.0
 40
0.0
 40
0.0
 40
0.0628048759
 40
0.1251770136
 40
0.187278833
 40
0.2493073796
 40
0.3116111053
 40
0.3742721087
 40
0.4996106358
 40
0.624892834
 40
0.7496713362
 40
0.8745483131
 40
1.0
 40
1.0
 40
1.0
 40
1.0
 10
90.5626641615
 20
239.4859627789
 30
0.0
 10
90.5332563113
 20
239.3355058292
 30
0.0
 10
90.456923628
 20
239.0376224644
 30
0.0
 10
90.2415597889
 20
238.6289111851
 30
0.0
 10
89.9319691613
 20
238.2884720123
 30
0.0
 10
89.546121923
 20
238.0375560827
 30
0.0
 10
89.1076055045
 20
237.8942375479
 30
0.0
 10
88.4937765195
 20
237.8454078755
 30
0.0
 10
87.7310082134
 20
238.0299556182
 30
0.0
 10
86.94698218
 20
238.5282857191
 30
0.0
 10
86.3273347159
 20
239.2138431795
 30
0.0
 10
85.8812746398
 20
240.0248614875
 30
0.0
 10
85.7361004429
 20
240.6240006844
 30
0.0
 10
85.6825774601
 20
240.9255090653
 30
0.0
  0
SPLINE
  5
381
100
AcDbEntity
  8
0
100
AcDbSpline
 62
7
  6
CONTINUOUS
 70
0
 71
3
 72
9
 73
5
 74
0
 42
0.0000001
 43
0.0000001
 44
0.0000000001
 40
0.0
 40
0.0
 40
0.0
 40
0.0
 40
0.4924796995
 40
1.0
 40
1.0
 40
1.0
 40
1.0
 10
85.6825698229
 20
240.9255090653
 30
0.0
 10
85.6805002349
 20
240.923544134
 30
0.0
 10
85.6798459333
 20
240.915886118
 30
0.0
 10
85.6724273912
 20
240.9170373607
 30
0.0
 10
85.669498064
 20
240.9167761297
 30
0.0
  0
SPLINE
  5
382
100
AcDbEntity
  8
0
100
AcDbSpline
 62
7
  6
CONTINUOUS
 70
0
 71
3
 72
21
 73
17
 74
0
 42
0.0000001
 43
0.0000001
 44
0.0000000001
 40
0.0
 40
0.0
 40
0.0
 40
0.0
 40
0.1253102751
 40
0.1878076703
 40
0.2502549551
 40
0.3126452912
 40
0.3751043733
 40
0.5003195171
 40
0.5632976548
 40
0.6261402098
 40
0.6887782676
 40
0.7509897342
 40
0.8129548001
 40
0.8749576719
 40
0.9372685559
 40
1.0
 40
1.0
 40
1.0
 40
1.0
 10
85.6170420231
 20
240.8982432202
 30
0.0
 10
85.6676866977
 20
240.5892895904
 30
0.0
 10
85.783333354
 20
240.1292260988
 30
0.0
 10
86.053097242
 20
239.5634776827
 30
0.0
 10
86.3030937137
 20
239.1666011418
 30
0.0
 10
86.5987413781
 20
238.8021191997
 30
0.0
 10
87.0535033993
 20
238.3719640613
 30
0.0
 10
87.5967972083
 20
238.0386109553
 30
0.0
 10
88.1976319998
 20
237.8489367253
 30
0.0
 10
88.6686539734
 20
237.7949849489
 30
0.0
 10
89.1391874109
 20
237.8391447596
 30
0.0
 10
89.5860223908
 20
237.9902302979
 30
0.0
 10
89.9775399648
 20
238.2508105347
 30
0.0
 10
90.2929138405
 20
238.5995334595
 30
0.0
 10
90.5128838351
 20
239.0173255481
 30
0.0
 10
90.5919382705
 20
239.3216165745
 30
0.0
 10
90.6220998028
 20
239.4754161588
 30
0.0
  0
SPLINE
  5
383
100
AcDbEntity
  8
0
100
AcDbSpline
 62
7
  6
CONTINUOUS
 70
0
 71
3
 72
19
 73
15
 74
0
 42
0.0000001
 43
0.0000001
 44
0.0000000001
 40
0.0
 40
0.0
 40
0.0
 40
0.0
 40
0.0627857864
 40
0.1251283172
 40
0.1872076508
 40
0.2492039889
 40
0.3114930473
 40
0.3741697718
 40
0.499568656
 40
0.6248497719
 40
0.7495569203
 40
0.8743485403
 40
0.93716821
 40
1.0
 40
1.0
 40
1.0
 40
1.0
 10
95.6249950135
 20
239.4754067022
 30
0.0
 10
95.6550453797
 20
239.3214539404
 30
0.0
 10
95.7332236455
 20
239.0165636197
 30
0.0
 10
95.9553740581
 20
238.5995612897
 30
0.0
 10
96.2697215184
 20
238.2495240945
 30
0.0
 10
96.6626568071
 20
237.9900542053
 30
0.0
 10
97.1095995379
 20
237.8386035959
 30
0.0
 10
97.7371514532
 20
237.7795495873
 30
0.0
 10
98.5207511926
 20
237.95757872
 30
0.0
 10
99.329747163
 20
238.4566927366
 30
0.0
 10
99.9723584923
 20
239.152271217
 30
0.0
 10
100.345414564
 20
239.8465580514
 30
0.0
 10
100.5466119207
 20
240.4399376584
 30
0.0
 10
100.6094574846
 20
240.7489190463
 30
0.0
 10
100.6279021498
 20
240.9048047118
 30
0.0
  0
SPLINE
  5
384
100
AcDbEntity
  8
0
100
AcDbSpline
 62
7
  6
CONTINUOUS
 70
0
 71
3
 72
10
 73
6
 74
0
 42
0.0000001
 43
0.0000001
 44
0.0000000001
 40
0.0
 40
0.0
 40
0.0
 40
0.0
 40
0.2497400371
 40
0.4998780893
 40
1.0
 40
1.0
 40
1.0
 40
1.0
 10
104.1478987713
 20
240.7101852073
 30
0.0
 10
104.2865214769
 20
240.8579268947
 30
0.0
 10
104.5162459215
 20
241.1985028941
 30
0.0
 10
104.8380660608
 20
241.9451251058
 30
0.0
 10
104.9627495002
 20
242.5487546371
 30
0.0
 10
105.0050291488
 20
242.9522519471
 30
0.0
  0
SPLINE
  5
385
100
AcDbEntity
  8
0
100
AcDbSpline
 62
7
  6
CONTINUOUS
 70
0
 71
3
 72
10
 73
6
 74
0
 42
0.0000001
 43
0.0000001
 44
0.0000000001
 40
0.0
 40
0.0
 40
0.0
 40
0.0
 40
0.5001201097
 40
0.7502559613
 40
1.0
 40
1.0
 40
1.0
 40
1.0
 10
105.0050291576
 20
272.4477470804
 30
0.0
 10
104.9626977141
 20
272.8512511185
 30
0.0
 10
104.8381940043
 20
273.4549337018
 30
0.0
 10
104.5162133374
 20
274.2015415103
 30
0.0
 10
104.2864372321
 20
274.5420729923
 30
0.0
 10
104.1478583016
 20
274.6898694687
 30
0.0
  0
SPLINE
  5
386
100
AcDbEntity
  8
0
100
AcDbSpline
 62
7
  6
CONTINUOUS
 70
0
 71
3
 72
16
 73
12
 74
0
 42
0.0000001
 43
0.0000001
 44
0.0000000001
 40
0.0
 40
0.0
 40
0.0
 40
0.0
 40
0.1253577555
 40
0.2492568438
 40
0.3111397407
 40
0.3731010809
 40
0.4973137196
 40
0.6227872435
 40
0.7485786595
 40
0.8743890207
 40
1.0
 40
1.0
 40
1.0
 40
1.0
 10
100.6844304533
 20
274.4854879595
 30
0.0
 10
100.7197909518
 20
274.6682593428
 30
0.0
 10
100.8129420411
 20
275.0312608219
 30
0.0
 10
101.0926126723
 20
275.4178706455
 30
0.0
 10
101.3959108128
 20
275.6311411521
 30
0.0
 10
101.7406206892
 20
275.7697616655
 30
0.0
 10
102.2150241247
 20
275.796251968
 30
0.0
 10
102.7595338038
 20
275.6507376918
 30
0.0
 10
103.2574702697
 20
275.3870580028
 30
0.0
 10
103.7036899981
 20
275.044915933
 30
0.0
 10
103.9658340703
 20
274.7777068459
 30
0.0
 10
104.090696613
 20
274.639123874
 30
0.0
  0
SPLINE
  5
387
100
AcDbEntity
  8
0
100
AcDbSpline
 62
7
  6
CONTINUOUS
 70
0
 71
3
 72
10
 73
6
 74
0
 42
0.0000001
 43
0.0000001
 44
0.0000000001
 40
0.0
 40
0.0
 40
0.0
 40
0.0
 40
0.2448945608
 40
0.62101446
 40
1.0
 40
1.0
 40
1.0
 40
1.0
 10
100.684552802
 20
274.4854640113
 30
0.0
 10
100.6799099855
 20
274.4862207778
 30
0.0
 10
100.6682497219
 20
274.4887533866
 30
0.0
 10
100.6488735717
 20
274.4897313402
 30
0.0
 10
100.6355509959
 20
274.4969793396
 30
0.0
 10
100.6300544655
 20
274.501752547
 30
0.0
  0
SPLINE
  5
388
100
AcDbEntity
  8
0
100
AcDbSpline
 62
7
  6
CONTINUOUS
 70
0
 71
3
 72
10
 73
6
 74
0
 42
0.0000001
 43
0.0000001
 44
0.0000000001
 40
0.0
 40
0.0
 40
0.0
 40
0.0
 40
0.2526614882
 40
0.6282949986
 40
1.0
 40
1.0
 40
1.0
 40
1.0
 10
100.6300544655
 20
274.501752547
 30
0.0
 10
100.6257141308
 20
274.4993508809
 30
0.0
 10
100.6147931431
 20
274.4931797297
 30
0.0
 10
100.5946708591
 20
274.4921835682
 30
0.0
 10
100.5812004066
 20
274.4859619851
 30
0.0
 10
100.5745240982
 20
274.4830153058
 30
0.0
  0
SPLINE
  5
389
100
AcDbEntity
  8
0
100
AcDbSpline
 62
7
  6
CONTINUOUS
 70
0
 71
3
 72
8
 73
4
 74
0
 42
0.0000001
 43
0.0000001
 44
0.0000000001
 40
0.0
 40
0.0
 40
0.0
 40
0.0
 40
1.0
 40
1.0
 40
1.0
 40
1.0
 10
99.1082355479
 20
256.7814610313
 30
0.0
 10
99.1312012806
 20
256.7694225155
 30
0.0
 10
99.154801115
 20
256.7586203384
 30
0.0
 10
99.1777661482
 20
256.7465804882
 30
0.0
  0
SPLINE
  5
38A
100
AcDbEntity
  8
0
100
AcDbSpline
 62
7
  6
CONTINUOUS
 70
0
 71
3
 72
8
 73
4
 74
0
 42
0.0000001
 43
0.0000001
 44
0.0000000001
 40
0.0
 40
0.0
 40
0.0
 40
0.0
 40
1.0
 40
1.0
 40
1.0
 40
1.0
 10
99.1777661482
 20
268.2534195119
 30
0.0
 10
99.1548011194
 20
268.2413795716
 30
0.0
 10
99.1312012239
 20
268.2305774249
 30
0.0
 10
99.1082354945
 20
268.2185388208
 30
0.0
  0
SPLINE
  5
38B
100
AcDbEntity
  8
0
100
AcDbSpline
 62
7
  6
CONTINUOUS
 70
0
 71
3
 72
8
 73
4
 74
0
 42
0.0000001
 43
0.0000001
 44
0.0000000001
 40
0.0
 40
0.0
 40
0.0
 40
0.0
 40
1.0
 40
1.0
 40
1.0
 40
1.0
 10
87.1388630205
 20
268.2185389688
 30
0.0
 10
87.1158972878
 20
268.2305774846
 30
0.0
 10
87.0922974533
 20
268.2413796617
 30
0.0
 10
87.0693324201
 20
268.2534195119
 30
0.0
  0
SPLINE
  5
38C
100
AcDbEntity
  8
0
100
AcDbSpline
 62
7
  6
CONTINUOUS
 70
0
 71
3
 72
8
 73
4
 74
0
 42
0.0000001
 43
0.0000001
 44
0.0000000001
 40
0.0
 40
0.0
 40
0.0
 40
0.0
 40
1.0
 40
1.0
 40
1.0
 40
1.0
 10
85.5626681151
 20
258.9390151158
 30
0.0
 10
85.601658129
 20
258.8557188467
 30
0.0
 10
85.6418169745
 20
258.7729421574
 30
0.0
 10
85.6839360595
 20
258.6911835351
 30
0.0
  0
SPLINE
  5
38D
100
AcDbEntity
  8
0
100
AcDbSpline
 62
7
  6
CONTINUOUS
 70
0
 71
3
 72
8
 73
4
 74
0
 42
0.0000001
 43
0.0000001
 44
0.0000000001
 40
0.0
 40
0.0
 40
0.0
 40
0.0
 40
1.0
 40
1.0
 40
1.0
 40
1.0
 10
87.0693324201
 20
256.7465804882
 30
0.0
 10
87.0922974491
 20
256.7586204285
 30
0.0
 10
87.1158973447
 20
256.7694225753
 30
0.0
 10
87.1388630741
 20
256.7814611794
 30
0.0
  0
SPLINE
  5
38E
100
AcDbEntity
  8
0
100
AcDbSpline
 62
7
  6
CONTINUOUS
 70
0
 71
3
 72
17
 73
13
 74
0
 42
0.0000001
 43
0.0000001
 44
0.0000000001
 40
0.0
 40
0.0
 40
0.0
 40
0.0
 40
0.1248650595
 40
0.1869881136
 40
0.2489405999
 40
0.3110780651
 40
0.3735767094
 40
0.4363179007
 40
0.4992975885
 40
0.6246899967
 40
0.7499549347
 40
1.0
 40
1.0
 40
1.0
 40
1.0
 10
90.5626222072
 20
275.9140479122
 30
0.0
 10
90.5132918556
 20
276.2137243352
 30
0.0
 10
90.3434456967
 20
276.6575294504
 30
0.0
 10
89.9334995323
 20
277.1105124163
 30
0.0
 10
89.5493774808
 20
277.3604820902
 30
0.0
 10
89.114054715
 20
277.5044416838
 30
0.0
 10
88.656009696
 20
277.5423095352
 30
0.0
 10
88.1990228353
 20
277.482833923
 30
0.0
 10
87.6153751581
 20
277.2937635208
 30
0.0
 10
86.9580112846
 20
276.8808788606
 30
0.0
 10
86.1314623717
 20
275.9757071157
 30
0.0
 10
85.7681612103
 20
275.0878697174
 30
0.0
 10
85.6844768055
 20
274.4854696051
 30
0.0
  0
SPLINE
  5
38F
100
AcDbEntity
  8
0
100
AcDbSpline
 62
7
  6
CONTINUOUS
 70
0
 71
3
 72
19
 73
15
 74
0
 42
0.0000001
 43
0.0000001
 44
0.0000000001
 40
0.0
 40
0.0
 40
0.0
 40
0.0
 40
0.062785757
 40
0.1251283362
 40
0.1872076412
 40
0.249203996
 40
0.3114930384
 40
0.3741697669
 40
0.4995686496
 40
0.624849767
 40
0.7495569159
 40
0.8743485387
 40
0.9371682103
 40
1.0
 40
1.0
 40
1.0
 40
1.0
 10
90.6221071811
 20
275.9245934793
 30
0.0
 10
90.5920572808
 20
276.0785462757
 30
0.0
 10
90.5138740421
 20
276.383435389
 30
0.0
 10
90.2917251697
 20
276.800437995
 30
0.0
 10
89.9773776106
 20
277.150475618
 30
0.0
 10
89.5844423011
 20
277.4099453119
 30
0.0
 10
89.13749967
 20
277.5613964219
 30
0.0
 10
88.5099476788
 20
277.6204503744
 30
0.0
 10
87.7263478278
 20
277.4424214922
 30
0.0
 10
86.9173516364
 20
276.9433075527
 30
0.0
 10
86.2747402316
 20
276.2477289694
 30
0.0
 10
85.9016841111
 20
275.5534420576
 30
0.0
 10
85.7004866097
 20
274.9600624108
 30
0.0
 10
85.6376410634
 20
274.6510809734
 30
0.0
 10
85.6191964186
 20
274.4951952883
 30
0.0
  0
SPLINE
  5
390
100
AcDbEntity
  8
0
100
AcDbSpline
 62
7
  6
CONTINUOUS
 70
0
 71
3
 72
17
 73
13
 74
0
 42
0.0000001
 43
0.0000001
 44
0.0000000001
 40
0.0
 40
0.0
 40
0.0
 40
0.0
 40
0.1253718217
 40
0.2491962196
 40
0.3110429574
 40
0.3729443122
 40
0.4350580276
 40
0.4975760864
 40
0.622945261
 40
0.7486967389
 40
0.8744503395
 40
1.0
 40
1.0
 40
1.0
 40
1.0
 10
100.6300565453
 20
274.5017567799
 30
0.0
 10
100.6710470155
 20
274.6885220761
 30
0.0
 10
100.7669519668
 20
275.0610843209
 30
0.0
 10
101.0595533073
 20
275.4542289721
 30
0.0
 10
101.370650259
 20
275.6725365789
 30
0.0
 10
101.6346199665
 20
275.7821457371
 30
0.0
 10
101.9166320091
 20
275.8330321736
 30
0.0
 10
102.2995534373
 20
275.8273101317
 30
0.0
 10
102.7707337042
 20
275.7135835128
 30
0.0
 10
103.2851211322
 20
275.4491218814
 30
0.0
 10
103.7475245581
 20
275.103642733
 30
0.0
 10
104.0194805449
 20
274.8319382853
 30
0.0
 10
104.1478533618
 20
274.689861854
 30
0.0
  0
SPLINE
  5
391
100
AcDbEntity
  8
0
100
AcDbSpline
 62
7
  6
CONTINUOUS
 70
0
 71
3
 72
10
 73
6
 74
0
 42
0.0000001
 43
0.0000001
 44
0.0000000001
 40
0.0
 40
0.0
 40
0.0
 40
0.0
 40
0.5874655534
 40
0.8225959196
 40
1.0
 40
1.0
 40
1.0
 40
1.0
 10
104.1478533618
 20
274.689861854
 30
0.0
 10
104.2798883052
 20
275.6576033439
 30
0.0
 10
104.4323712772
 20
277.0172082005
 30
0.0
 10
104.5803626727
 20
278.6731582739
 30
0.0
 10
104.6376872847
 20
279.3566422385
 30
0.0
 10
104.6648308273
 20
279.6503386652
 30
0.0
  0
SPLINE
  5
392
100
AcDbEntity
  8
0
100
AcDbSpline
 62
7
  6
CONTINUOUS
 70
0
 71
3
 72
10
 73
6
 74
0
 42
0.0000001
 43
0.0000001
 44
0.0000000001
 40
0.0
 40
0.0
 40
0.0
 40
0.0
 40
0.1774042357
 40
0.4125349359
 40
1.0
 40
1.0
 40
1.0
 40
1.0
 10
81.5822643783
 20
279.6503368971
 30
0.0
 10
81.6094070548
 20
279.3566372656
 30
0.0
 10
81.6667358072
 20
278.6731461656
 30
0.0
 10
81.8147390823
 20
277.0171812442
 30
0.0
 10
81.9671696815
 20
275.6575573522
 30
0.0
 10
82.0992047461
 20
274.6898071639
 30
0.0
  0
SPLINE
  5
393
100
AcDbEntity
  8
0
100
AcDbSpline
 62
7
  6
CONTINUOUS
 70
0
 71
3
 72
22
 73
18
 74
0
 42
0.0000001
 43
0.0000001
 44
0.0000000001
 40
0.0
 40
0.0
 40
0.0
 40
0.0
 40
0.0627494147
 40
0.0939867706
 40
0.1251617155
 40
0.18722068
 40
0.2491557899
 40
0.3114130724
 40
0.3739863343
 40
0.4368358001
 40
0.4997614736
 40
0.6248924768
 40
0.6873429221
 40
0.7497367893
 40
0.812192192
 40
0.8747048152
 40
1.0
 40
1.0
 40
1.0
 40
1.0
 10
95.6844340992
 20
275.9140347429
 30
0.0
 10
95.7142699671
 20
276.064445504
 30
0.0
 10
95.7719409231
 20
276.2883404429
 30
0.0
 10
95.8974602847
 20
276.5681571683
 30
0.0
 10
96.057640504
 20
276.8275177304
 30
0.0
 10
96.3148732324
 20
277.1119912507
 30
0.0
 10
96.7013498692
 20
277.3621025236
 30
0.0
 10
97.1395149745
 20
277.5057813843
 30
0.0
 10
97.6005745471
 20
277.5429921027
 30
0.0
 10
98.059764133
 20
277.4804882344
 30
0.0
 10
98.644422939
 20
277.2871133483
 30
0.0
 10
99.1704878135
 20
276.9534872216
 30
0.0
 10
99.611353201
 20
276.5290723159
 30
0.0
 10
99.8975060573
 20
276.1701662384
 30
0.0
 10
100.1400896677
 20
275.7807249028
 30
0.0
 10
100.4020625148
 20
275.2266268376
 30
0.0
 10
100.5167455956
 20
274.7769257013
 30
0.0
 10
100.5645199293
 20
274.474490709
 30
0.0
  0
SPLINE
  5
394
100
AcDbEntity
  8
0
100
AcDbSpline
 62
7
  6
CONTINUOUS
 70
0
 71
3
 72
19
 73
15
 74
0
 42
0.0000001
 43
0.0000001
 44
0.0000000001
 40
0.0
 40
0.0
 40
0.0
 40
0.0
 40
0.1254987547
 40
0.2510976696
 40
0.3767036088
 40
0.4395153235
 40
0.5022910202
 40
0.5646879706
 40
0.6268125378
 40
0.6886362761
 40
0.7504273677
 40
0.8125037019
 40
0.8747175054
 40
1.0
 40
1.0
 40
1.0
 40
1.0
 10
82.0992047461
 20
274.6898071639
 30
0.0
 10
82.2313622367
 20
274.8288826627
 30
0.0
 10
82.5032179965
 20
275.1006980157
 30
0.0
 10
82.9614563891
 20
275.4533217422
 30
0.0
 10
83.3939647419
 20
275.6708391917
 30
0.0
 10
83.762491968
 20
275.7816418376
 30
0.0
 10
84.0468004727
 20
275.8293556966
 30
0.0
 10
84.3345929295
 20
275.8325368214
 30
0.0
 10
84.6166479143
 20
275.7802418922
 30
0.0
 10
84.8809409236
 20
275.6703227059
 30
0.0
 10
85.1142221985
 20
275.504641351
 30
0.0
 10
85.3082247139
 20
275.2938683706
 30
0.0
 10
85.5046293488
 20
274.96338676
 30
0.0
 10
85.576383634
 20
274.6818712573
 30
0.0
 10
85.6191964186
 20
274.4951952883
 30
0.0
  0
SPLINE
  5
395
100
AcDbEntity
  8
0
100
AcDbSpline
 62
7
  6
CONTINUOUS
 70
0
 71
3
 72
9
 73
5
 74
0
 42
0.0000001
 43
0.0000001
 44
0.0000000001
 40
0.0
 40
0.0
 40
0.0
 40
0.0
 40
0.2632201551
 40
1.0
 40
1.0
 40
1.0
 40
1.0
 10
81.5822671163
 20
279.6502965946
 30
0.0
 10
81.5054950765
 20
279.6131021242
 30
0.0
 10
81.2143258098
 20
279.4708362665
 30
0.0
 10
80.9273564187
 20
279.3195299651
 30
0.0
 10
80.7211096227
 20
279.1991960436
 30
0.0
  0
SPLINE
  5
396
100
AcDbEntity
  8
0
100
AcDbSpline
 62
7
  6
CONTINUOUS
 70
0
 71
3
 72
9
 73
5
 74
0
 42
0.0000001
 43
0.0000001
 44
0.0000000001
 40
0.0
 40
0.0
 40
0.0
 40
0.0
 40
0.5914385559
 40
1.0
 40
1.0
 40
1.0
 40
1.0
 10
80.7211096227
 20
279.1991960436
 30
0.0
 10
80.5444693163
 20
279.0961359177
 30
0.0
 10
80.2523381847
 20
278.9105227
 30
0.0
 10
79.9788066095
 20
278.6970157918
 30
0.0
 10
79.8762812669
 20
278.599823446
 30
0.0
  0
SPLINE
  5
397
100
AcDbEntity
  8
0
100
AcDbSpline
 62
7
  6
CONTINUOUS
 70
0
 71
3
 72
9
 73
5
 74
0
 42
0.0000001
 43
0.0000001
 44
0.0000000001
 40
0.0
 40
0.0
 40
0.0
 40
0.0
 40
0.4924855186
 40
1.0
 40
1.0
 40
1.0
 40
1.0
 10
100.56452756
 20
274.474490709
 30
0.0
 10
100.566597542
 20
274.4764554282
 30
0.0
 10
100.5672525101
 20
274.4841134532
 30
0.0
 10
100.5746710229
 20
274.4829626443
 30
0.0
 10
100.5776004196
 20
274.483223946
 30
0.0
  0
SPLINE
  5
398
100
AcDbEntity
  8
0
100
AcDbSpline
 62
7
  6
CONTINUOUS
 70
0
 71
3
 72
17
 73
13
 74
0
 42
0.0000001
 43
0.0000001
 44
0.0000000001
 40
0.0
 40
0.0
 40
0.0
 40
0.0
 40
0.1249812919
 40
0.1874796507
 40
0.2499810482
 40
0.3749917119
 40
0.4999999858
 40
0.6250082574
 40
0.7500189324
 40
0.8125203233
 40
0.8750186854
 40
1.0
 40
1.0
 40
1.0
 40
1.0
 10
81.2420782191
 20
242.9522528168
 30
0.0
 10
81.126242462
 20
244.1769966601
 30
0.0
 10
80.9768327058
 20
246.0167129311
 30
0.0
 10
80.8406464703
 20
248.4736461135
 30
0.0
 10
80.7454278028
 20
250.9327845282
 30
0.0
 10
80.6825669531
 20
254.0085363422
 30
0.0
 10
80.660959841
 20
257.7000001038
 30
0.0
 10
80.6825692601
 20
261.3914637992
 30
0.0
 10
80.7453945228
 20
264.4672162462
 30
0.0
 10
80.8405926951
 20
266.9263556436
 30
0.0
 10
80.9767835848
 20
269.3832888463
 30
0.0
 10
81.1262152294
 20
271.2230039938
 30
0.0
 10
81.242077996
 20
272.4477455066
 30
0.0
  0
SPLINE
  5
399
100
AcDbEntity
  8
0
100
AcDbSpline
 62
7
  6
CONTINUOUS
 70
0
 71
3
 72
10
 73
6
 74
0
 42
0.0000001
 43
0.0000001
 44
0.0000000001
 40
0.0
 40
0.0
 40
0.0
 40
0.0
 40
0.1774043217
 40
0.4125376935
 40
1.0
 40
1.0
 40
1.0
 40
1.0
 10
81.5822677465
 20
235.7496613319
 30
0.0
 10
81.6094114291
 20
236.0433592753
 30
0.0
 10
81.6667785125
 20
236.7268475248
 30
0.0
 10
81.814645292
 20
238.3828151682
 30
0.0
 10
81.9671870227
 20
239.7424195095
 30
0.0
 10
82.0992210266
 20
240.7101594287
 30
0.0
  0
SPLINE
  5
39A
100
AcDbEntity
  8
0
100
AcDbSpline
 62
7
  6
CONTINUOUS
 70
0
 71
3
 72
13
 73
9
 74
0
 42
0.0000001
 43
0.0000001
 44
0.0000000001
 40
0.0
 40
0.0
 40
0.0
 40
0.0
 40
0.1247216687
 40
0.2501527288
 40
0.3749879501
 40
0.4997995221
 40
0.7497632158
 40
1.0
 40
1.0
 40
1.0
 40
1.0
 10
82.0992187861
 20
240.7101559759
 30
0.0
 10
82.0252681253
 20
240.7794453994
 30
0.0
 10
81.8995972392
 20
240.9419127388
 30
0.0
 10
81.7469457407
 20
241.2055122292
 30
0.0
 10
81.6114565424
 20
241.4788908622
 30
0.0
 10
81.4605830119
 20
241.8561500137
 30
0.0
 10
81.3264325334
 20
242.3479273574
 30
0.0
 10
81.2679966706
 20
242.7505852263
 30
0.0
 10
81.2420706363
 20
242.9522495201
 30
0.0
  0
SPLINE
  5
39B
100
AcDbEntity
  8
0
100
AcDbSpline
 62
7
  6
CONTINUOUS
 70
0
 71
3
 72
10
 73
6
 74
0
 42
0.0000001
 43
0.0000001
 44
0.0000000001
 40
0.0
 40
0.0
 40
0.0
 40
0.0
 40
0.1774042636
 40
0.4125349505
 40
1.0
 40
1.0
 40
1.0
 40
1.0
 10
104.664833724
 20
235.7496628579
 30
0.0
 10
104.637691035
 20
236.0433625469
 30
0.0
 10
104.5803631974
 20
236.7268537796
 30
0.0
 10
104.4323590989
 20
238.3828186962
 30
0.0
 10
104.2799288889
 20
239.7424426326
 30
0.0
 10
104.1478938223
 20
240.7101928362
 30
0.0
  0
SPLINE
  5
39C
100
AcDbEntity
  8
0
100
AcDbSpline
 62
7
  6
CONTINUOUS
 70
0
 71
3
 72
19
 73
15
 74
0
 42
0.0000001
 43
0.0000001
 44
0.0000000001
 40
0.0
 40
0.0
 40
0.0
 40
0.0
 40
0.1254987547
 40
0.2510976696
 40
0.3767036088
 40
0.4395153235
 40
0.5022910202
 40
0.5646879706
 40
0.6268125378
 40
0.6886362761
 40
0.7504273677
 40
0.8125037019
 40
0.8747175054
 40
1.0
 40
1.0
 40
1.0
 40
1.0
 10
104.1478938223
 20
240.7101928362
 30
0.0
 10
104.0157363317
 20
240.5711173374
 30
0.0
 10
103.7438805718
 20
240.2993019844
 30
0.0
 10
103.2856421793
 20
239.9466782578
 30
0.0
 10
102.8531338265
 20
239.7291608084
 30
0.0
 10
102.4846066003
 20
239.6183581625
 30
0.0
 10
102.2002980957
 20
239.5706443034
 30
0.0
 10
101.9125056389
 20
239.5674631786
 30
0.0
 10
101.6304506541
 20
239.6197581079
 30
0.0
 10
101.3661576448
 20
239.7296772942
 30
0.0
 10
101.1328763699
 20
239.895358649
 30
0.0
 10
100.9388738544
 20
240.1061316294
 30
0.0
 10
100.7424692195
 20
240.4366132401
 30
0.0
 10
100.6707149344
 20
240.7181287428
 30
0.0
 10
100.6279021498
 20
240.9048047118
 30
0.0
  0
SPLINE
  5
39D
100
AcDbEntity
  8
0
100
AcDbSpline
 62
7
  6
CONTINUOUS
 70
0
 71
3
 72
18
 73
14
 74
0
 42
0.0000001
 43
0.0000001
 44
0.0000000001
 40
0.0
 40
0.0
 40
0.0
 40
0.0
 40
0.0629332614
 40
0.1255853075
 40
0.188034995
 40
0.2503525818
 40
0.3748619051
 40
0.5002940349
 40
0.6257021494
 40
0.750206136
 40
0.8744455213
 40
0.9371264716
 40
1.0
 40
1.0
 40
1.0
 40
1.0
 10
95.6249950135
 20
239.4754067022
 30
0.0
 10
95.5983186178
 20
239.3257054196
 30
0.0
 10
95.5275024636
 20
239.0294613387
 30
0.0
 10
95.3508513007
 20
238.6083584909
 30
0.0
 10
95.1019038538
 20
238.2271461038
 30
0.0
 10
94.6908219645
 20
237.7836932586
 30
0.0
 10
94.0349413989
 20
237.3755908093
 30
0.0
 10
93.1230313377
 20
237.202993427
 30
0.0
 10
92.2113161411
 20
237.3768823587
 30
0.0
 10
91.4255921512
 20
237.8630631028
 30
0.0
 10
90.9571679443
 20
238.4728494645
 30
0.0
 10
90.7169376675
 20
239.0285024861
 30
0.0
 10
90.6436008241
 20
239.325030194
 30
0.0
 10
90.6220998028
 20
239.4754161588
 30
0.0
  0
SPLINE
  5
39E
100
AcDbEntity
  8
0
100
AcDbSpline
 62
7
  6
CONTINUOUS
 70
0
 71
3
 72
17
 73
13
 74
0
 42
0.0000001
 43
0.0000001
 44
0.0000000001
 40
0.0
 40
0.0
 40
0.0
 40
0.0
 40
0.1253718024
 40
0.2491961789
 40
0.3110429125
 40
0.3729442733
 40
0.435058006
 40
0.497576085
 40
0.6229452743
 40
0.7486967461
 40
0.8744503366
 40
1.0
 40
1.0
 40
1.0
 40
1.0
 10
85.6170420231
 20
240.8982432202
 30
0.0
 10
85.5760514578
 20
240.7114766017
 30
0.0
 10
85.4801454226
 20
240.3389117811
 30
0.0
 10
85.1875402421
 20
239.945765504
 30
0.0
 10
84.8764396269
 20
239.7274584484
 30
0.0
 10
84.6124670563
 20
239.6178507946
 30
0.0
 10
84.330452516
 20
239.5669665875
 30
0.0
 10
83.9475283512
 20
239.572691896
 30
0.0
 10
83.4763459169
 20
239.6864238947
 30
0.0
 10
82.9619564969
 20
239.9508904982
 30
0.0
 10
82.4995530804
 20
240.2963763598
 30
0.0
 10
82.2275955236
 20
240.5680826993
 30
0.0
 10
82.0992210266
 20
240.7101594287
 30
0.0
  0
SPLINE
  5
39F
100
AcDbEntity
  8
0
100
AcDbSpline
 62
7
  6
CONTINUOUS
 70
0
 71
3
 72
9
 73
5
 74
0
 42
0.0000001
 43
0.0000001
 44
0.0000000001
 40
0.0
 40
0.0
 40
0.0
 40
0.0
 40
0.263220586
 40
1.0
 40
1.0
 40
1.0
 40
1.0
 10
104.6648309858
 20
235.749703175
 30
0.0
 10
104.7416030269
 20
235.7868980158
 30
0.0
 10
105.0327720354
 20
235.9291645768
 30
0.0
 10
105.3197422015
 20
236.0804695886
 30
0.0
 10
105.5259889796
 20
236.2008033917
 30
0.0
  0
SPLINE
  5
3A0
100
AcDbEntity
  8
0
100
AcDbSpline
 62
7
  6
CONTINUOUS
 70
0
 71
3
 72
9
 73
5
 74
0
 42
0.0000001
 43
0.0000001
 44
0.0000000001
 40
0.0
 40
0.0
 40
0.0
 40
0.0
 40
0.5914381996
 40
1.0
 40
1.0
 40
1.0
 40
1.0
 10
105.5259889796
 20
236.2008033917
 30
0.0
 10
105.7026293079
 20
236.3038634378
 30
0.0
 10
105.9947637041
 20
236.4894734902
 30
0.0
 10
106.2682877264
 20
236.7029886858
 30
0.0
 10
106.3708174069
 20
236.8001767369
 30
0.0
  0
SPLINE
  5
3A1
100
AcDbEntity
  8
0
100
AcDbSpline
 62
7
  6
CONTINUOUS
 70
0
 71
3
 72
21
 73
17
 74
0
 42
0.0000001
 43
0.0000001
 44
0.0000000001
 40
0.0
 40
0.0
 40
0.0
 40
0.0
 40
0.1253102812
 40
0.1878076749
 40
0.250254965
 40
0.3126453008
 40
0.3751043861
 40
0.50031952
 40
0.5632976645
 40
0.6261402136
 40
0.6887782733
 40
0.7509897372
 40
0.8129548106
 40
0.8749576693
 40
0.9372685738
 40
1.0
 40
1.0
 40
1.0
 40
1.0
 10
100.6300565453
 20
274.5017567799
 30
0.0
 10
100.5794116254
 20
274.8107106914
 30
0.0
 10
100.4637652849
 20
275.2707747599
 30
0.0
 10
100.1940005707
 20
275.8365235216
 30
0.0
 10
99.9440035771
 20
276.2334002501
 30
0.0
 10
99.6483557425
 20
276.5978826656
 30
0.0
 10
99.1935928194
 20
277.0280377884
 30
0.0
 10
98.6502978851
 20
277.3613900938
 30
0.0
 10
98.0494625246
 20
277.5510644267
 30
0.0
 10
97.5784398976
 20
277.6050153776
 30
0.0
 10
97.1079062091
 20
277.5608538643
 30
0.0
 10
96.6610710264
 20
277.4097675042
 30
0.0
 10
96.2695539005
 20
277.149185615
 30
0.0
 10
95.9541814239
 20
276.8004607759
 30
0.0
 10
95.7342119308
 20
276.3826683123
 30
0.0
 10
95.6551554006
 20
276.0783774617
 30
0.0
 10
95.6249942343
 20
275.9245776969
 30
0.0
  0
SPLINE
  5
3A2
100
AcDbEntity
  8
0
100
AcDbSpline
 62
7
  6
CONTINUOUS
 70
0
 71
3
 72
17
 73
13
 74
0
 42
0.0000001
 43
0.0000001
 44
0.0000000001
 40
0.0
 40
0.0
 40
0.0
 40
0.0
 40
0.1249812919
 40
0.1874796507
 40
0.2499810482
 40
0.3749917119
 40
0.4999999858
 40
0.6250082574
 40
0.7500189324
 40
0.8125203233
 40
0.8750186854
 40
1.0
 40
1.0
 40
1.0
 40
1.0
 10
105.0050203489
 20
272.4477471832
 30
0.0
 10
105.1208561061
 20
271.2230033399
 30
0.0
 10
105.2702658626
 20
269.3832870689
 30
0.0
 10
105.4064520981
 20
266.9263538866
 30
0.0
 10
105.5016707656
 20
264.4672154718
 30
0.0
 10
105.5645316152
 20
261.3914636578
 30
0.0
 10
105.5861387274
 20
257.6999998963
 30
0.0
 10
105.5645293083
 20
254.0085362009
 30
0.0
 10
105.5017040456
 20
250.9327837538
 30
0.0
 10
105.4065058733
 20
248.4736443564
 30
0.0
 10
105.2703149835
 20
246.0167111538
 30
0.0
 10
105.1208833389
 20
244.1769960062
 30
0.0
 10
105.0050205724
 20
242.9522544935
 30
0.0
  0
SPLINE
  5
3A3
100
AcDbEntity
  8
0
100
AcDbSpline
 62
7
  6
CONTINUOUS
 70
0
 71
3
 72
9
 73
5
 74
0
 42
0.0000001
 43
0.0000001
 44
0.0000000001
 40
0.0
 40
0.0
 40
0.0
 40
0.0
 40
0.4085173137
 40
1.0
 40
1.0
 40
1.0
 40
1.0
 10
106.3708280679
 20
278.5998048419
 30
0.0
 10
106.267727517
 20
278.6968065889
 30
0.0
 10
105.9942694656
 20
278.911481143
 30
0.0
 10
105.7011411177
 20
279.0970513316
 30
0.0
 10
105.5240870713
 20
279.2003019495
 30
0.0
  0
SPLINE
  5
3A4
100
AcDbEntity
  8
0
100
AcDbSpline
 62
7
  6
CONTINUOUS
 70
0
 71
3
 72
9
 73
5
 74
0
 42
0.0000001
 43
0.0000001
 44
0.0000000001
 40
0.0
 40
0.0
 40
0.0
 40
0.0
 40
0.4799738355
 40
1.0
 40
1.0
 40
1.0
 40
1.0
 10
105.5240870713
 20
279.2003019495
 30
0.0
 10
105.3900037025
 20
279.2784938405
 30
0.0
 10
105.1063322599
 20
279.434103035
 30
0.0
 10
104.816025574
 20
279.5766874058
 30
0.0
 10
104.6648282635
 20
279.6503102157
 30
0.0
  0
SPLINE
  5
3A5
100
AcDbEntity
  8
0
100
AcDbSpline
 62
7
  6
CONTINUOUS
 70
0
 71
3
 72
18
 73
14
 74
0
 42
0.0000001
 43
0.0000001
 44
0.0000000001
 40
0.0
 40
0.0
 40
0.0
 40
0.0
 40
0.0628980171
 40
0.1255607105
 40
0.2498448806
 40
0.3743435981
 40
0.4997552805
 40
0.6251890159
 40
0.6877983743
 40
0.7501801138
 40
0.8744465376
 40
0.9371064523
 40
1.0
 40
1.0
 40
1.0
 40
1.0
 10
95.6249942343
 20
275.9245776969
 30
0.0
 10
95.6008005352
 20
276.0746250039
 30
0.0
 10
95.5294503048
 20
276.3712169618
 30
0.0
 10
95.2909536707
 20
276.9282553941
 30
0.0
 10
94.8206084131
 20
277.5367117286
 30
0.0
 10
94.0354267506
 20
278.0237614206
 30
0.0
 10
93.123650344
 20
278.1970792514
 30
0.0
 10
92.3609699408
 20
278.0516138934
 30
0.0
 10
91.8169271462
 20
277.7799342108
 30
0.0
 10
91.3343051732
 20
277.4150581348
 30
0.0
 10
90.9556495006
 20
276.9283164744
 30
0.0
 10
90.7177869374
 20
276.3711647681
 30
0.0
 10
90.6463818142
 20
276.0746167738
 30
0.0
 10
90.6221071811
 20
275.9245934793
 30
0.0
  0
SPLINE
  5
3A6
100
AcDbEntity
  8
0
100
AcDbSpline
 62
7
  6
CONTINUOUS
 70
0
 71
3
 72
15
 73
11
 74
0
 42
0.0000001
 43
0.0000001
 44
0.0000000001
 40
0.0
 40
0.0
 40
0.0
 40
0.0
 40
0.1257738124
 40
0.2504595338
 40
0.3749524904
 40
0.5000000657
 40
0.6250475096
 40
0.7495404121
 40
0.8742262221
 40
1.0
 40
1.0
 40
1.0
 40
1.0
 10
95.5625976384
 20
275.9140342461
 30
0.0
 10
95.5166619957
 20
276.2062122449
 30
0.0
 10
95.3242040041
 20
276.7766863214
 30
0.0
 10
94.7733277079
 20
277.4862492657
 30
0.0
 10
94.0094448278
 20
277.9617758857
 30
0.0
 10
93.1235499303
 20
278.1291257102
 30
0.0
 10
92.2376551504
 20
277.9617763668
 30
0.0
 10
91.4737720407
 20
277.4862504782
 30
0.0
 10
90.9228955934
 20
276.7766876979
 30
0.0
 10
90.7304368152
 20
276.2062137266
 30
0.0
 10
90.684501199
 20
275.914035806
 30
0.0
  0
SPLINE
  5
3A7
100
AcDbEntity
  8
0
100
AcDbSpline
 62
7
  6
CONTINUOUS
 70
0
 71
3
 72
11
 73
7
 74
0
 42
0.0000001
 43
0.0000001
 44
0.0000000001
 40
0.0
 40
0.0
 40
0.0
 40
0.0
 40
0.2464532321
 40
0.4973165
 40
0.7486697479
 40
1.0
 40
1.0
 40
1.0
 40
1.0
 10
90.5626660471
 20
272.9181626598
 30
0.0
 10
90.1219518516
 20
272.710924629
 30
0.0
 10
89.2790045023
 20
272.1848568
 30
0.0
 10
88.2372805152
 20
271.1143999393
 30
0.0
 10
87.4799766966
 20
269.8155377057
 30
0.0
 10
87.2004350121
 20
268.8500035329
 30
0.0
 10
87.1218514663
 20
268.359614911
 30
0.0
  0
SPLINE
  5
3A8
100
AcDbEntity
  8
0
100
AcDbSpline
 62
7
  6
CONTINUOUS
 70
0
 71
3
 72
11
 73
7
 74
0
 42
0.0000001
 43
0.0000001
 44
0.0000000001
 40
0.0
 40
0.0
 40
0.0
 40
0.0
 40
0.2513290515
 40
0.502684575
 40
0.7535512026
 40
1.0
 40
1.0
 40
1.0
 40
1.0
 10
99.1252471021
 20
268.359614911
 30
0.0
 10
99.0466639425
 20
268.8500011225
 30
0.0
 10
98.767121338
 20
269.8155371036
 30
0.0
 10
98.009813996
 20
271.1144067743
 30
0.0
 10
96.9680897543
 20
272.1848680586
 30
0.0
 10
96.1251402906
 20
272.7109277053
 30
0.0
 10
95.6844340992
 20
272.9181620055
 30
0.0
  0
SPLINE
  5
3A9
100
AcDbEntity
  8
0
100
AcDbSpline
 62
7
  6
CONTINUOUS
 70
0
 71
3
 72
15
 73
11
 74
0
 42
0.0000001
 43
0.0000001
 44
0.0000000001
 40
0.0
 40
0.0
 40
0.0
 40
0.0
 40
0.0203445781
 40
0.0655322737
 40
0.1218187998
 40
0.1828567749
 40
0.3128531755
 40
0.4474757975
 40
0.7223445205
 40
1.0
 40
1.0
 40
1.0
 40
1.0
 10
87.1919312386
 20
268.3257862412
 30
0.0
 10
87.1933570509
 20
268.3295619897
 30
0.0
 10
87.2016879375
 20
268.3398779149
 30
0.0
 10
87.2125040568
 20
268.3614536908
 30
0.0
 10
87.2291417218
 20
268.3891089674
 30
0.0
 10
87.2537699178
 20
268.4315296788
 30
0.0
 10
87.2861527559
 20
268.4874394748
 30
0.0
 10
87.3403296644
 20
268.5797371234
 30
0.0
 10
87.4114286986
 20
268.6960594984
 30
0.0
 10
87.470307453
 20
268.7885192963
 30
0.0
 10
87.5002387958
 20
268.8347590307
 30
0.0
  0
SPLINE
  5
3AA
100
AcDbEntity
  8
0
100
AcDbSpline
 62
7
  6
CONTINUOUS
 70
0
 71
3
 72
15
 73
11
 74
0
 42
0.0000001
 43
0.0000001
 44
0.0000000001
 40
0.0
 40
0.0
 40
0.0
 40
0.0
 40
0.277654532
 40
0.552522205
 40
0.6871437771
 40
0.817139897
 40
0.8781724553
 40
0.9344896658
 40
0.9796465512
 40
1.0
 40
1.0
 40
1.0
 40
1.0
 10
98.7468597898
 20
268.8347589631
 30
0.0
 10
98.7767916372
 20
268.788519599
 30
0.0
 10
98.8356695349
 20
268.6960593919
 30
0.0
 10
98.9067675579
 20
268.5797365325
 30
0.0
 10
98.9609451956
 20
268.48743983
 30
0.0
 10
98.9933278156
 20
268.4315305047
 30
0.0
 10
99.0179579824
 20
268.3891064672
 30
0.0
 10
99.0345970111
 20
268.3614495038
 30
0.0
 10
99.0453803045
 20
268.3398616521
 30
0.0
 10
99.0537702671
 20
268.3295727398
 30
0.0
 10
99.0551676056
 20
268.3257844737
 30
0.0
  0
SPLINE
  5
3AB
100
AcDbEntity
  8
0
100
AcDbSpline
 62
7
  6
CONTINUOUS
 70
0
 71
3
 72
15
 73
11
 74
0
 42
0.0000001
 43
0.0000001
 44
0.0000000001
 40
0.0
 40
0.0
 40
0.0
 40
0.0
 40
0.3133774054
 40
0.4663979256
 40
0.6140155373
 40
0.7523843627
 40
0.8735929926
 40
0.9640533144
 40
0.9923119878
 40
1.0
 40
1.0
 40
1.0
 40
1.0
 10
98.6141073327
 20
268.6852110244
 30
0.0
 10
98.6672299463
 20
268.6380894089
 30
0.0
 10
98.7453920994
 20
268.5670496317
 30
0.0
 10
98.8469796288
 20
268.4716944489
 30
0.0
 10
98.918399235
 20
268.4032293285
 30
0.0
 10
98.9858293506
 20
268.3376023025
 30
0.0
 10
99.0381444355
 20
268.2854356185
 30
0.0
 10
99.0858038585
 20
268.2394079474
 30
0.0
 10
99.0959837086
 20
268.2285625368
 30
0.0
 10
99.1090766141
 20
268.2169874582
 30
0.0
 10
99.1081670458
 20
268.218473231
 30
0.0
  0
SPLINE
  5
3AC
100
AcDbEntity
  8
0
100
AcDbSpline
 62
7
  6
CONTINUOUS
 70
0
 71
3
 72
8
 73
4
 74
0
 42
0.0000001
 43
0.0000001
 44
0.0000000001
 40
0.0
 40
0.0
 40
0.0
 40
0.0
 40
1.0
 40
1.0
 40
1.0
 40
1.0
 10
88.6931382317
 20
264.3445383528
 30
0.0
 10
88.715184168
 20
264.3156371013
 30
0.0
 10
88.7361538525
 20
264.285925388
 30
0.0
 10
88.7581978586
 20
264.2570226642
 30
0.0
  0
SPLINE
  5
3AD
100
AcDbEntity
  8
0
100
AcDbSpline
 62
7
  6
CONTINUOUS
 70
0
 71
3
 72
8
 73
4
 74
0
 42
0.0000001
 43
0.0000001
 44
0.0000000001
 40
0.0
 40
0.0
 40
0.0
 40
0.0
 40
1.0
 40
1.0
 40
1.0
 40
1.0
 10
97.4889007098
 20
264.2570226641
 30
0.0
 10
97.5109396791
 20
264.2859318602
 30
0.0
 10
97.5319148295
 20
264.3156418752
 30
0.0
 10
97.5539556995
 20
264.3445496221
 30
0.0
  0
SPLINE
  5
3AE
100
AcDbEntity
  8
0
100
AcDbSpline
 62
7
  6
CONTINUOUS
 70
0
 71
3
 72
13
 73
9
 74
0
 42
0.0000001
 43
0.0000001
 44
0.0000000001
 40
0.0
 40
0.0
 40
0.0
 40
0.0
 40
0.0199577047
 40
0.0756741897
 40
0.1643202622
 40
0.2830598683
 40
0.5991531401
 40
1.0
 40
1.0
 40
1.0
 40
1.0
 10
86.8006310512
 20
264.0069172881
 30
0.0
 10
86.8004988471
 20
264.0063626914
 30
0.0
 10
86.7981238937
 20
264.0054217753
 30
0.0
 10
86.7950493333
 20
264.0021615438
 30
0.0
 10
86.7887958159
 20
263.9977279928
 30
0.0
 10
86.7772338661
 20
263.9883653395
 30
0.0
 10
86.7584287575
 20
263.9735702528
 30
0.0
 10
86.7424710035
 20
263.9607604908
 30
0.0
 10
86.7335260184
 20
263.9536110451
 30
0.0
  0
SPLINE
  5
3AF
100
AcDbEntity
  8
0
100
AcDbSpline
 62
7
  6
CONTINUOUS
 70
0
 71
3
 72
13
 73
9
 74
0
 42
0.0000001
 43
0.0000001
 44
0.0000000001
 40
0.0
 40
0.0
 40
0.0
 40
0.0
 40
0.3973755023
 40
0.7125961749
 40
0.8319582775
 40
0.9217375771
 40
0.978790179
 40
1.0
 40
1.0
 40
1.0
 40
1.0
 10
99.5158606328
 20
263.951801591
 30
0.0
 10
99.5066943882
 20
263.9591293066
 30
0.0
 10
99.4902905996
 20
263.9722833248
 30
0.0
 10
99.4709363236
 20
263.9875064144
 30
0.0
 10
99.4589288552
 20
263.9971607573
 30
0.0
 10
99.4524109095
 20
264.0018207403
 30
0.0
 10
99.4491076871
 20
264.0052093468
 30
0.0
 10
99.4466357029
 20
264.0062965801
 30
0.0
 10
99.4464904344
 20
264.0069058663
 30
0.0
  0
SPLINE
  5
3B0
100
AcDbEntity
  8
0
100
AcDbSpline
 62
7
  6
CONTINUOUS
 70
0
 71
3
 72
8
 73
4
 74
0
 42
0.0000001
 43
0.0000001
 44
0.0000000001
 40
0.0
 40
0.0
 40
0.0
 40
0.0
 40
1.0
 40
1.0
 40
1.0
 40
1.0
 10
97.5539603366
 20
260.6554616472
 30
0.0
 10
97.5319144004
 20
260.6843628988
 30
0.0
 10
97.5109447159
 20
260.7140746121
 30
0.0
 10
97.4889007098
 20
260.7429773358
 30
0.0
  0
SPLINE
  5
3B1
100
AcDbEntity
  8
0
100
AcDbSpline
 62
7
  6
CONTINUOUS
 70
0
 71
3
 72
8
 73
4
 74
0
 42
0.0000001
 43
0.0000001
 44
0.0000000001
 40
0.0
 40
0.0
 40
0.0
 40
0.0
 40
1.0
 40
1.0
 40
1.0
 40
1.0
 10
88.7581978585
 20
260.742977336
 30
0.0
 10
88.7361588892
 20
260.7140681399
 30
0.0
 10
88.7151837388
 20
260.6843581249
 30
0.0
 10
88.6931428688
 20
260.6554503779
 30
0.0
  0
SPLINE
  5
3B2
100
AcDbEntity
  8
0
100
AcDbSpline
 62
7
  6
CONTINUOUS
 70
0
 71
3
 72
13
 73
9
 74
0
 42
0.0000001
 43
0.0000001
 44
0.0000000001
 40
0.0
 40
0.0
 40
0.0
 40
0.0
 40
0.0199577047
 40
0.0756741897
 40
0.1643202622
 40
0.2830598683
 40
0.5991531401
 40
1.0
 40
1.0
 40
1.0
 40
1.0
 10
99.4464675171
 20
260.993082712
 30
0.0
 10
99.4465997213
 20
260.9936373087
 30
0.0
 10
99.4489746747
 20
260.9945782248
 30
0.0
 10
99.4520492351
 20
260.9978384563
 30
0.0
 10
99.4583027524
 20
261.0022720073
 30
0.0
 10
99.4698647023
 20
261.0116346606
 30
0.0
 10
99.4886698108
 20
261.0264297473
 30
0.0
 10
99.5046275649
 20
261.0392395093
 30
0.0
 10
99.51357255
 20
261.046388955
 30
0.0
  0
SPLINE
  5
3B3
100
AcDbEntity
  8
0
100
AcDbSpline
 62
7
  6
CONTINUOUS
 70
0
 71
3
 72
13
 73
9
 74
0
 42
0.0000001
 43
0.0000001
 44
0.0000000001
 40
0.0
 40
0.0
 40
0.0
 40
0.0
 40
0.3973755023
 40
0.7125961749
 40
0.8319582775
 40
0.9217375771
 40
0.978790179
 40
1.0
 40
1.0
 40
1.0
 40
1.0
 10
86.7312379355
 20
261.048198409
 30
0.0
 10
86.7404041801
 20
261.0408706935
 30
0.0
 10
86.7568079688
 20
261.0277166753
 30
0.0
 10
86.7761622448
 20
261.0124935856
 30
0.0
 10
86.7881697132
 20
261.0028392428
 30
0.0
 10
86.7946876588
 20
260.9981792598
 30
0.0
 10
86.7979908813
 20
260.9947906533
 30
0.0
 10
86.8004628654
 20
260.99370342
 30
0.0
 10
86.800608134
 20
260.9930941337
 30
0.0
  0
SPLINE
  5
3B4
100
AcDbEntity
  8
0
100
AcDbSpline
 62
7
  6
CONTINUOUS
 70
0
 71
3
 72
9
 73
5
 74
0
 42
0.0000001
 43
0.0000001
 44
0.0000000001
 40
0.0
 40
0.0
 40
0.0
 40
0.0
 40
0.2626210001
 40
1.0
 40
1.0
 40
1.0
 40
1.0
 10
52.0445714886
 20
459.0646737784
 30
0.0
 10
51.901851161
 20
459.1333453258
 30
0.0
 10
51.34886503
 20
459.3728886462
 30
0.0
 10
50.7416226025
 20
459.5
 30
0.0
 10
50.2969224582
 20
459.5
 30
0.0
  0
SPLINE
  5
3B5
100
AcDbEntity
  8
0
100
AcDbSpline
 62
7
  6
CONTINUOUS
 70
0
 71
3
 72
9
 73
5
 74
0
 42
0.0000001
 43
0.0000001
 44
0.0000000001
 40
0.0
 40
0.0
 40
0.0
 40
0.0
 40
0.2417229763
 40
1.0
 40
1.0
 40
1.0
 40
1.0
 10
331.9501761102
 20
459.5
 30
0.0
 10
331.8043100229
 20
459.5
 30
0.0
 10
331.200563306
 20
459.4609333638
 30
0.0
 10
330.6148563591
 20
459.2630708121
 30
0.0
 10
330.2025270798
 20
459.0646737784
 30
0.0
  0
SPLINE
  5
3B6
100
AcDbEntity
  8
0
100
AcDbSpline
 62
7
  6
CONTINUOUS
 70
0
 71
3
 72
9
 73
5
 74
0
 42
0.0000001
 43
0.0000001
 44
0.0000000001
 40
0.0
 40
0.0
 40
0.0
 40
0.0
 40
0.2410586308
 40
1.0
 40
1.0
 40
1.0
 40
1.0
 10
329.3287025149
 20
458.56186816
 30
0.0
 10
329.2602294923
 20
458.4997820707
 30
0.0
 10
328.9808319642
 20
458.23707446
 30
0.0
 10
328.7166079535
 20
457.9587729839
 30
0.0
 10
328.5192962816
 20
457.7448791295
 30
0.0
  0
SPLINE
  5
3B7
100
AcDbEntity
  8
0
100
AcDbSpline
 62
7
  6
CONTINUOUS
 70
0
 71
3
 72
8
 73
4
 74
0
 42
0.0000001
 43
0.0000001
 44
0.0000000001
 40
0.0
 40
0.0
 40
0.0
 40
0.0
 40
1.0
 40
1.0
 40
1.0
 40
1.0
 10
328.5192962816
 20
457.7448791295
 30
0.0
 10
328.3833678722
 20
457.5975272211
 30
0.0
 10
328.2489828548
 20
457.4487566042
 30
0.0
 10
328.1145931598
 20
457.3
 30
0.0
  0
SPLINE
  5
3B8
100
AcDbEntity
  8
0
100
AcDbSpline
 62
7
  6
CONTINUOUS
 70
0
 71
3
 72
8
 73
4
 74
0
 42
0.0000001
 43
0.0000001
 44
0.0000000001
 40
0.0
 40
0.0
 40
0.0
 40
0.0
 40
1.0
 40
1.0
 40
1.0
 40
1.0
 10
54.1325054086
 20
457.3
 30
0.0
 10
53.9981157135
 20
457.4487566042
 30
0.0
 10
53.8637306962
 20
457.5975272211
 30
0.0
 10
53.7278022868
 20
457.7448791295
 30
0.0
  0
SPLINE
  5
3B9
100
AcDbEntity
  8
0
100
AcDbSpline
 62
7
  6
CONTINUOUS
 70
0
 71
3
 72
9
 73
5
 74
0
 42
0.0000001
 43
0.0000001
 44
0.0000000001
 40
0.0
 40
0.0
 40
0.0
 40
0.0
 40
0.2577494735
 40
1.0
 40
1.0
 40
1.0
 40
1.0
 10
53.7278022868
 20
457.7448791295
 30
0.0
 10
53.6607962404
 20
457.8175164013
 30
0.0
 10
53.399367007
 20
458.0979064472
 30
0.0
 10
53.1292195367
 20
458.3707095821
 30
0.0
 10
52.9183960535
 20
458.56186816
 30
0.0
  0
SPLINE
  5
3BA
100
AcDbEntity
  8
0
100
AcDbSpline
 62
7
  6
CONTINUOUS
 70
0
 71
3
 72
9
 73
5
 74
0
 42
0.0000001
 43
0.0000001
 44
0.0000000001
 40
0.0
 40
0.0
 40
0.0
 40
0.0
 40
0.2626210001
 40
1.0
 40
1.0
 40
1.0
 40
1.0
 10
330.2025270798
 20
65.9353262216
 30
0.0
 10
330.3452474074
 20
65.8666546743
 30
0.0
 10
330.8982335384
 20
65.6271113539
 30
0.0
 10
331.5054759659
 20
65.5
 30
0.0
 10
331.9501761102
 20
65.5
 30
0.0
  0
SPLINE
  5
3BB
100
AcDbEntity
  8
0
100
AcDbSpline
 62
7
  6
CONTINUOUS
 70
0
 71
3
 72
9
 73
5
 74
0
 42
0.0000001
 43
0.0000001
 44
0.0000000001
 40
0.0
 40
0.0
 40
0.0
 40
0.0
 40
0.2417229763
 40
1.0
 40
1.0
 40
1.0
 40
1.0
 10
50.2969224582
 20
65.5
 30
0.0
 10
50.4427885454
 20
65.5
 30
0.0
 10
51.0465352624
 20
65.5390666363
 30
0.0
 10
51.6322422093
 20
65.7369291879
 30
0.0
 10
52.0445714886
 20
65.9353262216
 30
0.0
  0
SPLINE
  5
3BC
100
AcDbEntity
  8
0
100
AcDbSpline
 62
7
  6
CONTINUOUS
 70
0
 71
3
 72
9
 73
5
 74
0
 42
0.0000001
 43
0.0000001
 44
0.0000000001
 40
0.0
 40
0.0
 40
0.0
 40
0.0
 40
0.2410586308
 40
1.0
 40
1.0
 40
1.0
 40
1.0
 10
52.9183960535
 20
66.43813184
 30
0.0
 10
52.986869076
 20
66.5002179294
 30
0.0
 10
53.2662666041
 20
66.7629255401
 30
0.0
 10
53.5304906149
 20
67.0412270161
 30
0.0
 10
53.7278022868
 20
67.2551208705
 30
0.0
  0
SPLINE
  5
3BD
100
AcDbEntity
  8
0
100
AcDbSpline
 62
7
  6
CONTINUOUS
 70
0
 71
3
 72
8
 73
4
 74
0
 42
0.0000001
 43
0.0000001
 44
0.0000000001
 40
0.0
 40
0.0
 40
0.0
 40
0.0
 40
1.0
 40
1.0
 40
1.0
 40
1.0
 10
53.7278022868
 20
67.2551208705
 30
0.0
 10
53.8637306962
 20
67.402472779
 30
0.0
 10
53.9981157136
 20
67.5512433959
 30
0.0
 10
54.1325054086
 20
67.7
 30
0.0
  0
SPLINE
  5
3BE
100
AcDbEntity
  8
0
100
AcDbSpline
 62
7
  6
CONTINUOUS
 70
0
 71
3
 72
8
 73
4
 74
0
 42
0.0000001
 43
0.0000001
 44
0.0000000001
 40
0.0
 40
0.0
 40
0.0
 40
0.0
 40
1.0
 40
1.0
 40
1.0
 40
1.0
 10
328.1145931598
 20
67.7
 30
0.0
 10
328.2489828548
 20
67.5512433959
 30
0.0
 10
328.3833678722
 20
67.402472779
 30
0.0
 10
328.5192962816
 20
67.2551208705
 30
0.0
  0
SPLINE
  5
3BF
100
AcDbEntity
  8
0
100
AcDbSpline
 62
7
  6
CONTINUOUS
 70
0
 71
3
 72
9
 73
5
 74
0
 42
0.0000001
 43
0.0000001
 44
0.0000000001
 40
0.0
 40
0.0
 40
0.0
 40
0.0
 40
0.2577494735
 40
1.0
 40
1.0
 40
1.0
 40
1.0
 10
328.5192962816
 20
67.2551208705
 30
0.0
 10
328.586302328
 20
67.1824835988
 30
0.0
 10
328.8477315614
 20
66.9020935528
 30
0.0
 10
329.1178790316
 20
66.629290418
 30
0.0
 10
329.3287025149
 20
66.43813184
 30
0.0
  0
SPLINE
  5
3C0
100
AcDbEntity
  8
0
100
AcDbSpline
 62
7
  6
CONTINUOUS
 70
0
 71
3
 72
8
 73
4
 74
0
 42
0.0000001
 43
0.0000001
 44
0.0000000001
 40
0.0
 40
0.0
 40
0.0
 40
0.0
 40
1.0
 40
1.0
 40
1.0
 40
1.0
 10
54.1325054086
 20
67.7
 30
0.0
 10
53.9836487238
 20
67.5365599432
 30
0.0
 10
53.8347782536
 20
67.3731216468
 30
0.0
 10
53.6876262798
 20
67.2081450988
 30
0.0
  0
SPLINE
  5
3C1
100
AcDbEntity
  8
0
100
AcDbSpline
 62
7
  6
CONTINUOUS
 70
0
 71
3
 72
9
 73
5
 74
0
 42
0.0000001
 43
0.0000001
 44
0.0000000001
 40
0.0
 40
0.0
 40
0.0
 40
0.0
 40
0.254925429
 40
1.0
 40
1.0
 40
1.0
 40
1.0
 10
53.6876262798
 20
67.2081450988
 30
0.0
 10
53.6262484692
 20
67.1393325708
 30
0.0
 10
53.3866922096
 20
66.8683536308
 30
0.0
 10
53.1536620851
 20
66.5913623073
 30
0.0
 10
52.9881872897
 20
66.3786468543
 30
0.0
  0
SPLINE
  5
3C2
100
AcDbEntity
  8
0
100
AcDbSpline
 62
7
  6
CONTINUOUS
 70
0
 71
3
 72
8
 73
4
 74
0
 42
0.0000001
 43
0.0000001
 44
0.0000000001
 40
0.0
 40
0.0
 40
0.0
 40
0.0
 40
1.0
 40
1.0
 40
1.0
 40
1.0
 10
52.8706372486
 20
458.7755646935
 30
0.0
 10
52.9958173862
 20
458.6077766277
 30
0.0
 10
53.1268381396
 20
458.4442977756
 30
0.0
 10
53.2611303638
 20
458.2837097922
 30
0.0
  0
SPLINE
  5
3C3
100
AcDbEntity
  8
0
100
AcDbSpline
 62
7
  6
CONTINUOUS
 70
0
 71
3
 72
8
 73
4
 74
0
 42
0.0000001
 43
0.0000001
 44
0.0000000001
 40
0.0
 40
0.0
 40
0.0
 40
0.0
 40
1.0
 40
1.0
 40
1.0
 40
1.0
 10
53.2611303638
 20
458.2837097922
 30
0.0
 10
53.4003401509
 20
458.1172413378
 30
0.0
 10
53.543178755
 20
457.9537994093
 30
0.0
 10
53.6876262798
 20
457.7918549013
 30
0.0
  0
SPLINE
  5
3C4
100
AcDbEntity
  8
0
100
AcDbSpline
 62
7
  6
CONTINUOUS
 70
0
 71
3
 72
8
 73
4
 74
0
 42
0.0000001
 43
0.0000001
 44
0.0000000001
 40
0.0
 40
0.0
 40
0.0
 40
0.0
 40
1.0
 40
1.0
 40
1.0
 40
1.0
 10
53.6876262798
 20
457.7918549013
 30
0.0
 10
53.8347782536
 20
457.6268783533
 30
0.0
 10
53.9836487238
 20
457.4634400569
 30
0.0
 10
54.1325054086
 20
457.3
 30
0.0
  0
SPLINE
  5
3C5
100
AcDbEntity
  8
0
100
AcDbSpline
 62
7
  6
CONTINUOUS
 70
0
 71
3
 72
8
 73
4
 74
0
 42
0.0000001
 43
0.0000001
 44
0.0000000001
 40
0.0
 40
0.0
 40
0.0
 40
0.0
 40
1.0
 40
1.0
 40
1.0
 40
1.0
 10
328.1145931598
 20
457.3
 30
0.0
 10
328.2634498445
 20
457.4634400569
 30
0.0
 10
328.4123203147
 20
457.6268783533
 30
0.0
 10
328.5594722886
 20
457.7918549013
 30
0.0
  0
SPLINE
  5
3C6
100
AcDbEntity
  8
0
100
AcDbSpline
 62
7
  6
CONTINUOUS
 70
0
 71
3
 72
9
 73
5
 74
0
 42
0.0000001
 43
0.0000001
 44
0.0000000001
 40
0.0
 40
0.0
 40
0.0
 40
0.0
 40
0.254925429
 40
1.0
 40
1.0
 40
1.0
 40
1.0
 10
328.5594722886
 20
457.7918549013
 30
0.0
 10
328.6208500992
 20
457.8606674293
 30
0.0
 10
328.8604063588
 20
458.1316463692
 30
0.0
 10
329.0934364832
 20
458.4086376928
 30
0.0
 10
329.2589112786
 20
458.6213531457
 30
0.0
  0
SPLINE
  5
3C7
100
AcDbEntity
  8
0
100
AcDbSpline
 62
7
  6
CONTINUOUS
 70
0
 71
3
 72
8
 73
4
 74
0
 42
0.0000001
 43
0.0000001
 44
0.0000000001
 40
0.0
 40
0.0
 40
0.0
 40
0.0
 40
1.0
 40
1.0
 40
1.0
 40
1.0
 10
329.3764613198
 20
66.2244353065
 30
0.0
 10
329.2512811821
 20
66.3922233723
 30
0.0
 10
329.1202604287
 20
66.5557022245
 30
0.0
 10
328.9859682046
 20
66.7162902079
 30
0.0
  0
SPLINE
  5
3C8
100
AcDbEntity
  8
0
100
AcDbSpline
 62
7
  6
CONTINUOUS
 70
0
 71
3
 72
8
 73
4
 74
0
 42
0.0000001
 43
0.0000001
 44
0.0000000001
 40
0.0
 40
0.0
 40
0.0
 40
0.0
 40
1.0
 40
1.0
 40
1.0
 40
1.0
 10
328.9859682046
 20
66.7162902079
 30
0.0
 10
328.8467584175
 20
66.8827586623
 30
0.0
 10
328.7039198134
 20
67.0462005907
 30
0.0
 10
328.5594722886
 20
67.2081450988
 30
0.0
  0
SPLINE
  5
3C9
100
AcDbEntity
  8
0
100
AcDbSpline
 62
7
  6
CONTINUOUS
 70
0
 71
3
 72
8
 73
4
 74
0
 42
0.0000001
 43
0.0000001
 44
0.0000000001
 40
0.0
 40
0.0
 40
0.0
 40
0.0
 40
1.0
 40
1.0
 40
1.0
 40
1.0
 10
328.5594722886
 20
67.2081450988
 30
0.0
 10
328.4123203147
 20
67.3731216468
 30
0.0
 10
328.2634498445
 20
67.5365599432
 30
0.0
 10
328.1145931598
 20
67.7
 30
0.0
  0
SPLINE
  5
3CA
100
AcDbEntity
  8
0
100
AcDbSpline
 62
7
  6
CONTINUOUS
 70
0
 71
3
 72
9
 73
5
 74
0
 42
0.0000001
 43
0.0000001
 44
0.0000000001
 40
0.0
 40
0.0
 40
0.0
 40
0.0
 40
0.2436086862
 40
1.0
 40
1.0
 40
1.0
 40
1.0
 10
329.9500377561
 20
458.7755646935
 30
0.0
 10
329.9051671084
 20
458.7342161055
 30
0.0
 10
329.7194432683
 20
458.5661448585
 30
0.0
 10
329.5283940116
 20
458.4040251918
 30
0.0
 10
329.3820477688
 20
458.2837097908
 30
0.0
  0
SPLINE
  5
3CB
100
AcDbEntity
  8
0
100
AcDbSpline
 62
7
  6
CONTINUOUS
 70
0
 71
3
 72
8
 73
4
 74
0
 42
0.0000001
 43
0.0000001
 44
0.0000000001
 40
0.0
 40
0.0
 40
0.0
 40
0.0
 40
1.0
 40
1.0
 40
1.0
 40
1.0
 10
329.3820477688
 20
458.2837097908
 30
0.0
 10
329.1781992013
 20
458.1161200962
 30
0.0
 10
328.9707036532
 20
457.9529569474
 30
0.0
 10
328.7616900762
 20
457.7918549027
 30
0.0
  0
SPLINE
  5
3CC
100
AcDbEntity
  8
0
100
AcDbSpline
 62
7
  6
CONTINUOUS
 70
0
 71
3
 72
8
 73
4
 74
0
 42
0.0000001
 43
0.0000001
 44
0.0000000001
 40
0.0
 40
0.0
 40
0.0
 40
0.0
 40
1.0
 40
1.0
 40
1.0
 40
1.0
 10
328.7616900762
 20
457.7918549027
 30
0.0
 10
328.5470999444
 20
457.6264545996
 30
0.0
 10
328.3308369119
 20
457.4632324253
 30
0.0
 10
328.1145931598
 20
457.3
 30
0.0
  0
SPLINE
  5
3CD
100
AcDbEntity
  8
0
100
AcDbSpline
 62
7
  6
CONTINUOUS
 70
0
 71
3
 72
8
 73
4
 74
0
 42
0.0000001
 43
0.0000001
 44
0.0000000001
 40
0.0
 40
0.0
 40
0.0
 40
0.0
 40
1.0
 40
1.0
 40
1.0
 40
1.0
 10
328.1145931598
 20
457.3
 30
0.0
 10
328.2488236415
 20
457.5161169021
 30
0.0
 10
328.383041194
 20
457.7322507203
 30
0.0
 10
328.5192962826
 20
457.9470969174
 30
0.0
  0
SPLINE
  5
3CE
100
AcDbEntity
  8
0
100
AcDbSpline
 62
7
  6
CONTINUOUS
 70
0
 71
3
 72
9
 73
5
 74
0
 42
0.0000001
 43
0.0000001
 44
0.0000000001
 40
0.0
 40
0.0
 40
0.0
 40
0.0
 40
0.2558522393
 40
1.0
 40
1.0
 40
1.0
 40
1.0
 10
328.5192962826
 20
457.9470969174
 30
0.0
 10
328.5638957205
 20
458.0174210404
 30
0.0
 10
328.7390829283
 20
458.2917203959
 30
0.0
 10
328.9188242496
 20
458.5631903585
 30
0.0
 10
329.0574843531
 20
458.7617751317
 30
0.0
  0
SPLINE
  5
3CF
100
AcDbEntity
  8
0
100
AcDbSpline
 62
7
  6
CONTINUOUS
 70
0
 71
3
 72
9
 73
5
 74
0
 42
0.0000001
 43
0.0000001
 44
0.0000000001
 40
0.0
 40
0.0
 40
0.0
 40
0.0
 40
0.2425775344
 40
1.0
 40
1.0
 40
1.0
 40
1.0
 10
52.9183960535
 20
459.1354445963
 30
0.0
 10
52.9524703881
 20
459.0905049667
 30
0.0
 10
53.0913194505
 20
458.9040183371
 30
0.0
 10
53.2244333086
 20
458.7133110277
 30
0.0
 10
53.3230991765
 20
458.5674546083
 30
0.0
  0
SPLINE
  5
3D0
100
AcDbEntity
  8
0
100
AcDbSpline
 62
7
  6
CONTINUOUS
 70
0
 71
3
 72
9
 73
5
 74
0
 42
0.0000001
 43
0.0000001
 44
0.0000000001
 40
0.0
 40
0.0
 40
0.0
 40
0.0
 40
0.2455789436
 40
1.0
 40
1.0
 40
1.0
 40
1.0
 10
53.3230991765
 20
458.5674546083
 30
0.0
 10
53.3570727779
 20
458.5172318923
 30
0.0
 10
53.4943582511
 20
458.3120099435
 30
0.0
 10
53.6280413611
 20
458.104399338
 30
0.0
 10
53.7278022857
 20
457.9470969174
 30
0.0
  0
SPLINE
  5
3D1
100
AcDbEntity
  8
0
100
AcDbSpline
 62
7
  6
CONTINUOUS
 70
0
 71
3
 72
8
 73
4
 74
0
 42
0.0000001
 43
0.0000001
 44
0.0000000001
 40
0.0
 40
0.0
 40
0.0
 40
0.0
 40
1.0
 40
1.0
 40
1.0
 40
1.0
 10
53.7278022857
 20
457.9470969174
 30
0.0
 10
53.8640573744
 20
457.7322507203
 30
0.0
 10
53.9982749269
 20
457.5161169021
 30
0.0
 10
54.1325054086
 20
457.3
 30
0.0
  0
SPLINE
  5
3D2
100
AcDbEntity
  8
0
100
AcDbSpline
 62
7
  6
CONTINUOUS
 70
0
 71
3
 72
9
 73
5
 74
0
 42
0.0000001
 43
0.0000001
 44
0.0000000001
 40
0.0
 40
0.0
 40
0.0
 40
0.0
 40
0.244957499
 40
1.0
 40
1.0
 40
1.0
 40
1.0
 10
50.2969224582
 20
460.5
 30
0.0
 10
50.3697144758
 20
460.5
 30
0.0
 10
50.666843693
 20
460.4859562423
 30
0.0
 10
50.9601973196
 20
460.4151025743
 30
0.0
 10
51.1707470387
 20
460.3375743436
 30
0.0
  0
SPLINE
  5
3D3
100
AcDbEntity
  8
0
100
AcDbSpline
 62
7
  6
CONTINUOUS
 70
0
 71
3
 72
9
 73
5
 74
0
 42
0.0000001
 43
0.0000001
 44
0.0000000001
 40
0.0
 40
0.0
 40
0.0
 40
0.0
 40
0.2377369288
 40
1.0
 40
1.0
 40
1.0
 40
1.0
 10
51.1707470387
 20
460.3375743436
 30
0.0
 10
51.244681011
 20
460.3103505121
 30
0.0
 10
51.5510799397
 20
460.1833275106
 30
0.0
 10
51.8376161496
 20
460.0116591363
 30
0.0
 10
52.0445714731
 20
459.8667982338
 30
0.0
  0
SPLINE
  5
3D4
100
AcDbEntity
  8
0
100
AcDbSpline
 62
7
  6
CONTINUOUS
 70
0
 71
3
 72
9
 73
5
 74
0
 42
0.0000001
 43
0.0000001
 44
0.0000000001
 40
0.0
 40
0.0
 40
0.0
 40
0.0
 40
0.2381827363
 40
1.0
 40
1.0
 40
1.0
 40
1.0
 10
52.0445714731
 20
459.8667982338
 30
0.0
 10
52.1187323527
 20
459.8148884218
 30
0.0
 10
52.4244378132
 20
459.5888541437
 30
0.0
 10
52.709514956
 20
459.3359417479
 30
0.0
 10
52.9183960535
 20
459.1354445963
 30
0.0
  0
SPLINE
  5
3D5
100
AcDbEntity
  8
0
100
AcDbSpline
 62
7
  6
CONTINUOUS
 70
0
 71
3
 72
9
 73
5
 74
0
 42
0.0000001
 43
0.0000001
 44
0.0000000001
 40
0.0
 40
0.0
 40
0.0
 40
0.0
 40
0.2615180216
 40
1.0
 40
1.0
 40
1.0
 40
1.0
 10
329.3287025149
 20
459.1354445963
 30
0.0
 10
329.4004007754
 20
459.2042650746
 30
0.0
 10
329.6781998091
 20
459.4634796208
 30
0.0
 10
329.9726142903
 20
459.7058679622
 30
0.0
 10
330.2025270953
 20
459.8667982338
 30
0.0
  0
SPLINE
  5
3D6
100
AcDbEntity
  8
0
100
AcDbSpline
 62
7
  6
CONTINUOUS
 70
0
 71
3
 72
9
 73
5
 74
0
 42
0.0000001
 43
0.0000001
 44
0.0000000001
 40
0.0
 40
0.0
 40
0.0
 40
0.0
 40
0.2635451236
 40
1.0
 40
1.0
 40
1.0
 40
1.0
 10
330.2025270953
 20
459.8667982338
 30
0.0
 10
330.2740660332
 20
459.9168727858
 30
0.0
 10
330.5500681571
 20
460.0999971407
 30
0.0
 10
330.8473653263
 20
460.2532574644
 30
0.0
 10
331.0763515297
 20
460.3375743436
 30
0.0
  0
SPLINE
  5
3D7
100
AcDbEntity
  8
0
100
AcDbSpline
 62
7
  6
CONTINUOUS
 70
0
 71
3
 72
9
 73
5
 74
0
 42
0.0000001
 43
0.0000001
 44
0.0000000001
 40
0.0
 40
0.0
 40
0.0
 40
0.0
 40
0.2577543833
 40
1.0
 40
1.0
 40
1.0
 40
1.0
 10
331.0763515297
 20
460.3375743436
 30
0.0
 10
331.1482177575
 20
460.364036794
 30
0.0
 10
331.4307948996
 20
460.4559086719
 30
0.0
 10
331.7296417916
 20
460.5
 30
0.0
 10
331.9501761102
 20
460.5
 30
0.0
  0
SPLINE
  5
3D8
100
AcDbEntity
  8
0
100
AcDbSpline
 62
7
  6
CONTINUOUS
 70
0
 71
3
 72
8
 73
4
 74
0
 42
0.0000001
 43
0.0000001
 44
0.0000000001
 40
0.0
 40
0.0
 40
0.0
 40
0.0
 40
1.0
 40
1.0
 40
1.0
 40
1.0
 10
54.1325054086
 20
67.7
 30
0.0
 10
53.9982749269
 20
67.483883098
 30
0.0
 10
53.8640573744
 20
67.2677492797
 30
0.0
 10
53.7278022857
 20
67.0529030827
 30
0.0
  0
SPLINE
  5
3D9
100
AcDbEntity
  8
0
100
AcDbSpline
 62
7
  6
CONTINUOUS
 70
0
 71
3
 72
9
 73
5
 74
0
 42
0.0000001
 43
0.0000001
 44
0.0000000001
 40
0.0
 40
0.0
 40
0.0
 40
0.0
 40
0.2558522393
 40
1.0
 40
1.0
 40
1.0
 40
1.0
 10
53.7278022857
 20
67.0529030827
 30
0.0
 10
53.6832028478
 20
66.9825789596
 30
0.0
 10
53.5080156401
 20
66.7082796042
 30
0.0
 10
53.3282743188
 20
66.4368096415
 30
0.0
 10
53.1896142152
 20
66.2382248683
 30
0.0
  0
SPLINE
  5
3DA
100
AcDbEntity
  8
0
100
AcDbSpline
 62
7
  6
CONTINUOUS
 70
0
 71
3
 72
9
 73
5
 74
0
 42
0.0000001
 43
0.0000001
 44
0.0000000001
 40
0.0
 40
0.0
 40
0.0
 40
0.0
 40
0.2425775344
 40
1.0
 40
1.0
 40
1.0
 40
1.0
 10
329.3287025149
 20
65.8645554037
 30
0.0
 10
329.2946281802
 20
65.9094950333
 30
0.0
 10
329.1557791179
 20
66.095981663
 30
0.0
 10
329.0226652598
 20
66.2866889723
 30
0.0
 10
328.9239993919
 20
66.4325453918
 30
0.0
  0
SPLINE
  5
3DB
100
AcDbEntity
  8
0
100
AcDbSpline
 62
7
  6
CONTINUOUS
 70
0
 71
3
 72
9
 73
5
 74
0
 42
0.0000001
 43
0.0000001
 44
0.0000000001
 40
0.0
 40
0.0
 40
0.0
 40
0.0
 40
0.2455789436
 40
1.0
 40
1.0
 40
1.0
 40
1.0
 10
328.9239993919
 20
66.4325453918
 30
0.0
 10
328.8900257904
 20
66.4827681078
 30
0.0
 10
328.7527403173
 20
66.6879900565
 30
0.0
 10
328.6190572073
 20
66.895600662
 30
0.0
 10
328.5192962826
 20
67.0529030827
 30
0.0
  0
SPLINE
  5
3DC
100
AcDbEntity
  8
0
100
AcDbSpline
 62
7
  6
CONTINUOUS
 70
0
 71
3
 72
8
 73
4
 74
0
 42
0.0000001
 43
0.0000001
 44
0.0000000001
 40
0.0
 40
0.0
 40
0.0
 40
0.0
 40
1.0
 40
1.0
 40
1.0
 40
1.0
 10
328.5192962826
 20
67.0529030827
 30
0.0
 10
328.383041194
 20
67.2677492797
 30
0.0
 10
328.2488236415
 20
67.483883098
 30
0.0
 10
328.1145931598
 20
67.7
 30
0.0
  0
SPLINE
  5
3DD
100
AcDbEntity
  8
0
100
AcDbSpline
 62
7
  6
CONTINUOUS
 70
0
 71
3
 72
9
 73
5
 74
0
 42
0.0000001
 43
0.0000001
 44
0.0000000001
 40
0.0
 40
0.0
 40
0.0
 40
0.0
 40
0.244957499
 40
1.0
 40
1.0
 40
1.0
 40
1.0
 10
331.9501761102
 20
64.5
 30
0.0
 10
331.8773840926
 20
64.5
 30
0.0
 10
331.5802548754
 20
64.5140437577
 30
0.0
 10
331.2869012487
 20
64.5848974258
 30
0.0
 10
331.0763515297
 20
64.6624256565
 30
0.0
  0
SPLINE
  5
3DE
100
AcDbEntity
  8
0
100
AcDbSpline
 62
7
  6
CONTINUOUS
 70
0
 71
3
 72
9
 73
5
 74
0
 42
0.0000001
 43
0.0000001
 44
0.0000000001
 40
0.0
 40
0.0
 40
0.0
 40
0.0
 40
0.2377369288
 40
1.0
 40
1.0
 40
1.0
 40
1.0
 10
331.0763515297
 20
64.6624256565
 30
0.0
 10
331.0024175574
 20
64.6896494879
 30
0.0
 10
330.6960186286
 20
64.8166724895
 30
0.0
 10
330.4094824187
 20
64.9883408638
 30
0.0
 10
330.2025270953
 20
65.1332017662
 30
0.0
  0
SPLINE
  5
3DF
100
AcDbEntity
  8
0
100
AcDbSpline
 62
7
  6
CONTINUOUS
 70
0
 71
3
 72
9
 73
5
 74
0
 42
0.0000001
 43
0.0000001
 44
0.0000000001
 40
0.0
 40
0.0
 40
0.0
 40
0.0
 40
0.2381827363
 40
1.0
 40
1.0
 40
1.0
 40
1.0
 10
330.2025270953
 20
65.1332017662
 30
0.0
 10
330.1283662157
 20
65.1851115783
 30
0.0
 10
329.8226607551
 20
65.4111458564
 30
0.0
 10
329.5375836124
 20
65.6640582522
 30
0.0
 10
329.3287025149
 20
65.8645554037
 30
0.0
  0
SPLINE
  5
3E0
100
AcDbEntity
  8
0
100
AcDbSpline
 62
7
  6
CONTINUOUS
 70
0
 71
3
 72
9
 73
5
 74
0
 42
0.0000001
 43
0.0000001
 44
0.0000000001
 40
0.0
 40
0.0
 40
0.0
 40
0.0
 40
0.2615180216
 40
1.0
 40
1.0
 40
1.0
 40
1.0
 10
52.9183960535
 20
65.8645554037
 30
0.0
 10
52.846697793
 20
65.7957349255
 30
0.0
 10
52.5688987593
 20
65.5365203792
 30
0.0
 10
52.2744842781
 20
65.2941320378
 30
0.0
 10
52.0445714731
 20
65.1332017662
 30
0.0
  0
SPLINE
  5
3E1
100
AcDbEntity
  8
0
100
AcDbSpline
 62
7
  6
CONTINUOUS
 70
0
 71
3
 72
9
 73
5
 74
0
 42
0.0000001
 43
0.0000001
 44
0.0000000001
 40
0.0
 40
0.0
 40
0.0
 40
0.0
 40
0.2635451236
 40
1.0
 40
1.0
 40
1.0
 40
1.0
 10
52.0445714731
 20
65.1332017662
 30
0.0
 10
51.9730325351
 20
65.0831272142
 30
0.0
 10
51.6970304113
 20
64.9000028593
 30
0.0
 10
51.3997332421
 20
64.7467425356
 30
0.0
 10
51.1707470387
 20
64.6624256565
 30
0.0
  0
SPLINE
  5
3E2
100
AcDbEntity
  8
0
100
AcDbSpline
 62
7
  6
CONTINUOUS
 70
0
 71
3
 72
9
 73
5
 74
0
 42
0.0000001
 43
0.0000001
 44
0.0000000001
 40
0.0
 40
0.0
 40
0.0
 40
0.0
 40
0.2577543833
 40
1.0
 40
1.0
 40
1.0
 40
1.0
 10
51.1707470387
 20
64.6624256565
 30
0.0
 10
51.0988808108
 20
64.6359632061
 30
0.0
 10
50.8163036688
 20
64.5440913282
 30
0.0
 10
50.5174567768
 20
64.5
 30
0.0
 10
50.2969224582
 20
64.5
 30
0.0
  0
SPLINE
  5
3E3
100
AcDbEntity
  8
0
100
AcDbSpline
 62
7
  6
CONTINUOUS
 70
0
 71
3
 72
8
 73
4
 74
0
 42
0.0000001
 43
0.0000001
 44
0.0000000001
 40
0.0
 40
0.0
 40
0.0
 40
0.0
 40
1.0
 40
1.0
 40
1.0
 40
1.0
 10
54.1325054086
 20
457.3
 30
0.0
 10
53.9162616565
 20
457.4632324252
 30
0.0
 10
53.6999986239
 20
457.6264545996
 30
0.0
 10
53.4854084921
 20
457.7918549027
 30
0.0
  0
SPLINE
  5
3E4
100
AcDbEntity
  8
0
100
AcDbSpline
 62
7
  6
CONTINUOUS
 70
0
 71
3
 72
9
 73
5
 74
0
 42
0.0000001
 43
0.0000001
 44
0.0000000001
 40
0.0
 40
0.0
 40
0.0
 40
0.0
 40
0.2544071046
 40
1.0
 40
1.0
 40
1.0
 40
1.0
 10
53.4854084921
 20
457.7918549027
 30
0.0
 10
53.4224903913
 20
457.840350483
 30
0.0
 10
53.1757615679
 20
458.0317189359
 30
0.0
 10
52.9319462493
 20
458.2269202954
 30
0.0
 10
52.7533818793
 20
458.3763058058
 30
0.0
  0
SPLINE
  5
3E5
100
AcDbEntity
  8
0
100
AcDbSpline
 62
7
  6
CONTINUOUS
 70
0
 71
3
 72
9
 73
5
 74
0
 42
0.0000001
 43
0.0000001
 44
0.0000000001
 40
0.0
 40
0.0
 40
0.0
 40
0.0
 40
0.2436086862
 40
1.0
 40
1.0
 40
1.0
 40
1.0
 10
52.2970608123
 20
66.2244353065
 30
0.0
 10
52.34193146
 20
66.2657838946
 30
0.0
 10
52.5276553001
 20
66.4338551416
 30
0.0
 10
52.7187045567
 20
66.5959748082
 30
0.0
 10
52.8650507996
 20
66.7162902093
 30
0.0
  0
SPLINE
  5
3E6
100
AcDbEntity
  8
0
100
AcDbSpline
 62
7
  6
CONTINUOUS
 70
0
 71
3
 72
8
 73
4
 74
0
 42
0.0000001
 43
0.0000001
 44
0.0000000001
 40
0.0
 40
0.0
 40
0.0
 40
0.0
 40
1.0
 40
1.0
 40
1.0
 40
1.0
 10
52.8650507996
 20
66.7162902093
 30
0.0
 10
53.068899367
 20
66.8838799039
 30
0.0
 10
53.2763949151
 20
67.0470430526
 30
0.0
 10
53.4854084921
 20
67.2081450973
 30
0.0
  0
SPLINE
  5
3E7
100
AcDbEntity
  8
0
100
AcDbSpline
 62
7
  6
CONTINUOUS
 70
0
 71
3
 72
8
 73
4
 74
0
 42
0.0000001
 43
0.0000001
 44
0.0000000001
 40
0.0
 40
0.0
 40
0.0
 40
0.0
 40
1.0
 40
1.0
 40
1.0
 40
1.0
 10
53.4854084921
 20
67.2081450973
 30
0.0
 10
53.6999986239
 20
67.3735454005
 30
0.0
 10
53.9162616565
 20
67.5367675748
 30
0.0
 10
54.1325054086
 20
67.7
 30
0.0
  0
SPLINE
  5
3E8
100
AcDbEntity
  8
0
100
AcDbSpline
 62
7
  6
CONTINUOUS
 70
0
 71
3
 72
8
 73
4
 74
0
 42
0.0000001
 43
0.0000001
 44
0.0000000001
 40
0.0
 40
0.0
 40
0.0
 40
0.0
 40
1.0
 40
1.0
 40
1.0
 40
1.0
 10
328.1145931598
 20
67.7
 30
0.0
 10
328.3308369119
 20
67.5367675748
 30
0.0
 10
328.5470999444
 20
67.3735454005
 30
0.0
 10
328.7616900762
 20
67.2081450973
 30
0.0
  0
SPLINE
  5
3E9
100
AcDbEntity
  8
0
100
AcDbSpline
 62
7
  6
CONTINUOUS
 70
0
 71
3
 72
9
 73
5
 74
0
 42
0.0000001
 43
0.0000001
 44
0.0000000001
 40
0.0
 40
0.0
 40
0.0
 40
0.0
 40
0.2544071046
 40
1.0
 40
1.0
 40
1.0
 40
1.0
 10
328.7616900762
 20
67.2081450973
 30
0.0
 10
328.8246081771
 20
67.1596495171
 30
0.0
 10
329.0713370005
 20
66.9682810641
 30
0.0
 10
329.315152319
 20
66.7730797047
 30
0.0
 10
329.4937166891
 20
66.6236941942
 30
0.0
  0
SPLINE
  5
3EA
100
AcDbEntity
  8
0
100
AcDbSpline
 62
7
  6
CONTINUOUS
 70
0
 71
3
 72
8
 73
4
 74
0
 42
0.0000001
 43
0.0000001
 44
0.0000000001
 40
0.0
 40
0.0
 40
0.0
 40
0.0
 40
1.0
 40
1.0
 40
1.0
 40
1.0
 10
44.067417213
 20
65.2258425931
 30
0.0
 10
43.9472264157
 20
65.1447266527
 30
0.0
 10
43.8281449563
 20
65.0618943732
 30
0.0
 10
43.7111652175
 20
64.9762126117
 30
0.0
  0
SPLINE
  5
3EB
100
AcDbEntity
  8
0
100
AcDbSpline
 62
7
  6
CONTINUOUS
 70
0
 71
3
 72
9
 73
5
 74
0
 42
0.0000001
 43
0.0000001
 44
0.0000000001
 40
0.0
 40
0.0
 40
0.0
 40
0.0
 40
0.2830567036
 40
1.0
 40
1.0
 40
1.0
 40
1.0
 10
43.5255501151
 20
64.8360691148
 30
0.0
 10
43.441987361
 20
64.7708603449
 30
0.0
 10
43.153492599
 20
64.5339073851
 30
0.0
 10
42.8854053194
 20
64.2588472629
 30
0.0
 10
42.7515351542
 20
64.0261347773
 30
0.0
  0
SPLINE
  5
3EC
100
AcDbEntity
  8
0
100
AcDbSpline
 62
7
  6
CONTINUOUS
 70
0
 71
3
 72
9
 73
5
 74
0
 42
0.0000001
 43
0.0000001
 44
0.0000000001
 40
0.0
 40
0.0
 40
0.0
 40
0.0
 40
0.2179138888
 40
1.0
 40
1.0
 40
1.0
 40
1.0
 10
42.7515400286
 20
460.9738567165
 30
0.0
 10
42.7922731274
 20
460.9030496886
 30
0.0
 10
43.0070164462
 20
460.5940449058
 30
0.0
 10
43.2944202107
 20
460.3442948571
 30
0.0
 10
43.5255479317
 20
460.1639325876
 30
0.0
  0
SPLINE
  5
3ED
100
AcDbEntity
  8
0
100
AcDbSpline
 62
7
  6
CONTINUOUS
 70
0
 71
3
 72
8
 73
4
 74
0
 42
0.0000001
 43
0.0000001
 44
0.0000000001
 40
0.0
 40
0.0
 40
0.0
 40
0.0
 40
1.0
 40
1.0
 40
1.0
 40
1.0
 10
43.7111619193
 20
460.0237897968
 30
0.0
 10
43.828142054
 20
459.9381076595
 30
0.0
 10
43.94722394
 20
459.855275043
 30
0.0
 10
44.0674151746
 20
459.7741587826
 30
0.0
  0
SPLINE
  5
3EE
100
AcDbEntity
  8
0
100
AcDbSpline
 62
7
  6
CONTINUOUS
 70
0
 71
3
 72
9
 73
5
 74
0
 42
0.0000001
 43
0.0000001
 44
0.0000000001
 40
0.0
 40
0.0
 40
0.0
 40
0.0
 40
0.2628505089
 40
1.0
 40
1.0
 40
1.0
 40
1.0
 10
338.8632727779
 20
65.2019976537
 30
0.0
 10
338.9569584113
 20
65.1034440282
 30
0.0
 10
339.3163205168
 20
64.7316702896
 30
0.0
 10
339.6950001849
 20
64.3758131217
 30
0.0
 10
339.9980796556
 20
64.1443752728
 30
0.0
  0
SPLINE
  5
3EF
100
AcDbEntity
  8
0
100
AcDbSpline
 62
7
  6
CONTINUOUS
 70
0
 71
3
 72
8
 73
4
 74
0
 42
0.0000001
 43
0.0000001
 44
0.0000000001
 40
0.0
 40
0.0
 40
0.0
 40
0.0
 40
1.0
 40
1.0
 40
1.0
 40
1.0
 10
339.9980796556
 20
64.1443752728
 30
0.0
 10
340.0898970364
 20
64.0742615925
 30
0.0
 10
340.1840945637
 20
64.0070942403
 30
0.0
 10
340.2809378509
 20
63.9441042623
 30
0.0
  0
SPLINE
  5
3F0
100
AcDbEntity
  8
0
100
AcDbSpline
 62
7
  6
CONTINUOUS
 70
0
 71
3
 72
8
 73
4
 74
0
 42
0.0000001
 43
0.0000001
 44
0.0000000001
 40
0.0
 40
0.0
 40
0.0
 40
0.0
 40
1.0
 40
1.0
 40
1.0
 40
1.0
 10
340.2809378509
 20
63.9441042623
 30
0.0
 10
340.3817597109
 20
63.8785264931
 30
0.0
 10
340.485676477
 20
63.8173301926
 30
0.0
 10
340.5927378511
 20
63.7625273328
 30
0.0
  0
SPLINE
  5
3F1
100
AcDbEntity
  8
0
100
AcDbSpline
 62
7
  6
CONTINUOUS
 70
0
 71
3
 72
9
 73
5
 74
0
 42
0.0000001
 43
0.0000001
 44
0.0000000001
 40
0.0
 40
0.0
 40
0.0
 40
0.0
 40
0.2610159797
 40
1.0
 40
1.0
 40
1.0
 40
1.0
 10
340.7359347908
 20
63.6940888141
 30
0.0
 10
340.8065035663
 20
63.6627924203
 30
0.0
 10
341.0816720384
 20
63.5545281422
 30
0.0
 10
341.3795334352
 20
63.5
 30
0.0
 10
341.598092999
 20
63.5
 30
0.0
  0
SPLINE
  5
3F2
100
AcDbEntity
  8
0
100
AcDbSpline
 62
7
  6
CONTINUOUS
 70
0
 71
3
 72
9
 73
5
 74
0
 42
0.0000001
 43
0.0000001
 44
0.0000000001
 40
0.0
 40
0.0
 40
0.0
 40
0.0
 40
0.242742662
 40
1.0
 40
1.0
 40
1.0
 40
1.0
 10
41.598092999
 20
63.5
 30
0.0
 10
41.6699081908
 20
63.5
 30
0.0
 10
41.9657737956
 20
63.5171339192
 30
0.0
 10
42.2554579926
 20
63.6032650865
 30
0.0
 10
42.4602552264
 20
63.694090598
 30
0.0
  0
SPLINE
  5
3F3
100
AcDbEntity
  8
0
100
AcDbSpline
 62
7
  6
CONTINUOUS
 70
0
 71
3
 72
8
 73
4
 74
0
 42
0.0000001
 43
0.0000001
 44
0.0000000001
 40
0.0
 40
0.0
 40
0.0
 40
0.0
 40
1.0
 40
1.0
 40
1.0
 40
1.0
 10
42.6034482554
 20
63.7625273994
 30
0.0
 10
42.7105094628
 20
63.8173301806
 30
0.0
 10
42.8144260761
 20
63.8785263737
 30
0.0
 10
42.9152477915
 20
63.9441040272
 30
0.0
  0
SPLINE
  5
3F4
100
AcDbEntity
  8
0
100
AcDbSpline
 62
7
  6
CONTINUOUS
 70
0
 71
3
 72
8
 73
4
 74
0
 42
0.0000001
 43
0.0000001
 44
0.0000000001
 40
0.0
 40
0.0
 40
0.0
 40
0.0
 40
1.0
 40
1.0
 40
1.0
 40
1.0
 10
42.9152477915
 20
63.9441040272
 30
0.0
 10
43.0120818302
 20
64.0070879688
 30
0.0
 10
43.1062706091
 20
64.074248493
 30
0.0
 10
43.1980796556
 20
64.1443548901
 30
0.0
  0
SPLINE
  5
3F5
100
AcDbEntity
  8
0
100
AcDbSpline
 62
7
  6
CONTINUOUS
 70
0
 71
3
 72
9
 73
5
 74
0
 42
0.0000001
 43
0.0000001
 44
0.0000000001
 40
0.0
 40
0.0
 40
0.0
 40
0.0
 40
0.2404360464
 40
1.0
 40
1.0
 40
1.0
 40
1.0
 10
43.1980796556
 20
64.1443548901
 30
0.0
 10
43.2529707252
 20
64.1862703142
 30
0.0
 10
43.4778278184
 20
64.3651159688
 30
0.0
 10
43.6904503814
 20
64.5588943508
 30
0.0
 10
43.8475198542
 20
64.7103307895
 30
0.0
  0
SPLINE
  5
3F6
100
AcDbEntity
  8
0
100
AcDbSpline
 62
7
  6
CONTINUOUS
 70
0
 71
3
 72
9
 73
5
 74
0
 42
0.0000001
 43
0.0000001
 44
0.0000000001
 40
0.0
 40
0.0
 40
0.0
 40
0.0
 40
0.2711423553
 40
1.0
 40
1.0
 40
1.0
 40
1.0
 10
43.7049963944
 20
460.359336585
 30
0.0
 10
43.6278513843
 20
460.408612029
 30
0.0
 10
43.3446914258
 20
460.591590208
 30
0.0
 10
43.064429483
 20
460.785465393
 30
0.0
 10
42.8883058586
 20
460.9573059005
 30
0.0
  0
SPLINE
  5
3F7
100
AcDbEntity
  8
0
100
AcDbSpline
 62
7
  6
CONTINUOUS
 70
0
 71
3
 72
8
 73
4
 74
0
 42
0.0000001
 43
0.0000001
 44
0.0000000001
 40
0.0
 40
0.0
 40
0.0
 40
0.0
 40
1.0
 40
1.0
 40
1.0
 40
1.0
 10
42.8883058586
 20
460.9573059005
 30
0.0
 10
42.8571729197
 20
460.9876817233
 30
0.0
 10
42.8270456596
 20
461.0191588061
 30
0.0
 10
42.7985222442
 20
461.0519972785
 30
0.0
  0
SPLINE
  5
3F8
100
AcDbEntity
  8
0
100
AcDbSpline
 62
7
  6
CONTINUOUS
 70
0
 71
3
 72
9
 73
5
 74
0
 42
0.0000001
 43
0.0000001
 44
0.0000000001
 40
0.0
 40
0.0
 40
0.0
 40
0.0
 40
0.2850484782
 40
1.0
 40
1.0
 40
1.0
 40
1.0
 10
42.7985222442
 20
461.0519972785
 30
0.0
 10
42.767606787
 20
461.0875896638
 30
0.0
 10
42.6659367336
 20
461.2168593902
 30
0.0
 10
42.598092999
 20
461.38175388
 30
0.0
 10
42.598092999
 20
461.5
 30
0.0
  0
SPLINE
  5
3F9
100
AcDbEntity
  8
0
100
AcDbSpline
 62
7
  6
CONTINUOUS
 70
0
 71
3
 72
9
 73
5
 74
0
 42
0.0000001
 43
0.0000001
 44
0.0000000001
 40
0.0
 40
0.0
 40
0.0
 40
0.0
 40
0.2256500219
 40
1.0
 40
1.0
 40
1.0
 40
1.0
 10
42.598092999
 20
63.5
 30
0.0
 10
42.598092999
 20
63.5374140113
 30
0.0
 10
42.618482849
 20
63.7036592324
 30
0.0
 10
42.7143275813
 20
63.8510709041
 30
0.0
 10
42.7985218622
 20
63.9480022899
 30
0.0
  0
SPLINE
  5
3FA
100
AcDbEntity
  8
0
100
AcDbSpline
 62
7
  6
CONTINUOUS
 70
0
 71
3
 72
8
 73
4
 74
0
 42
0.0000001
 43
0.0000001
 44
0.0000000001
 40
0.0
 40
0.0
 40
0.0
 40
0.0
 40
1.0
 40
1.0
 40
1.0
 40
1.0
 10
42.7985218622
 20
63.9480022899
 30
0.0
 10
42.8270485042
 20
63.9808445082
 30
0.0
 10
42.8571793564
 20
64.0123250284
 30
0.0
 10
42.8883160641
 20
64.0427040678
 30
0.0
  0
SPLINE
  5
3FB
100
AcDbEntity
  8
0
100
AcDbSpline
 62
7
  6
CONTINUOUS
 70
0
 71
3
 72
9
 73
5
 74
0
 42
0.0000001
 43
0.0000001
 44
0.0000000001
 40
0.0
 40
0.0
 40
0.0
 40
0.0
 40
0.2227909684
 40
1.0
 40
1.0
 40
1.0
 40
1.0
 10
42.8883160641
 20
64.0427040678
 30
0.0
 10
42.9421814332
 20
64.0952586986
 30
0.0
 10
43.1980209573
 20
64.3167305778
 30
0.0
 10
43.4837341713
 20
64.4993347211
 30
0.0
 10
43.7049835987
 20
64.6406552423
 30
0.0
  0
SPLINE
  5
3FC
100
AcDbEntity
  8
0
100
AcDbSpline
 62
7
  6
CONTINUOUS
 70
0
 71
3
 72
9
 73
5
 74
0
 42
0.0000001
 43
0.0000001
 44
0.0000000001
 40
0.0
 40
0.0
 40
0.0
 40
0.0
 40
0.2591986833
 40
1.0
 40
1.0
 40
1.0
 40
1.0
 10
43.8475208293
 20
460.2896682613
 30
0.0
 10
43.7939266861
 20
460.3413403529
 30
0.0
 10
43.5851943767
 20
460.5385897395
 30
0.0
 10
43.3672123037
 20
460.7264918637
 30
0.0
 10
43.1981063424
 20
460.8556247273
 30
0.0
  0
SPLINE
  5
3FD
100
AcDbEntity
  8
0
100
AcDbSpline
 62
7
  6
CONTINUOUS
 70
0
 71
3
 72
8
 73
4
 74
0
 42
0.0000001
 43
0.0000001
 44
0.0000000001
 40
0.0
 40
0.0
 40
0.0
 40
0.0
 40
1.0
 40
1.0
 40
1.0
 40
1.0
 10
43.1981063424
 20
460.8556247273
 30
0.0
 10
43.1062889616
 20
460.9257384076
 30
0.0
 10
43.0120914342
 20
460.9929057598
 30
0.0
 10
42.9152481471
 20
461.0558957377
 30
0.0
  0
SPLINE
  5
3FE
100
AcDbEntity
  8
0
100
AcDbSpline
 62
7
  6
CONTINUOUS
 70
0
 71
3
 72
8
 73
4
 74
0
 42
0.0000001
 43
0.0000001
 44
0.0000000001
 40
0.0
 40
0.0
 40
0.0
 40
0.0
 40
1.0
 40
1.0
 40
1.0
 40
1.0
 10
42.9152481471
 20
461.0558957377
 30
0.0
 10
42.8144262871
 20
461.121473507
 30
0.0
 10
42.710509521
 20
461.1826698075
 30
0.0
 10
42.6034481468
 20
461.2374726673
 30
0.0
  0
SPLINE
  5
3FF
100
AcDbEntity
  8
0
100
AcDbSpline
 62
7
  6
CONTINUOUS
 70
0
 71
3
 72
9
 73
5
 74
0
 42
0.0000001
 43
0.0000001
 44
0.0000000001
 40
0.0
 40
0.0
 40
0.0
 40
0.0
 40
0.2610159797
 40
1.0
 40
1.0
 40
1.0
 40
1.0
 10
42.4602512072
 20
461.305911186
 30
0.0
 10
42.3896824317
 20
461.3372075798
 30
0.0
 10
42.1145139596
 20
461.4454718578
 30
0.0
 10
41.8166525627
 20
461.5
 30
0.0
 10
41.598092999
 20
461.5
 30
0.0
  0
SPLINE
  5
400
100
AcDbEntity
  8
0
100
AcDbSpline
 62
7
  6
CONTINUOUS
 70
0
 71
3
 72
9
 73
5
 74
0
 42
0.0000001
 43
0.0000001
 44
0.0000000001
 40
0.0
 40
0.0
 40
0.0
 40
0.0
 40
0.242742662
 40
1.0
 40
1.0
 40
1.0
 40
1.0
 10
341.598092999
 20
461.5
 30
0.0
 10
341.5262778071
 20
461.5
 30
0.0
 10
341.2304122024
 20
461.4828660809
 30
0.0
 10
340.9407280053
 20
461.3967349136
 30
0.0
 10
340.7359307715
 20
461.3059094021
 30
0.0
  0
SPLINE
  5
401
100
AcDbEntity
  8
0
100
AcDbSpline
 62
7
  6
CONTINUOUS
 70
0
 71
3
 72
8
 73
4
 74
0
 42
0.0000001
 43
0.0000001
 44
0.0000000001
 40
0.0
 40
0.0
 40
0.0
 40
0.0
 40
1.0
 40
1.0
 40
1.0
 40
1.0
 10
340.5927377425
 20
461.2374726006
 30
0.0
 10
340.4856765352
 20
461.1826698195
 30
0.0
 10
340.3817599218
 20
461.1214736264
 30
0.0
 10
340.2809382064
 20
461.0558959729
 30
0.0
  0
SPLINE
  5
402
100
AcDbEntity
  8
0
100
AcDbSpline
 62
7
  6
CONTINUOUS
 70
0
 71
3
 72
8
 73
4
 74
0
 42
0.0000001
 43
0.0000001
 44
0.0000000001
 40
0.0
 40
0.0
 40
0.0
 40
0.0
 40
1.0
 40
1.0
 40
1.0
 40
1.0
 10
340.2809382064
 20
461.0558959729
 30
0.0
 10
340.1841041678
 20
460.9929120313
 30
0.0
 10
340.0899153889
 20
460.925751507
 30
0.0
 10
339.9981063424
 20
460.85564511
 30
0.0
  0
SPLINE
  5
403
100
AcDbEntity
  8
0
100
AcDbSpline
 62
7
  6
CONTINUOUS
 70
0
 71
3
 72
9
 73
5
 74
0
 42
0.0000001
 43
0.0000001
 44
0.0000000001
 40
0.0
 40
0.0
 40
0.0
 40
0.0
 40
0.2354150416
 40
1.0
 40
1.0
 40
1.0
 40
1.0
 10
339.9981063424
 20
460.85564511
 30
0.0
 10
339.8999844331
 20
460.7807181415
 30
0.0
 10
339.4943721519
 20
460.4477017129
 30
0.0
 10
339.1248668318
 20
460.0736456565
 30
0.0
 10
338.8488406626
 20
459.7828079986
 30
0.0
  0
SPLINE
  5
404
100
AcDbEntity
  8
0
100
AcDbSpline
 62
7
  6
CONTINUOUS
 70
0
 71
3
 72
9
 73
5
 74
0
 42
0.0000001
 43
0.0000001
 44
0.0000000001
 40
0.0
 40
0.0
 40
0.0
 40
0.0
 40
0.2727106569
 40
1.0
 40
1.0
 40
1.0
 40
1.0
 10
339.4911896036
 20
64.6406634151
 30
0.0
 10
339.5712403449
 20
64.5895319703
 30
0.0
 10
339.8632052313
 20
64.4006805201
 30
0.0
 10
340.1527034399
 20
64.2000356414
 30
0.0
 10
340.3308220602
 20
64.0199111464
 30
0.0
  0
SPLINE
  5
405
100
AcDbEntity
  8
0
100
AcDbSpline
 62
7
  6
CONTINUOUS
 70
0
 71
3
 72
8
 73
4
 74
0
 42
0.0000001
 43
0.0000001
 44
0.0000000001
 40
0.0
 40
0.0
 40
0.0
 40
0.0
 40
1.0
 40
1.0
 40
1.0
 40
1.0
 10
340.3308220602
 20
64.0199111464
 30
0.0
 10
340.3538325647
 20
63.9966415102
 30
0.0
 10
340.3762035856
 20
63.9727094102
 30
0.0
 10
340.3976637538
 20
63.9480027215
 30
0.0
  0
SPLINE
  5
406
100
AcDbEntity
  8
0
100
AcDbSpline
 62
7
  6
CONTINUOUS
 70
0
 71
3
 72
9
 73
5
 74
0
 42
0.0000001
 43
0.0000001
 44
0.0000000001
 40
0.0
 40
0.0
 40
0.0
 40
0.0
 40
0.2850484782
 40
1.0
 40
1.0
 40
1.0
 40
1.0
 10
340.3976637538
 20
63.9480027215
 30
0.0
 10
340.4285792109
 20
63.9124103363
 30
0.0
 10
340.5302492644
 20
63.7831406098
 30
0.0
 10
340.598092999
 20
63.61824612
 30
0.0
 10
340.598092999
 20
63.5
 30
0.0
  0
SPLINE
  5
407
100
AcDbEntity
  8
0
100
AcDbSpline
 62
7
  6
CONTINUOUS
 70
0
 71
3
 72
9
 73
5
 74
0
 42
0.0000001
 43
0.0000001
 44
0.0000000001
 40
0.0
 40
0.0
 40
0.0
 40
0.0
 40
0.2256500219
 40
1.0
 40
1.0
 40
1.0
 40
1.0
 10
340.598092999
 20
461.5
 30
0.0
 10
340.598092999
 20
461.4625859887
 30
0.0
 10
340.5777031489
 20
461.2963407677
 30
0.0
 10
340.4818584167
 20
461.148929096
 30
0.0
 10
340.3976641358
 20
461.0519977101
 30
0.0
  0
SPLINE
  5
408
100
AcDbEntity
  8
0
100
AcDbSpline
 62
7
  6
CONTINUOUS
 70
0
 71
3
 72
8
 73
4
 74
0
 42
0.0000001
 43
0.0000001
 44
0.0000000001
 40
0.0
 40
0.0
 40
0.0
 40
0.0
 40
1.0
 40
1.0
 40
1.0
 40
1.0
 10
340.3976641358
 20
461.0519977101
 30
0.0
 10
340.3762082186
 20
461.0272958923
 30
0.0
 10
340.3538418051
 20
461.0033683606
 30
0.0
 10
340.3308361148
 20
460.9801030559
 30
0.0
  0
SPLINE
  5
409
100
AcDbEntity
  8
0
100
AcDbSpline
 62
7
  6
CONTINUOUS
 70
0
 71
3
 72
9
 73
5
 74
0
 42
0.0000001
 43
0.0000001
 44
0.0000000001
 40
0.0
 40
0.0
 40
0.0
 40
0.0
 40
0.2209779631
 40
1.0
 40
1.0
 40
1.0
 40
1.0
 10
340.3308361148
 20
460.9801030559
 30
0.0
 10
340.2766808763
 20
460.9253366867
 30
0.0
 10
340.0152323066
 20
460.6937275739
 30
0.0
 10
339.7200294488
 20
460.5055053977
 30
0.0
 10
339.4912023992
 20
460.3593447577
 30
0.0
  0
SPLINE
  5
40A
100
AcDbEntity
  8
0
100
AcDbSpline
 62
7
  6
CONTINUOUS
 70
0
 71
3
 72
9
 73
5
 74
0
 42
0.0000001
 43
0.0000001
 44
0.0000000001
 40
0.0
 40
0.0
 40
0.0
 40
0.0
 40
0.5582110438
 40
1.0
 40
1.0
 40
1.0
 40
1.0
 10
339.0232818513
 20
459.7035635836
 30
0.0
 10
339.320434568
 20
459.9008517475
 30
0.0
 10
339.8424201417
 20
460.265586478
 30
0.0
 10
340.3038887755
 20
460.7291722342
 30
0.0
 10
340.4446508438
 20
460.9738652227
 30
0.0
  0
SPLINE
  5
40B
100
AcDbEntity
  8
0
100
AcDbSpline
 62
7
  6
CONTINUOUS
 70
0
 71
3
 72
9
 73
5
 74
0
 42
0.0000001
 43
0.0000001
 44
0.0000000001
 40
0.0
 40
0.0
 40
0.0
 40
0.0
 40
0.441789455
 40
1.0
 40
1.0
 40
1.0
 40
1.0
 10
340.4446459694
 20
64.0261432836
 30
0.0
 10
340.3038827909
 20
64.2708342743
 30
0.0
 10
339.8424160665
 20
64.7344163089
 30
0.0
 10
339.3204331579
 20
65.0991491784
 30
0.0
 10
339.0232822863
 20
65.2964361257
 30
0.0
  0
SPLINE
  5
40C
100
AcDbEntity
  8
0
100
AcDbSpline
 62
7
  6
CONTINUOUS
 70
0
 71
3
 72
9
 73
5
 74
0
 42
0.0000001
 43
0.0000001
 44
0.0000000001
 40
0.0
 40
0.0
 40
0.0
 40
0.0
 40
0.2651534413
 40
1.0
 40
1.0
 40
1.0
 40
1.0
 10
44.0079855784
 20
64.4897613658
 30
0.0
 10
43.9414480184
 20
64.39301899
 30
0.0
 10
43.6870110438
 20
64.0307252626
 30
0.0
 10
43.4158276776
 20
63.6791121064
 30
0.0
 10
43.1981068209
 20
63.4372736571
 30
0.0
  0
SPLINE
  5
40D
100
AcDbEntity
  8
0
100
AcDbSpline
 62
7
  6
CONTINUOUS
 70
0
 71
3
 72
9
 73
5
 74
0
 42
0.0000001
 43
0.0000001
 44
0.0000000001
 40
0.0
 40
0.0
 40
0.0
 40
0.0
 40
0.2613780697
 40
1.0
 40
1.0
 40
1.0
 40
1.0
 10
43.1981068209
 20
63.4372736571
 30
0.0
 10
43.1645664172
 20
63.4000178821
 30
0.0
 10
43.0344881852
 20
63.2591002028
 30
0.0
 10
42.8968123309
 20
63.1249897438
 30
0.0
 10
42.7898080518
 20
63.0321595632
 30
0.0
  0
SPLINE
  5
40E
100
AcDbEntity
  8
0
100
AcDbSpline
 62
7
  6
CONTINUOUS
 70
0
 71
3
 72
9
 73
5
 74
0
 42
0.0000001
 43
0.0000001
 44
0.0000000001
 40
0.0
 40
0.0
 40
0.0
 40
0.0
 40
0.2736348248
 40
1.0
 40
1.0
 40
1.0
 40
1.0
 10
42.7898080518
 20
63.0321595632
 30
0.0
 10
42.727927162
 20
62.9784755962
 30
0.0
 10
42.4957450307
 20
62.7901469047
 30
0.0
 10
42.230149144
 20
62.6371574672
 30
0.0
 10
42.0233661999
 20
62.5698469622
 30
0.0
  0
SPLINE
  5
40F
100
AcDbEntity
  8
0
100
AcDbSpline
 62
7
  6
CONTINUOUS
 70
0
 71
3
 72
8
 73
4
 74
0
 42
0.0000001
 43
0.0000001
 44
0.0000000001
 40
0.0
 40
0.0
 40
0.0
 40
0.0
 40
1.0
 40
1.0
 40
1.0
 40
1.0
 10
42.0233661999
 20
62.5698469622
 30
0.0
 10
41.8867641467
 20
62.5253812388
 30
0.0
 10
41.7417499567
 20
62.5
 30
0.0
 10
41.598092999
 20
62.5
 30
0.0
  0
SPLINE
  5
410
100
AcDbEntity
  8
0
100
AcDbSpline
 62
7
  6
CONTINUOUS
 70
0
 71
3
 72
8
 73
4
 74
0
 42
0.0000001
 43
0.0000001
 44
0.0000000001
 40
0.0
 40
0.0
 40
0.0
 40
0.0
 40
1.0
 40
1.0
 40
1.0
 40
1.0
 10
341.598092999
 20
62.5
 30
0.0
 10
341.454436973
 20
62.5
 30
0.0
 10
341.3094237315
 20
62.5253808678
 30
0.0
 10
341.1728224799
 20
62.5698460434
 30
0.0
  0
SPLINE
  5
411
100
AcDbEntity
  8
0
100
AcDbSpline
 62
7
  6
CONTINUOUS
 70
0
 71
3
 72
9
 73
5
 74
0
 42
0.0000001
 43
0.0000001
 44
0.0000000001
 40
0.0
 40
0.0
 40
0.0
 40
0.0
 40
0.2294547075
 40
1.0
 40
1.0
 40
1.0
 40
1.0
 10
341.1728224799
 20
62.5698460434
 30
0.0
 10
341.1074593424
 20
62.5911224471
 30
0.0
 10
340.8286242378
 20
62.7027866359
 30
0.0
 10
340.5807405743
 20
62.8808932908
 30
0.0
 10
340.4063756949
 20
63.0321615255
 30
0.0
  0
SPLINE
  5
412
100
AcDbEntity
  8
0
100
AcDbSpline
 62
7
  6
CONTINUOUS
 70
0
 71
3
 72
9
 73
5
 74
0
 42
0.0000001
 43
0.0000001
 44
0.0000000001
 40
0.0
 40
0.0
 40
0.0
 40
0.0
 40
0.2387039846
 40
1.0
 40
1.0
 40
1.0
 40
1.0
 10
340.4063756949
 20
63.0321615255
 30
0.0
 10
340.371795939
 20
63.0621607928
 30
0.0
 10
340.2293179461
 20
63.1905866002
 30
0.0
 10
340.0957944464
 20
63.328735641
 30
0.0
 10
339.9981068209
 20
63.4372429435
 30
0.0
  0
SPLINE
  5
413
100
AcDbEntity
  8
0
100
AcDbSpline
 62
7
  6
CONTINUOUS
 70
0
 71
3
 72
9
 73
5
 74
0
 42
0.0000001
 43
0.0000001
 44
0.0000000001
 40
0.0
 40
0.0
 40
0.0
 40
0.0
 40
0.2296812059
 40
1.0
 40
1.0
 40
1.0
 40
1.0
 10
339.9981068209
 20
63.4372429435
 30
0.0
 10
339.8999974078
 20
63.5462187501
 30
0.0
 10
339.490035819
 20
64.0362092583
 30
0.0
 10
339.1309963649
 20
64.5659252152
 30
0.0
 10
338.8619816258
 20
64.9776102898
 30
0.0
  0
SPLINE
  5
414
100
AcDbEntity
  8
0
100
AcDbSpline
 62
7
  6
CONTINUOUS
 70
0
 71
3
 72
9
 73
5
 74
0
 42
0.0000001
 43
0.0000001
 44
0.0000000001
 40
0.0
 40
0.0
 40
0.0
 40
0.0
 40
0.2650065752
 40
1.0
 40
1.0
 40
1.0
 40
1.0
 10
43.2588057763
 20
460.0028774436
 30
0.0
 10
43.1935751157
 20
460.0354535326
 30
0.0
 10
42.9484131806
 20
460.1602797261
 30
0.0
 10
42.7073197027
 20
460.2935658081
 30
0.0
 10
42.53536706
 20
460.399990248
 30
0.0
  0
SPLINE
  5
415
100
AcDbEntity
  8
0
100
AcDbSpline
 62
7
  6
CONTINUOUS
 70
0
 71
3
 72
10
 73
6
 74
0
 42
0.0000001
 43
0.0000001
 44
0.0000000001
 40
0.0
 40
0.0
 40
0.0
 40
0.0
 40
0.3246620176
 40
0.5960448711
 40
1.0
 40
1.0
 40
1.0
 40
1.0
 10
42.53536706
 20
460.399990248
 30
0.0
 10
42.3983385316
 20
460.4847995546
 30
0.0
 10
42.1520295585
 20
460.6523481604
 30
0.0
 10
41.7819542068
 20
460.9759469301
 30
0.0
 10
41.598092999
 20
461.299491447
 30
0.0
 10
41.598092999
 20
461.5
 30
0.0
  0
SPLINE
  5
416
100
AcDbEntity
  8
0
100
AcDbSpline
 62
7
  6
CONTINUOUS
 70
0
 71
3
 72
10
 73
6
 74
0
 42
0.0000001
 43
0.0000001
 44
0.0000000001
 40
0.0
 40
0.0
 40
0.0
 40
0.0
 40
0.4039566737
 40
0.675339001
 40
1.0
 40
1.0
 40
1.0
 40
1.0
 10
41.598092999
 20
63.5
 30
0.0
 10
41.598092999
 20
63.7005044094
 30
0.0
 10
41.7819464077
 20
64.0240424994
 30
0.0
 10
42.1520102161
 20
64.3476366954
 30
0.0
 10
42.3983113252
 20
64.5151824291
 30
0.0
 10
42.5353355385
 20
64.599990248
 30
0.0
  0
SPLINE
  5
417
100
AcDbEntity
  8
0
100
AcDbSpline
 62
7
  6
CONTINUOUS
 70
0
 71
3
 72
9
 73
5
 74
0
 42
0.0000001
 43
0.0000001
 44
0.0000000001
 40
0.0
 40
0.0
 40
0.0
 40
0.0
 40
0.2342266061
 40
1.0
 40
1.0
 40
1.0
 40
1.0
 10
42.5353355385
 20
64.599990248
 30
0.0
 10
42.5901373336
 20
64.6339084922
 30
0.0
 10
42.8264934121
 20
64.7748665465
 30
0.0
 10
43.0702940851
 20
64.9029800587
 30
0.0
 10
43.2588022545
 20
64.9971208071
 30
0.0
  0
SPLINE
  5
418
100
AcDbEntity
  8
0
100
AcDbSpline
 62
7
  6
CONTINUOUS
 70
0
 71
3
 72
10
 73
6
 74
0
 42
0.0000001
 43
0.0000001
 44
0.0000000001
 40
0.0
 40
0.0
 40
0.0
 40
0.0
 40
0.4039566737
 40
0.675339001
 40
1.0
 40
1.0
 40
1.0
 40
1.0
 10
341.598092999
 20
461.5
 30
0.0
 10
341.598092999
 20
461.2994955906
 30
0.0
 10
341.4142395903
 20
460.9759575007
 30
0.0
 10
341.0441757818
 20
460.6523633046
 30
0.0
 10
340.7978746727
 20
460.484817571
 30
0.0
 10
340.6608504595
 20
460.400009752
 30
0.0
  0
SPLINE
  5
419
100
AcDbEntity
  8
0
100
AcDbSpline
 62
7
  6
CONTINUOUS
 70
0
 71
3
 72
9
 73
5
 74
0
 42
0.0000001
 43
0.0000001
 44
0.0000000001
 40
0.0
 40
0.0
 40
0.0
 40
0.0
 40
0.2248239412
 40
1.0
 40
1.0
 40
1.0
 40
1.0
 10
340.6608504595
 20
460.400009752
 30
0.0
 10
340.5501374971
 20
460.3314866447
 30
0.0
 10
340.0476243145
 20
460.0429601652
 30
0.0
 10
339.5213525587
 20
459.7988972702
 30
0.0
 10
339.1118048071
 20
459.6150266761
 30
0.0
  0
SPLINE
  5
41A
100
AcDbEntity
  8
0
100
AcDbSpline
 62
7
  6
CONTINUOUS
 70
0
 71
3
 72
9
 73
5
 74
0
 42
0.0000001
 43
0.0000001
 44
0.0000000001
 40
0.0
 40
0.0
 40
0.0
 40
0.0
 40
0.2717571654
 40
1.0
 40
1.0
 40
1.0
 40
1.0
 10
339.1118040383
 20
65.3849736721
 30
0.0
 10
339.255353616
 20
65.3205256449
 30
0.0
 10
339.7817549028
 20
65.0799519041
 30
0.0
 10
340.3022682756
 20
64.8219229069
 30
0.0
 10
340.660818938
 20
64.600009752
 30
0.0
  0
SPLINE
  5
41B
100
AcDbEntity
  8
0
100
AcDbSpline
 62
7
  6
CONTINUOUS
 70
0
 71
3
 72
10
 73
6
 74
0
 42
0.0000001
 43
0.0000001
 44
0.0000000001
 40
0.0
 40
0.0
 40
0.0
 40
0.0
 40
0.3246620176
 40
0.5960448711
 40
1.0
 40
1.0
 40
1.0
 40
1.0
 10
340.660818938
 20
64.600009752
 30
0.0
 10
340.7978474663
 20
64.5152004455
 30
0.0
 10
341.0441564394
 20
64.3476518397
 30
0.0
 10
341.4142317912
 20
64.0240530699
 30
0.0
 10
341.598092999
 20
63.7005085531
 30
0.0
 10
341.598092999
 20
63.5
 30
0.0
  0
SPLINE
  5
41C
100
AcDbEntity
  8
0
100
AcDbSpline
 62
7
  6
CONTINUOUS
 70
0
 71
3
 72
9
 73
5
 74
0
 42
0.0000001
 43
0.0000001
 44
0.0000000001
 40
0.0
 40
0.0
 40
0.0
 40
0.0
 40
0.2677874766
 40
1.0
 40
1.0
 40
1.0
 40
1.0
 10
338.8619820595
 20
460.0223903813
 30
0.0
 10
338.9554771652
 20
460.1654700421
 30
0.0
 10
339.3086498017
 20
460.6967092489
 30
0.0
 10
339.6853905188
 20
461.2154002238
 30
0.0
 10
339.998079177
 20
461.562726343
 30
0.0
  0
SPLINE
  5
41D
100
AcDbEntity
  8
0
100
AcDbSpline
 62
7
  6
CONTINUOUS
 70
0
 71
3
 72
9
 73
5
 74
0
 42
0.0000001
 43
0.0000001
 44
0.0000000001
 40
0.0
 40
0.0
 40
0.0
 40
0.0
 40
0.2613780697
 40
1.0
 40
1.0
 40
1.0
 40
1.0
 10
339.998079177
 20
461.562726343
 30
0.0
 10
340.0316195808
 20
461.5999821179
 30
0.0
 10
340.1616978128
 20
461.7408997973
 30
0.0
 10
340.2993736671
 20
461.8750102563
 30
0.0
 10
340.4063779461
 20
461.9678404369
 30
0.0
  0
SPLINE
  5
41E
100
AcDbEntity
  8
0
100
AcDbSpline
 62
7
  6
CONTINUOUS
 70
0
 71
3
 72
9
 73
5
 74
0
 42
0.0000001
 43
0.0000001
 44
0.0000000001
 40
0.0
 40
0.0
 40
0.0
 40
0.0
 40
0.2736348248
 40
1.0
 40
1.0
 40
1.0
 40
1.0
 10
340.4063779461
 20
461.9678404369
 30
0.0
 10
340.468258836
 20
462.0215244038
 30
0.0
 10
340.7004409672
 20
462.2098530954
 30
0.0
 10
340.966036854
 20
462.3628425328
 30
0.0
 10
341.1728197981
 20
462.4301530379
 30
0.0
  0
SPLINE
  5
41F
100
AcDbEntity
  8
0
100
AcDbSpline
 62
7
  6
CONTINUOUS
 70
0
 71
3
 72
8
 73
4
 74
0
 42
0.0000001
 43
0.0000001
 44
0.0000000001
 40
0.0
 40
0.0
 40
0.0
 40
0.0
 40
1.0
 40
1.0
 40
1.0
 40
1.0
 10
341.1728197981
 20
462.4301530379
 30
0.0
 10
341.3094218513
 20
462.4746187613
 30
0.0
 10
341.4544360412
 20
462.5
 30
0.0
 10
341.598092999
 20
462.5
 30
0.0
  0
SPLINE
  5
420
100
AcDbEntity
  8
0
100
AcDbSpline
 62
7
  6
CONTINUOUS
 70
0
 71
3
 72
8
 73
4
 74
0
 42
0.0000001
 43
0.0000001
 44
0.0000000001
 40
0.0
 40
0.0
 40
0.0
 40
0.0
 40
1.0
 40
1.0
 40
1.0
 40
1.0
 10
41.598092999
 20
462.5
 30
0.0
 10
41.741749025
 20
462.5
 30
0.0
 10
41.8867622664
 20
462.4746191323
 30
0.0
 10
42.0233635181
 20
462.4301539567
 30
0.0
  0
SPLINE
  5
421
100
AcDbEntity
  8
0
100
AcDbSpline
 62
7
  6
CONTINUOUS
 70
0
 71
3
 72
9
 73
5
 74
0
 42
0.0000001
 43
0.0000001
 44
0.0000000001
 40
0.0
 40
0.0
 40
0.0
 40
0.0
 40
0.2294547075
 40
1.0
 40
1.0
 40
1.0
 40
1.0
 10
42.0233635181
 20
462.4301539567
 30
0.0
 10
42.0887266556
 20
462.4088775529
 30
0.0
 10
42.3675617602
 20
462.2972133641
 30
0.0
 10
42.6154454237
 20
462.1191067093
 30
0.0
 10
42.7898103031
 20
461.9678384746
 30
0.0
  0
SPLINE
  5
422
100
AcDbEntity
  8
0
100
AcDbSpline
 62
7
  6
CONTINUOUS
 70
0
 71
3
 72
9
 73
5
 74
0
 42
0.0000001
 43
0.0000001
 44
0.0000000001
 40
0.0
 40
0.0
 40
0.0
 40
0.0
 40
0.2387039846
 40
1.0
 40
1.0
 40
1.0
 40
1.0
 10
42.7898103031
 20
461.9678384746
 30
0.0
 10
42.8243900589
 20
461.9378392073
 30
0.0
 10
42.9668680519
 20
461.8094133999
 30
0.0
 10
43.1003915516
 20
461.671264359
 30
0.0
 10
43.198079177
 20
461.5627570566
 30
0.0
  0
SPLINE
  5
423
100
AcDbEntity
  8
0
100
AcDbSpline
 62
7
  6
CONTINUOUS
 70
0
 71
3
 72
9
 73
5
 74
0
 42
0.0000001
 43
0.0000001
 44
0.0000000001
 40
0.0
 40
0.0
 40
0.0
 40
0.0
 40
0.2337544489
 40
1.0
 40
1.0
 40
1.0
 40
1.0
 10
43.198079177
 20
461.5627570566
 30
0.0
 10
43.2673461787
 20
461.4858181867
 30
0.0
 10
43.5552168021
 20
461.1490445077
 30
0.0
 10
43.815676203
 20
460.7898470664
 30
0.0
 10
44.0079842689
 20
460.5102405466
 30
0.0
  0
ENDSEC
  0
SECTION
  2
OBJECTS
  0
DICTIONARY
  5
C
100
AcDbDictionary
280
0
281
1
  3
ACAD_GROUP
350
D
  3
ACAD_MLINESTYLE
350
17
  3
ACAD_LAYOUT
350
1A
  3
ACAD_PLOTSETTINGS
350
19
  3
ACAD_PLOTSTYLENAME
350
E
  0
DICTIONARY
  5
D
102
{ACAD_REACTORS
330
C
102
}
100
AcDbDictionary
280
0
281
1
  0
ACDBDICTIONARYWDFLT
  5
E
102
{ACAD_REACTORS
330
C
102
}
100
AcDbDictionary
281
1
  3
Normal
350
F
100
AcDbDictionaryWithDefault
340
F
  0
DICTIONARY
  5
17
102
{ACAD_REACTORS
330
C
102
}
100
AcDbDictionary
280
0
281
1
  3
Standard
350
18
  0
DICTIONARY
  5
19
102
{ACAD_REACTORS
330
C
102
}
100
AcDbDictionary
281
1
  0
DICTIONARY
  5
1A
102
{ACAD_REACTORS
330
C
102
}
100
AcDbDictionary
281
1
  3
Model
350
424
  3
Layout1
350
425
  0
ACDBPLACEHOLDER
  5
F
102
{ACAD_REACTORS
330
E
102
}
  0
MLINESTYLE
  5
18
102
{ACAD_REACTORS
330
17
102
}
100
AcDbMlineStyle
  2
STANDARD
 70
0
  3

 62
256
 51
90.0
 52
90.0
 71
2
 49
0.5
 62
256
  6
BYLAYER
 49
-0.5
 62
256
  6
BYLAYER
  0
LAYOUT
  5
424
102
{ACAD_REACTORS
330
1A
102
}
100
AcDbPlotSettings
  1

  2
none_device
  4

  6

 40
0.0
 41
0.0
 42
0.0
 43
0.0
 44
210.0
 45
297.0
 46
0.0
 47
0.0
 48
0.0
 49
0.0
140
0.0
141
0.0
142
1.0
143
1.0
 70
1024
 72
1
 73
0
 74
0
  7

 75
0
147
1.0
148
0.0
149
0.0
100
AcDbLayout
  1
Model
 70
0
 71
0
 10
0.0
 20
0.0
 11
210.0
 21
297.0
 12
0.0
 22
0.0
 32
0.0
 14
0.0
 24
0.0
 34
0.0
 15
0.0
 25
0.0
 35
0.0
146
0.0
 13
0.0
 23
0.0
 33
0.0
 16
1.0
 26
0.0
 36
0.0
 17
0.0
 27
1.0
 37
0.0
 76
0
330
210
345
0
346
0
  0
LAYOUT
  5
425
102
{ACAD_REACTORS
330
1A
102
}
100
AcDbPlotSettings
  1

  2
none_device
  4

  6

 40
0.0
 41
0.0
 42
0.0
 43
0.0
 44
210.0
 45
297.0
 46
0.0
 47
0.0
 48
0.0
 49
0.0
140
0.0
141
0.0
142
1.0
143
1.0
 70
0
 72
1
 73
0
 74
0
  7

 75
0
147
1.0
148
0.0
149
0.0
100
AcDbLayout
  1
Layout1
 70
0
 71
1
 10
0.0
 20
0.0
 11
210.0
 21
297.0
 12
0.0
 22
0.0
 32
0.0
 14
0.0
 24
0.0
 34
0.0
 15
0.0
 25
0.0
 35
0.0
146
0.0
 13
0.0
 23
0.0
 33
0.0
 16
1.0
 26
0.0
 36
0.0
 17
0.0
 27
1.0
 37
0.0
 76
0
330
211
345
0
346
0
  0
ENDSEC
  0
EOF
