999
DXF file: C:\Users\sesa63760\Dev\_Creo\CAD\MCADUE0003013_3D-CAD\drw0001_3.dxf
999
Pro/ENGINEER 2019471 by Parametric Technology Corporation
  0
SECTION
  2
HEADER
  9
$ACADVER
  1
AC1024
  9
$DWGCODEPAGE
  3
ANSI_1252
  9
$EXTMAX
 10
758.4377693787
 20
1072.647702407
 30
0.0
  9
$EXTMIN
 10
0.0
 20
0.0
 30
0.0
  9
$LIMMIN
 10
0.0
 20
0.0
  9
$LIMMAX
 10
758.4377693787
 20
1072.647702407
  9
$VIEWCTR
 10
379.2188846893
 20
536.3238512035
  9
$VIEWSIZE
 40
1072.647702407
  9
$CLAYER
  8
0
  9
$LTSCALE
 40
69.9207391199
  9
$CELTYPE
  6
BYLAYER
  9
$DIMSCALE
 40
1.0
  9
$DIMASZ
 40
9.029021064
  9
$DIMEXO
 40
1.0
  9
$DIMDLI
 40
48.308874301
  9
$DIMEXE
 40
1.0
  9
$DIMCEN
 40
11.4415754923
  9
$DIMLFAC
 40
1.0
  9
$DIMBLK
  1
_FILLED
  9
$DIMALT
 70
0
  9
$DIMALTF
 40
0.0393700787
  9
$DIMTXT
 40
12.6406294896
  9
$DIMTOL
 70
1
  9
$DIMLIM
 70
0
  9
$DIMTFAC
 40
1.0
  9
$DIMTP
 40
0.01
  9
$DIMTM
 40
0.01
  9
$DIMGAP
 40
0.625
  9
$DIMDSEP
 70
46
  9
$AUNITS
 70
0
  9
$PDMODE
 70
3
  9
$PDSIZE
 40
0.3125
  9
$HANDSEED
  5
572
  9
$TILEMODE
 70
1
  9
$MEASUREMENT
 70
1
  9
$INSUNITS
 70
4
  0
ENDSEC
  0
SECTION
  2
CLASSES
  0
CLASS
  1
ACDBDICTIONARYWDFLT
  2
AcDbDictionaryWithDefault
  3
AutoCAD 2000
 90
0
 91
1
280
0
281
0
  0
CLASS
  1
ACDBPLACEHOLDER
  2
AcDbPlaceHolder
  3
AutoCAD 2000
 90
0
 91
1
280
0
281
0
  0
CLASS
  1
LAYOUT
  2
AcDbLayout
  3
AutoCAD 2000
 90
0
 91
0
280
0
281
0
  0
ENDSEC
  0
SECTION
  2
TABLES
  0
TABLE
  2
VPORT
  5
8
100
AcDbSymbolTable
 70
2
  0
VPORT
  5
1F4
100
AcDbSymbolTableRecord
100
AcDbViewportTableRecord
  2
*ACTIVE
 70
0
 10
0.0
 20
0.0
 11
1.0
 21
1.0
 12
379.2188846893
 22
536.3238512035
 13
0.0
 23
0.0
 14
1.0
 24
1.0
 15
0.0
 25
0.0
 16
0.0
 26
0.0
 36
1.0
 17
0.0
 27
0.0
 37
0.0
 40
1072.647702407
 41
0.7070707071
 42
50.0
 43
0.0
 44
0.0
 50
0.0
 51
0.0
 71
0
 72
100
 73
1
 74
1
 75
0
 76
0
 77
0
 78
0
  0
ENDTAB
  0
TABLE
  2
LTYPE
  5
5
100
AcDbSymbolTable
 70
6
  0
LTYPE
  5
14
100
AcDbSymbolTableRecord
100
AcDbLinetypeTableRecord
  2
BYBLOCK
 70
0
  3

 72
65
 73
0
 40
0.0
  0
LTYPE
  5
15
100
AcDbSymbolTableRecord
100
AcDbLinetypeTableRecord
  2
BYLAYER
 70
0
  3

 72
65
 73
0
 40
0.0
  0
LTYPE
  5
16
100
AcDbSymbolTableRecord
100
AcDbLinetypeTableRecord
  2
CONTINUOUS
 70
64
  3
Solid line
 72
65
 73
0
 40
0.0
  0
LTYPE
  5
1F5
100
AcDbSymbolTableRecord
100
AcDbLinetypeTableRecord
  2
CENTER
 70
64
  3
____ _ ____ _ ____ _ ____ _ ____ _ ____ _ ____
 72
65
 73
4
 40
0.6
 49
0.375
 74
0
 49
-0.075
 74
0
 49
0.075
 74
0
 49
-0.075
 74
0
  0
LTYPE
  5
1F6
100
AcDbSymbolTableRecord
100
AcDbLinetypeTableRecord
  2
HIDDEN
 70
64
  3
- - - - - - - - - - - - - - - - - - - -
 72
65
 73
2
 40
0.2
 49
0.1
 74
0
 49
-0.1
 74
0
  0
LTYPE
  5
1F7
100
AcDbSymbolTableRecord
100
AcDbLinetypeTableRecord
  2
PHANTOM
 70
64
  3
_____ _ _ _____ _ _ _____ _ _ _____
 72
65
 73
6
 40
0.8
 49
0.45
 74
0
 49
-0.05
 74
0
 49
0.1
 74
0
 49
-0.05
 74
0
 49
0.1
 74
0
 49
-0.05
 74
0
  0
LTYPE
  5
1F8
100
AcDbSymbolTableRecord
100
AcDbLinetypeTableRecord
  2
DOT
 70
64
  3
. . . . . . . . . . . . . . . . . . . .
 72
65
 73
2
 40
0.2
 49
0.1
 74
0
 49
-0.1
 74
0
  0
LTYPE
  5
1F9
100
AcDbSymbolTableRecord
100
AcDbLinetypeTableRecord
  2
DASHED
 70
64
  3
- - - - - - - - - - - - - - - - - - - -
 72
65
 73
2
 40
0.2
 49
0.1
 74
0
 49
-0.1
 74
0
  0
ENDTAB
  0
TABLE
  2
LAYER
  5
2
100
AcDbSymbolTable
 70
36
  0
LAYER
  5
10
100
AcDbSymbolTableRecord
100
AcDbLayerTableRecord
  2
0
 70
0
 62
7
  6
CONTINUOUS
370
-3
390
F
  0
LAYER
  5
1FA
100
AcDbSymbolTableRecord
100
AcDbLayerTableRecord
  2
DEFAULT_1
 70
0
 62
7
  6
CENTER
370
-3
390
F
  0
LAYER
  5
1FB
100
AcDbSymbolTableRecord
100
AcDbLayerTableRecord
  2
DEFAULT_2
 70
0
 62
8
  6
HIDDEN
370
-3
390
F
  0
LAYER
  5
1FC
100
AcDbSymbolTableRecord
100
AcDbLayerTableRecord
  2
DEFAULT_3
 70
0
 62
7
  6
PHANTOM
370
-3
390
F
  0
LAYER
  5
1FD
100
AcDbSymbolTableRecord
100
AcDbLayerTableRecord
  2
00_COMPONENTS
 70
0
 62
7
  6
CONTINUOUS
370
-3
390
F
  0
LAYER
  5
1FE
100
AcDbSymbolTableRecord
100
AcDbLayerTableRecord
  2
01_1_DEFAULT_DATUMS
 70
0
 62
7
  6
CONTINUOUS
370
-3
390
F
  0
LAYER
  5
1FF
100
AcDbSymbolTableRecord
100
AcDbLayerTableRecord
  2
01_PLANES
 70
0
 62
7
  6
CONTINUOUS
370
-3
390
F
  0
LAYER
  5
200
100
AcDbSymbolTableRecord
100
AcDbLayerTableRecord
  2
02_COORD_SYS
 70
0
 62
7
  6
CONTINUOUS
370
-3
390
F
  0
LAYER
  5
201
100
AcDbSymbolTableRecord
100
AcDbLayerTableRecord
  2
03_AXES
 70
0
 62
7
  6
CONTINUOUS
370
-3
390
F
  0
LAYER
  5
202
100
AcDbSymbolTableRecord
100
AcDbLayerTableRecord
  2
04_POINTS
 70
0
 62
7
  6
CONTINUOUS
370
-3
390
F
  0
LAYER
  5
203
100
AcDbSymbolTableRecord
100
AcDbLayerTableRecord
  2
05_CURVES
 70
0
 62
7
  6
CONTINUOUS
370
-3
390
F
  0
LAYER
  5
204
100
AcDbSymbolTableRecord
100
AcDbLayerTableRecord
  2
06_SURFS
 70
0
 62
7
  6
CONTINUOUS
370
-3
390
F
  0
LAYER
  5
205
100
AcDbSymbolTableRecord
100
AcDbLayerTableRecord
  2
07_COSMETICS
 70
0
 62
7
  6
CONTINUOUS
370
-3
390
F
  0
LAYER
  5
206
100
AcDbSymbolTableRecord
100
AcDbLayerTableRecord
  2
10_NOTES
 70
0
 62
7
  6
CONTINUOUS
370
-3
390
F
  0
LAYER
  5
207
100
AcDbSymbolTableRecord
100
AcDbLayerTableRecord
  2
11_NOTES_PUB
 70
0
 62
7
  6
CONTINUOUS
370
-3
390
F
  0
LAYER
  5
208
100
AcDbSymbolTableRecord
100
AcDbLayerTableRecord
  2
13_REF_GTOL
 70
0
 62
7
  6
CONTINUOUS
370
-3
390
F
  0
LAYER
  5
209
100
AcDbSymbolTableRecord
100
AcDbLayerTableRecord
  2
16_MISC
 70
0
 62
7
  6
CONTINUOUS
370
-3
390
F
  0
LAYER
  5
20A
100
AcDbSymbolTableRecord
100
AcDbLayerTableRecord
  2
17_NO_PRINT
 70
0
 62
7
  6
CONTINUOUS
370
-3
390
F
  0
LAYER
  5
20B
100
AcDbSymbolTableRecord
100
AcDbLayerTableRecord
  2
18_DATUM_CAMS_JOINTS
 70
0
 62
7
  6
CONTINUOUS
370
-3
390
F
  0
LAYER
  5
20C
100
AcDbSymbolTableRecord
100
AcDbLayerTableRecord
  2
19_DATUM_FUNCTIONAL
 70
0
 62
7
  6
CONTINUOUS
370
-3
390
F
  0
LAYER
  5
20D
100
AcDbSymbolTableRecord
100
AcDbLayerTableRecord
  2
20_DATUM_KINEMATIC_SCHEME
 70
0
 62
7
  6
CONTINUOUS
370
-3
390
F
  0
ENDTAB
  0
TABLE
  2
STYLE
  5
3
100
AcDbSymbolTable
 70
1
  0
STYLE
  5
11
100
AcDbSymbolTableRecord
100
AcDbTextStyleTableRecord
  2
STANDARD
 70
0
 40
0.0
 41
0.8
 50
0.0
 71
0
 42
0.2
  3
txt
  4

  0
STYLE
  5
20E
100
AcDbSymbolTableRecord
100
AcDbTextStyleTableRecord
  2
TEXTSTYLE_1
 70
0
 40
0.0
 41
0.8
 50
0.0
 71
0
 42
0.2
  3
gdt
  4

  0
ENDTAB
  0
TABLE
  2
VIEW
  5
6
100
AcDbSymbolTable
 70
0
  0
ENDTAB
  0
TABLE
  2
UCS
  5
7
100
AcDbSymbolTable
 70
0
  0
ENDTAB
  0
TABLE
  2
APPID
  5
9
100
AcDbSymbolTable
 70
1
  0
APPID
  5
20F
100
AcDbSymbolTableRecord
100
AcDbRegAppTableRecord
  2
ACAD
 70
0
  0
ENDTAB
  0
TABLE
  2
BLOCK_RECORD
  5
1
100
AcDbSymbolTable
 70
0
  0
BLOCK_RECORD
  5
210
100
AcDbSymbolTableRecord
100
AcDbBlockTableRecord
  2
*Model_Space
  0
BLOCK_RECORD
  5
211
100
AcDbSymbolTableRecord
100
AcDbBlockTableRecord
  2
*Paper_Space
  0
BLOCK_RECORD
  5
212
100
AcDbSymbolTableRecord
100
AcDbBlockTableRecord
  2
_FILLED
  0
ENDTAB
  0
TABLE
  2
DIMSTYLE
  5
A
100
AcDbSymbolTable
 70
1
100
AcDbDimStyleTable
 71
0
  0
DIMSTYLE
105
213
100
AcDbSymbolTableRecord
100
AcDbDimStyleTableRecord
  2
STANDARD
 70
0
  3

  4

 40
1.0
 41
9.029021064
 42
1.0
 43
0.38
 44
1.0
 45
0.0
 46
0.0
 47
0.01
 48
0.01
140
12.6406294896
141
0.09
142
0.0
143
25.4
144
1.0
145
0.0
146
1.0
147
0.625
 71
1
 72
0
 73
0
 74
0
 75
0
 76
0
 77
1
 78
8
 79
2
170
0
171
1
172
0
173
0
174
0
175
0
176
0
177
0
178
0
270
2
179
2
271
2
272
2
273
2
274
2
275
0
280
0
281
0
282
0
283
1
284
8
285
0
286
0
287
3
288
0
340
11
278
46
341
212
342
212
343
212
344
212
  0
ENDTAB
  0
ENDSEC
  0
SECTION
  2
BLOCKS
  0
BLOCK
  5
20
100
AcDbEntity
  8
0
100
AcDbBlockBegin
  2
*Model_Space
 70
0
 10
0.0
 20
0.0
 30
0.0
  3
*Model_Space
  1

  0
ENDBLK
  5
21
100
AcDbEntity
  8
0
100
AcDbBlockEnd
  0
BLOCK
  5
1C
100
AcDbEntity
  8
0
100
AcDbBlockBegin
  2
*Paper_Space
 70
0
 10
0.0
 20
0.0
 30
0.0
  3
*Paper_Space
  1

  0
ENDBLK
  5
1D
100
AcDbEntity
  8
0
100
AcDbBlockEnd
  0
BLOCK
  5
214
100
AcDbEntity
  8
0
100
AcDbBlockBegin
  2
_FILLED
 70
64
 10
0.0
 20
0.0
  3
_FILLED
  1

  0
SOLID
  5
215
100
AcDbEntity
  8
0
  6
BYBLOCK
 62
0
100
AcDbTrace
 10
0.0
 20
0.0
 11
-1.0
 21
0.25
 12
-1.0
 22
-0.25
 13
-1.0
 23
-0.25
  0
ENDBLK
  5
216
100
AcDbEntity
  8
0
  6
BYBLOCK
 62
0
100
AcDbBlockEnd
  0
ENDSEC
  0
SECTION
  2
ENTITIES
  0
LINE
  5
217
100
AcDbEntity
  8
0
100
AcDbLine
 62
7
  6
CONTINUOUS
 10
89.7221669651
 20
390.8989543449
 11
89.7221669651
 21
661.4989543449
  0
LINE
  5
218
100
AcDbEntity
  8
0
100
AcDbLine
 62
7
  6
CONTINUOUS
 10
91.2221669651
 20
390.8989543449
 11
91.2221669651
 21
661.4989543449
  0
LINE
  5
219
100
AcDbEntity
  8
0
100
AcDbLine
 62
7
  6
CONTINUOUS
 10
132.6438385005
 20
685.5319869376
 11
132.9720384754
 21
686.354242033
  0
LWPOLYLINE
  5
21A
100
AcDbEntity
  8
0
100
AcDbPolyline
 62
7
  6
CONTINUOUS
 90
3
 70
0
 10
136.9184707757
 20
677.7356037842
 10
136.5764218793
 20
677.1431826257
 10
135.9336706687
 20
676.9092591959
  0
LINE
  5
21B
100
AcDbEntity
  8
0
100
AcDbLine
 62
7
  6
CONTINUOUS
 10
110.731668099
 20
667.0805723357
 11
110.3575275517
 21
666.6989400507
  0
LINE
  5
21C
100
AcDbEntity
  8
0
100
AcDbLine
 62
7
  6
CONTINUOUS
 10
99.1849134582
 20
687.8481995538
 11
101.8427812708
 21
689.7092586318
  0
LINE
  5
21D
100
AcDbEntity
  8
0
100
AcDbLine
 62
7
  6
CONTINUOUS
 10
117.0227703091
 20
689.3092509752
 11
117.1370942026
 21
682.7596394844
  0
LINE
  5
21E
100
AcDbEntity
  8
0
100
AcDbLine
 62
7
  6
CONTINUOUS
 10
117.3227246175
 20
689.3092509563
 11
117.4370489499
 21
682.7596143533
  0
LINE
  5
21F
100
AcDbEntity
  8
0
100
AcDbLine
 62
7
  6
CONTINUOUS
 10
116.5227703091
 20
689.7092509797
 11
116.5227703091
 21
680.7092509388
  0
LINE
  5
220
100
AcDbEntity
  8
0
100
AcDbLine
 62
7
  6
CONTINUOUS
 10
117.906769195
 20
689.5092509563
 11
117.906769195
 21
689.3092509563
  0
LINE
  5
221
100
AcDbEntity
  8
0
100
AcDbLine
 62
7
  6
CONTINUOUS
 10
117.95996038
 20
689.3092509563
 11
117.95996038
 21
689.5092509563
  0
LINE
  5
222
100
AcDbEntity
  8
0
100
AcDbLine
 62
7
  6
CONTINUOUS
 10
118.0663437036
 20
689.3092509563
 11
118.0663437036
 21
689.5092509563
  0
LINE
  5
223
100
AcDbEntity
  8
0
100
AcDbLine
 62
7
  6
CONTINUOUS
 10
118.1195348886
 20
689.3092509563
 11
118.1195348886
 21
689.5092509563
  0
LINE
  5
224
100
AcDbEntity
  8
0
100
AcDbLine
 62
7
  6
CONTINUOUS
 10
118.1727270272
 20
689.3092509563
 11
118.1727270272
 21
689.5092509563
  0
LINE
  5
225
100
AcDbEntity
  8
0
100
AcDbLine
 62
7
  6
CONTINUOUS
 10
118.2259182123
 20
689.3092509563
 11
118.2259182123
 21
689.5092509563
  0
LINE
  5
226
100
AcDbEntity
  8
0
100
AcDbLine
 62
7
  6
CONTINUOUS
 10
118.2791093972
 20
689.3092509563
 11
118.2791093972
 21
689.5092509563
  0
LINE
  5
227
100
AcDbEntity
  8
0
100
AcDbLine
 62
7
  6
CONTINUOUS
 10
118.332301536
 20
689.3092509563
 11
118.332301536
 21
689.5092509563
  0
LINE
  5
228
100
AcDbEntity
  8
0
100
AcDbLine
 62
7
  6
CONTINUOUS
 10
118.385492721
 20
689.3092509563
 11
118.385492721
 21
689.5092509563
  0
LINE
  5
229
100
AcDbEntity
  8
0
100
AcDbLine
 62
7
  6
CONTINUOUS
 10
118.4386839059
 20
689.3092509563
 11
118.4386839059
 21
689.5092509563
  0
LINE
  5
22A
100
AcDbEntity
  8
0
100
AcDbLine
 62
7
  6
CONTINUOUS
 10
118.4918760446
 20
689.3092509563
 11
118.4918760446
 21
689.5092509563
  0
LINE
  5
22B
100
AcDbEntity
  8
0
100
AcDbLine
 62
7
  6
CONTINUOUS
 10
118.5450672296
 20
689.3092509563
 11
118.5450672296
 21
689.5092509563
  0
LINE
  5
22C
100
AcDbEntity
  8
0
100
AcDbLine
 62
7
  6
CONTINUOUS
 10
118.5753703327
 20
686.0144900965
 11
118.5753836309
 21
686.3092451069
  0
LINE
  5
22D
100
AcDbEntity
  8
0
100
AcDbLine
 62
7
  6
CONTINUOUS
 10
118.5753780135
 20
686.3092509563
 11
118.5753780135
 21
686.0144873727
  0
LINE
  5
22E
100
AcDbEntity
  8
0
100
AcDbLine
 62
7
  6
CONTINUOUS
 10
118.5982584146
 20
689.3092509563
 11
118.5982584146
 21
689.5092509563
  0
LINE
  5
22F
100
AcDbEntity
  8
0
100
AcDbLine
 62
7
  6
CONTINUOUS
 10
118.6514505533
 20
689.3092509563
 11
118.6514505533
 21
689.5092509563
  0
LINE
  5
230
100
AcDbEntity
  8
0
100
AcDbLine
 62
7
  6
CONTINUOUS
 10
118.7046417382
 20
689.3092509563
 11
118.7046417382
 21
689.5092509563
  0
LINE
  5
231
100
AcDbEntity
  8
0
100
AcDbLine
 62
7
  6
CONTINUOUS
 10
118.7578329233
 20
689.3092509563
 11
118.7578329233
 21
689.5092509563
  0
LINE
  5
232
100
AcDbEntity
  8
0
100
AcDbLine
 62
7
  6
CONTINUOUS
 10
118.8110241083
 20
689.3092509563
 11
118.8110241083
 21
689.5092509563
  0
LINE
  5
233
100
AcDbEntity
  8
0
100
AcDbLine
 62
7
  6
CONTINUOUS
 10
118.8642162469
 20
689.3092509563
 11
118.8642162469
 21
689.5092509563
  0
LINE
  5
234
100
AcDbEntity
  8
0
100
AcDbLine
 62
7
  6
CONTINUOUS
 10
118.917407432
 20
689.5092509563
 11
118.917407432
 21
689.3092509563
  0
LINE
  5
235
100
AcDbEntity
  8
0
100
AcDbLine
 62
7
  6
CONTINUOUS
 10
118.970598617
 20
689.5092509563
 11
118.970598617
 21
689.3092509563
  0
LINE
  5
236
100
AcDbEntity
  8
0
100
AcDbLine
 62
7
  6
CONTINUOUS
 10
119.0237907556
 20
689.3092509563
 11
119.0237907556
 21
689.5092509563
  0
LINE
  5
237
100
AcDbEntity
  8
0
100
AcDbLine
 62
7
  6
CONTINUOUS
 10
119.0769819405
 20
689.3092509563
 11
119.0769819405
 21
689.5092509563
  0
LINE
  5
238
100
AcDbEntity
  8
0
100
AcDbLine
 62
7
  6
CONTINUOUS
 10
119.1833652642
 20
689.5092509563
 11
119.1833652642
 21
689.3092509563
  0
LINE
  5
239
100
AcDbEntity
  8
0
100
AcDbLine
 62
7
  6
CONTINUOUS
 10
119.2365564493
 20
689.3092509563
 11
119.2365564493
 21
689.5092509563
  0
LINE
  5
23A
100
AcDbEntity
  8
0
100
AcDbLine
 62
7
  6
CONTINUOUS
 10
119.2897476343
 20
689.3092509563
 11
119.2897476343
 21
689.5092509563
  0
LINE
  5
23B
100
AcDbEntity
  8
0
100
AcDbLine
 62
7
  6
CONTINUOUS
 10
119.342939773
 20
689.3092509563
 11
119.342939773
 21
689.5092509563
  0
LINE
  5
23C
100
AcDbEntity
  8
0
100
AcDbLine
 62
7
  6
CONTINUOUS
 10
119.396130958
 20
689.3092509563
 11
119.396130958
 21
689.5092509563
  0
LINE
  5
23D
100
AcDbEntity
  8
0
100
AcDbLine
 62
7
  6
CONTINUOUS
 10
119.4493221428
 20
689.3092509563
 11
119.4493221428
 21
689.5092509563
  0
LINE
  5
23E
100
AcDbEntity
  8
0
100
AcDbLine
 62
7
  6
CONTINUOUS
 10
119.5025142816
 20
689.3092509563
 11
119.5025142816
 21
689.5092509563
  0
LINE
  5
23F
100
AcDbEntity
  8
0
100
AcDbLine
 62
7
  6
CONTINUOUS
 10
119.6088966516
 20
689.3092509563
 11
119.6088966516
 21
689.5092509563
  0
LINE
  5
240
100
AcDbEntity
  8
0
100
AcDbLine
 62
7
  6
CONTINUOUS
 10
119.6620887903
 20
689.5092509563
 11
119.6620887903
 21
689.3092509563
  0
LINE
  5
241
100
AcDbEntity
  8
0
100
AcDbLine
 62
7
  6
CONTINUOUS
 10
119.7760705627
 20
689.3092509563
 11
119.7760705627
 21
689.5092509563
  0
LINE
  5
242
100
AcDbEntity
  8
0
100
AcDbLine
 62
7
  6
CONTINUOUS
 10
119.821663299
 20
689.5092509563
 11
119.821663299
 21
689.3092509563
  0
LINE
  5
243
100
AcDbEntity
  8
0
100
AcDbLine
 62
7
  6
CONTINUOUS
 10
119.928045669
 20
689.3092509563
 11
119.928045669
 21
689.5092509563
  0
LINE
  5
244
100
AcDbEntity
  8
0
100
AcDbLine
 62
7
  6
CONTINUOUS
 10
119.981236854
 20
689.5092509563
 11
119.981236854
 21
689.3092509563
  0
LINE
  5
245
100
AcDbEntity
  8
0
100
AcDbLine
 62
7
  6
CONTINUOUS
 10
120.0344289926
 20
689.3092509563
 11
120.0344289926
 21
689.5092509563
  0
LINE
  5
246
100
AcDbEntity
  8
0
100
AcDbLine
 62
7
  6
CONTINUOUS
 10
120.0876201776
 20
689.3092509563
 11
120.0876201776
 21
689.5092509563
  0
LINE
  5
247
100
AcDbEntity
  8
0
100
AcDbLine
 62
7
  6
CONTINUOUS
 10
120.1408113626
 20
689.3092509563
 11
120.1408113626
 21
689.5092509563
  0
LINE
  5
248
100
AcDbEntity
  8
0
100
AcDbLine
 62
7
  6
CONTINUOUS
 10
120.1620878366
 20
689.3092509563
 11
120.1620878366
 21
689.5092509563
  0
LINE
  5
249
100
AcDbEntity
  8
0
100
AcDbLine
 62
7
  6
CONTINUOUS
 10
120.1940035013
 20
689.3092509563
 11
120.1940035013
 21
689.5092509563
  0
LINE
  5
24A
100
AcDbEntity
  8
0
100
AcDbLine
 62
7
  6
CONTINUOUS
 10
120.2471946863
 20
689.3092509563
 11
120.2471946863
 21
689.5092509563
  0
LINE
  5
24B
100
AcDbEntity
  8
0
100
AcDbLine
 62
7
  6
CONTINUOUS
 10
120.3535780099
 20
689.3092509563
 11
120.3535780099
 21
689.5092509563
  0
LINE
  5
24C
100
AcDbEntity
  8
0
100
AcDbLine
 62
7
  6
CONTINUOUS
 10
120.406769195
 20
689.5092509563
 11
120.406769195
 21
689.3092509563
  0
LINE
  5
24D
100
AcDbEntity
  8
0
100
AcDbLine
 62
7
  6
CONTINUOUS
 10
120.4231357134
 20
689.3092509563
 11
120.4231357134
 21
689.5092509563
  0
LINE
  5
24E
100
AcDbEntity
  8
0
100
AcDbLine
 62
7
  6
CONTINUOUS
 10
123.6223128762
 20
684.104013314
 11
123.6223128762
 21
683.8092509563
  0
LINE
  5
24F
100
AcDbEntity
  8
0
100
AcDbLine
 62
7
  6
CONTINUOUS
 10
124.7272482496
 20
688.3092509563
 11
124.4967822215
 21
685.5066588103
  0
LINE
  5
250
100
AcDbEntity
  8
0
100
AcDbLine
 62
7
  6
CONTINUOUS
 10
124.9999106979
 20
685.5539019851
 11
125.22649177
 21
688.3092509563
  0
LINE
  5
251
100
AcDbEntity
  8
0
100
AcDbLine
 62
7
  6
CONTINUOUS
 10
125.0015666378
 20
685.5530424618
 11
125.22814771
 21
688.308391433
  0
LINE
  5
252
100
AcDbEntity
  8
0
100
AcDbLine
 62
7
  6
CONTINUOUS
 10
124.4723670812
 20
686.1582393704
 11
124.6523862691
 21
688.3092509563
  0
LINE
  5
253
100
AcDbEntity
  8
0
100
AcDbLine
 62
7
  6
CONTINUOUS
 10
124.2790793152
 20
686.3796637596
 11
123.9921967731
 21
683.1688421626
  0
LINE
  5
254
100
AcDbEntity
  8
0
100
AcDbLine
 62
7
  6
CONTINUOUS
 10
124.2362928186
 20
684.1040152344
 11
124.4247126227
 21
686.2128308202
  0
LINE
  5
255
100
AcDbEntity
  8
0
100
AcDbLine
 62
7
  6
CONTINUOUS
 10
133.9058807824
 20
689.3092509563
 11
133.7732662383
 21
688.557156503
  0
LINE
  5
256
100
AcDbEntity
  8
0
100
AcDbLine
 62
7
  6
CONTINUOUS
 10
136.9184784302
 20
677.7356027745
 11
136.9715879246
 21
678.0368011897
  0
LINE
  5
257
100
AcDbEntity
  8
0
100
AcDbLine
 62
7
  6
CONTINUOUS
 10
137.2139207568
 20
677.6887440474
 11
137.2717378575
 21
678.016641119
  0
LINE
  5
258
100
AcDbEntity
  8
0
100
AcDbLine
 62
7
  6
CONTINUOUS
 10
149.7948281395
 20
687.4755556991
 11
149.4039591555
 21
685.6773675148
  0
LINE
  5
259
100
AcDbEntity
  8
0
100
AcDbLine
 62
7
  6
CONTINUOUS
 10
137.9266450115
 20
681.5125887795
 11
137.8580505308
 21
681.2393397679
  0
LINE
  5
25A
100
AcDbEntity
  8
0
100
AcDbLine
 62
7
  6
CONTINUOUS
 10
137.7236956752
 20
681.5203332321
 11
137.6518854007
 21
681.2362789791
  0
LINE
  5
25B
100
AcDbEntity
  8
0
100
AcDbLine
 62
7
  6
CONTINUOUS
 10
138.0147023193
 20
681.22736383
 11
138.0849091116
 21
681.4982781117
  0
LINE
  5
25C
100
AcDbEntity
  8
0
100
AcDbLine
 62
7
  6
CONTINUOUS
 10
137.8271160605
 20
681.2469887161
 11
137.9012858822
 21
681.524624655
  0
LINE
  5
25D
100
AcDbEntity
  8
0
100
AcDbLine
 62
7
  6
CONTINUOUS
 10
137.9012858822
 20
681.524624655
 11
137.902046302
 21
681.5270817737
  0
LINE
  5
25E
100
AcDbEntity
  8
0
100
AcDbLine
 62
7
  6
CONTINUOUS
 10
142.9431411914
 20
671.5122797738
 11
142.7609575361
 21
671.0040095881
  0
LINE
  5
25F
100
AcDbEntity
  8
0
100
AcDbLine
 62
7
  6
CONTINUOUS
 10
149.4041558447
 20
685.6780520176
 11
148.7806153432
 21
683.9459720336
  0
LINE
  5
260
100
AcDbEntity
  8
0
100
AcDbLine
 62
7
  6
CONTINUOUS
 10
139.2341399465
 20
671.3064062548
 11
139.0507994805
 21
670.8016325789
  0
LINE
  5
261
100
AcDbEntity
  8
0
100
AcDbLine
 62
7
  6
CONTINUOUS
 10
139.234191031
 20
667.7057279463
 11
139.0508909018
 21
667.2010196743
  0
LINE
  5
262
100
AcDbEntity
  8
0
100
AcDbLine
 62
7
  6
CONTINUOUS
 10
142.8120841746
 20
671.0142189753
 11
142.9942935537
 21
671.5158908594
  0
LINE
  5
263
100
AcDbEntity
  8
0
100
AcDbLine
 62
7
  6
CONTINUOUS
 10
139.2330472045
 20
669.5044423808
 11
139.0495461196
 21
668.9994634908
  0
LINE
  5
264
100
AcDbEntity
  8
0
100
AcDbLine
 62
7
  6
CONTINUOUS
 10
142.8126818032
 20
669.2152680014
 11
142.9952035273
 21
669.7176187168
  0
LINE
  5
265
100
AcDbEntity
  8
0
100
AcDbLine
 62
7
  6
CONTINUOUS
 10
142.811983644
 20
667.4129979323
 11
142.9945243057
 21
667.9155051634
  0
LINE
  5
266
100
AcDbEntity
  8
0
100
AcDbLine
 62
7
  6
CONTINUOUS
 10
142.8122041682
 20
665.6149028486
 11
142.9946546595
 21
666.117181568
  0
LINE
  5
267
100
AcDbEntity
  8
0
100
AcDbLine
 62
7
  6
CONTINUOUS
 10
146.7088992268
 20
687.7729965224
 11
146.5005399519
 21
687.230202052
  0
LINE
  5
268
100
AcDbEntity
  8
0
100
AcDbLine
 62
7
  6
CONTINUOUS
 10
147.0234648813
 20
687.0296526457
 11
147.2317018189
 21
687.5721284166
  0
LINE
  5
269
100
AcDbEntity
  8
0
100
AcDbLine
 62
7
  6
CONTINUOUS
 10
138.8727703091
 20
658.603293825
 11
139.871209305
 21
660.5092509563
  0
LWPOLYLINE
  5
26A
100
AcDbEntity
  8
0
100
AcDbPolyline
 62
7
  6
CONTINUOUS
 90
4
 70
0
 10
145.9127326272
 20
681.3985563624
 10
144.9963598424
 20
679.8780753332
 10
143.6123200454
 20
678.7423465912
 10
141.9205898269
 20
678.1366015746
  0
LINE
  5
26B
100
AcDbEntity
  8
0
100
AcDbLine
 62
7
  6
CONTINUOUS
 10
145.9127325238
 20
681.398556429
 11
144.9931701994
 21
679.8743849052
  0
LINE
  5
26C
100
AcDbEntity
  8
0
100
AcDbLine
 62
7
  6
CONTINUOUS
 10
146.7089360069
 20
687.7730373819
 11
144.7229877737
 21
685.5664168193
  0
LINE
  5
26D
100
AcDbEntity
  8
0
100
AcDbLine
 62
7
  6
CONTINUOUS
 10
144.6976939258
 20
685.2288531712
 11
146.5005510095
 21
687.2302143269
  0
LINE
  5
26E
100
AcDbEntity
  8
0
100
AcDbLine
 62
7
  6
CONTINUOUS
 10
148.7806189633
 20
683.9459953221
 11
147.7680041253
 21
682.8739054984
  0
LINE
  5
26F
100
AcDbEntity
  8
0
100
AcDbLine
 62
7
  6
CONTINUOUS
 10
126.974677563
 20
683.6729192868
 11
126.7756533445
 21
683.4738950686
  0
LINE
  5
270
100
AcDbEntity
  8
0
100
AcDbLine
 62
7
  6
CONTINUOUS
 10
127.0754213162
 20
683.1740777615
 11
127.2744455347
 21
683.3731019797
  0
LINE
  5
271
100
AcDbEntity
  8
0
100
AcDbLine
 62
7
  6
CONTINUOUS
 10
143.8174470766
 20
685.8113053198
 11
143.9757982011
 21
685.9453163406
  0
LINE
  5
272
100
AcDbEntity
  8
0
100
AcDbLine
 62
7
  6
CONTINUOUS
 10
147.0227703091
 20
689.3092509563
 11
143.8775139471
 21
686.6697306686
  0
LINE
  5
273
100
AcDbEntity
  8
0
100
AcDbLine
 62
7
  6
CONTINUOUS
 10
144.0381401079
 20
686.8049601098
 11
147.0227703091
 21
689.3092509563
  0
LINE
  5
274
100
AcDbEntity
  8
0
100
AcDbLine
 62
7
  6
CONTINUOUS
 10
123.0149286299
 20
680.4148482463
 11
123.2435945754
 21
677.8011845287
  0
LINE
  5
275
100
AcDbEntity
  8
0
100
AcDbLine
 62
7
  6
CONTINUOUS
 10
123.3137834065
 20
680.4357589294
 11
123.5424493523
 21
677.822095212
  0
LINE
  5
276
100
AcDbEntity
  8
0
100
AcDbLine
 62
7
  6
CONTINUOUS
 10
124.2790793152
 20
686.3796637595
 11
124.1628543138
 21
688.3092509563
  0
LINE
  5
277
100
AcDbEntity
  8
0
100
AcDbLine
 62
7
  6
CONTINUOUS
 10
124.4247126227
 20
686.2128308202
 11
124.2984387576
 21
688.3092509563
  0
LINE
  5
278
100
AcDbEntity
  8
0
100
AcDbLine
 62
7
  6
CONTINUOUS
 10
127.6580816616
 20
676.6144769272
 11
127.7331754658
 21
675.194024995
  0
LINE
  5
279
100
AcDbEntity
  8
0
100
AcDbLine
 62
7
  6
CONTINUOUS
 10
127.2625266015
 20
685.8507725926
 11
127.176726944
 21
688.3092509563
  0
LINE
  5
27A
100
AcDbEntity
  8
0
100
AcDbLine
 62
7
  6
CONTINUOUS
 10
127.2605496232
 20
685.8592056104
 11
127.1749921545
 21
688.3092509563
  0
LINE
  5
27B
100
AcDbEntity
  8
0
100
AcDbLine
 62
7
  6
CONTINUOUS
 10
128.2249921544
 20
688.3092509563
 11
128.3032411193
 21
686.0684937816
  0
LINE
  5
27C
100
AcDbEntity
  8
0
100
AcDbLine
 62
7
  6
CONTINUOUS
 10
127.2651520564
 20
688.3092514378
 11
127.3570324354
 21
685.6330597903
  0
LINE
  5
27D
100
AcDbEntity
  8
0
100
AcDbLine
 62
7
  6
CONTINUOUS
 10
128.8604437805
 20
685.506654714
 11
128.7642236226
 21
688.3092507155
  0
LINE
  5
27E
100
AcDbEntity
  8
0
100
AcDbLine
 62
7
  6
CONTINUOUS
 10
128.1487451308
 20
686.0374834751
 11
128.0950435583
 21
688.3092509563
  0
LINE
  5
27F
100
AcDbEntity
  8
0
100
AcDbLine
 62
7
  6
CONTINUOUS
 10
128.0592288903
 20
688.3092509563
 11
128.1045335997
 21
686.1024146578
  0
LINE
  5
280
100
AcDbEntity
  8
0
100
AcDbLine
 62
7
  6
CONTINUOUS
 10
127.0363903505
 20
688.3092509563
 11
127.0608016014
 21
686.1582393704
  0
LINE
  5
281
100
AcDbEntity
  8
0
100
AcDbLine
 62
7
  6
CONTINUOUS
 10
127.3546575416
 20
686.1499124343
 11
127.3301517905
 21
688.3092509563
  0
LINE
  5
282
100
AcDbEntity
  8
0
100
AcDbLine
 62
7
  6
CONTINUOUS
 10
124.7768502512
 20
679.1243923185
 11
124.7755498767
 21
681.6844182739
  0
LINE
  5
283
100
AcDbEntity
  8
0
100
AcDbLine
 62
7
  6
CONTINUOUS
 10
125.0766674992
 20
679.1296280404
 11
125.0751070502
 21
681.6896538354
  0
LINE
  5
284
100
AcDbEntity
  8
0
100
AcDbLine
 62
7
  6
CONTINUOUS
 10
127.0759604679
 20
682.2895625319
 11
127.0754213165
 21
683.1740778846
  0
LINE
  5
285
100
AcDbEntity
  8
0
100
AcDbLine
 62
7
  6
CONTINUOUS
 10
132.6446989936
 20
684.0991326887
 11
132.6438382702
 21
685.5319918916
  0
LINE
  5
286
100
AcDbEntity
  8
0
100
AcDbLine
 62
7
  6
CONTINUOUS
 10
134.8147181734
 20
684.6858865415
 11
134.8138388399
 21
687.5721284693
  0
LINE
  5
287
100
AcDbEntity
  8
0
100
AcDbLine
 62
7
  6
CONTINUOUS
 10
124.5386440436
 20
676.9092509563
 11
124.5386440436
 21
676.6144842828
  0
LINE
  5
288
100
AcDbEntity
  8
0
100
AcDbLine
 62
7
  6
CONTINUOUS
 10
125.1358758997
 20
675.1939574859
 11
125.1358758997
 21
674.8992509563
  0
LINE
  5
289
100
AcDbEntity
  8
0
100
AcDbLine
 62
7
  6
CONTINUOUS
 10
125.275663867
 20
681.589400401
 11
125.275663867
 21
679.2291305603
  0
LINE
  5
28A
100
AcDbEntity
  8
0
100
AcDbLine
 62
7
  6
CONTINUOUS
 10
125.3749241869
 20
682.2843268099
 11
125.3749241869
 21
681.9896082233
  0
LINE
  5
28B
100
AcDbEntity
  8
0
100
AcDbLine
 62
7
  6
CONTINUOUS
 10
125.3772157613
 20
678.8300391244
 11
125.3772157613
 21
678.524849094
  0
LINE
  5
28C
100
AcDbEntity
  8
0
100
AcDbLine
 62
7
  6
CONTINUOUS
 10
126.7761432198
 20
681.9896082233
 11
126.7756040686
 21
683.4738951327
  0
LINE
  5
28D
100
AcDbEntity
  8
0
100
AcDbLine
 62
7
  6
CONTINUOUS
 10
127.274445536
 20
682.190350248
 11
127.274445536
 21
683.3731020509
  0
LINE
  5
28E
100
AcDbEntity
  8
0
100
AcDbLine
 62
7
  6
CONTINUOUS
 10
127.5227703091
 20
689.7092509563
 11
127.5227703091
 21
690.0092509563
  0
LINE
  5
28F
100
AcDbEntity
  8
0
100
AcDbLine
 62
7
  6
CONTINUOUS
 10
127.6580796481
 20
676.9092509563
 11
127.6580796481
 21
676.6144866783
  0
LINE
  5
290
100
AcDbEntity
  8
0
100
AcDbLine
 62
7
  6
CONTINUOUS
 10
128.7727703091
 20
674.8992509563
 11
128.7727703091
 21
674.6992509563
  0
LINE
  5
291
100
AcDbEntity
  8
0
100
AcDbLine
 62
7
  6
CONTINUOUS
 10
129.1477703091
 20
674.8992509563
 11
129.1477703091
 21
674.6992509563
  0
LINE
  5
292
100
AcDbEntity
  8
0
100
AcDbLine
 62
7
  6
CONTINUOUS
 10
129.3977702942
 20
674.8992509563
 11
129.3977702942
 21
674.6992509563
  0
LINE
  5
293
100
AcDbEntity
  8
0
100
AcDbLine
 62
7
  6
CONTINUOUS
 10
129.460270324
 20
674.8992509563
 11
129.460270324
 21
674.6992509563
  0
LINE
  5
294
100
AcDbEntity
  8
0
100
AcDbLine
 62
7
  6
CONTINUOUS
 10
129.7727703389
 20
674.6992509563
 11
129.7727703389
 21
674.8992509563
  0
LINE
  5
295
100
AcDbEntity
  8
0
100
AcDbLine
 62
7
  6
CONTINUOUS
 10
130.0227702792
 20
674.8992509563
 11
130.0227702792
 21
674.6992509563
  0
LINE
  5
296
100
AcDbEntity
  8
0
100
AcDbLine
 62
7
  6
CONTINUOUS
 10
130.2727703091
 20
674.8992509563
 11
130.2727703091
 21
674.6992509563
  0
LINE
  5
297
100
AcDbEntity
  8
0
100
AcDbLine
 62
7
  6
CONTINUOUS
 10
130.5852703687
 20
674.6992509563
 11
130.5852703687
 21
674.8992509563
  0
LINE
  5
298
100
AcDbEntity
  8
0
100
AcDbLine
 62
7
  6
CONTINUOUS
 10
130.6477703091
 20
674.8992509563
 11
130.6477703091
 21
674.6992509563
  0
LINE
  5
299
100
AcDbEntity
  8
0
100
AcDbLine
 62
7
  6
CONTINUOUS
 10
130.8977702494
 20
674.8992509563
 11
130.8977702494
 21
674.6992509563
  0
LINE
  5
29A
100
AcDbEntity
  8
0
100
AcDbLine
 62
7
  6
CONTINUOUS
 10
131.2727702495
 20
674.8992509563
 11
131.2727702495
 21
674.6992509563
  0
LINE
  5
29B
100
AcDbEntity
  8
0
100
AcDbLine
 62
7
  6
CONTINUOUS
 10
132.3448817456
 20
683.7993154406
 11
132.3441512623
 21
685.5319875575
  0
LINE
  5
29C
100
AcDbEntity
  8
0
100
AcDbLine
 62
7
  6
CONTINUOUS
 10
132.3874609701
 20
676.9092509563
 11
132.3874609701
 21
676.6144835598
  0
LINE
  5
29D
100
AcDbEntity
  8
0
100
AcDbLine
 62
7
  6
CONTINUOUS
 10
132.5227703091
 20
690.0092509563
 11
132.5227703091
 21
689.7092509563
  0
LINE
  5
29E
100
AcDbEntity
  8
0
100
AcDbLine
 62
7
  6
CONTINUOUS
 10
132.7710950833
 20
683.9727365941
 11
132.7710950833
 21
682.190350258
  0
LINE
  5
29F
100
AcDbEntity
  8
0
100
AcDbLine
 62
7
  6
CONTINUOUS
 10
134.5227703091
 20
660.5092509563
 11
134.5227703091
 21
661.3092509563
  0
LINE
  5
2A0
100
AcDbEntity
  8
0
100
AcDbLine
 62
7
  6
CONTINUOUS
 10
134.6683248631
 20
678.5248490939
 11
134.6683248631
 21
678.8300391244
  0
LINE
  5
2A1
100
AcDbEntity
  8
0
100
AcDbLine
 62
7
  6
CONTINUOUS
 10
134.6706164162
 20
681.9896082233
 11
134.6706164162
 21
682.2843268099
  0
LINE
  5
2A2
100
AcDbEntity
  8
0
100
AcDbLine
 62
7
  6
CONTINUOUS
 10
134.7698767651
 20
679.2291415417
 11
134.7698767651
 21
681.5893603867
  0
LINE
  5
2A3
100
AcDbEntity
  8
0
100
AcDbLine
 62
7
  6
CONTINUOUS
 10
135.9336706701
 20
676.9092509563
 11
135.9336706701
 21
676.6144834141
  0
LINE
  5
2A4
100
AcDbEntity
  8
0
100
AcDbLine
 62
7
  6
CONTINUOUS
 10
136.7727703091
 20
675.1939645288
 11
136.7727703091
 21
674.8992509563
  0
LINE
  5
2A5
100
AcDbEntity
  8
0
100
AcDbLine
 62
7
  6
CONTINUOUS
 10
136.9721669651
 20
601.9489543449
 11
136.9721669651
 21
425.4489543449
  0
LINE
  5
2A6
100
AcDbEntity
  8
0
100
AcDbLine
 62
7
  6
CONTINUOUS
 10
137.4721669651
 20
425.4489543449
 11
137.4721669651
 21
601.9489543449
  0
LINE
  5
2A7
100
AcDbEntity
  8
0
100
AcDbLine
 62
7
  6
CONTINUOUS
 10
138.2939677027
 20
600.9489543444
 11
138.2939677027
 21
426.4489543456
  0
LINE
  5
2A8
100
AcDbEntity
  8
0
100
AcDbLine
 62
7
  6
CONTINUOUS
 10
139.2577703091
 20
662.1092509563
 11
139.2577703091
 21
665.1620505112
  0
LINE
  5
2A9
100
AcDbEntity
  8
0
100
AcDbLine
 62
7
  6
CONTINUOUS
 10
139.2577703091
 20
665.459643812
 11
139.2577703091
 21
666.4539907319
  0
LINE
  5
2AA
100
AcDbEntity
  8
0
100
AcDbLine
 62
7
  6
CONTINUOUS
 10
139.2577703091
 20
667.7645043267
 11
139.2577703091
 21
668.2539827484
  0
LINE
  5
2AB
100
AcDbEntity
  8
0
100
AcDbLine
 62
7
  6
CONTINUOUS
 10
139.2577703091
 20
669.564515845
 11
139.2577703091
 21
670.0539951412
  0
LINE
  5
2AC
100
AcDbEntity
  8
0
100
AcDbLine
 62
7
  6
CONTINUOUS
 10
139.2577703091
 20
671.3645110681
 11
139.2577703091
 21
672.3908767214
  0
LINE
  5
2AD
100
AcDbEntity
  8
0
100
AcDbLine
 62
7
  6
CONTINUOUS
 10
139.2577703091
 20
672.6276511271
 11
139.2577703091
 21
673.4092509563
  0
LINE
  5
2AE
100
AcDbEntity
  8
0
100
AcDbLine
 62
7
  6
CONTINUOUS
 10
140.2635832086
 20
426.4489543483
 11
140.2635832086
 21
600.948954342
  0
LINE
  5
2AF
100
AcDbEntity
  8
0
100
AcDbLine
 62
7
  6
CONTINUOUS
 10
140.3554397856
 20
600.9489543401
 11
140.3554397854
 21
426.4489543485
  0
LINE
  5
2B0
100
AcDbEntity
  8
0
100
AcDbLine
 62
7
  6
CONTINUOUS
 10
140.5227703091
 20
661.1060036987
 11
140.5227703091
 21
658.2506292793
  0
LINE
  5
2B1
100
AcDbEntity
  8
0
100
AcDbLine
 62
7
  6
CONTINUOUS
 10
141.022755315
 20
665.9062221244
 11
141.0227614433
 21
666.4144897235
  0
LINE
  5
2B2
100
AcDbEntity
  8
0
100
AcDbLine
 62
7
  6
CONTINUOUS
 10
141.0227557475
 20
665.104011771
 11
141.0227548374
 21
665.6122753322
  0
LINE
  5
2B3
100
AcDbEntity
  8
0
100
AcDbLine
 62
7
  6
CONTINUOUS
 10
141.3402475384
 20
426.4489543449
 11
141.3402475384
 21
600.9489543449
  0
LINE
  5
2B4
100
AcDbEntity
  8
0
100
AcDbLine
 62
7
  6
CONTINUOUS
 10
141.5227703091
 20
658.2506292793
 11
141.5227703091
 21
661.1060036987
  0
LINE
  5
2B5
100
AcDbEntity
  8
0
100
AcDbLine
 62
7
  6
CONTINUOUS
 10
142.2221669651
 20
428.6989543449
 11
142.2221669651
 21
598.6989543449
  0
LINE
  5
2B6
100
AcDbEntity
  8
0
100
AcDbLine
 62
7
  6
CONTINUOUS
 10
142.7877703091
 20
662.1092509563
 11
142.7877703091
 21
664.3268535312
  0
LINE
  5
2B7
100
AcDbEntity
  8
0
100
AcDbLine
 62
7
  6
CONTINUOUS
 10
142.7877703091
 20
664.4916452639
 11
142.7877703091
 21
665.5539867903
  0
LINE
  5
2B8
100
AcDbEntity
  8
0
100
AcDbLine
 62
7
  6
CONTINUOUS
 10
142.7877703091
 20
666.864512875
 11
142.7877703091
 21
667.353986333
  0
LINE
  5
2B9
100
AcDbEntity
  8
0
100
AcDbLine
 62
7
  6
CONTINUOUS
 10
142.7877703091
 20
668.6645095038
 11
142.7877703091
 21
669.153980977
  0
LINE
  5
2BA
100
AcDbEntity
  8
0
100
AcDbLine
 62
7
  6
CONTINUOUS
 10
142.7877703091
 20
670.4645164292
 11
142.7877703091
 21
670.9547951387
  0
LINE
  5
2BB
100
AcDbEntity
  8
0
100
AcDbLine
 62
7
  6
CONTINUOUS
 10
142.7877703091
 20
672.2637961184
 11
142.7877703091
 21
673.3556782796
  0
LINE
  5
2BC
100
AcDbEntity
  8
0
100
AcDbLine
 62
7
  6
CONTINUOUS
 10
135.0220757627
 20
687.0296526225
 11
135.0214018176
 21
684.8175585229
  0
LINE
  5
2BD
100
AcDbEntity
  8
0
100
AcDbLine
 62
7
  6
CONTINUOUS
 10
133.2718718085
 20
686.3437695951
 11
133.2693973984
 21
681.9896082233
  0
LINE
  5
2BE
100
AcDbEntity
  8
0
100
AcDbLine
 62
7
  6
CONTINUOUS
 10
135.270250816
 20
681.6844181372
 11
135.2689504415
 21
679.1243921669
  0
LINE
  5
2BF
100
AcDbEntity
  8
0
100
AcDbLine
 62
7
  6
CONTINUOUS
 10
132.9720389833
 20
686.3542420513
 11
132.9695777494
 21
682.2895637374
  0
LINE
  5
2C0
100
AcDbEntity
  8
0
100
AcDbLine
 62
7
  6
CONTINUOUS
 10
134.970433568
 20
681.6896538591
 11
134.9688731189
 21
679.1296280453
  0
LINE
  5
2C1
100
AcDbEntity
  8
0
100
AcDbLine
 62
7
  6
CONTINUOUS
 10
141.0253220676
 20
665.7109665234
 11
141.0247560486
 21
665.6125303214
  0
LINE
  5
2C2
100
AcDbEntity
  8
0
100
AcDbLine
 62
7
  6
CONTINUOUS
 10
131.9316032552
 20
688.3092509563
 11
131.8782059039
 21
686.0375596123
  0
LINE
  5
2C3
100
AcDbEntity
  8
0
100
AcDbLine
 62
7
  6
CONTINUOUS
 10
131.8311347233
 20
686.0819092123
 11
131.8933956163
 21
688.3092509563
  0
LINE
  5
2C4
100
AcDbEntity
  8
0
100
AcDbLine
 62
7
  6
CONTINUOUS
 10
132.4395664709
 20
688.3092508373
 11
132.34407826
 21
685.5319888939
  0
LINE
  5
2C5
100
AcDbEntity
  8
0
100
AcDbLine
 62
7
  6
CONTINUOUS
 10
132.6438382696
 20
685.5319869377
 11
132.7393385123
 21
688.3092509529
  0
LINE
  5
2C6
100
AcDbEntity
  8
0
100
AcDbLine
 62
7
  6
CONTINUOUS
 10
132.7973082401
 20
688.3092509563
 11
132.7239347163
 21
686.1856966837
  0
LINE
  5
2C7
100
AcDbEntity
  8
0
100
AcDbLine
 62
7
  6
CONTINUOUS
 10
132.9245496258
 20
686.2352659657
 11
132.9962104207
 21
688.3092509563
  0
LINE
  5
2C8
100
AcDbEntity
  8
0
100
AcDbLine
 62
7
  6
CONTINUOUS
 10
131.8335364083
 20
688.3092509563
 11
131.7550641371
 21
686.0620991202
  0
LINE
  5
2C9
100
AcDbEntity
  8
0
100
AcDbLine
 62
7
  6
CONTINUOUS
 10
132.7730520054
 20
685.8592542705
 11
132.8586061278
 21
688.3092037896
  0
LINE
  5
2CA
100
AcDbEntity
  8
0
100
AcDbLine
 62
7
  6
CONTINUOUS
 10
132.8579670513
 20
688.3092397852
 11
132.7720645802
 21
685.8534497027
  0
LINE
  5
2CB
100
AcDbEntity
  8
0
100
AcDbLine
 62
7
  6
CONTINUOUS
 10
133.0414129874
 20
688.3092509563
 11
132.9720389826
 21
686.3542420059
  0
LINE
  5
2CC
100
AcDbEntity
  8
0
100
AcDbLine
 62
7
  6
CONTINUOUS
 10
133.2718717919
 20
686.3437695956
 11
133.3416356079
 21
688.3092509563
  0
LINE
  5
2CD
100
AcDbEntity
  8
0
100
AcDbLine
 62
7
  6
CONTINUOUS
 10
132.3874589565
 20
676.6144769272
 11
132.3123651523
 21
675.194024995
  0
LINE
  5
2CE
100
AcDbEntity
  8
0
100
AcDbLine
 62
7
  6
CONTINUOUS
 10
144.7227610991
 20
685.5666429119
 11
144.6976658407
 21
685.2288922625
  0
LINE
  5
2CF
100
AcDbEntity
  8
0
100
AcDbLine
 62
7
  6
CONTINUOUS
 10
149.946471452
 20
689.3092516492
 11
149.7947231645
 21
687.4748528697
  0
LINE
  5
2D0
100
AcDbEntity
  8
0
100
AcDbLine
 62
7
  6
CONTINUOUS
 10
149.9464714558
 20
689.309251581
 11
149.7948281395
 21
687.4755556991
  0
LINE
  5
2D1
100
AcDbEntity
  8
0
100
AcDbLine
 62
7
  6
CONTINUOUS
 10
144.2551631364
 20
685.5939231447
 11
144.2192095128
 21
685.2724630266
  0
LWPOLYLINE
  5
2D2
100
AcDbEntity
  8
0
100
AcDbPolyline
 62
7
  6
CONTINUOUS
 90
3
 70
0
 10
144.9938831056
 20
679.8752090411
 10
143.6036457285
 20
678.7374390001
 10
141.9081816196
 20
678.1344632279
  0
LINE
  5
2D3
100
AcDbEntity
  8
0
100
AcDbLine
 62
7
  6
CONTINUOUS
 10
135.0214018168
 20
684.8175585333
 11
134.8147181735
 21
684.6858865306
  0
LINE
  5
2D4
100
AcDbEntity
  8
0
100
AcDbLine
 62
7
  6
CONTINUOUS
 10
135.3922880113
 20
683.7798926449
 11
135.5984194403
 21
683.9112128482
  0
LINE
  5
2D5
100
AcDbEntity
  8
0
100
AcDbLine
 62
7
  6
CONTINUOUS
 10
125.2756638677
 20
679.2291187276
 11
125.0766674767
 21
679.1296508471
  0
LINE
  5
2D6
100
AcDbEntity
  8
0
100
AcDbLine
 62
7
  6
CONTINUOUS
 10
109.2592273237
 20
667.0805723357
 11
106.2963681622
 21
682.3231613335
  0
LINE
  5
2D7
100
AcDbEntity
  8
0
100
AcDbLine
 62
7
  6
CONTINUOUS
 10
107.7486252387
 20
682.4269974621
 11
110.731668099
 21
667.0805723357
  0
LINE
  5
2D8
100
AcDbEntity
  8
0
100
AcDbLine
 62
7
  6
CONTINUOUS
 10
121.1067692409
 20
689.3092509563
 11
121.5578160387
 21
685.6357695805
  0
LINE
  5
2D9
100
AcDbEntity
  8
0
100
AcDbLine
 62
7
  6
CONTINUOUS
 10
121.5311659839
 20
688.3092509591
 11
121.8555827957
 21
685.6670880562
  0
LINE
  5
2DA
100
AcDbEntity
  8
0
100
AcDbLine
 62
7
  6
CONTINUOUS
 10
137.3478747825
 20
685.2288922495
 11
137.3227795076
 21
685.5666428976
  0
LINE
  5
2DB
100
AcDbEntity
  8
0
100
AcDbLine
 62
7
  6
CONTINUOUS
 10
147.0241388347
 20
684.8175585229
 11
147.0234648897
 21
687.0296526225
  0
LINE
  5
2DC
100
AcDbEntity
  8
0
100
AcDbLine
 62
7
  6
CONTINUOUS
 10
147.5227703091
 20
660.5092509563
 11
147.5227703091
 21
661.3092509563
  0
LINE
  5
2DD
100
AcDbEntity
  8
0
100
AcDbLine
 62
7
  6
CONTINUOUS
 10
147.522770433
 20
689.3092509563
 11
147.522770433
 21
689.5092509563
  0
LINE
  5
2DE
100
AcDbEntity
  8
0
100
AcDbLine
 62
7
  6
CONTINUOUS
 10
149.2248978896
 20
689.3092509563
 11
149.2248978896
 21
689.5092509563
  0
LINE
  5
2DF
100
AcDbEntity
  8
0
100
AcDbLine
 62
7
  6
CONTINUOUS
 10
149.597238092
 20
689.3092509563
 11
149.597238092
 21
689.5092509563
  0
LINE
  5
2E0
100
AcDbEntity
  8
0
100
AcDbLine
 62
7
  6
CONTINUOUS
 10
149.6504302305
 20
689.3092509563
 11
149.6504302305
 21
689.5092509563
  0
LINE
  5
2E1
100
AcDbEntity
  8
0
100
AcDbLine
 62
7
  6
CONTINUOUS
 10
150.022770433
 20
689.5092509563
 11
150.022770433
 21
689.3092509563
  0
LINE
  5
2E2
100
AcDbEntity
  8
0
100
AcDbLine
 62
7
  6
CONTINUOUS
 10
163.9721669651
 20
398.4489543449
 11
163.9721669651
 21
398.9489543449
  0
LINE
  5
2E3
100
AcDbEntity
  8
0
100
AcDbLine
 62
7
  6
CONTINUOUS
 10
163.9721669651
 20
628.4489543449
 11
163.9721669651
 21
628.9489543449
  0
LINE
  5
2E4
100
AcDbEntity
  8
0
100
AcDbLine
 62
7
  6
CONTINUOUS
 10
164.9721669718
 20
399.7707550826
 11
164.9721669661
 21
402.8170349182
  0
LINE
  5
2E5
100
AcDbEntity
  8
0
100
AcDbLine
 62
7
  6
CONTINUOUS
 10
164.9721669651
 20
624.5808737716
 11
164.9721669651
 21
627.6271536073
  0
LINE
  5
2E6
100
AcDbEntity
  8
0
100
AcDbLine
 62
7
  6
CONTINUOUS
 10
147.2317018229
 20
687.5721284693
 11
147.2308224894
 21
684.6858865415
  0
LINE
  5
2E7
100
AcDbEntity
  8
0
100
AcDbLine
 62
7
  6
CONTINUOUS
 10
125.3772157552
 20
678.8300391243
 11
125.5754811289
 21
678.9291416076
  0
LINE
  5
2E8
100
AcDbEntity
  8
0
100
AcDbLine
 62
7
  6
CONTINUOUS
 10
132.9695801494
 20
682.2895637445
 11
132.7710950826
 21
682.1903514481
  0
LINE
  5
2E9
100
AcDbEntity
  8
0
100
AcDbLine
 62
7
  6
CONTINUOUS
 10
133.0709123315
 20
681.890395927
 11
133.2693973983
 21
681.9896082233
  0
LINE
  5
2EA
100
AcDbEntity
  8
0
100
AcDbLine
 62
7
  6
CONTINUOUS
 10
134.67060062
 20
681.989608217
 11
134.47004267
 21
681.8893597949
  0
LINE
  5
2EB
100
AcDbEntity
  8
0
100
AcDbLine
 62
7
  6
CONTINUOUS
 10
134.7698772008
 20
681.5894062281
 11
134.970433568
 21
681.6896538591
  0
LINE
  5
2EC
100
AcDbEntity
  8
0
100
AcDbLine
 62
7
  6
CONTINUOUS
 10
146.4471211794
 20
683.9112128474
 11
144.7703494656
 21
683.1290584144
  0
LINE
  5
2ED
100
AcDbEntity
  8
0
100
AcDbLine
 62
7
  6
CONTINUOUS
 10
147.7680068437
 20
682.8738997627
 11
146.9303416811
 21
682.4832900824
  0
LINE
  5
2EE
100
AcDbEntity
  8
0
100
AcDbLine
 62
7
  6
CONTINUOUS
 10
147.8947923121
 20
682.6072431439
 11
147.0571271468
 21
682.2166334623
  0
LINE
  5
2EF
100
AcDbEntity
  8
0
100
AcDbLine
 62
7
  6
CONTINUOUS
 10
144.9677462058
 20
682.9941922361
 11
146.6533885301
 21
683.7799560056
  0
LINE
  5
2F0
100
AcDbEntity
  8
0
100
AcDbLine
 62
7
  6
CONTINUOUS
 10
124.0443103094
 20
683.4738951327
 11
124.8596150541
 21
683.7991766771
  0
LINE
  5
2F1
100
AcDbEntity
  8
0
100
AcDbLine
 62
7
  6
CONTINUOUS
 10
137.8263763136
 20
685.2725350305
 11
137.7903775938
 21
685.5939230612
  0
LWPOLYLINE
  5
2F2
100
AcDbEntity
  8
0
100
AcDbPolyline
 62
7
  6
CONTINUOUS
 90
3
 70
0
 10
143.6062628535
 20
678.7389173825
 10
141.9123771191
 20
678.1351828367
 10
140.1200579035
 20
678.1374536544
  0
LINE
  5
2F3
100
AcDbEntity
  8
0
100
AcDbLine
 62
7
  6
CONTINUOUS
 10
143.6061639044
 20
678.7388610872
 11
141.9122618999
 21
678.1351625895
  0
LINE
  5
2F4
100
AcDbEntity
  8
0
100
AcDbLine
 62
7
  6
CONTINUOUS
 10
123.7020569035
 20
677.3614208585
 11
123.5424529368
 21
677.8220954672
  0
LINE
  5
2F5
100
AcDbEntity
  8
0
100
AcDbLine
 62
7
  6
CONTINUOUS
 10
144.1447475351
 20
681.5238472433
 11
144.2194968303
 21
681.2444032849
  0
LINE
  5
2F6
100
AcDbEntity
  8
0
100
AcDbLine
 62
7
  6
CONTINUOUS
 10
143.9606183472
 20
681.4982816978
 11
144.0308168593
 21
681.2273873247
  0
LINE
  5
2F7
100
AcDbEntity
  8
0
100
AcDbLine
 62
7
  6
CONTINUOUS
 10
144.3936567974
 20
681.2362778472
 11
144.321846374
 21
681.520332278
  0
LINE
  5
2F8
100
AcDbEntity
  8
0
100
AcDbLine
 62
7
  6
CONTINUOUS
 10
144.1868596179
 20
681.2355472176
 11
144.1182646943
 21
681.5087979934
  0
LINE
  5
2F9
100
AcDbEntity
  8
0
100
AcDbLine
 62
7
  6
CONTINUOUS
 10
127.3570323718
 20
685.6330616447
 11
127.2625266015
 21
685.8507725927
  0
LINE
  5
2FA
100
AcDbEntity
  8
0
100
AcDbLine
 62
7
  6
CONTINUOUS
 10
117.1602828629
 20
686.3946759256
 11
117.0700069233
 21
686.6040188015
  0
LINE
  5
2FB
100
AcDbEntity
  8
0
100
AcDbLine
 62
7
  6
CONTINUOUS
 10
134.8138388402
 20
687.572128353
 11
135.0220757624
 21
687.0296526225
  0
LINE
  5
2FC
100
AcDbEntity
  8
0
100
AcDbLine
 62
7
  6
CONTINUOUS
 10
135.5450006668
 20
687.2302020517
 11
135.3366413964
 21
687.7729965103
  0
LINE
  5
2FD
100
AcDbEntity
  8
0
100
AcDbLine
 62
7
  6
CONTINUOUS
 10
139.0499592269
 20
668.8172560566
 11
139.2325391092
 21
668.3148241426
  0
LINE
  5
2FE
100
AcDbEntity
  8
0
100
AcDbLine
 62
7
  6
CONTINUOUS
 10
142.9953544242
 20
669.9016780991
 11
142.8119283926
 21
670.4065010904
  0
LINE
  5
2FF
100
AcDbEntity
  8
0
100
AcDbLine
 62
7
  6
CONTINUOUS
 10
139.0513534056
 20
667.0161519276
 11
139.2337870383
 21
666.5138270913
  0
LINE
  5
300
100
AcDbEntity
  8
0
100
AcDbLine
 62
7
  6
CONTINUOUS
 10
139.0511282498
 20
670.6168612671
 11
139.2335476457
 21
670.114614955
  0
LINE
  5
301
100
AcDbEntity
  8
0
100
AcDbLine
 62
7
  6
CONTINUOUS
 10
142.9949207152
 20
666.3017842093
 11
142.8115417375
 21
666.8066075764
  0
LINE
  5
302
100
AcDbEntity
  8
0
100
AcDbLine
 62
7
  6
CONTINUOUS
 10
142.9951858454
 20
668.0999190903
 11
142.8118302282
 21
668.6046763803
  0
LINE
  5
303
100
AcDbEntity
  8
0
100
AcDbLine
 62
7
  6
CONTINUOUS
 10
142.9948200602
 20
671.7006670104
 11
142.8117207568
 21
672.2047895173
  0
LINE
  5
304
100
AcDbEntity
  8
0
100
AcDbLine
 62
7
  6
CONTINUOUS
 10
142.7609581453
 20
672.3144918782
 11
142.9431033448
 21
671.8063302426
  0
LINE
  5
305
100
AcDbEntity
  8
0
100
AcDbLine
 62
7
  6
CONTINUOUS
 10
142.1743313132
 20
660.5092509563
 11
143.1727703091
 21
658.603293825
  0
LINE
  5
306
100
AcDbEntity
  8
0
100
AcDbLine
 62
7
  6
CONTINUOUS
 10
92.9221669651
 20
387.6989543449
 11
686.5221669651
 21
387.6989543449
  0
LINE
  5
307
100
AcDbEntity
  8
0
100
AcDbLine
 62
7
  6
CONTINUOUS
 10
689.722166965
 20
390.8989543449
 11
89.7221669651
 21
390.8989543449
  0
LINE
  5
308
100
AcDbEntity
  8
0
100
AcDbLine
 62
7
  6
CONTINUOUS
 10
163.9721669651
 20
398.4489543449
 11
615.4721669651
 21
398.4489543449
  0
LINE
  5
309
100
AcDbEntity
  8
0
100
AcDbLine
 62
7
  6
CONTINUOUS
 10
615.4721669651
 20
398.9489543449
 11
163.9721669651
 21
398.9489543449
  0
LINE
  5
30A
100
AcDbEntity
  8
0
100
AcDbLine
 62
7
  6
CONTINUOUS
 10
164.9721669654
 20
399.7707550826
 11
614.4721669648
 21
399.7707550826
  0
LINE
  5
30B
100
AcDbEntity
  8
0
100
AcDbLine
 62
7
  6
CONTINUOUS
 10
614.4721669617
 20
401.7403705886
 11
164.972166968
 21
401.7403705886
  0
LINE
  5
30C
100
AcDbEntity
  8
0
100
AcDbLine
 62
7
  6
CONTINUOUS
 10
164.9721669699
 20
401.8322271655
 11
614.4721669616
 21
401.8322271654
  0
LINE
  5
30D
100
AcDbEntity
  8
0
100
AcDbLine
 62
7
  6
CONTINUOUS
 10
614.4721669651
 20
402.8170349182
 11
164.9721669651
 21
402.8170349182
  0
LINE
  5
30E
100
AcDbEntity
  8
0
100
AcDbLine
 62
7
  6
CONTINUOUS
 10
612.2221669651
 20
403.6989543449
 11
167.2221669651
 21
403.6989543449
  0
LINE
  5
30F
100
AcDbEntity
  8
0
100
AcDbLine
 62
7
  6
CONTINUOUS
 10
642.4721669651
 20
425.4489543449
 11
641.9721669651
 21
425.4489543449
  0
LINE
  5
310
100
AcDbEntity
  8
0
100
AcDbLine
 62
7
  6
CONTINUOUS
 10
137.4721669651
 20
425.4489543449
 11
136.9721669651
 21
425.4489543449
  0
LINE
  5
311
100
AcDbEntity
  8
0
100
AcDbLine
 62
7
  6
CONTINUOUS
 10
138.2939677027
 20
426.4489543449
 11
141.3402475384
 21
426.4489543449
  0
LINE
  5
312
100
AcDbEntity
  8
0
100
AcDbLine
 62
7
  6
CONTINUOUS
 10
641.1503662275
 20
426.4489543516
 11
638.1040863918
 21
426.448954346
  0
LINE
  5
313
100
AcDbEntity
  8
0
100
AcDbLine
 62
7
  6
CONTINUOUS
 10
135.5450006653
 20
687.2302020531
 11
137.3478466437
 21
685.2288532252
  0
LINE
  5
314
100
AcDbEntity
  8
0
100
AcDbLine
 62
7
  6
CONTINUOUS
 10
137.322552813
 20
685.5664168541
 11
135.3366413959
 21
687.7729965101
  0
LINE
  5
315
100
AcDbEntity
  8
0
100
AcDbLine
 62
7
  6
CONTINUOUS
 10
124.4723670812
 20
686.1582393704
 11
124.6234394489
 21
685.9851756146
  0
LINE
  5
316
100
AcDbEntity
  8
0
100
AcDbLine
 62
7
  6
CONTINUOUS
 10
124.2790793152
 20
686.3796637595
 11
124.4247126227
 21
686.2128308201
  0
LINE
  5
317
100
AcDbEntity
  8
0
100
AcDbLine
 62
7
  6
CONTINUOUS
 10
124.0668682938
 20
677.0275325359
 11
123.7013583169
 21
677.3624893314
  0
LINE
  5
318
100
AcDbEntity
  8
0
100
AcDbLine
 62
7
  6
CONTINUOUS
 10
132.3449166064
 20
683.7993154852
 11
132.4086738046
 21
683.735558287
  0
LINE
  5
319
100
AcDbEntity
  8
0
100
AcDbLine
 62
7
  6
CONTINUOUS
 10
132.7710950841
 20
683.9727365984
 11
132.6446989936
 21
684.0991326887
  0
LINE
  5
31A
100
AcDbEntity
  8
0
100
AcDbLine
 62
7
  6
CONTINUOUS
 10
138.2284092444
 20
685.8112742304
 11
138.0694254095
 21
685.9453443779
  0
LINE
  5
31B
100
AcDbEntity
  8
0
100
AcDbLine
 62
7
  6
CONTINUOUS
 10
138.1680266742
 20
686.669730666
 11
135.0227703091
 21
689.3092509563
  0
LWPOLYLINE
  5
31C
100
AcDbEntity
  8
0
100
AcDbPolyline
 62
7
  6
CONTINUOUS
 90
4
 70
0
 10
122.0782763362
 20
682.1127007492
 10
120.8628341455
 20
682.8839871351
 10
119.9902822609
 20
684.0305725056
 10
119.5703743033
 20
685.4115777848
  0
LWPOLYLINE
  5
31D
100
AcDbEntity
  8
0
100
AcDbPolyline
 62
7
  6
CONTINUOUS
 90
4
 70
0
 10
122.0782763418
 20
682.112700766
 10
120.8601045191
 20
682.8864959135
 10
119.9885945664
 20
684.0338739649
 10
119.5703743484
 20
685.4115773576
  0
LWPOLYLINE
  5
31E
100
AcDbEntity
  8
0
100
AcDbPolyline
 62
7
  6
CONTINUOUS
 90
4
 70
0
 10
122.0782770463
 20
682.1127021587
 10
120.8543211474
 20
682.8918172379
 10
119.9821091717
 20
684.0466120684
 10
119.5681146522
 20
685.4311353689
  0
LINE
  5
31F
100
AcDbEntity
  8
0
100
AcDbLine
 62
7
  6
CONTINUOUS
 10
143.5013203487
 20
671.7061415992
 11
143.5016273607
 21
671.705937138
  0
LINE
  5
320
100
AcDbEntity
  8
0
100
AcDbLine
 62
7
  6
CONTINUOUS
 10
146.4471211793
 20
683.9112128473
 11
146.6532526074
 21
683.7798926445
  0
LINE
  5
321
100
AcDbEntity
  8
0
100
AcDbLine
 62
7
  6
CONTINUOUS
 10
147.2308224905
 20
684.6858865123
 11
147.0241388348
 21
684.8175585229
  0
LINE
  5
322
100
AcDbEntity
  8
0
100
AcDbLine
 62
7
  6
CONTINUOUS
 10
141.0338104585
 20
660.0617775208
 11
141.0448629292
 21
660.0568696687
  0
LINE
  5
323
100
AcDbEntity
  8
0
100
AcDbLine
 62
7
  6
CONTINUOUS
 10
135.3922880113
 20
683.7798926448
 11
137.0777944124
 21
682.9941922361
  0
LINE
  5
324
100
AcDbEntity
  8
0
100
AcDbLine
 62
7
  6
CONTINUOUS
 10
137.2752174918
 20
683.1290461281
 11
135.5984394084
 21
683.9112035322
  0
LINE
  5
325
100
AcDbEntity
  8
0
100
AcDbLine
 62
7
  6
CONTINUOUS
 10
125.0751070502
 20
681.6896538591
 11
125.2756638807
 21
681.5894059966
  0
LINE
  5
326
100
AcDbEntity
  8
0
100
AcDbLine
 62
7
  6
CONTINUOUS
 10
125.5754969072
 20
681.8893603143
 11
125.3749399962
 21
681.9896082171
  0
LINE
  5
327
100
AcDbEntity
  8
0
100
AcDbLine
 62
7
  6
CONTINUOUS
 10
126.7761432198
 20
681.9896082233
 11
126.9746282866
 21
681.890395927
  0
LINE
  5
328
100
AcDbEntity
  8
0
100
AcDbLine
 62
7
  6
CONTINUOUS
 10
127.2744455348
 20
682.1903502384
 11
127.0759604679
 21
682.2895625347
  0
LINE
  5
329
100
AcDbEntity
  8
0
100
AcDbLine
 62
7
  6
CONTINUOUS
 10
134.4700584829
 20
678.9291421106
 11
134.6683248631
 21
678.8300391244
  0
LINE
  5
32A
100
AcDbEntity
  8
0
100
AcDbLine
 62
7
  6
CONTINUOUS
 10
134.9688731415
 20
679.1296508664
 11
134.769877246
 21
679.2291184991
  0
LINE
  5
32B
100
AcDbEntity
  8
0
100
AcDbLine
 62
7
  6
CONTINUOUS
 10
140.1263917097
 20
678.1363520729
 11
138.4470143885
 21
678.7345425352
  0
LINE
  5
32C
100
AcDbEntity
  8
0
100
AcDbLine
 62
7
  6
CONTINUOUS
 10
140.1199759367
 20
678.1374675633
 11
138.4470178073
 21
678.7345394913
  0
LINE
  5
32D
100
AcDbEntity
  8
0
100
AcDbLine
 62
7
  6
CONTINUOUS
 10
140.120049889
 20
678.1374550533
 11
138.4470182154
 21
678.7345402166
  0
LINE
  5
32E
100
AcDbEntity
  8
0
100
AcDbLine
 62
7
  6
CONTINUOUS
 10
117.3699446819
 20
686.3092427761
 11
117.1602780859
 21
686.394681403
  0
LINE
  5
32F
100
AcDbEntity
  8
0
100
AcDbLine
 62
7
  6
CONTINUOUS
 10
117.3699446821
 20
686.3092410199
 11
117.160282507
 21
686.3946763755
  0
LWPOLYLINE
  5
330
100
AcDbEntity
  8
0
100
AcDbPolyline
 62
7
  6
CONTINUOUS
 90
3
 70
0
 10
117.3699446821
 20
686.3092410199
 10
117.1602848803
 20
686.3946740562
 10
117.0700069302
 20
686.6040170045
  0
LINE
  5
331
100
AcDbEntity
  8
0
100
AcDbLine
 62
7
  6
CONTINUOUS
 10
138.2939677027
 20
600.9489543382
 11
141.3402475384
 21
600.9489543439
  0
LINE
  5
332
100
AcDbEntity
  8
0
100
AcDbLine
 62
7
  6
CONTINUOUS
 10
638.1040863918
 20
600.9489543449
 11
641.1503662275
 21
600.9489543449
  0
LINE
  5
333
100
AcDbEntity
  8
0
100
AcDbLine
 62
7
  6
CONTINUOUS
 10
136.9721669651
 20
601.9489543449
 11
137.4721669651
 21
601.9489543449
  0
LINE
  5
334
100
AcDbEntity
  8
0
100
AcDbLine
 62
7
  6
CONTINUOUS
 10
641.9721669651
 20
601.9489543449
 11
642.4721669651
 21
601.9489543449
  0
LINE
  5
335
100
AcDbEntity
  8
0
100
AcDbLine
 62
7
  6
CONTINUOUS
 10
139.1216793104
 20
665.0974080504
 11
139.6810738669
 21
664.9740406904
  0
LINE
  5
336
100
AcDbEntity
  8
0
100
AcDbLine
 62
7
  6
CONTINUOUS
 10
124.5386440509
 20
676.9092547912
 11
124.0657299792
 21
677.0281425192
  0
LINE
  5
337
100
AcDbEntity
  8
0
100
AcDbLine
 62
7
  6
CONTINUOUS
 10
167.2221669651
 20
623.6989543449
 11
612.2221669651
 21
623.6989543449
  0
LINE
  5
338
100
AcDbEntity
  8
0
100
AcDbLine
 62
7
  6
CONTINUOUS
 10
164.9721669651
 20
624.5808737716
 11
614.4721669651
 21
624.5808737716
  0
LINE
  5
339
100
AcDbEntity
  8
0
100
AcDbLine
 62
7
  6
CONTINUOUS
 10
614.4721669602
 20
625.5656815244
 11
164.9721669686
 21
625.5656815245
  0
LINE
  5
33A
100
AcDbEntity
  8
0
100
AcDbLine
 62
7
  6
CONTINUOUS
 10
164.9721669685
 20
625.6575381014
 11
614.4721669622
 21
625.6575381013
  0
LINE
  5
33B
100
AcDbEntity
  8
0
100
AcDbLine
 62
7
  6
CONTINUOUS
 10
614.4721669645
 20
627.6271536073
 11
164.9721669657
 21
627.6271536073
  0
LINE
  5
33C
100
AcDbEntity
  8
0
100
AcDbLine
 62
7
  6
CONTINUOUS
 10
163.9721669651
 20
628.4489543449
 11
615.4721669651
 21
628.4489543449
  0
LINE
  5
33D
100
AcDbEntity
  8
0
100
AcDbLine
 62
7
  6
CONTINUOUS
 10
615.4721669651
 20
628.9489543449
 11
163.9721669651
 21
628.9489543449
  0
LINE
  5
33E
100
AcDbEntity
  8
0
100
AcDbLine
 62
7
  6
CONTINUOUS
 10
143.5019345479
 20
671.7057324106
 11
143.4937056751
 21
671.7070371331
  0
LWPOLYLINE
  5
33F
100
AcDbEntity
  8
0
100
AcDbPolyline
 62
7
  6
CONTINUOUS
 90
3
 70
0
 10
143.1395223019
 20
668.2199980235
 10
142.8202697142
 20
668.2882216842
 10
142.522059631
 20
668.3548485951
  0
LWPOLYLINE
  5
340
100
AcDbEntity
  8
0
100
AcDbPolyline
 62
7
  6
CONTINUOUS
 90
3
 70
0
 10
143.1357405069
 20
666.4205859374
 10
142.8143880736
 20
666.4893948224
 10
142.518662575
 20
666.5556245263
  0
LWPOLYLINE
  5
341
100
AcDbEntity
  8
0
100
AcDbPolyline
 62
7
  6
CONTINUOUS
 90
3
 70
0
 10
143.134801415
 20
670.0208446567
 10
142.8147881605
 20
670.0893937637
 10
142.5190438977
 20
670.1556256858
  0
LINE
  5
342
100
AcDbEntity
  8
0
100
AcDbLine
 62
7
  6
CONTINUOUS
 10
143.1340173169
 20
671.8132190283
 11
142.5020227669
 21
671.949009071
  0
LINE
  5
343
100
AcDbEntity
  8
0
100
AcDbLine
 62
7
  6
CONTINUOUS
 10
138.9242726327
 20
670.4947308122
 11
139.5243104732
 21
670.3635049757
  0
LINE
  5
344
100
AcDbEntity
  8
0
100
AcDbLine
 62
7
  6
CONTINUOUS
 10
138.9257810393
 20
666.8945088968
 11
139.525661734
 21
666.7632205623
  0
LINE
  5
345
100
AcDbEntity
  8
0
100
AcDbLine
 62
7
  6
CONTINUOUS
 10
138.9294316748
 20
668.6936613828
 11
139.5253335461
 21
668.5631077857
  0
LINE
  5
346
100
AcDbEntity
  8
0
100
AcDbLine
 62
7
  6
CONTINUOUS
 10
139.6383957994
 20
672.1829306764
 11
139.7662703622
 21
672.1517619557
  0
LINE
  5
347
100
AcDbEntity
  8
0
100
AcDbLine
 62
7
  6
CONTINUOUS
 10
633.0227703091
 20
690.2003891999
 11
629.0227703091
 21
689.7092509563
  0
LINE
  5
348
100
AcDbEntity
  8
0
100
AcDbLine
 62
7
  6
CONTINUOUS
 10
140.956495502
 20
660.0568696687
 11
145.3803707934
 21
660.0568696687
  0
LINE
  5
349
100
AcDbEntity
  8
0
100
AcDbLine
 62
7
  6
CONTINUOUS
 10
136.6651700611
 20
660.0568259444
 11
141.0501079882
 21
660.0570328502
  0
LINE
  5
34A
100
AcDbEntity
  8
0
100
AcDbLine
 62
7
  6
CONTINUOUS
 10
134.8230694272
 20
660.2092509563
 11
147.2224711909
 21
660.2092509563
  0
LINE
  5
34B
100
AcDbEntity
  8
0
100
AcDbLine
 62
7
  6
CONTINUOUS
 10
134.5227703091
 20
660.5092509563
 11
147.5227703091
 21
660.5092509563
  0
LINE
  5
34C
100
AcDbEntity
  8
0
100
AcDbLine
 62
7
  6
CONTINUOUS
 10
134.5227703091
 20
661.3092509563
 11
147.5227703091
 21
661.3092509563
  0
LINE
  5
34D
100
AcDbEntity
  8
0
100
AcDbLine
 62
7
  6
CONTINUOUS
 10
147.4227703091
 20
661.4092509563
 11
134.6227703171
 21
661.4092509563
  0
LINE
  5
34E
100
AcDbEntity
  8
0
100
AcDbLine
 62
7
  6
CONTINUOUS
 10
89.7221669651
 20
661.4989543449
 11
689.7221669651
 21
661.4989543449
  0
LINE
  5
34F
100
AcDbEntity
  8
0
100
AcDbLine
 62
7
  6
CONTINUOUS
 10
139.2577703091
 20
662.1092509563
 11
142.7877703091
 21
662.1092509563
  0
LINE
  5
350
100
AcDbEntity
  8
0
100
AcDbLine
 62
7
  6
CONTINUOUS
 10
686.5221669651
 20
664.6989543449
 11
92.9221669651
 21
664.6989543449
  0
LINE
  5
351
100
AcDbEntity
  8
0
100
AcDbLine
 62
7
  6
CONTINUOUS
 10
95.7221669651
 20
664.8989543449
 11
105.7221669651
 21
664.8989543449
  0
LINE
  5
352
100
AcDbEntity
  8
0
100
AcDbLine
 62
7
  6
CONTINUOUS
 10
99.972166965
 20
665.8989543449
 11
101.4721669651
 21
665.8989543449
  0
LINE
  5
353
100
AcDbEntity
  8
0
100
AcDbLine
 62
7
  6
CONTINUOUS
 10
668.7126658312
 20
667.0805723357
 11
110.731668099
 21
667.0805723357
  0
LINE
  5
354
100
AcDbEntity
  8
0
100
AcDbLine
 62
7
  6
CONTINUOUS
 10
139.2577703091
 20
673.4092509563
 11
141.0227703091
 21
673.4092509563
  0
LINE
  5
355
100
AcDbEntity
  8
0
100
AcDbLine
 62
7
  6
CONTINUOUS
 10
141.0227703091
 20
673.4092509563
 11
142.8091499448
 21
673.4092509563
  0
LINE
  5
356
100
AcDbEntity
  8
0
100
AcDbLine
 62
7
  6
CONTINUOUS
 10
131.2727702495
 20
674.6992509563
 11
128.7727703091
 21
674.6992509563
  0
LINE
  5
357
100
AcDbEntity
  8
0
100
AcDbLine
 62
7
  6
CONTINUOUS
 10
136.7727783027
 20
674.8992509564
 11
125.1358758997
 21
674.8992509563
  0
LINE
  5
358
100
AcDbEntity
  8
0
100
AcDbLine
 62
7
  6
CONTINUOUS
 10
136.7727703091
 20
675.1939573595
 11
125.1358919492
 21
675.1939573595
  0
LINE
  5
359
100
AcDbEntity
  8
0
100
AcDbLine
 62
7
  6
CONTINUOUS
 10
132.1644287363
 20
676.624510073
 11
132.1505284925
 21
676.6249517432
  0
LINE
  5
35A
100
AcDbEntity
  8
0
100
AcDbLine
 62
7
  6
CONTINUOUS
 10
127.3546575415
 20
686.1499124343
 11
128.1045335997
 21
686.1024146578
  0
LINE
  5
35B
100
AcDbEntity
  8
0
100
AcDbLine
 62
7
  6
CONTINUOUS
 10
127.8811118818
 20
676.624510073
 11
127.8950121256
 21
676.6249517432
  0
LINE
  5
35C
100
AcDbEntity
  8
0
100
AcDbLine
 62
7
  6
CONTINUOUS
 10
141.0262599455
 20
672.265621055
 11
140.978972574
 21
672.2645739417
  0
LINE
  5
35D
100
AcDbEntity
  8
0
100
AcDbLine
 62
7
  6
CONTINUOUS
 10
124.4226012796
 20
683.8095815533
 11
124.528724643
 21
683.8102152779
  0
LINE
  5
35E
100
AcDbEntity
  8
0
100
AcDbLine
 62
7
  6
CONTINUOUS
 10
141.9205896673
 20
678.1366015469
 11
140.1263915722
 21
678.1363520968
  0
LINE
  5
35F
100
AcDbEntity
  8
0
100
AcDbLine
 62
7
  6
CONTINUOUS
 10
135.9336706701
 20
676.6144866783
 11
124.5386440436
 21
676.6144866783
  0
LINE
  5
360
100
AcDbEntity
  8
0
100
AcDbLine
 62
7
  6
CONTINUOUS
 10
132.1505284925
 20
676.6249517432
 11
127.8950121256
 21
676.6249517432
  0
LINE
  5
361
100
AcDbEntity
  8
0
100
AcDbLine
 62
7
  6
CONTINUOUS
 10
135.9336706701
 20
676.9092509563
 11
124.5386440501
 21
676.9092509563
  0
LINE
  5
362
100
AcDbEntity
  8
0
100
AcDbLine
 62
7
  6
CONTINUOUS
 10
134.6683248631
 20
678.5248490939
 11
125.3772157613
 21
678.5248490939
  0
LINE
  5
363
100
AcDbEntity
  8
0
100
AcDbLine
 62
7
  6
CONTINUOUS
 10
125.3772157613
 20
678.8300391243
 11
134.6683248631
 21
678.8300391243
  0
LINE
  5
364
100
AcDbEntity
  8
0
100
AcDbLine
 62
7
  6
CONTINUOUS
 10
116.5227703091
 20
680.7092509388
 11
662.5227703091
 21
680.7092509388
  0
LINE
  5
365
100
AcDbEntity
  8
0
100
AcDbLine
 62
7
  6
CONTINUOUS
 10
134.6706164162
 20
681.9896082233
 11
133.2693973984
 21
681.9896082233
  0
LINE
  5
366
100
AcDbEntity
  8
0
100
AcDbLine
 62
7
  6
CONTINUOUS
 10
126.7761432198
 20
681.9896082233
 11
125.3749241869
 21
681.9896082233
  0
LINE
  5
367
100
AcDbEntity
  8
0
100
AcDbLine
 62
7
  6
CONTINUOUS
 10
125.3749241869
 20
682.2843268099
 11
126.7761432198
 21
682.2843268099
  0
LINE
  5
368
100
AcDbEntity
  8
0
100
AcDbLine
 62
7
  6
CONTINUOUS
 10
133.2693973984
 20
682.2843269096
 11
134.6706164162
 21
682.2843269096
  0
LINE
  5
369
100
AcDbEntity
  8
0
100
AcDbLine
 62
7
  6
CONTINUOUS
 10
126.7756040685
 20
683.1688421626
 11
123.9921967731
 21
683.1688421626
  0
LINE
  5
36A
100
AcDbEntity
  8
0
100
AcDbLine
 62
7
  6
CONTINUOUS
 10
124.0443103094
 20
683.4738951327
 11
126.7756040685
 21
683.4738951327
  0
LINE
  5
36B
100
AcDbEntity
  8
0
100
AcDbLine
 62
7
  6
CONTINUOUS
 10
124.859615054
 20
683.7992018265
 11
132.3448817456
 21
683.7993154406
  0
LINE
  5
36C
100
AcDbEntity
  8
0
100
AcDbLine
 62
7
  6
CONTINUOUS
 10
124.8596150541
 20
683.8092509563
 11
123.6223128761
 21
683.8092509563
  0
LINE
  5
36D
100
AcDbEntity
  8
0
100
AcDbLine
 62
7
  6
CONTINUOUS
 10
124.859615054
 20
683.809312055
 11
123.6223128753
 21
683.8092509563
  0
LINE
  5
36E
100
AcDbEntity
  8
0
100
AcDbLine
 62
7
  6
CONTINUOUS
 10
124.2362926618
 20
684.104013314
 11
123.6223128762
 21
684.104013314
  0
LINE
  5
36F
100
AcDbEntity
  8
0
100
AcDbLine
 62
7
  6
CONTINUOUS
 10
124.4967822217
 20
685.5066588103
 11
128.8604436399
 21
685.5066588103
  0
LINE
  5
370
100
AcDbEntity
  8
0
100
AcDbLine
 62
7
  6
CONTINUOUS
 10
118.5753780135
 20
686.0144873727
 11
117.3802349184
 21
686.0144873727
  0
LINE
  5
371
100
AcDbEntity
  8
0
100
AcDbLine
 62
7
  6
CONTINUOUS
 10
127.0608016014
 20
686.1582393704
 11
124.4723670812
 21
686.1582393704
  0
LINE
  5
372
100
AcDbEntity
  8
0
100
AcDbLine
 62
7
  6
CONTINUOUS
 10
118.5753780129
 20
686.3092509564
 11
117.3699446826
 21
686.3092509564
  0
LINE
  5
373
100
AcDbEntity
  8
0
100
AcDbLine
 62
7
  6
CONTINUOUS
 10
121.2295538018
 20
688.3092509563
 11
133.4778239124
 21
688.3092509563
  0
LINE
  5
374
100
AcDbEntity
  8
0
100
AcDbLine
 62
7
  6
CONTINUOUS
 10
150.2464258109
 20
689.3092509563
 11
150.4663725342
 21
689.3092481185
  0
LINE
  5
375
100
AcDbEntity
  8
0
100
AcDbLine
 62
7
  6
CONTINUOUS
 10
150.7667306857
 20
689.3092509563
 11
147.0227703091
 21
689.3092509563
  0
LINE
  5
376
100
AcDbEntity
  8
0
100
AcDbLine
 62
7
  6
CONTINUOUS
 10
135.0227703091
 20
689.3092509563
 11
133.9058807825
 21
689.3092509563
  0
LINE
  5
377
100
AcDbEntity
  8
0
100
AcDbLine
 62
7
  6
CONTINUOUS
 10
119.8666137596
 20
689.3092509563
 11
117.022770309
 21
689.3092509563
  0
LINE
  5
378
100
AcDbEntity
  8
0
100
AcDbLine
 62
7
  6
CONTINUOUS
 10
119.8666137596
 20
689.3092509563
 11
120.0698897826
 21
689.3092509563
  0
LINE
  5
379
100
AcDbEntity
  8
0
100
AcDbLine
 62
7
  6
CONTINUOUS
 10
120.0698897826
 20
689.3092509563
 11
121.1067692409
 21
689.3092509563
  0
LINE
  5
37A
100
AcDbEntity
  8
0
100
AcDbLine
 62
7
  6
CONTINUOUS
 10
150.022770433
 20
689.5092509563
 11
147.522770433
 21
689.5092509563
  0
LINE
  5
37B
100
AcDbEntity
  8
0
100
AcDbLine
 62
7
  6
CONTINUOUS
 10
119.8659894454
 20
689.5092509563
 11
120.0944396558
 21
689.5092509563
  0
LINE
  5
37C
100
AcDbEntity
  8
0
100
AcDbLine
 62
7
  6
CONTINUOUS
 10
117.906769195
 20
689.5092509563
 11
119.8659894454
 21
689.5092509563
  0
LINE
  5
37D
100
AcDbEntity
  8
0
100
AcDbLine
 62
7
  6
CONTINUOUS
 10
120.0944396558
 20
689.5092509563
 11
120.4231501308
 21
689.5092509563
  0
LINE
  5
37E
100
AcDbEntity
  8
0
100
AcDbLine
 62
7
  6
CONTINUOUS
 10
101.8427866398
 20
689.7092509563
 11
677.2027539784
 21
689.7092509563
  0
LINE
  5
37F
100
AcDbEntity
  8
0
100
AcDbLine
 62
7
  6
CONTINUOUS
 10
127.5227703091
 20
690.0092509563
 11
132.5227703091
 21
690.0092509563
  0
LINE
  5
380
100
AcDbEntity
  8
0
100
AcDbLine
 62
7
  6
CONTINUOUS
 10
124.9110693543
 20
684.097273787
 11
132.3448817456
 21
684.0938973021
  0
LINE
  5
381
100
AcDbEntity
  8
0
100
AcDbLine
 62
7
  6
CONTINUOUS
 10
124.4408825553
 20
683.8086724521
 11
123.6223238078
 21
683.8092498871
  0
LWPOLYLINE
  5
382
100
AcDbEntity
  8
0
100
AcDbPolyline
 62
7
  6
CONTINUOUS
 90
3
 70
0
 10
141.9081815244
 20
678.1344632116
 10
140.1164645566
 20
678.1380821114
 10
138.4470187553
 20
678.7345399023
  0
LWPOLYLINE
  5
383
100
AcDbEntity
  8
0
100
AcDbPolyline
 62
7
  6
CONTINUOUS
 90
5
 70
0
 10
130.7317371506
 20
683.7729861084
 10
130.3795863456
 20
683.7751642669
 10
130.022557885
 20
683.7758932524
 10
129.6656312173
 20
683.7751627562
 10
129.3137782577
 20
683.7729861633
  0
LINE
  5
384
100
AcDbEntity
  8
0
100
AcDbLine
 62
7
  6
CONTINUOUS
 10
124.8596031204
 20
684.0978562453
 11
124.9110693543
 21
684.097273787
  0
LINE
  5
385
100
AcDbEntity
  8
0
100
AcDbLine
 62
7
  6
CONTINUOUS
 10
142.3646026385
 20
664.1388799219
 11
142.5145025933
 21
664.1731086744
  0
LWPOLYLINE
  5
386
100
AcDbEntity
  8
0
100
AcDbPolyline
 62
7
  6
CONTINUOUS
 90
3
 70
0
 10
139.5253698711
 20
667.4552127345
 10
139.2266003239
 20
667.3883924999
 10
138.9069599391
 20
667.3200484918
  0
LWPOLYLINE
  5
387
100
AcDbEntity
  8
0
100
AcDbPolyline
 62
7
  6
CONTINUOUS
 90
3
 70
0
 10
139.5237413559
 20
669.2550189697
 10
139.2275401743
 20
669.1888005569
 10
138.9108984809
 20
669.1210338253
  0
LINE
  5
388
100
AcDbEntity
  8
0
100
AcDbLine
 62
7
  6
CONTINUOUS
 10
142.5184622068
 20
667.6628204555
 11
143.1176754582
 21
667.7941128584
  0
LINE
  5
389
100
AcDbEntity
  8
0
100
AcDbLine
 62
7
  6
CONTINUOUS
 10
142.5191835667
 20
671.2630553511
 11
143.120532805
 21
671.3947115491
  0
LINE
  5
38A
100
AcDbEntity
  8
0
100
AcDbLine
 62
7
  6
CONTINUOUS
 10
142.5221617716
 20
669.4636058254
 11
143.117893708
 21
669.593921969
  0
LINE
  5
38B
100
AcDbEntity
  8
0
100
AcDbLine
 62
7
  6
CONTINUOUS
 10
142.5218149338
 20
665.8636148189
 11
143.1211896895
 21
665.994669742
  0
LINE
  5
38C
100
AcDbEntity
  8
0
100
AcDbLine
 62
7
  6
CONTINUOUS
 10
110.731668099
 20
667.3667858287
 11
109.2592273237
 21
667.0805723357
  0
LINE
  5
38D
100
AcDbEntity
  8
0
100
AcDbLine
 62
7
  6
CONTINUOUS
 10
131.8311397708
 20
686.0819098225
 11
132.7239347163
 21
686.1856966837
  0
LINE
  5
38E
100
AcDbEntity
  8
0
100
AcDbLine
 62
7
  6
CONTINUOUS
 10
633.0227703091
 20
690.2003891999
 11
637.0227703091
 21
689.7092509563
  0
LINE
  5
38F
100
AcDbEntity
  8
0
100
AcDbLine
 62
7
  6
CONTINUOUS
 10
670.1851066064
 20
667.0805723357
 11
668.7126658312
 21
667.3667858287
  0
LINE
  5
390
100
AcDbEntity
  8
0
100
AcDbLine
 62
7
  6
CONTINUOUS
 10
139.6801846979
 20
672.8154574767
 11
139.3226213741
 21
672.7353480985
  0
LWPOLYLINE
  5
391
100
AcDbEntity
  8
0
100
AcDbPolyline
 62
7
  6
CONTINUOUS
 90
3
 70
0
 10
139.5266371944
 20
671.055534685
 10
139.2275480007
 20
670.9885877268
 10
138.9076931889
 20
670.9201461596
  0
LINE
  5
392
100
AcDbEntity
  8
0
100
AcDbLine
 62
7
  6
CONTINUOUS
 10
614.4721669651
 20
399.7707550826
 11
614.4721669651
 21
402.8170349182
  0
LINE
  5
393
100
AcDbEntity
  8
0
100
AcDbLine
 62
7
  6
CONTINUOUS
 10
614.4721669641
 20
624.5808737716
 11
614.4721669584
 21
627.6271536073
  0
LINE
  5
394
100
AcDbEntity
  8
0
100
AcDbLine
 62
7
  6
CONTINUOUS
 10
615.4721669651
 20
628.9489543449
 11
615.4721669651
 21
628.4489543449
  0
LINE
  5
395
100
AcDbEntity
  8
0
100
AcDbLine
 62
7
  6
CONTINUOUS
 10
615.4721669651
 20
398.9489543449
 11
615.4721669651
 21
398.4489543449
  0
LINE
  5
396
100
AcDbEntity
  8
0
100
AcDbLine
 62
7
  6
CONTINUOUS
 10
637.2221669651
 20
598.6989543449
 11
637.2221669651
 21
428.6989543449
  0
LINE
  5
397
100
AcDbEntity
  8
0
100
AcDbLine
 62
7
  6
CONTINUOUS
 10
638.1040863918
 20
600.9489543449
 11
638.1040863918
 21
426.4489543449
  0
LINE
  5
398
100
AcDbEntity
  8
0
100
AcDbLine
 62
7
  6
CONTINUOUS
 10
639.0888941445
 20
426.4489543498
 11
639.0888941447
 21
600.9489543414
  0
LINE
  5
399
100
AcDbEntity
  8
0
100
AcDbLine
 62
7
  6
CONTINUOUS
 10
639.1807507215
 20
600.9489543415
 11
639.1807507215
 21
426.4489543479
  0
LINE
  5
39A
100
AcDbEntity
  8
0
100
AcDbLine
 62
7
  6
CONTINUOUS
 10
641.1503662275
 20
426.448954352
 11
641.1503662275
 21
600.9489543442
  0
LINE
  5
39B
100
AcDbEntity
  8
0
100
AcDbLine
 62
7
  6
CONTINUOUS
 10
641.9721669651
 20
601.9489543449
 11
641.9721669651
 21
425.4489543449
  0
LINE
  5
39C
100
AcDbEntity
  8
0
100
AcDbLine
 62
7
  6
CONTINUOUS
 10
642.4721669651
 20
425.4489543449
 11
642.4721669651
 21
601.9489543449
  0
LINE
  5
39D
100
AcDbEntity
  8
0
100
AcDbLine
 62
7
  6
CONTINUOUS
 10
668.7126658312
 20
667.0805723357
 11
671.6954411011
 21
682.4252127269
  0
LINE
  5
39E
100
AcDbEntity
  8
0
100
AcDbLine
 62
7
  6
CONTINUOUS
 10
673.1479834626
 20
682.3232523655
 11
670.1851066063
 21
667.0805723357
  0
LINE
  5
39F
100
AcDbEntity
  8
0
100
AcDbLine
 62
7
  6
CONTINUOUS
 10
662.5227703091
 20
680.7092509388
 11
662.5227703091
 21
689.7092509797
  0
LINE
  5
3A0
100
AcDbEntity
  8
0
100
AcDbLine
 62
7
  6
CONTINUOUS
 10
679.86062716
 20
687.8481995538
 11
677.2027593473
 21
689.7092586318
  0
LINE
  5
3A1
100
AcDbEntity
  8
0
100
AcDbLine
 62
7
  6
CONTINUOUS
 10
669.0868064388
 20
666.6989401096
 11
668.7126658312
 21
667.0805723357
  0
LINE
  5
3A2
100
AcDbEntity
  8
0
100
AcDbLine
 62
7
  6
CONTINUOUS
 10
688.2221669651
 20
390.8989543449
 11
688.2221669651
 21
661.4989543449
  0
LINE
  5
3A3
100
AcDbEntity
  8
0
100
AcDbLine
 62
7
  6
CONTINUOUS
 10
689.722166965
 20
390.8989543449
 11
689.7221669651
 21
661.4989543449
  0
ARC
  5
3A4
100
AcDbEntity
  8
0
100
AcDbCircle
 62
7
  6
CONTINUOUS
 10
163.9721669651
 20
425.4489543449
 40
27.0
100
AcDbArc
 50
180.0
 51
270.0
  0
ARC
  5
3A5
100
AcDbEntity
  8
0
100
AcDbCircle
 62
7
  6
CONTINUOUS
 10
164.9721669651
 20
426.4489543449
 40
26.6781992623
100
AcDbArc
 50
179.9999999985
 51
270.0000000006
  0
ARC
  5
3A6
100
AcDbEntity
  8
0
100
AcDbCircle
 62
7
  6
CONTINUOUS
 10
163.9721669651
 20
425.4489543449
 40
26.5
100
AcDbArc
 50
180.0
 51
270.0
  0
ARC
  5
3A7
100
AcDbEntity
  8
0
100
AcDbCircle
 62
7
  6
CONTINUOUS
 10
167.2221669651
 20
428.6989543449
 40
25.0
100
AcDbArc
 50
180.0
 51
270.0
  0
ARC
  5
3A8
100
AcDbEntity
  8
0
100
AcDbCircle
 62
7
  6
CONTINUOUS
 10
164.9721669651
 20
426.4489543449
 40
24.7085837563
100
AcDbArc
 50
179.9999999919
 51
270.0
  0
ARC
  5
3A9
100
AcDbEntity
  8
0
100
AcDbCircle
 62
7
  6
CONTINUOUS
 10
164.9721669651
 20
426.4489543449
 40
24.6167271797
100
AcDbArc
 50
179.9999999919
 51
270.0
  0
ARC
  5
3AA
100
AcDbEntity
  8
0
100
AcDbCircle
 62
7
  6
CONTINUOUS
 10
164.9721669651
 20
426.4489543449
 40
23.6319194267
100
AcDbArc
 50
180.0
 51
270.0
  0
ARC
  5
3AB
100
AcDbEntity
  8
0
100
AcDbCircle
 62
7
  6
CONTINUOUS
 10
92.9221669651
 20
390.8989543449
 40
3.2
100
AcDbArc
 50
180.0000000001
 51
270.0
  0
CIRCLE
  5
3AC
100
AcDbEntity
  8
0
100
AcDbCircle
 62
7
  6
CONTINUOUS
 10
209.7221669651
 20
410.1989543449
 40
3.0
  0
CIRCLE
  5
3AD
100
AcDbEntity
  8
0
100
AcDbCircle
 62
7
  6
CONTINUOUS
 10
148.7221669651
 20
453.6989543449
 40
3.0
  0
CIRCLE
  5
3AE
100
AcDbEntity
  8
0
100
AcDbCircle
 62
7
  6
CONTINUOUS
 10
209.7221669651
 20
410.1989543449
 40
1.95
  0
CIRCLE
  5
3AF
100
AcDbEntity
  8
0
100
AcDbCircle
 62
7
  6
CONTINUOUS
 10
148.7221669651
 20
453.6989543449
 40
1.95
  0
CIRCLE
  5
3B0
100
AcDbEntity
  8
0
100
AcDbCircle
 62
7
  6
CONTINUOUS
 10
189.7221669651
 20
451.1989543449
 40
0.8660254038
  0
CIRCLE
  5
3B1
100
AcDbEntity
  8
0
100
AcDbCircle
 62
7
  6
CONTINUOUS
 10
214.7221669651
 20
451.1989543449
 40
0.8660254038
  0
CIRCLE
  5
3B2
100
AcDbEntity
  8
0
100
AcDbCircle
 62
7
  6
CONTINUOUS
 10
189.7221669651
 20
526.1989543449
 40
0.8660254038
  0
CIRCLE
  5
3B3
100
AcDbEntity
  8
0
100
AcDbCircle
 62
7
  6
CONTINUOUS
 10
189.7221669651
 20
501.1989543449
 40
0.8660254038
  0
CIRCLE
  5
3B4
100
AcDbEntity
  8
0
100
AcDbCircle
 62
7
  6
CONTINUOUS
 10
189.7221669651
 20
476.1989543449
 40
0.8660254038
  0
CIRCLE
  5
3B5
100
AcDbEntity
  8
0
100
AcDbCircle
 62
7
  6
CONTINUOUS
 10
214.7221669651
 20
551.1989543449
 40
0.8660254038
  0
CIRCLE
  5
3B6
100
AcDbEntity
  8
0
100
AcDbCircle
 62
7
  6
CONTINUOUS
 10
214.7221669651
 20
526.1989543449
 40
0.8660254038
  0
CIRCLE
  5
3B7
100
AcDbEntity
  8
0
100
AcDbCircle
 62
7
  6
CONTINUOUS
 10
214.7221669651
 20
501.1989543449
 40
0.8660254038
  0
CIRCLE
  5
3B8
100
AcDbEntity
  8
0
100
AcDbCircle
 62
7
  6
CONTINUOUS
 10
214.7221669651
 20
476.1989543449
 40
0.8660254038
  0
CIRCLE
  5
3B9
100
AcDbEntity
  8
0
100
AcDbCircle
 62
7
  6
CONTINUOUS
 10
189.7221669651
 20
551.1989543449
 40
0.8660254038
  0
CIRCLE
  5
3BA
100
AcDbEntity
  8
0
100
AcDbCircle
 62
7
  6
CONTINUOUS
 10
329.7221669651
 20
410.1989543449
 40
3.0
  0
CIRCLE
  5
3BB
100
AcDbEntity
  8
0
100
AcDbCircle
 62
7
  6
CONTINUOUS
 10
329.7221669651
 20
410.1989543449
 40
1.95
  0
CIRCLE
  5
3BC
100
AcDbEntity
  8
0
100
AcDbCircle
 62
7
  6
CONTINUOUS
 10
239.7221669651
 20
451.1989543449
 40
0.8660254038
  0
CIRCLE
  5
3BD
100
AcDbEntity
  8
0
100
AcDbCircle
 62
7
  6
CONTINUOUS
 10
264.7221669651
 20
451.1989543449
 40
0.8660254038
  0
CIRCLE
  5
3BE
100
AcDbEntity
  8
0
100
AcDbCircle
 62
7
  6
CONTINUOUS
 10
289.7221669651
 20
451.1989543449
 40
0.8660254038
  0
CIRCLE
  5
3BF
100
AcDbEntity
  8
0
100
AcDbCircle
 62
7
  6
CONTINUOUS
 10
314.7221669651
 20
451.1989543449
 40
0.8660254038
  0
CIRCLE
  5
3C0
100
AcDbEntity
  8
0
100
AcDbCircle
 62
7
  6
CONTINUOUS
 10
339.7221669651
 20
451.1989543449
 40
0.8660254038
  0
CIRCLE
  5
3C1
100
AcDbEntity
  8
0
100
AcDbCircle
 62
7
  6
CONTINUOUS
 10
364.7221669651
 20
451.1989543449
 40
0.8660254038
  0
CIRCLE
  5
3C2
100
AcDbEntity
  8
0
100
AcDbCircle
 62
7
  6
CONTINUOUS
 10
239.7221669651
 20
501.1989543449
 40
0.8660254038
  0
CIRCLE
  5
3C3
100
AcDbEntity
  8
0
100
AcDbCircle
 62
7
  6
CONTINUOUS
 10
239.7221669651
 20
476.1989543449
 40
0.8660254038
  0
CIRCLE
  5
3C4
100
AcDbEntity
  8
0
100
AcDbCircle
 62
7
  6
CONTINUOUS
 10
264.7221669651
 20
501.1989543449
 40
0.8660254038
  0
CIRCLE
  5
3C5
100
AcDbEntity
  8
0
100
AcDbCircle
 62
7
  6
CONTINUOUS
 10
264.7221669651
 20
476.1989543449
 40
0.8660254038
  0
CIRCLE
  5
3C6
100
AcDbEntity
  8
0
100
AcDbCircle
 62
7
  6
CONTINUOUS
 10
289.7221669651
 20
501.1989543449
 40
0.8660254038
  0
CIRCLE
  5
3C7
100
AcDbEntity
  8
0
100
AcDbCircle
 62
7
  6
CONTINUOUS
 10
289.7221669651
 20
476.1989543449
 40
0.8660254038
  0
CIRCLE
  5
3C8
100
AcDbEntity
  8
0
100
AcDbCircle
 62
7
  6
CONTINUOUS
 10
239.7221669651
 20
551.1989543449
 40
0.8660254038
  0
CIRCLE
  5
3C9
100
AcDbEntity
  8
0
100
AcDbCircle
 62
7
  6
CONTINUOUS
 10
239.7221669651
 20
526.1989543449
 40
0.8660254038
  0
CIRCLE
  5
3CA
100
AcDbEntity
  8
0
100
AcDbCircle
 62
7
  6
CONTINUOUS
 10
264.7221669651
 20
551.1989543449
 40
0.8660254038
  0
CIRCLE
  5
3CB
100
AcDbEntity
  8
0
100
AcDbCircle
 62
7
  6
CONTINUOUS
 10
264.7221669651
 20
526.1989543449
 40
0.8660254038
  0
CIRCLE
  5
3CC
100
AcDbEntity
  8
0
100
AcDbCircle
 62
7
  6
CONTINUOUS
 10
289.7221669651
 20
551.1989543449
 40
0.8660254038
  0
CIRCLE
  5
3CD
100
AcDbEntity
  8
0
100
AcDbCircle
 62
7
  6
CONTINUOUS
 10
289.7221669651
 20
526.1989543449
 40
0.8660254038
  0
CIRCLE
  5
3CE
100
AcDbEntity
  8
0
100
AcDbCircle
 62
7
  6
CONTINUOUS
 10
314.7221669651
 20
501.1989543449
 40
0.8660254038
  0
CIRCLE
  5
3CF
100
AcDbEntity
  8
0
100
AcDbCircle
 62
7
  6
CONTINUOUS
 10
314.7221669651
 20
476.1989543449
 40
0.8660254038
  0
CIRCLE
  5
3D0
100
AcDbEntity
  8
0
100
AcDbCircle
 62
7
  6
CONTINUOUS
 10
339.7221669651
 20
501.1989543449
 40
0.8660254038
  0
CIRCLE
  5
3D1
100
AcDbEntity
  8
0
100
AcDbCircle
 62
7
  6
CONTINUOUS
 10
339.7221669651
 20
476.1989543449
 40
0.8660254038
  0
CIRCLE
  5
3D2
100
AcDbEntity
  8
0
100
AcDbCircle
 62
7
  6
CONTINUOUS
 10
364.7221669651
 20
501.1989543449
 40
0.8660254038
  0
CIRCLE
  5
3D3
100
AcDbEntity
  8
0
100
AcDbCircle
 62
7
  6
CONTINUOUS
 10
364.7221669651
 20
476.1989543449
 40
0.8660254038
  0
CIRCLE
  5
3D4
100
AcDbEntity
  8
0
100
AcDbCircle
 62
7
  6
CONTINUOUS
 10
314.7221669651
 20
551.1989543449
 40
0.8660254038
  0
CIRCLE
  5
3D5
100
AcDbEntity
  8
0
100
AcDbCircle
 62
7
  6
CONTINUOUS
 10
314.7221669651
 20
526.1989543449
 40
0.8660254038
  0
CIRCLE
  5
3D6
100
AcDbEntity
  8
0
100
AcDbCircle
 62
7
  6
CONTINUOUS
 10
339.7221669651
 20
551.1989543449
 40
0.8660254038
  0
CIRCLE
  5
3D7
100
AcDbEntity
  8
0
100
AcDbCircle
 62
7
  6
CONTINUOUS
 10
339.7221669651
 20
526.1989543449
 40
0.8660254038
  0
CIRCLE
  5
3D8
100
AcDbEntity
  8
0
100
AcDbCircle
 62
7
  6
CONTINUOUS
 10
364.7221669651
 20
551.1989543449
 40
0.8660254038
  0
CIRCLE
  5
3D9
100
AcDbEntity
  8
0
100
AcDbCircle
 62
7
  6
CONTINUOUS
 10
364.7221669651
 20
526.1989543449
 40
0.8660254038
  0
CIRCLE
  5
3DA
100
AcDbEntity
  8
0
100
AcDbCircle
 62
7
  6
CONTINUOUS
 10
148.7221669651
 20
573.6989543449
 40
3.0
  0
CIRCLE
  5
3DB
100
AcDbEntity
  8
0
100
AcDbCircle
 62
7
  6
CONTINUOUS
 10
148.7221669651
 20
573.6989543449
 40
1.95
  0
ARC
  5
3DC
100
AcDbEntity
  8
0
100
AcDbCircle
 62
7
  6
CONTINUOUS
 10
100.7221669651
 20
653.1802043449
 40
12.7408438324
100
AcDbArc
 50
93.3747129724
 51
113.1063268583
  0
ARC
  5
3DD
100
AcDbEntity
  8
0
100
AcDbCircle
 62
7
  6
CONTINUOUS
 10
100.7221669651
 20
653.1802043449
 40
12.7408438324
100
AcDbArc
 50
66.8936731417
 51
86.6252870276
  0
CIRCLE
  5
3DE
100
AcDbEntity
  8
0
100
AcDbCircle
 62
7
  6
CONTINUOUS
 10
104.7221669651
 20
649.6989543449
 40
5.15
  0
ARC
  5
3DF
100
AcDbEntity
  8
0
100
AcDbCircle
 62
7
  6
CONTINUOUS
 10
163.9721669651
 20
601.9489543449
 40
27.0
100
AcDbArc
 50
90.0
 51
180.0
  0
ARC
  5
3E0
100
AcDbEntity
  8
0
100
AcDbCircle
 62
7
  6
CONTINUOUS
 10
164.9721669651
 20
600.9489543449
 40
26.6781992624
100
AcDbArc
 50
89.9999999985
 51
180.0000000012
  0
ARC
  5
3E1
100
AcDbEntity
  8
0
100
AcDbCircle
 62
7
  6
CONTINUOUS
 10
163.9721669651
 20
601.9489543449
 40
26.5
100
AcDbArc
 50
90.0
 51
180.0
  0
ARC
  5
3E2
100
AcDbEntity
  8
0
100
AcDbCircle
 62
7
  6
CONTINUOUS
 10
167.2221669651
 20
598.6989543449
 40
25.0
100
AcDbArc
 50
90.0
 51
180.0
  0
ARC
  5
3E3
100
AcDbEntity
  8
0
100
AcDbCircle
 62
7
  6
CONTINUOUS
 10
164.9721669651
 20
600.9489543449
 40
24.7085837563
100
AcDbArc
 50
89.9999999919
 51
180.0
  0
ARC
  5
3E4
100
AcDbEntity
  8
0
100
AcDbCircle
 62
7
  6
CONTINUOUS
 10
164.9721669651
 20
600.9489543449
 40
24.6167271797
100
AcDbArc
 50
89.9999999919
 51
180.0
  0
ARC
  5
3E5
100
AcDbEntity
  8
0
100
AcDbCircle
 62
7
  6
CONTINUOUS
 10
164.9721669651
 20
600.9489543449
 40
23.6319194267
100
AcDbArc
 50
90.0
 51
180.0
  0
CIRCLE
  5
3E6
100
AcDbEntity
  8
0
100
AcDbCircle
 62
7
  6
CONTINUOUS
 10
214.7221669651
 20
576.1989543449
 40
0.8660254038
  0
CIRCLE
  5
3E7
100
AcDbEntity
  8
0
100
AcDbCircle
 62
7
  6
CONTINUOUS
 10
189.7221669651
 20
576.1989543449
 40
0.8660254038
  0
CIRCLE
  5
3E8
100
AcDbEntity
  8
0
100
AcDbCircle
 62
7
  6
CONTINUOUS
 10
209.7221669651
 20
617.1989543449
 40
3.0
  0
CIRCLE
  5
3E9
100
AcDbEntity
  8
0
100
AcDbCircle
 62
7
  6
CONTINUOUS
 10
209.7221669651
 20
617.1989543449
 40
1.95
  0
ARC
  5
3EA
100
AcDbEntity
  8
0
100
AcDbCircle
 62
7
  6
CONTINUOUS
 10
92.9221669651
 20
661.4989543449
 40
3.2
100
AcDbArc
 50
90.0
 51
180.0
  0
ARC
  5
3EB
100
AcDbEntity
  8
0
100
AcDbCircle
 62
7
  6
CONTINUOUS
 10
107.2959729569
 20
666.6989543449
 40
2.0
100
AcDbArc
 50
270.0
 51
11.0000000013
  0
ARC
  5
3EC
100
AcDbEntity
  8
0
100
AcDbCircle
 62
7
  6
CONTINUOUS
 10
106.519624429
 20
686.9784198566
 40
6.2691696535
100
AcDbArc
 50
262.5111684356
 51
270.0277590947
  0
ARC
  5
3ED
100
AcDbEntity
  8
0
100
AcDbCircle
 62
7
  6
CONTINUOUS
 10
121.3214253932
 20
680.261476855
 40
1.9999604607
100
AcDbArc
 50
4.9992389106
 51
67.7633901807
  0
ARC
  5
3EE
100
AcDbEntity
  8
0
100
AcDbCircle
 62
7
  6
CONTINUOUS
 10
118.5754020689
 20
685.3092904489
 40
0.9999521866
100
AcDbArc
 50
5.8695291663
 51
90.001378229
  0
ARC
  5
3EF
100
AcDbEntity
  8
0
100
AcDbCircle
 62
7
  6
CONTINUOUS
 10
117.3699446828
 20
686.6092509563
 40
0.3
100
AcDbArc
 50
180.9994860711
 51
270.0
  0
ARC
  5
3F0
100
AcDbEntity
  8
0
100
AcDbCircle
 62
7
  6
CONTINUOUS
 10
124.5386440501
 20
677.9092509563
 40
1.0
100
AcDbArc
 50
185.0000000001
 51
269.9999999914
  0
ARC
  5
3F1
100
AcDbEntity
  8
0
100
AcDbCircle
 62
7
  6
CONTINUOUS
 10
125.5757730053
 20
679.2292387771
 40
0.3001039577
100
AcDbArc
 50
180.0229194247
 51
269.944273781
  0
ARC
  5
3F2
100
AcDbEntity
  8
0
100
AcDbCircle
 62
7
  6
CONTINUOUS
 10
125.5757729962
 20
681.5892631489
 40
0.3001039437
100
AcDbArc
 50
90.0527120198
 51
179.9727280192
  0
ARC
  5
3F3
100
AcDbEntity
  8
0
100
AcDbCircle
 62
7
  6
CONTINUOUS
 10
125.3766955653
 20
679.1301166518
 40
0.3000529418
100
AcDbArc
 50
180.0889537308
 51
270.0993231688
  0
ARC
  5
3F4
100
AcDbEntity
  8
0
100
AcDbCircle
 62
7
  6
CONTINUOUS
 10
125.3744819997
 20
681.6902143622
 40
0.2993822884
100
AcDbArc
 50
89.912352098
 51
180.1072715782
  0
ARC
  5
3F5
100
AcDbEntity
  8
0
100
AcDbCircle
 62
7
  6
CONTINUOUS
 10
125.1358863064
 20
682.8992337222
 40
7.9999947753
100
AcDbArc
 50
180.9998213473
 51
269.9999254312
  0
ARC
  5
3F6
100
AcDbEntity
  8
0
100
AcDbCircle
 62
7
  6
CONTINUOUS
 10
125.1358821774
 20
682.8940436483
 40
7.7000160018
100
AcDbArc
 50
180.9977208939
 51
269.9999532594
  0
ARC
  5
3F7
100
AcDbEntity
  8
0
100
AcDbCircle
 62
7
  6
CONTINUOUS
 10
123.6223128761
 20
685.8892509563
 40
4.08
100
AcDbArc
 50
186.7234246114
 51
247.7628765814
  0
ARC
  5
3F8
100
AcDbEntity
  8
0
100
AcDbCircle
 62
7
  6
CONTINUOUS
 10
123.6223127296
 20
685.8892436132
 40
2.0799946122
100
AcDbArc
 50
186.9997892982
 51
270.0000040238
  0
ARC
  5
3F9
100
AcDbEntity
  8
0
100
AcDbCircle
 62
7
  6
CONTINUOUS
 10
123.622285459
 20
685.8839953957
 40
1.7799728201
100
AcDbArc
 50
186.9988907705
 51
269.9971253012
  0
ARC
  5
3FA
100
AcDbEntity
  8
0
100
AcDbCircle
 62
7
  6
CONTINUOUS
 10
126.7751678396
 20
683.1736416678
 40
0.3002555883
100
AcDbArc
 50
0.0832173803
 51
89.9073537321
  0
ARC
  5
3FB
100
AcDbEntity
  8
0
100
AcDbCircle
 62
7
  6
CONTINUOUS
 10
126.775851347
 20
682.2897053864
 40
0.3001039511
100
AcDbArc
 50
270.05572553
 51
359.9727272572
  0
ARC
  5
3FC
100
AcDbEntity
  8
0
100
AcDbCircle
 62
7
  6
CONTINUOUS
 10
136.3076727146
 20
670.5281000337
 40
15.1789439344
100
AcDbArc
 50
55.2126658063
 51
56.1151449807
  0
ARC
  5
3FD
100
AcDbEntity
  8
0
100
AcDbCircle
 62
7
  6
CONTINUOUS
 10
138.5577703091
 20
662.1092509563
 40
0.7
100
AcDbArc
 50
270.0000190883
 51
360.0
  0
ARC
  5
3FE
100
AcDbEntity
  8
0
100
AcDbCircle
 62
7
  6
CONTINUOUS
 10
136.305779743
 20
659.7092509563
 40
0.5
100
AcDbArc
 50
44.0461933596
 51
89.9363849276
  0
ARC
  5
3FF
100
AcDbEntity
  8
0
100
AcDbCircle
 62
7
  6
CONTINUOUS
 10
134.8227703091
 20
660.5092509563
 40
0.3
100
AcDbArc
 50
180.0
 51
270.0714930187
  0
ARC
  5
400
100
AcDbEntity
  8
0
100
AcDbCircle
 62
7
  6
CONTINUOUS
 10
134.6227703091
 20
661.3092509563
 40
0.1
100
AcDbArc
 50
90.0
 51
180.0
  0
ARC
  5
401
100
AcDbEntity
  8
0
100
AcDbCircle
 62
7
  6
CONTINUOUS
 10
134.4697546738
 20
681.589249538
 40
0.3001203186
100
AcDbArc
 50
0.0299134011
 51
89.945017015
  0
ARC
  5
402
100
AcDbEntity
  8
0
100
AcDbCircle
 62
7
  6
CONTINUOUS
 10
134.4697679418
 20
679.2292391315
 40
0.3001039659
100
AcDbArc
 50
270.0554713189
 51
359.9769693165
  0
ARC
  5
403
100
AcDbEntity
  8
0
100
AcDbCircle
 62
7
  6
CONTINUOUS
 10
133.2696892711
 20
682.289705387
 40
0.3001039512
100
AcDbArc
 50
180.0270418946
 51
269.9442744674
  0
ARC
  5
404
100
AcDbEntity
  8
0
100
AcDbCircle
 62
7
  6
CONTINUOUS
 10
134.6688450866
 20
679.130116687
 40
0.3000530446
100
AcDbArc
 50
269.900670414
 51
359.9110432122
  0
ARC
  5
405
100
AcDbEntity
  8
0
100
AcDbCircle
 62
7
  6
CONTINUOUS
 10
134.6710586763
 20
681.6902143136
 40
0.2993822458
100
AcDbArc
 50
359.8927377025
 51
90.087659338
  0
CIRCLE
  5
406
100
AcDbEntity
  8
0
100
AcDbCircle
 62
7
  6
CONTINUOUS
 10
133.8727703091
 20
684.3092509563
 40
0.5
  0
ARC
  5
407
100
AcDbEntity
  8
0
100
AcDbCircle
 62
7
  6
CONTINUOUS
 10
132.344445519
 20
684.099568907
 40
0.3002555877
100
AcDbArc
 50
270.0898950464
 51
359.9167588336
  0
ARC
  5
408
100
AcDbEntity
  8
0
100
AcDbCircle
 62
7
  6
CONTINUOUS
 10
133.4778239124
 20
688.6092509563
 40
0.3
100
AcDbArc
 50
269.9999999999
 51
349.9999999995
  0
ARC
  5
409
100
AcDbEntity
  8
0
100
AcDbCircle
 62
7
  6
CONTINUOUS
 10
135.9336706779
 20
677.9092509563
 40
1.0
100
AcDbArc
 50
270.0
 51
350.0000001202
  0
ARC
  5
40A
100
AcDbEntity
  8
0
100
AcDbCircle
 62
7
  6
CONTINUOUS
 10
137.956392081
 20
677.8631763127
 40
0.999988477
100
AcDbArc
 50
60.6183206441
 51
170.0010550105
  0
ARC
  5
40B
100
AcDbEntity
  8
0
100
AcDbCircle
 62
7
  6
CONTINUOUS
 10
137.9563634345
 20
677.8684106475
 40
0.6999733748
100
AcDbArc
 50
60.6158253734
 51
170.0003602434
  0
ARC
  5
40C
100
AcDbEntity
  8
0
100
AcDbCircle
 62
7
  6
CONTINUOUS
 10
136.0208174719
 20
684.8168808069
 40
0.999324051
100
AcDbArc
 50
179.9624106894
 51
244.9972036571
  0
ARC
  5
40D
100
AcDbEntity
  8
0
100
AcDbCircle
 62
7
  6
CONTINUOUS
 10
135.9482489705
 20
689.5490217676
 40
14.3001870981
100
AcDbArc
 50
336.4498679467
 51
359.0392783525
  0
ARC
  5
40E
100
AcDbEntity
  8
0
100
AcDbCircle
 62
7
  6
CONTINUOUS
 10
135.9484361385
 20
689.5437525411
 40
14.0
100
AcDbArc
 50
336.4318294097
 51
359.040244207
  0
ARC
  5
40F
100
AcDbEntity
  8
0
100
AcDbCircle
 62
7
  6
CONTINUOUS
 10
136.7727703091
 20
688.8992509563
 40
14.0
100
AcDbArc
 50
270.0000000207
 51
1.6781841059
  0
ARC
  5
410
100
AcDbEntity
  8
0
100
AcDbCircle
 62
7
  6
CONTINUOUS
 10
136.7728478076
 20
688.8940288743
 40
13.6999564721
100
AcDbArc
 50
269.9996759178
 51
1.7368079796
  0
ARC
  5
411
100
AcDbEntity
  8
0
100
AcDbCircle
 62
7
  6
CONTINUOUS
 10
137.6215802518
 20
686.3449929624
 40
0.6004243302
100
AcDbArc
 50
318.2155012871
 51
50.0100904851
  0
ARC
  5
412
100
AcDbEntity
  8
0
100
AcDbCircle
 62
7
  6
CONTINUOUS
 10
137.7815226952
 20
686.2113858782
 40
0.5996454442
100
AcDbArc
 50
318.2113737301
 51
50.017066642
  0
ARC
  5
413
100
AcDbEntity
  8
0
100
AcDbCircle
 62
7
  6
CONTINUOUS
 10
136.9033687705
 20
688.899276966
 40
13.8693258972
100
AcDbArc
 50
359.6967310865
 51
359.9998887448
  0
ARC
  5
414
100
AcDbEntity
  8
0
100
AcDbCircle
 62
7
  6
CONTINUOUS
 10
136.9055297356
 20
688.8992247233
 40
13.867165434
100
AcDbArc
 50
359.7359887293
 51
0.0001047741
  0
ARC
  5
415
100
AcDbEntity
  8
0
100
AcDbCircle
 62
7
  6
CONTINUOUS
 10
136.9110109729
 20
688.8989639129
 40
13.8616862127
100
AcDbArc
 50
359.7336323757
 51
0.0011830892
  0
ARC
  5
416
100
AcDbEntity
  8
0
100
AcDbCircle
 62
7
  6
CONTINUOUS
 10
136.924240101
 20
688.8992326491
 40
13.8484550686
100
AcDbArc
 50
0.0000721238
 51
0.425393613
  0
ARC
  5
417
100
AcDbEntity
  8
0
100
AcDbCircle
 62
7
  6
CONTINUOUS
 10
136.9269353841
 20
688.89896577
 40
13.8457618014
100
AcDbArc
 50
0.0011767648
 51
0.2982651027
  0
ARC
  5
418
100
AcDbEntity
  8
0
100
AcDbCircle
 62
7
  6
CONTINUOUS
 10
141.0227243699
 20
665.3943717991
 40
6.791078083
100
AcDbArc
 50
265.778108041
 51
274.2218885997
  0
ARC
  5
419
100
AcDbEntity
  8
0
100
AcDbCircle
 62
7
  6
CONTINUOUS
 10
141.0226611454
 20
665.3926546342
 40
6.7893604035
100
AcDbArc
 50
265.7775733131
 51
274.2224118149
  0
ARC
  5
41A
100
AcDbEntity
  8
0
100
AcDbCircle
 62
7
  6
CONTINUOUS
 10
141.0227703091
 20
664.2717509563
 40
6.0625
100
AcDbArc
 50
224.0461977675
 51
249.2286681082
  0
ARC
  5
41B
100
AcDbEntity
  8
0
100
AcDbCircle
 62
7
  6
CONTINUOUS
 10
141.0227703091
 20
664.2717509563
 40
6.0625
100
AcDbArc
 50
290.7713318127
 51
315.9538066119
  0
ARC
  5
41C
100
AcDbEntity
  8
0
100
AcDbCircle
 62
7
  6
CONTINUOUS
 10
141.0227703091
 20
664.2717509563
 40
6.0418462617
100
AcDbArc
 50
249.2522893223
 51
265.2529923349
  0
ARC
  5
41D
100
AcDbEntity
  8
0
100
AcDbCircle
 62
7
  6
CONTINUOUS
 10
141.0227703091
 20
664.2717509563
 40
6.0418462617
100
AcDbArc
 50
274.7470076651
 51
290.7477106777
  0
ARC
  5
41E
100
AcDbEntity
  8
0
100
AcDbCircle
 62
7
  6
CONTINUOUS
 10
141.0227703091
 20
659.9060036987
 40
1.3
100
AcDbArc
 50
27.6478742203
 51
152.3521257797
  0
ARC
  5
41F
100
AcDbEntity
  8
0
100
AcDbCircle
 62
7
  6
CONTINUOUS
 10
143.4877703091
 20
662.1092509563
 40
0.7
100
AcDbArc
 50
180.0
 51
269.9999809117
  0
ARC
  5
420
100
AcDbEntity
  8
0
100
AcDbCircle
 62
7
  6
CONTINUOUS
 10
145.7397608751
 20
659.7092509563
 40
0.5
100
AcDbArc
 50
90.0636355664
 51
135.9538066404
  0
ARC
  5
421
100
AcDbEntity
  8
0
100
AcDbCircle
 62
7
  6
CONTINUOUS
 10
147.2227703091
 20
660.5092509563
 40
0.3
100
AcDbArc
 50
269.9285069809
 51
360.0
  0
ARC
  5
422
100
AcDbEntity
  8
0
100
AcDbCircle
 62
7
  6
CONTINUOUS
 10
147.4227703091
 20
661.3092509563
 40
0.1
100
AcDbArc
 50
0.0
 51
90.0
  0
ARC
  5
423
100
AcDbEntity
  8
0
100
AcDbCircle
 62
7
  6
CONTINUOUS
 10
141.0227703091
 20
683.3092509563
 40
5.25
100
AcDbArc
 50
240.6186836089
 51
338.6575397546
  0
ARC
  5
424
100
AcDbEntity
  8
0
100
AcDbCircle
 62
7
  6
CONTINUOUS
 10
141.0209393159
 20
683.3109135333
 40
3.9595039867
100
AcDbArc
 50
328.3906550005
 51
355.4119897699
  0
ARC
  5
425
100
AcDbEntity
  8
0
100
AcDbCircle
 62
7
  6
CONTINUOUS
 10
141.0228944086
 20
683.3104775007
 40
3.9577579692
100
AcDbArc
 50
184.583694681
 51
211.6058997311
  0
ARC
  5
426
100
AcDbEntity
  8
0
100
AcDbCircle
 62
7
  6
CONTINUOUS
 10
141.0233878303
 20
683.3107891132
 40
3.9569415929
100
AcDbArc
 50
35.2377809999
 51
41.7347909598
  0
ARC
  5
427
100
AcDbEntity
  8
0
100
AcDbCircle
 62
7
  6
CONTINUOUS
 10
141.019287435
 20
683.313067086
 40
3.9532843443
100
AcDbArc
 50
138.2622008452
 51
144.7652294096
  0
ARC
  5
428
100
AcDbEntity
  8
0
100
AcDbCircle
 62
7
  6
CONTINUOUS
 10
141.0354680693
 20
683.3107377241
 40
3.7646953352
100
AcDbArc
 50
182.7663239753
 51
208.3964912471
  0
ARC
  5
429
100
AcDbEntity
  8
0
100
AcDbCircle
 62
7
  6
CONTINUOUS
 10
141.0188907363
 20
683.3052958129
 40
3.7566161843
100
AcDbArc
 50
31.5750970903
 51
41.8542558625
  0
ARC
  5
42A
100
AcDbEntity
  8
0
100
AcDbCircle
 62
7
  6
CONTINUOUS
 10
141.0191655733
 20
683.308765255
 40
3.7554804735
100
AcDbArc
 50
331.5643408976
 51
357.2572452645
  0
ARC
  5
42B
100
AcDbEntity
  8
0
100
AcDbCircle
 62
7
  6
CONTINUOUS
 10
141.0252500017
 20
683.3063584041
 40
3.7548619322
100
AcDbArc
 50
138.1435764399
 51
148.4260102156
  0
ARC
  5
42C
100
AcDbEntity
  8
0
100
AcDbCircle
 62
7
  6
CONTINUOUS
 10
144.2640178257
 20
686.2113858726
 40
0.5996453107
100
AcDbArc
 50
129.9971900864
 51
221.7885815409
  0
ARC
  5
42D
100
AcDbEntity
  8
0
100
AcDbCircle
 62
7
  6
CONTINUOUS
 10
147.7755041982
 20
680.6707337048
 40
1.9999069555
100
AcDbArc
 50
114.9987956754
 51
158.6584053339
  0
ARC
  5
42E
100
AcDbEntity
  8
0
100
AcDbCircle
 62
7
  6
CONTINUOUS
 10
147.7756209099
 20
680.6758591702
 40
1.7000643244
100
AcDbArc
 50
114.9996871899
 51
158.6564611641
  0
ARC
  5
42F
100
AcDbEntity
  8
0
100
AcDbCircle
 62
7
  6
CONTINUOUS
 10
146.9227703091
 20
684.6865153317
 40
2.0
100
AcDbArc
 50
294.9999999974
 51
338.2683034297
  0
ARC
  5
430
100
AcDbEntity
  8
0
100
AcDbCircle
 62
7
  6
CONTINUOUS
 10
146.2305282834
 20
684.6866002537
 40
1.0004109477
100
AcDbArc
 50
295.0044167553
 51
359.9572265358
  0
ARC
  5
431
100
AcDbEntity
  8
0
100
AcDbCircle
 62
7
  6
CONTINUOUS
 10
144.4239603068
 20
686.3449929748
 40
0.6004243375
100
AcDbArc
 50
129.9899070456
 51
221.7845073496
  0
ARC
  5
432
100
AcDbEntity
  8
0
100
AcDbCircle
 62
7
  6
CONTINUOUS
 10
146.7235161356
 20
687.0294143224
 40
0.3000585613
100
AcDbArc
 50
0.0163905362
 51
137.9941389027
  0
ARC
  5
433
100
AcDbEntity
  8
0
100
AcDbCircle
 62
7
  6
CONTINUOUS
 10
163.4605137796
 20
737.1707581019
 40
69.0644077799
100
AcDbArc
 50
250.7562121233
 51
251.0416057367
  0
CIRCLE
  5
434
100
AcDbEntity
  8
0
100
AcDbCircle
 62
7
  6
CONTINUOUS
 10
329.7221669651
 20
617.1989543449
 40
3.0
  0
CIRCLE
  5
435
100
AcDbEntity
  8
0
100
AcDbCircle
 62
7
  6
CONTINUOUS
 10
329.7221669651
 20
617.1989543449
 40
1.95
  0
CIRCLE
  5
436
100
AcDbEntity
  8
0
100
AcDbCircle
 62
7
  6
CONTINUOUS
 10
239.7221669651
 20
576.1989543449
 40
0.8660254038
  0
CIRCLE
  5
437
100
AcDbEntity
  8
0
100
AcDbCircle
 62
7
  6
CONTINUOUS
 10
264.7221669651
 20
576.1989543449
 40
0.8660254038
  0
CIRCLE
  5
438
100
AcDbEntity
  8
0
100
AcDbCircle
 62
7
  6
CONTINUOUS
 10
289.7221669651
 20
576.1989543449
 40
0.8660254038
  0
CIRCLE
  5
439
100
AcDbEntity
  8
0
100
AcDbCircle
 62
7
  6
CONTINUOUS
 10
314.7221669651
 20
576.1989543449
 40
0.8660254038
  0
CIRCLE
  5
43A
100
AcDbEntity
  8
0
100
AcDbCircle
 62
7
  6
CONTINUOUS
 10
339.7221669651
 20
576.1989543449
 40
0.8660254038
  0
CIRCLE
  5
43B
100
AcDbEntity
  8
0
100
AcDbCircle
 62
7
  6
CONTINUOUS
 10
364.7221669651
 20
576.1989543449
 40
0.8660254038
  0
CIRCLE
  5
43C
100
AcDbEntity
  8
0
100
AcDbCircle
 62
7
  6
CONTINUOUS
 10
449.7221669651
 20
410.1989543449
 40
3.0
  0
CIRCLE
  5
43D
100
AcDbEntity
  8
0
100
AcDbCircle
 62
7
  6
CONTINUOUS
 10
449.7221669651
 20
410.1989543449
 40
1.95
  0
CIRCLE
  5
43E
100
AcDbEntity
  8
0
100
AcDbCircle
 62
7
  6
CONTINUOUS
 10
389.7221669651
 20
451.1989543449
 40
0.8660254038
  0
CIRCLE
  5
43F
100
AcDbEntity
  8
0
100
AcDbCircle
 62
7
  6
CONTINUOUS
 10
414.7221669651
 20
451.1989543449
 40
0.8660254038
  0
CIRCLE
  5
440
100
AcDbEntity
  8
0
100
AcDbCircle
 62
7
  6
CONTINUOUS
 10
439.7221669651
 20
451.1989543449
 40
0.8660254038
  0
CIRCLE
  5
441
100
AcDbEntity
  8
0
100
AcDbCircle
 62
7
  6
CONTINUOUS
 10
464.7221669651
 20
451.1989543449
 40
0.8660254038
  0
CIRCLE
  5
442
100
AcDbEntity
  8
0
100
AcDbCircle
 62
7
  6
CONTINUOUS
 10
489.7221669651
 20
451.1989543449
 40
0.8660254038
  0
CIRCLE
  5
443
100
AcDbEntity
  8
0
100
AcDbCircle
 62
7
  6
CONTINUOUS
 10
514.7221669651
 20
451.1989543449
 40
0.8660254038
  0
CIRCLE
  5
444
100
AcDbEntity
  8
0
100
AcDbCircle
 62
7
  6
CONTINUOUS
 10
389.7221669651
 20
501.1989543449
 40
0.8660254038
  0
CIRCLE
  5
445
100
AcDbEntity
  8
0
100
AcDbCircle
 62
7
  6
CONTINUOUS
 10
389.7221669651
 20
476.1989543449
 40
0.8660254038
  0
CIRCLE
  5
446
100
AcDbEntity
  8
0
100
AcDbCircle
 62
7
  6
CONTINUOUS
 10
414.7221669651
 20
501.1989543449
 40
0.8660254038
  0
CIRCLE
  5
447
100
AcDbEntity
  8
0
100
AcDbCircle
 62
7
  6
CONTINUOUS
 10
414.7221669651
 20
476.1989543449
 40
0.8660254038
  0
CIRCLE
  5
448
100
AcDbEntity
  8
0
100
AcDbCircle
 62
7
  6
CONTINUOUS
 10
439.7221669651
 20
501.1989543449
 40
0.8660254038
  0
CIRCLE
  5
449
100
AcDbEntity
  8
0
100
AcDbCircle
 62
7
  6
CONTINUOUS
 10
439.7221669651
 20
476.1989543449
 40
0.8660254038
  0
CIRCLE
  5
44A
100
AcDbEntity
  8
0
100
AcDbCircle
 62
7
  6
CONTINUOUS
 10
389.7221669651
 20
551.1989543449
 40
0.8660254038
  0
CIRCLE
  5
44B
100
AcDbEntity
  8
0
100
AcDbCircle
 62
7
  6
CONTINUOUS
 10
389.7221669651
 20
526.1989543449
 40
0.8660254038
  0
CIRCLE
  5
44C
100
AcDbEntity
  8
0
100
AcDbCircle
 62
7
  6
CONTINUOUS
 10
414.7221669651
 20
551.1989543449
 40
0.8660254038
  0
CIRCLE
  5
44D
100
AcDbEntity
  8
0
100
AcDbCircle
 62
7
  6
CONTINUOUS
 10
414.7221669651
 20
526.1989543449
 40
0.8660254038
  0
CIRCLE
  5
44E
100
AcDbEntity
  8
0
100
AcDbCircle
 62
7
  6
CONTINUOUS
 10
439.7221669651
 20
551.1989543449
 40
0.8660254038
  0
CIRCLE
  5
44F
100
AcDbEntity
  8
0
100
AcDbCircle
 62
7
  6
CONTINUOUS
 10
439.7221669651
 20
526.1989543449
 40
0.8660254038
  0
CIRCLE
  5
450
100
AcDbEntity
  8
0
100
AcDbCircle
 62
7
  6
CONTINUOUS
 10
464.7221669651
 20
501.1989543449
 40
0.8660254038
  0
CIRCLE
  5
451
100
AcDbEntity
  8
0
100
AcDbCircle
 62
7
  6
CONTINUOUS
 10
464.7221669651
 20
476.1989543449
 40
0.8660254038
  0
CIRCLE
  5
452
100
AcDbEntity
  8
0
100
AcDbCircle
 62
7
  6
CONTINUOUS
 10
489.7221669651
 20
501.1989543449
 40
0.8660254038
  0
CIRCLE
  5
453
100
AcDbEntity
  8
0
100
AcDbCircle
 62
7
  6
CONTINUOUS
 10
489.7221669651
 20
476.1989543449
 40
0.8660254038
  0
CIRCLE
  5
454
100
AcDbEntity
  8
0
100
AcDbCircle
 62
7
  6
CONTINUOUS
 10
514.7221669651
 20
501.1989543449
 40
0.8660254038
  0
CIRCLE
  5
455
100
AcDbEntity
  8
0
100
AcDbCircle
 62
7
  6
CONTINUOUS
 10
514.7221669651
 20
476.1989543449
 40
0.8660254038
  0
CIRCLE
  5
456
100
AcDbEntity
  8
0
100
AcDbCircle
 62
7
  6
CONTINUOUS
 10
464.7221669651
 20
551.1989543449
 40
0.8660254038
  0
CIRCLE
  5
457
100
AcDbEntity
  8
0
100
AcDbCircle
 62
7
  6
CONTINUOUS
 10
464.7221669651
 20
526.1989543449
 40
0.8660254038
  0
CIRCLE
  5
458
100
AcDbEntity
  8
0
100
AcDbCircle
 62
7
  6
CONTINUOUS
 10
489.7221669651
 20
551.1989543449
 40
0.8660254038
  0
CIRCLE
  5
459
100
AcDbEntity
  8
0
100
AcDbCircle
 62
7
  6
CONTINUOUS
 10
489.7221669651
 20
526.1989543449
 40
0.8660254038
  0
CIRCLE
  5
45A
100
AcDbEntity
  8
0
100
AcDbCircle
 62
7
  6
CONTINUOUS
 10
514.7221669651
 20
551.1989543449
 40
0.8660254038
  0
CIRCLE
  5
45B
100
AcDbEntity
  8
0
100
AcDbCircle
 62
7
  6
CONTINUOUS
 10
514.7221669651
 20
526.1989543449
 40
0.8660254038
  0
CIRCLE
  5
45C
100
AcDbEntity
  8
0
100
AcDbCircle
 62
7
  6
CONTINUOUS
 10
569.7221669651
 20
410.1989543449
 40
3.0
  0
CIRCLE
  5
45D
100
AcDbEntity
  8
0
100
AcDbCircle
 62
7
  6
CONTINUOUS
 10
569.7221669651
 20
410.1989543449
 40
1.95
  0
ARC
  5
45E
100
AcDbEntity
  8
0
100
AcDbCircle
 62
7
  6
CONTINUOUS
 10
612.2221669651
 20
428.6989543449
 40
25.0
100
AcDbArc
 50
270.0
 51
360.0
  0
CIRCLE
  5
45F
100
AcDbEntity
  8
0
100
AcDbCircle
 62
7
  6
CONTINUOUS
 10
539.7221669651
 20
451.1989543449
 40
0.8660254038
  0
CIRCLE
  5
460
100
AcDbEntity
  8
0
100
AcDbCircle
 62
7
  6
CONTINUOUS
 10
564.7221669651
 20
451.1989543449
 40
0.8660254038
  0
CIRCLE
  5
461
100
AcDbEntity
  8
0
100
AcDbCircle
 62
7
  6
CONTINUOUS
 10
589.7221669651
 20
451.1989543449
 40
0.8660254038
  0
ARC
  5
462
100
AcDbEntity
  8
0
100
AcDbCircle
 62
7
  6
CONTINUOUS
 10
686.5221669651
 20
390.8989543449
 40
3.2
100
AcDbArc
 50
270.0
 51
359.9999999999
  0
ARC
  5
463
100
AcDbEntity
  8
0
100
AcDbCircle
 62
7
  6
CONTINUOUS
 10
615.4721669651
 20
425.4489543449
 40
27.0
100
AcDbArc
 50
270.0
 51
360.0
  0
ARC
  5
464
100
AcDbEntity
  8
0
100
AcDbCircle
 62
7
  6
CONTINUOUS
 10
614.4721669651
 20
426.4489543449
 40
26.6781992624
100
AcDbArc
 50
269.9999999994
 51
360.0
  0
ARC
  5
465
100
AcDbEntity
  8
0
100
AcDbCircle
 62
7
  6
CONTINUOUS
 10
615.4721669651
 20
425.4489543449
 40
26.5
100
AcDbArc
 50
270.0
 51
360.0
  0
ARC
  5
466
100
AcDbEntity
  8
0
100
AcDbCircle
 62
7
  6
CONTINUOUS
 10
614.4721669651
 20
426.4489543449
 40
24.7085837563
100
AcDbArc
 50
269.999999992
 51
360.0
  0
ARC
  5
467
100
AcDbEntity
  8
0
100
AcDbCircle
 62
7
  6
CONTINUOUS
 10
614.4721669651
 20
426.4489543449
 40
24.6167271797
100
AcDbArc
 50
269.999999992
 51
360.0
  0
ARC
  5
468
100
AcDbEntity
  8
0
100
AcDbCircle
 62
7
  6
CONTINUOUS
 10
614.4721669651
 20
426.4489543449
 40
23.6319194267
100
AcDbArc
 50
270.0
 51
360.0
  0
CIRCLE
  5
469
100
AcDbEntity
  8
0
100
AcDbCircle
 62
7
  6
CONTINUOUS
 10
630.7221669651
 20
453.6989543449
 40
3.0
  0
CIRCLE
  5
46A
100
AcDbEntity
  8
0
100
AcDbCircle
 62
7
  6
CONTINUOUS
 10
630.7221669651
 20
453.6989543449
 40
1.95
  0
CIRCLE
  5
46B
100
AcDbEntity
  8
0
100
AcDbCircle
 62
7
  6
CONTINUOUS
 10
539.7221669651
 20
551.1989543449
 40
0.8660254038
  0
CIRCLE
  5
46C
100
AcDbEntity
  8
0
100
AcDbCircle
 62
7
  6
CONTINUOUS
 10
539.7221669651
 20
526.1989543449
 40
0.8660254038
  0
CIRCLE
  5
46D
100
AcDbEntity
  8
0
100
AcDbCircle
 62
7
  6
CONTINUOUS
 10
539.7221669651
 20
501.1989543449
 40
0.8660254038
  0
CIRCLE
  5
46E
100
AcDbEntity
  8
0
100
AcDbCircle
 62
7
  6
CONTINUOUS
 10
539.7221669651
 20
476.1989543449
 40
0.8660254038
  0
CIRCLE
  5
46F
100
AcDbEntity
  8
0
100
AcDbCircle
 62
7
  6
CONTINUOUS
 10
564.7221669651
 20
551.1989543449
 40
0.8660254038
  0
CIRCLE
  5
470
100
AcDbEntity
  8
0
100
AcDbCircle
 62
7
  6
CONTINUOUS
 10
564.7221669651
 20
526.1989543449
 40
0.8660254038
  0
CIRCLE
  5
471
100
AcDbEntity
  8
0
100
AcDbCircle
 62
7
  6
CONTINUOUS
 10
564.7221669651
 20
501.1989543449
 40
0.8660254038
  0
CIRCLE
  5
472
100
AcDbEntity
  8
0
100
AcDbCircle
 62
7
  6
CONTINUOUS
 10
564.7221669651
 20
476.1989543449
 40
0.8660254038
  0
CIRCLE
  5
473
100
AcDbEntity
  8
0
100
AcDbCircle
 62
7
  6
CONTINUOUS
 10
589.7221669651
 20
551.1989543449
 40
0.8660254038
  0
CIRCLE
  5
474
100
AcDbEntity
  8
0
100
AcDbCircle
 62
7
  6
CONTINUOUS
 10
589.7221669651
 20
526.1989543449
 40
0.8660254038
  0
CIRCLE
  5
475
100
AcDbEntity
  8
0
100
AcDbCircle
 62
7
  6
CONTINUOUS
 10
589.7221669651
 20
501.1989543449
 40
0.8660254038
  0
CIRCLE
  5
476
100
AcDbEntity
  8
0
100
AcDbCircle
 62
7
  6
CONTINUOUS
 10
589.7221669651
 20
476.1989543449
 40
0.8660254038
  0
CIRCLE
  5
477
100
AcDbEntity
  8
0
100
AcDbCircle
 62
7
  6
CONTINUOUS
 10
449.7221669651
 20
617.1989543449
 40
3.0
  0
CIRCLE
  5
478
100
AcDbEntity
  8
0
100
AcDbCircle
 62
7
  6
CONTINUOUS
 10
449.7221669651
 20
617.1989543449
 40
1.95
  0
CIRCLE
  5
479
100
AcDbEntity
  8
0
100
AcDbCircle
 62
7
  6
CONTINUOUS
 10
389.7221669651
 20
576.1989543449
 40
0.8660254038
  0
CIRCLE
  5
47A
100
AcDbEntity
  8
0
100
AcDbCircle
 62
7
  6
CONTINUOUS
 10
414.7221669651
 20
576.1989543449
 40
0.8660254038
  0
CIRCLE
  5
47B
100
AcDbEntity
  8
0
100
AcDbCircle
 62
7
  6
CONTINUOUS
 10
439.7221669651
 20
576.1989543449
 40
0.8660254038
  0
CIRCLE
  5
47C
100
AcDbEntity
  8
0
100
AcDbCircle
 62
7
  6
CONTINUOUS
 10
464.7221669651
 20
576.1989543449
 40
0.8660254038
  0
CIRCLE
  5
47D
100
AcDbEntity
  8
0
100
AcDbCircle
 62
7
  6
CONTINUOUS
 10
489.7221669651
 20
576.1989543449
 40
0.8660254038
  0
CIRCLE
  5
47E
100
AcDbEntity
  8
0
100
AcDbCircle
 62
7
  6
CONTINUOUS
 10
514.7221669651
 20
576.1989543449
 40
0.8660254038
  0
ARC
  5
47F
100
AcDbEntity
  8
0
100
AcDbCircle
 62
7
  6
CONTINUOUS
 10
615.4721669651
 20
601.9489543449
 40
27.0
100
AcDbArc
 50
0.0
 51
90.0
  0
ARC
  5
480
100
AcDbEntity
  8
0
100
AcDbCircle
 62
7
  6
CONTINUOUS
 10
614.4721669651
 20
600.9489543449
 40
26.6781992624
100
AcDbArc
 50
0.0
 51
90.0000000012
  0
ARC
  5
481
100
AcDbEntity
  8
0
100
AcDbCircle
 62
7
  6
CONTINUOUS
 10
615.4721669651
 20
601.9489543449
 40
26.5
100
AcDbArc
 50
0.0
 51
90.0
  0
ARC
  5
482
100
AcDbEntity
  8
0
100
AcDbCircle
 62
7
  6
CONTINUOUS
 10
612.2221669651
 20
598.6989543449
 40
25.0
100
AcDbArc
 50
0.0
 51
90.0
  0
ARC
  5
483
100
AcDbEntity
  8
0
100
AcDbCircle
 62
7
  6
CONTINUOUS
 10
614.4721669651
 20
600.9489543449
 40
24.7085837563
100
AcDbArc
 50
0.0
 51
90.0
  0
ARC
  5
484
100
AcDbEntity
  8
0
100
AcDbCircle
 62
7
  6
CONTINUOUS
 10
614.4721669651
 20
600.9489543449
 40
24.6167271797
100
AcDbArc
 50
0.0
 51
90.0
  0
ARC
  5
485
100
AcDbEntity
  8
0
100
AcDbCircle
 62
7
  6
CONTINUOUS
 10
614.4721669651
 20
600.9489543449
 40
23.6319194267
100
AcDbArc
 50
0.0
 51
90.0
  0
CIRCLE
  5
486
100
AcDbEntity
  8
0
100
AcDbCircle
 62
7
  6
CONTINUOUS
 10
569.7221669651
 20
617.1989543449
 40
3.0
  0
CIRCLE
  5
487
100
AcDbEntity
  8
0
100
AcDbCircle
 62
7
  6
CONTINUOUS
 10
630.7221669651
 20
573.6989543449
 40
3.0
  0
CIRCLE
  5
488
100
AcDbEntity
  8
0
100
AcDbCircle
 62
7
  6
CONTINUOUS
 10
630.7221669651
 20
573.6989543449
 40
1.95
  0
CIRCLE
  5
489
100
AcDbEntity
  8
0
100
AcDbCircle
 62
7
  6
CONTINUOUS
 10
569.7221669651
 20
617.1989543449
 40
1.95
  0
CIRCLE
  5
48A
100
AcDbEntity
  8
0
100
AcDbCircle
 62
7
  6
CONTINUOUS
 10
539.7221669651
 20
576.1989543449
 40
0.8660254038
  0
CIRCLE
  5
48B
100
AcDbEntity
  8
0
100
AcDbCircle
 62
7
  6
CONTINUOUS
 10
564.7221669651
 20
576.1989543449
 40
0.8660254038
  0
CIRCLE
  5
48C
100
AcDbEntity
  8
0
100
AcDbCircle
 62
7
  6
CONTINUOUS
 10
589.7221669651
 20
576.1989543449
 40
0.8660254038
  0
ARC
  5
48D
100
AcDbEntity
  8
0
100
AcDbCircle
 62
7
  6
CONTINUOUS
 10
672.5301138319
 20
686.9205856545
 40
6.2112209698
100
AcDbArc
 50
273.0398193164
 51
281.1254478029
  0
ARC
  5
48E
100
AcDbEntity
  8
0
100
AcDbCircle
 62
7
  6
CONTINUOUS
 10
672.5324924918
 20
686.903373548
 40
6.1939064353
100
AcDbArc
 50
273.1005529827
 51
282.1700845434
  0
CIRCLE
  5
48F
100
AcDbEntity
  8
0
100
AcDbCircle
 62
7
  6
CONTINUOUS
 10
680.5227703091
 20
676.2092509563
 40
5.0
  0
CIRCLE
  5
490
100
AcDbEntity
  8
0
100
AcDbCircle
 62
7
  6
CONTINUOUS
 10
680.5227703091
 20
676.2092509563
 40
4.65
  0
CIRCLE
  5
491
100
AcDbEntity
  8
0
100
AcDbCircle
 62
7
  6
CONTINUOUS
 10
680.5227703091
 20
676.2092509563
 40
4.45
  0
ARC
  5
492
100
AcDbEntity
  8
0
100
AcDbCircle
 62
7
  6
CONTINUOUS
 10
686.5221669651
 20
661.4989543449
 40
3.2
100
AcDbArc
 50
0.0
 51
90.0
  0
CIRCLE
  5
493
100
AcDbEntity
  8
0
100
AcDbCircle
 62
7
  6
CONTINUOUS
 10
680.5227703091
 20
676.2092509563
 40
3.125
  0
CIRCLE
  5
494
100
AcDbEntity
  8
0
100
AcDbCircle
 62
7
  6
CONTINUOUS
 10
680.5227703091
 20
676.2092509563
 40
2.125
  0
ARC
  5
495
100
AcDbEntity
  8
0
100
AcDbCircle
 62
7
  6
CONTINUOUS
 10
672.1483609733
 20
666.6989543449
 40
2.0
100
AcDbArc
 50
168.9999999987
 51
236.3324831666
  0
SPLINE
  5
496
100
AcDbEntity
  8
0
100
AcDbSpline
 62
7
  6
CONTINUOUS
 70
0
 71
3
 72
8
 73
4
 74
0
 42
0.0000001
 43
0.0000001
 44
0.0000000001
 40
0.0
 40
0.0
 40
0.0
 40
0.0
 40
1.0
 40
1.0
 40
1.0
 40
1.0
 10
676.6923596758
 20
682.2282826547
 30
0.0
 10
677.0925755469
 20
682.5494285086
 30
0.0
 10
677.4618155763
 20
682.9126864571
 30
0.0
 10
677.7925346147
 20
683.3050285535
 30
0.0
  0
SPLINE
  5
497
100
AcDbEntity
  8
0
100
AcDbSpline
 62
7
  6
CONTINUOUS
 70
0
 71
3
 72
8
 73
4
 74
0
 42
0.0000001
 43
0.0000001
 44
0.0000000001
 40
0.0
 40
0.0
 40
0.0
 40
0.0
 40
1.0
 40
1.0
 40
1.0
 40
1.0
 10
677.7925346147
 20
683.3050285535
 30
0.0
 10
678.8649312962
 20
684.5772454908
 30
0.0
 10
679.5730708243
 20
686.2093131667
 30
0.0
 10
679.8605919397
 20
687.8481853966
 30
0.0
  0
SPLINE
  5
498
100
AcDbEntity
  8
0
100
AcDbSpline
 62
7
  6
CONTINUOUS
 70
0
 71
3
 72
8
 73
4
 74
0
 42
0.0000001
 43
0.0000001
 44
0.0000000001
 40
0.0
 40
0.0
 40
0.0
 40
0.0
 40
1.0
 40
1.0
 40
1.0
 40
1.0
 10
102.4073120868
 20
682.1852524676
 30
0.0
 10
102.0267551685
 20
682.484927287
 30
0.0
 10
101.6737091243
 20
682.8225500862
 30
0.0
 10
101.3545225544
 20
683.1868967605
 30
0.0
  0
SPLINE
  5
499
100
AcDbEntity
  8
0
100
AcDbSpline
 62
7
  6
CONTINUOUS
 70
0
 71
3
 72
8
 73
4
 74
0
 42
0.0000001
 43
0.0000001
 44
0.0000000001
 40
0.0
 40
0.0
 40
0.0
 40
0.0
 40
1.0
 40
1.0
 40
1.0
 40
1.0
 10
101.3545225544
 20
683.1868967605
 30
0.0
 10
100.22519533
 20
684.4760068211
 30
0.0
 10
99.4810958408
 20
686.1601446429
 30
0.0
 10
99.1849486784
 20
687.8481853966
 30
0.0
  0
SPLINE
  5
49A
100
AcDbEntity
  8
0
100
AcDbSpline
 62
7
  6
CONTINUOUS
 70
0
 71
3
 72
9
 73
5
 74
0
 42
0.0000001
 43
0.0000001
 44
0.0000000001
 40
0.0
 40
0.0
 40
0.0
 40
0.0
 40
0.5560846305
 40
1.0
 40
1.0
 40
1.0
 40
1.0
 10
106.525674181
 20
680.7081844838
 30
0.0
 10
106.3551980768
 20
680.7082761599
 30
0.0
 10
106.0481751076
 20
680.7215279631
 30
0.0
 10
105.7348569101
 20
680.7578982229
 30
0.0
 10
105.5948915723
 20
680.7788798
 30
0.0
  0
SPLINE
  5
49B
100
AcDbEntity
  8
0
100
AcDbSpline
 62
7
  6
CONTINUOUS
 70
0
 71
3
 72
12
 73
8
 74
0
 42
0.0000001
 43
0.0000001
 44
0.0000000001
 40
0.0
 40
0.0
 40
0.0
 40
0.0
 40
0.1041183979
 40
0.257495946
 40
0.4108734942
 40
0.7176285905
 40
1.0
 40
1.0
 40
1.0
 40
1.0
 10
105.5948915723
 20
680.7788798
 30
0.0
 10
105.299048736
 20
680.823228275
 30
0.0
 10
104.557690333
 20
680.9863427678
 30
0.0
 10
103.3697933425
 20
681.4833388368
 30
0.0
 10
101.6870088304
 20
682.653775547
 30
0.0
 10
100.0224691567
 20
684.8032912771
 30
0.0
 10
99.3573782918
 20
686.8725139051
 30
0.0
 10
99.1849551007
 20
687.8481865605
 30
0.0
  0
SPLINE
  5
49C
100
AcDbEntity
  8
0
100
AcDbSpline
 62
7
  6
CONTINUOUS
 70
0
 71
3
 72
9
 73
5
 74
0
 42
0.0000001
 43
0.0000001
 44
0.0000000001
 40
0.0
 40
0.0
 40
0.0
 40
0.0
 40
0.4691220796
 40
1.0
 40
1.0
 40
1.0
 40
1.0
 10
105.7025451707
 20
680.7627244304
 30
0.0
 10
104.133216696
 20
680.9700185896
 30
0.0
 10
100.930806295
 20
682.7994054507
 30
0.0
 10
99.4944914785
 20
686.0837894207
 30
0.0
 10
99.1849486784
 20
687.8481853966
 30
0.0
  0
SPLINE
  5
49D
100
AcDbEntity
  8
0
100
AcDbSpline
 62
7
  6
CONTINUOUS
 70
0
 71
3
 72
13
 73
9
 74
0
 42
0.0000001
 43
0.0000001
 44
0.0000000001
 40
0.0
 40
0.0
 40
0.0
 40
0.0
 40
0.0093393384
 40
0.182191082
 40
0.3550428256
 40
0.5278945692
 40
0.8735980564
 40
1.0
 40
1.0
 40
1.0
 40
1.0
 10
673.8382573845
 20
680.848668355
 30
0.0
 10
673.8636639656
 20
680.8541344895
 30
0.0
 10
674.3598571248
 20
680.9640697745
 30
0.0
 10
675.3494618354
 20
681.3049504099
 30
0.0
 10
676.7296950289
 20
682.1790106848
 30
0.0
 10
678.365007291
 20
683.8139285661
 30
0.0
 10
679.4172856892
 20
685.8681539935
 30
0.0
 10
679.7875034013
 20
687.431580252
 30
0.0
 10
679.8605919397
 20
687.8481853966
 30
0.0
  0
SPLINE
  5
49E
100
AcDbEntity
  8
0
100
AcDbSpline
 62
7
  6
CONTINUOUS
 70
0
 71
3
 72
9
 73
5
 74
0
 42
0.0000001
 43
0.0000001
 44
0.0000000001
 40
0.0
 40
0.0
 40
0.0
 40
0.0
 40
0.4725317816
 40
1.0
 40
1.0
 40
1.0
 40
1.0
 10
673.7286172826
 20
680.8260917941
 30
0.0
 10
675.2360739771
 20
681.1225877037
 30
0.0
 10
678.2174562443
 20
683.0024256587
 30
0.0
 10
679.5642493385
 20
686.1590306404
 30
0.0
 10
679.8605919397
 20
687.8481853966
 30
0.0
  0
SPLINE
  5
49F
100
AcDbEntity
  8
0
100
AcDbSpline
 62
7
  6
CONTINUOUS
 70
0
 71
3
 72
9
 73
5
 74
0
 42
0.0000001
 43
0.0000001
 44
0.0000000001
 40
0.0
 40
0.0
 40
0.0
 40
0.0
 40
0.3684247479
 40
1.0
 40
1.0
 40
1.0
 40
1.0
 10
686.5221669651
 20
387.6989543449
 30
0.0
 10
686.7037041619
 20
387.6989543449
 30
0.0
 10
687.127660051
 20
388.0794489479
 30
0.0
 10
687.3195921773
 20
388.5137684835
 30
0.0
 10
687.4468854187
 20
388.797745449
 30
0.0
  0
SPLINE
  5
4A0
100
AcDbEntity
  8
0
100
AcDbSpline
 62
7
  6
CONTINUOUS
 70
0
 71
3
 72
9
 73
5
 74
0
 42
0.0000001
 43
0.0000001
 44
0.0000000001
 40
0.0
 40
0.0
 40
0.0
 40
0.0
 40
0.2312192843
 40
1.0
 40
1.0
 40
1.0
 40
1.0
 10
687.4468854187
 20
388.797745449
 30
0.0
 10
687.481565777
 20
388.8751134444
 30
0.0
 10
687.6263169308
 20
389.2120740131
 30
0.0
 10
687.7550337041
 20
389.5556708786
 30
0.0
 10
687.8503266825
 20
389.8209785215
 30
0.0
  0
SPLINE
  5
4A1
100
AcDbEntity
  8
0
100
AcDbSpline
 62
7
  6
CONTINUOUS
 70
0
 71
3
 72
8
 73
4
 74
0
 42
0.0000001
 43
0.0000001
 44
0.0000000001
 40
0.0
 40
0.0
 40
0.0
 40
0.0
 40
1.0
 40
1.0
 40
1.0
 40
1.0
 10
687.8503266825
 20
389.8209785215
 30
0.0
 10
687.9788146163
 20
390.1787050976
 30
0.0
 10
688.1003908719
 20
390.5388876351
 30
0.0
 10
688.2221669651
 20
390.8989543449
 30
0.0
  0
SPLINE
  5
4A2
100
AcDbEntity
  8
0
100
AcDbSpline
 62
7
  6
CONTINUOUS
 70
0
 71
3
 72
8
 73
4
 74
0
 42
0.0000001
 43
0.0000001
 44
0.0000000001
 40
0.0
 40
0.0
 40
0.0
 40
0.0
 40
1.0
 40
1.0
 40
1.0
 40
1.0
 10
91.2221669651
 20
390.8989543449
 30
0.0
 10
91.3439425303
 20
390.5388891955
 30
0.0
 10
91.4655182579
 20
390.1787082194
 30
0.0
 10
91.5940055775
 20
389.8209831729
 30
0.0
  0
SPLINE
  5
4A3
100
AcDbEntity
  8
0
100
AcDbSpline
 62
7
  6
CONTINUOUS
 70
0
 71
3
 72
9
 73
5
 74
0
 42
0.0000001
 43
0.0000001
 44
0.0000000001
 40
0.0
 40
0.0
 40
0.0
 40
0.0
 40
0.2783452302
 40
1.0
 40
1.0
 40
1.0
 40
1.0
 10
91.5940055775
 20
389.8209831729
 30
0.0
 10
91.6408721436
 20
389.6905006896
 30
0.0
 10
91.8131819611
 20
389.2234125732
 30
0.0
 10
92.0015525386
 20
388.7603149641
 30
0.0
 10
92.1693577203
 20
388.4424303567
 30
0.0
  0
SPLINE
  5
4A4
100
AcDbEntity
  8
0
100
AcDbSpline
 62
7
  6
CONTINUOUS
 70
0
 71
3
 72
9
 73
5
 74
0
 42
0.0000001
 43
0.0000001
 44
0.0000000001
 40
0.0
 40
0.0
 40
0.0
 40
0.0
 40
0.3430044071
 40
1.0
 40
1.0
 40
1.0
 40
1.0
 10
92.1693577203
 20
388.4424303567
 30
0.0
 10
92.2268121825
 20
388.3335905164
 30
0.0
 10
92.3967799179
 20
388.0358614145
 30
0.0
 10
92.6864298978
 20
387.6989543449
 30
0.0
 10
92.9221669651
 20
387.6989543449
 30
0.0
  0
SPLINE
  5
4A5
100
AcDbEntity
  8
0
100
AcDbSpline
 62
7
  6
CONTINUOUS
 70
0
 71
3
 72
9
 73
5
 74
0
 42
0.0000001
 43
0.0000001
 44
0.0000000001
 40
0.0
 40
0.0
 40
0.0
 40
0.0
 40
0.3684247479
 40
1.0
 40
1.0
 40
1.0
 40
1.0
 10
92.9221669651
 20
664.6989543449
 30
0.0
 10
92.7406297682
 20
664.6989543449
 30
0.0
 10
92.3166738791
 20
664.3184597419
 30
0.0
 10
92.1247417528
 20
663.8841402064
 30
0.0
 10
91.9974485114
 20
663.6001632409
 30
0.0
  0
SPLINE
  5
4A6
100
AcDbEntity
  8
0
100
AcDbSpline
 62
7
  6
CONTINUOUS
 70
0
 71
3
 72
9
 73
5
 74
0
 42
0.0000001
 43
0.0000001
 44
0.0000000001
 40
0.0
 40
0.0
 40
0.0
 40
0.0
 40
0.2312192843
 40
1.0
 40
1.0
 40
1.0
 40
1.0
 10
91.9974485114
 20
663.6001632409
 30
0.0
 10
91.9627681531
 20
663.5227952454
 30
0.0
 10
91.8180169994
 20
663.1858346767
 30
0.0
 10
91.689300226
 20
662.8422378113
 30
0.0
 10
91.5940072476
 20
662.5769301683
 30
0.0
  0
SPLINE
  5
4A7
100
AcDbEntity
  8
0
100
AcDbSpline
 62
7
  6
CONTINUOUS
 70
0
 71
3
 72
8
 73
4
 74
0
 42
0.0000001
 43
0.0000001
 44
0.0000000001
 40
0.0
 40
0.0
 40
0.0
 40
0.0
 40
1.0
 40
1.0
 40
1.0
 40
1.0
 10
91.5940072476
 20
662.5769301683
 30
0.0
 10
91.4655193138
 20
662.2192035922
 30
0.0
 10
91.3439430582
 20
661.8590210548
 30
0.0
 10
91.2221669651
 20
661.4989543449
 30
0.0
  0
SPLINE
  5
4A8
100
AcDbEntity
  8
0
100
AcDbSpline
 62
7
  6
CONTINUOUS
 70
0
 71
3
 72
8
 73
4
 74
0
 42
0.0000001
 43
0.0000001
 44
0.0000000001
 40
0.0
 40
0.0
 40
0.0
 40
0.0
 40
1.0
 40
1.0
 40
1.0
 40
1.0
 10
688.2221669651
 20
661.4989543449
 30
0.0
 10
688.1003913998
 20
661.8590194944
 30
0.0
 10
687.9788156722
 20
662.2192004705
 30
0.0
 10
687.8503283526
 20
662.5769255169
 30
0.0
  0
SPLINE
  5
4A9
100
AcDbEntity
  8
0
100
AcDbSpline
 62
7
  6
CONTINUOUS
 70
0
 71
3
 72
9
 73
5
 74
0
 42
0.0000001
 43
0.0000001
 44
0.0000000001
 40
0.0
 40
0.0
 40
0.0
 40
0.0
 40
0.2783452302
 40
1.0
 40
1.0
 40
1.0
 40
1.0
 10
687.8503283526
 20
662.5769255169
 30
0.0
 10
687.8034617865
 20
662.7074080003
 30
0.0
 10
687.631151969
 20
663.1744961166
 30
0.0
 10
687.4427813915
 20
663.6375937257
 30
0.0
 10
687.2749762098
 20
663.9554783331
 30
0.0
  0
SPLINE
  5
4AA
100
AcDbEntity
  8
0
100
AcDbSpline
 62
7
  6
CONTINUOUS
 70
0
 71
3
 72
9
 73
5
 74
0
 42
0.0000001
 43
0.0000001
 44
0.0000000001
 40
0.0
 40
0.0
 40
0.0
 40
0.0
 40
0.3430044071
 40
1.0
 40
1.0
 40
1.0
 40
1.0
 10
687.2749762098
 20
663.9554783331
 30
0.0
 10
687.2175217476
 20
664.0643181734
 30
0.0
 10
687.0475540122
 20
664.3620472754
 30
0.0
 10
686.7579040323
 20
664.6989543449
 30
0.0
 10
686.5221669651
 20
664.6989543449
 30
0.0
  0
SPLINE
  5
4AB
100
AcDbEntity
  8
0
100
AcDbSpline
 62
7
  6
CONTINUOUS
 70
0
 71
3
 72
9
 73
5
 74
0
 42
0.0000001
 43
0.0000001
 44
0.0000000001
 40
0.0
 40
0.0
 40
0.0
 40
0.0
 40
0.2284796376
 40
1.0
 40
1.0
 40
1.0
 40
1.0
 10
671.0034419779
 20
665.0342731621
 30
0.0
 10
670.8687488254
 20
665.1106497016
 30
0.0
 10
670.302339137
 20
665.485953344
 30
0.0
 10
669.8131023604
 20
665.9620280924
 30
0.0
 10
669.4450414104
 20
666.3333944472
 30
0.0
  0
SPLINE
  5
4AC
100
AcDbEntity
  8
0
100
AcDbSpline
 62
7
  6
CONTINUOUS
 70
0
 71
3
 72
8
 73
4
 74
0
 42
0.0000001
 43
0.0000001
 44
0.0000000001
 40
0.0
 40
0.0
 40
0.0
 40
0.0
 40
1.0
 40
1.0
 40
1.0
 40
1.0
 10
669.4450414104
 20
666.3333944472
 30
0.0
 10
669.3249453091
 20
666.4545690825
 30
0.0
 10
669.2058793296
 20
666.576761779
 30
0.0
 10
669.0868150356
 20
666.6989504023
 30
0.0
  0
SPLINE
  5
4AD
100
AcDbEntity
  8
0
100
AcDbSpline
 62
7
  6
CONTINUOUS
 70
0
 71
3
 72
8
 73
4
 74
0
 42
0.0000001
 43
0.0000001
 44
0.0000000001
 40
0.0
 40
0.0
 40
0.0
 40
0.0
 40
1.0
 40
1.0
 40
1.0
 40
1.0
 10
110.3575189215
 20
666.6989503726
 30
0.0
 10
110.1039849625
 20
666.4387634336
 30
0.0
 10
109.8505705579
 20
666.1781780604
 30
0.0
 10
109.5867491036
 20
665.928428282
 30
0.0
  0
SPLINE
  5
4AE
100
AcDbEntity
  8
0
100
AcDbSpline
 62
7
  6
CONTINUOUS
 70
0
 71
3
 72
9
 73
5
 74
0
 42
0.0000001
 43
0.0000001
 44
0.0000000001
 40
0.0
 40
0.0
 40
0.0
 40
0.0
 40
0.2668579165
 40
1.0
 40
1.0
 40
1.0
 40
1.0
 10
109.5867491036
 20
665.928428282
 30
0.0
 10
109.4927743082
 20
665.8394659026
 30
0.0
 10
109.1357259083
 20
665.512061524
 30
0.0
 10
108.7503873368
 20
665.2098037604
 30
0.0
 10
108.4411454911
 20
665.0344172431
 30
0.0
  0
SPLINE
  5
4AF
100
AcDbEntity
  8
0
100
AcDbSpline
 62
7
  6
CONTINUOUS
 70
0
 71
3
 72
10
 73
6
 74
0
 42
0.0000001
 43
0.0000001
 44
0.0000000001
 40
0.0
 40
0.0
 40
0.0
 40
0.0
 40
0.345037372
 40
0.6900969055
 40
1.0
 40
1.0
 40
1.0
 40
1.0
 10
119.5655941998
 20
685.4487545661
 30
0.0
 10
119.543635711
 20
685.6046855406
 30
0.0
 10
119.4222922898
 20
685.9107775399
 30
0.0
 10
119.0654549391
 20
686.2208643244
 30
0.0
 10
118.7652967742
 20
686.3009922626
 30
0.0
 10
118.623593577
 20
686.3080456134
 30
0.0
  0
SPLINE
  5
4B0
100
AcDbEntity
  8
0
100
AcDbSpline
 62
7
  6
CONTINUOUS
 70
0
 71
3
 72
18
 73
14
 74
0
 42
0.0000001
 43
0.0000001
 44
0.0000000001
 40
0.0
 40
0.0
 40
0.0
 40
0.0
 40
0.0911098218
 40
0.1821165142
 40
0.2730482693
 40
0.3639276105
 40
0.4547768908
 40
0.5456153556
 40
0.6364642224
 40
0.7273427368
 40
0.8182732526
 40
0.9092782942
 40
1.0
 40
1.0
 40
1.0
 40
1.0
 10
138.0152079584
 20
681.2277246785
 30
0.0
 10
138.1370752211
 20
681.0517335282
 30
0.0
 10
138.4129273873
 20
680.7212230009
 30
0.0
 10
138.9051197611
 20
680.304939945
 30
0.0
 10
139.4624171362
 20
679.9814762102
 30
0.0
 10
140.0671397632
 20
679.7603113882
 30
0.0
 10
140.7009814643
 20
679.6480683938
 30
0.0
 10
141.3446029762
 20
679.6480708795
 30
0.0
 10
141.9784348868
 20
679.7603261733
 30
0.0
 10
142.5831719823
 20
679.9814760618
 30
0.0
 10
143.140375201
 20
680.3050113142
 30
0.0
 10
143.6321730555
 20
680.7204349566
 30
0.0
 10
143.9067687591
 20
681.050786957
 30
0.0
 10
144.0281168831
 20
681.2260284079
 30
0.0
  0
SPLINE
  5
4B1
100
AcDbEntity
  8
0
100
AcDbSpline
 62
7
  6
CONTINUOUS
 70
0
 71
3
 72
9
 73
5
 74
0
 42
0.0000001
 43
0.0000001
 44
0.0000000001
 40
0.0
 40
0.0
 40
0.0
 40
0.0
 40
0.6657072281
 40
1.0
 40
1.0
 40
1.0
 40
1.0
 10
137.6521777963
 20
681.2363203307
 30
0.0
 10
137.6830029279
 20
681.2003270109
 30
0.0
 10
137.7747773432
 20
681.2017635133
 30
0.0
 10
137.8381087772
 20
681.229827357
 30
0.0
 10
137.8576731133
 20
681.2433746474
 30
0.0
  0
SPLINE
  5
4B2
100
AcDbEntity
  8
0
100
AcDbSpline
 62
7
  6
CONTINUOUS
 70
0
 71
3
 72
8
 73
4
 74
0
 42
0.0000001
 43
0.0000001
 44
0.0000000001
 40
0.0
 40
0.0
 40
0.0
 40
0.0
 40
1.0
 40
1.0
 40
1.0
 40
1.0
 10
144.0281168831
 20
681.2260284079
 30
0.0
 10
144.057304165
 20
681.2612138823
 30
0.0
 10
144.1242997938
 20
681.2866410159
 30
0.0
 10
144.1611088973
 20
681.2595300416
 30
0.0
  0
SPLINE
  5
4B3
100
AcDbEntity
  8
0
100
AcDbSpline
 62
7
  6
CONTINUOUS
 70
0
 71
3
 72
18
 73
14
 74
0
 42
0.0000001
 43
0.0000001
 44
0.0000000001
 40
0.0
 40
0.0
 40
0.0
 40
0.0
 40
0.0909162113
 40
0.1818266746
 40
0.2727352301
 40
0.3636429799
 40
0.4545505368
 40
0.5454580233
 40
0.6363655577
 40
0.7272732625
 40
0.8181817504
 40
0.9090921237
 40
1.0
 40
1.0
 40
1.0
 40
1.0
 10
138.0838967115
 20
681.4976356824
 30
0.0
 10
138.1955220844
 20
681.3164486709
 30
0.0
 10
138.453017333
 20
680.9739543285
 30
0.0
 10
138.926715198
 20
680.5407827623
 30
0.0
 10
139.4722079981
 20
680.202088202
 30
0.0
 10
140.0706967035
 20
679.9696854133
 30
0.0
 10
140.7017541936
 20
679.8514550326
 30
0.0
 10
141.3437896026
 20
679.8514541516
 30
0.0
 10
141.9748417754
 20
679.9696893333
 30
0.0
 10
142.5733503638
 20
680.2020769292
 30
0.0
 10
143.1187663828
 20
680.5408288263
 30
0.0
 10
143.5927338656
 20
680.9737731722
 30
0.0
 10
143.8495118937
 20
681.316781358
 30
0.0
 10
143.9611270331
 20
681.4979517587
 30
0.0
  0
SPLINE
  5
4B4
100
AcDbEntity
  8
0
100
AcDbSpline
 62
7
  6
CONTINUOUS
 70
0
 71
3
 72
9
 73
5
 74
0
 42
0.0000001
 43
0.0000001
 44
0.0000000001
 40
0.0
 40
0.0
 40
0.0
 40
0.0
 40
0.4282372925
 40
1.0
 40
1.0
 40
1.0
 40
1.0
 10
137.9248905197
 20
681.5128366196
 30
0.0
 10
137.8971294465
 20
681.5245337695
 30
0.0
 10
137.836853651
 20
681.458236597
 30
0.0
 10
137.7412234359
 20
681.484133883
 30
0.0
 10
137.7237622404
 20
681.5203671514
 30
0.0
  0
SPLINE
  5
4B5
100
AcDbEntity
  8
0
100
AcDbSpline
 62
7
  6
CONTINUOUS
 70
0
 71
3
 72
9
 73
5
 74
0
 42
0.0000001
 43
0.0000001
 44
0.0000000001
 40
0.0
 40
0.0
 40
0.0
 40
0.0
 40
0.4505241089
 40
1.0
 40
1.0
 40
1.0
 40
1.0
 10
144.3215759742
 20
681.52050152
 30
0.0
 10
144.2993575335
 20
681.495217884
 30
0.0
 10
144.217951275
 20
681.4642302465
 30
0.0
 10
144.1485288959
 20
681.5031777719
 30
0.0
 10
144.1123186239
 20
681.5225182258
 30
0.0
  0
SPLINE
  5
4B6
100
AcDbEntity
  8
0
100
AcDbSpline
 62
7
  6
CONTINUOUS
 70
0
 71
3
 72
8
 73
4
 74
0
 42
0.0000001
 43
0.0000001
 44
0.0000000001
 40
0.0
 40
0.0
 40
0.0
 40
0.0
 40
1.0
 40
1.0
 40
1.0
 40
1.0
 10
137.8271160605
 20
681.2469887161
 30
0.0
 10
137.8152460282
 20
681.2060264435
 30
0.0
 10
137.7308340523
 20
681.1698773571
 30
0.0
 10
137.7063346633
 20
681.2047855994
 30
0.0
  0
SPLINE
  5
4B7
100
AcDbEntity
  8
0
100
AcDbSpline
 62
7
  6
CONTINUOUS
 70
0
 71
3
 72
10
 73
6
 74
0
 42
0.0000001
 43
0.0000001
 44
0.0000000001
 40
0.0
 40
0.0
 40
0.0
 40
0.0
 40
0.3321953537
 40
0.6655071467
 40
1.0
 40
1.0
 40
1.0
 40
1.0
 10
137.0777944124
 20
682.9941922361
 30
0.0
 10
137.0995383166
 20
683.009295116
 30
0.0
 10
137.1432511501
 20
683.0393325209
 30
0.0
 10
137.2090510032
 20
683.0842956973
 30
0.0
 10
137.2530853357
 20
683.1141871081
 30
0.0
 10
137.2752174918
 20
683.1290461281
 30
0.0
  0
SPLINE
  5
4B8
100
AcDbEntity
  8
0
100
AcDbSpline
 62
7
  6
CONTINUOUS
 70
0
 71
3
 72
14
 73
10
 74
0
 42
0.0000001
 43
0.0000001
 44
0.0000000001
 40
0.0
 40
0.0
 40
0.0
 40
0.0
 40
0.1395156484
 40
0.2768969011
 40
0.4237267475
 40
0.5796461664
 40
0.7267506784
 40
0.8631351074
 40
1.0
 40
1.0
 40
1.0
 40
1.0
 10
134.8139853584
 20
687.5721284693
 30
0.0
 10
134.8139751674
 20
687.6055765161
 30
0.0
 10
134.8250265836
 20
687.6725378736
 30
0.0
 10
134.8746890555
 20
687.7632087695
 30
0.0
 10
134.9550587912
 20
687.8349781699
 30
0.0
 10
135.0583365985
 20
687.8741788479
 30
0.0
 10
135.1659357576
 20
687.8738016293
 30
0.0
 10
135.2624159573
 20
687.8391595018
 30
0.0
 10
135.3146910403
 20
687.797385955
 30
0.0
 10
135.3366413959
 20
687.7729965101
 30
0.0
  0
SPLINE
  5
4B9
100
AcDbEntity
  8
0
100
AcDbSpline
 62
7
  6
CONTINUOUS
 70
0
 71
3
 72
12
 73
8
 74
0
 42
0.0000001
 43
0.0000001
 44
0.0000000001
 40
0.0
 40
0.0
 40
0.0
 40
0.0
 40
0.1859340247
 40
0.3946950151
 40
0.6114224978
 40
0.8183075827
 40
1.0
 40
1.0
 40
1.0
 40
1.0
 10
137.322552813
 20
685.5664168541
 30
0.0
 10
137.3448203098
 20
685.5426532945
 30
0.0
 10
137.4027842207
 20
685.501715359
 30
0.0
 10
137.5079469708
 20
685.4729606223
 30
0.0
 10
137.6205033234
 20
685.4795039231
 30
0.0
 10
137.7206896451
 20
685.5202003399
 30
0.0
 10
137.771695954
 20
685.5679839456
 30
0.0
 10
137.7902630981
 20
685.5938291364
 30
0.0
  0
SPLINE
  5
4BA
100
AcDbEntity
  8
0
100
AcDbSpline
 62
7
  6
CONTINUOUS
 70
0
 71
3
 72
13
 73
9
 74
0
 42
0.0000001
 43
0.0000001
 44
0.0000000001
 40
0.0
 40
0.0
 40
0.0
 40
0.0
 40
0.1507563596
 40
0.3205663261
 40
0.5006038973
 40
0.6804605667
 40
0.8497740634
 40
1.0
 40
1.0
 40
1.0
 40
1.0
 10
137.8262396642
 20
685.272401382
 30
0.0
 10
137.8117166861
 20
685.2491677012
 30
0.0
 10
137.7722485924
 20
685.2047151368
 30
0.0
 10
137.6921745421
 20
685.1585773086
 30
0.0
 10
137.597155082
 20
685.1363668822
 30
0.0
 10
137.4997769324
 20
685.1412346782
 30
0.0
 10
137.4129871226
 20
685.1722721125
 30
0.0
 10
137.3662687918
 20
685.208702
 30
0.0
 10
137.3478466437
 20
685.2288532252
 30
0.0
  0
SPLINE
  5
4BB
100
AcDbEntity
  8
0
100
AcDbSpline
 62
7
  6
CONTINUOUS
 70
0
 71
3
 72
8
 73
4
 74
0
 42
0.0000001
 43
0.0000001
 44
0.0000000001
 40
0.0
 40
0.0
 40
0.0
 40
0.0
 40
1.0
 40
1.0
 40
1.0
 40
1.0
 10
124.7202741534
 20
685.881722891
 30
0.0
 10
124.7020586653
 20
685.9037522173
 30
0.0
 10
124.6878321063
 20
685.9288865639
 30
0.0
 10
124.6696166183
 20
685.9509158902
 30
0.0
  0
SPLINE
  5
4BC
100
AcDbEntity
  8
0
100
AcDbSpline
 62
7
  6
CONTINUOUS
 70
0
 71
3
 72
9
 73
5
 74
0
 42
0.0000001
 43
0.0000001
 44
0.0000000001
 40
0.0
 40
0.0
 40
0.0
 40
0.0
 40
0.5
 40
1.0
 40
1.0
 40
1.0
 40
1.0
 10
124.9999106978
 20
685.5539019853
 30
0.0
 10
124.9526840694
 20
685.6080033263
 30
0.0
 10
124.8600924256
 20
685.7178124381
 30
0.0
 10
124.7675007818
 20
685.8276215499
 30
0.0
 10
124.7202741534
 20
685.881722891
 30
0.0
  0
LINE
  5
4BD
100
AcDbEntity
  8
0
100
AcDbLine
 62
7
  6
CONTINUOUS
 10
124.6234394489
 20
685.9851756146
 11
124.8144951859
 21
688.3092509563
  0
SPLINE
  5
4BE
100
AcDbEntity
  8
0
100
AcDbSpline
 62
7
  6
CONTINUOUS
 70
0
 71
3
 72
9
 73
5
 74
0
 42
0.0000001
 43
0.0000001
 44
0.0000000001
 40
0.0
 40
0.0
 40
0.0
 40
0.0
 40
0.5
 40
1.0
 40
1.0
 40
1.0
 40
1.0
 10
124.6323320017
 20
685.9851935538
 30
0.0
 10
124.598952661
 20
685.6225724437
 30
0.0
 10
124.5366072785
 20
684.8969330029
 30
0.0
 10
124.474261896
 20
684.1712935622
 30
0.0
 10
124.4408825553
 20
683.8086724521
 30
0.0
  0
SPLINE
  5
4BF
100
AcDbEntity
  8
0
100
AcDbSpline
 62
7
  6
CONTINUOUS
 70
0
 71
3
 72
10
 73
6
 74
0
 42
0.0000001
 43
0.0000001
 44
0.0000000001
 40
0.0
 40
0.0
 40
0.0
 40
0.0
 40
0.3321629158
 40
0.6672636442
 40
1.0
 40
1.0
 40
1.0
 40
1.0
 10
124.536945891
 20
683.8096807264
 30
0.0
 10
124.5574228474
 20
684.0391199428
 30
0.0
 10
124.6046841405
 20
684.4994486555
 30
0.0
 10
124.6682499033
 20
685.1900599337
 30
0.0
 10
124.6981868843
 20
685.6522937255
 30
0.0
 10
124.7186991918
 20
685.8821290415
 30
0.0
  0
LINE
  5
4C0
100
AcDbEntity
  8
0
100
AcDbLine
 62
7
  6
CONTINUOUS
 10
124.9062774689
 20
688.3092509563
 11
124.7137898388
 21
685.8816730479
  0
SPLINE
  5
4C1
100
AcDbEntity
  8
0
100
AcDbSpline
 62
7
  6
CONTINUOUS
 70
0
 71
3
 72
10
 73
6
 74
0
 42
0.0000001
 43
0.0000001
 44
0.0000000001
 40
0.0
 40
0.0
 40
0.0
 40
0.0
 40
0.4121987935
 40
0.6909119065
 40
1.0
 40
1.0
 40
1.0
 40
1.0
 10
121.5578160387
 20
685.6357695805
 30
0.0
 10
121.5628300912
 20
685.5949333983
 30
0.0
 10
121.6787125763
 20
685.6582802439
 30
0.0
 10
121.7637456924
 20
685.6528120215
 30
0.0
 10
121.8249624378
 20
685.6633222889
 30
0.0
 10
121.8555845029
 20
685.6670741628
 30
0.0
  0
SPLINE
  5
4C2
100
AcDbEntity
  8
0
100
AcDbSpline
 62
7
  6
CONTINUOUS
 70
0
 71
3
 72
10
 73
6
 74
0
 42
0.0000001
 43
0.0000001
 44
0.0000000001
 40
0.0
 40
0.0
 40
0.0
 40
0.0
 40
0.3333916103
 40
0.6666872155
 40
1.0
 40
1.0
 40
1.0
 40
1.0
 10
123.622196152
 20
684.1040123256
 30
0.0
 10
123.7597024807
 20
684.1023568202
 30
0.0
 10
124.0346903954
 20
684.0997391198
 30
0.0
 10
124.4471705867
 20
684.1016510411
 30
0.0
 10
124.7221270012
 20
684.0993060247
 30
0.0
 10
124.8596031204
 20
684.0978546495
 30
0.0
  0
SPLINE
  5
4C3
100
AcDbEntity
  8
0
100
AcDbSpline
 62
7
  6
CONTINUOUS
 70
0
 71
3
 72
11
 73
7
 74
0
 42
0.0000001
 43
0.0000001
 44
0.0000000001
 40
0.0
 40
0.0
 40
0.0
 40
0.0
 40
0.3517487542
 40
0.6259400132
 40
0.8207690087
 40
1.0
 40
1.0
 40
1.0
 40
1.0
 10
131.8782028581
 20
686.037555573
 30
0.0
 10
131.9859500695
 20
686.0289400895
 30
0.0
 10
132.1739834349
 20
686.0106591022
 30
0.0
 10
132.436059446
 20
685.9802476958
 30
0.0
 10
132.6029943299
 20
685.9381872049
 30
0.0
 10
132.7749534823
 20
685.9139234692
 30
0.0
 10
132.7730313217
 20
685.8588799902
 30
0.0
  0
SPLINE
  5
4C4
100
AcDbEntity
  8
0
100
AcDbSpline
 62
7
  6
CONTINUOUS
 70
0
 71
3
 72
8
 73
4
 74
0
 42
0.0000001
 43
0.0000001
 44
0.0000000001
 40
0.0
 40
0.0
 40
0.0
 40
0.0
 40
1.0
 40
1.0
 40
1.0
 40
1.0
 10
131.7550627879
 20
686.0620969328
 30
0.0
 10
131.7536021071
 20
686.0202685095
 30
0.0
 10
131.8364820993
 20
686.0408915686
 30
0.0
 10
131.8782028581
 20
686.037555573
 30
0.0
  0
SPLINE
  5
4C5
100
AcDbEntity
  8
0
100
AcDbSpline
 62
7
  6
CONTINUOUS
 70
0
 71
3
 72
8
 73
4
 74
0
 42
0.0000001
 43
0.0000001
 44
0.0000000001
 40
0.0
 40
0.0
 40
0.0
 40
0.0
 40
1.0
 40
1.0
 40
1.0
 40
1.0
 10
131.8311397708
 20
686.0819098225
 30
0.0
 10
131.8051101892
 20
686.0788838997
 30
0.0
 10
131.7559773247
 20
686.0882858417
 30
0.0
 10
131.7550627879
 20
686.0620969328
 30
0.0
  0
SPLINE
  5
4C6
100
AcDbEntity
  8
0
100
AcDbSpline
 62
7
  6
CONTINUOUS
 70
0
 71
3
 72
10
 73
6
 74
0
 42
0.0000001
 43
0.0000001
 44
0.0000000001
 40
0.0
 40
0.0
 40
0.0
 40
0.0
 40
0.4193476758
 40
0.6952911319
 40
1.0
 40
1.0
 40
1.0
 40
1.0
 10
132.6438382696
 20
685.5319869377
 30
0.0
 10
132.6206065062
 20
685.4971117263
 30
0.0
 10
132.5268554902
 20
685.5400766441
 30
0.0
 10
132.4339992126
 20
685.5278244307
 30
0.0
 10
132.3745213434
 20
685.5313905152
 30
0.0
 10
132.34407826
 20
685.531988894
 30
0.0
  0
SPLINE
  5
4C7
100
AcDbEntity
  8
0
100
AcDbSpline
 62
7
  6
CONTINUOUS
 70
0
 71
3
 72
10
 73
6
 74
0
 42
0.0000001
 43
0.0000001
 44
0.0000000001
 40
0.0
 40
0.0
 40
0.0
 40
0.0
 40
0.3027635936
 40
0.5771363721
 40
1.0
 40
1.0
 40
1.0
 40
1.0
 10
133.2718717919
 20
686.3437695956
 30
0.0
 10
133.2415960504
 20
686.3443158017
 30
0.0
 10
133.1834994006
 20
686.3442285182
 30
0.0
 10
133.0854036919
 20
686.3530807727
 30
0.0
 10
133.0091626647
 20
686.3339817567
 30
0.0
 10
132.9720389826
 20
686.3542420059
 30
0.0
  0
SPLINE
  5
4C8
100
AcDbEntity
  8
0
100
AcDbSpline
 62
7
  6
CONTINUOUS
 70
0
 71
3
 72
10
 73
6
 74
0
 42
0.0000001
 43
0.0000001
 44
0.0000000001
 40
0.0
 40
0.0
 40
0.0
 40
0.0
 40
0.422834576
 40
0.6967568914
 40
1.0
 40
1.0
 40
1.0
 40
1.0
 10
132.9695777494
 20
682.2895637374
 30
0.0
 10
133.0073653479
 20
682.2705271983
 30
0.0
 10
133.0828637434
 20
682.2902078652
 30
0.0
 10
133.181264489
 20
682.2832858866
 30
0.0
 10
133.2393618344
 20
682.2843448423
 30
0.0
 10
133.2697065
 20
682.2843266244
 30
0.0
  0
SPLINE
  5
4C9
100
AcDbEntity
  8
0
100
AcDbSpline
 62
7
  6
CONTINUOUS
 70
0
 71
3
 72
9
 73
5
 74
0
 42
0.0000001
 43
0.0000001
 44
0.0000000001
 40
0.0
 40
0.0
 40
0.0
 40
0.0
 40
0.49992666
 40
1.0
 40
1.0
 40
1.0
 40
1.0
 10
126.9746712504
 20
681.890395966
 30
0.0
 10
127.0511493566
 20
681.8904534034
 30
0.0
 10
127.2104275957
 20
681.9545466073
 30
0.0
 10
127.2743993936
 20
682.1138495868
 30
0.0
 10
127.2744459919
 20
682.1903501393
 30
0.0
  0
SPLINE
  5
4CA
100
AcDbEntity
  8
0
100
AcDbSpline
 62
7
  6
CONTINUOUS
 70
0
 71
3
 72
23
 73
19
 74
0
 42
0.0000001
 43
0.0000001
 44
0.0000000001
 40
0.0
 40
0.0
 40
0.0
 40
0.0
 40
0.0142794117
 40
0.0457854157
 40
0.0945386855
 40
0.1573570833
 40
0.2318882669
 40
0.3152904598
 40
0.4053386899
 40
0.4994678979
 40
0.5934648608
 40
0.6831638723
 40
0.7662700772
 40
0.8408988542
 40
0.9042153511
 40
0.9535860802
 40
0.9855512483
 40
1.0
 40
1.0
 40
1.0
 40
1.0
 10
133.0708908535
 20
681.8903959401
 30
0.0
 10
133.0433438411
 20
681.881242158
 30
0.0
 10
132.94855378
 20
681.8794673435
 30
0.0
 10
132.7581178233
 20
681.8663325596
 30
0.0
 10
132.4665699704
 20
681.8606591356
 30
0.0
 10
132.0886316574
 20
681.8524386606
 30
0.0
 10
131.6398010752
 20
681.8468199795
 30
0.0
 10
131.1357413195
 20
681.8423291787
 30
0.0
 10
130.5917839508
 20
681.8396448426
 30
0.0
 10
130.0262955335
 20
681.8387220786
 30
0.0
 10
129.4615170211
 20
681.8396217631
 30
0.0
 10
128.9191399358
 20
681.8422690287
 30
0.0
 10
128.4161931507
 20
681.846711014
 30
0.0
 10
127.9667516123
 20
681.8522775378
 30
0.0
 10
127.5863520937
 20
681.8605023893
 30
0.0
 10
127.2915830803
 20
681.8661347242
 30
0.0
 10
127.0986561213
 20
681.879450396
 30
0.0
 10
127.0025366971
 20
681.881108836
 30
0.0
 10
126.9746712504
 20
681.8903959531
 30
0.0
  0
SPLINE
  5
4CB
100
AcDbEntity
  8
0
100
AcDbSpline
 62
7
  6
CONTINUOUS
 70
0
 71
3
 72
9
 73
5
 74
0
 42
0.0000001
 43
0.0000001
 44
0.0000000001
 40
0.0
 40
0.0
 40
0.0
 40
0.0
 40
0.500077039
 40
1.0
 40
1.0
 40
1.0
 40
1.0
 10
132.7710947341
 20
682.1903501465
 30
0.0
 10
132.7711413329
 20
682.113845733
 30
0.0
 10
132.835119855
 20
681.9545352011
 30
0.0
 10
132.9944100151
 20
681.890447923
 30
0.0
 10
133.0708908534
 20
681.8903959363
 30
0.0
  0
SPLINE
  5
4CC
100
AcDbEntity
  8
0
100
AcDbSpline
 62
7
  6
CONTINUOUS
 70
0
 71
3
 72
10
 73
6
 74
0
 42
0.0000001
 43
0.0000001
 44
0.0000000001
 40
0.0
 40
0.0
 40
0.0
 40
0.0
 40
0.3024835377
 40
0.5766590598
 40
1.0
 40
1.0
 40
1.0
 40
1.0
 10
126.7761432197
 20
682.2843268099
 30
0.0
 10
126.8063804647
 20
682.2843452353
 30
0.0
 10
126.8643621005
 20
682.283299165
 30
0.0
 10
126.9626789777
 20
682.2901785822
 30
0.0
 10
127.0381165254
 20
682.2706232583
 30
0.0
 10
127.0759604679
 20
682.2895625319
 30
0.0
  0
SPLINE
  5
4CD
100
AcDbEntity
  8
0
100
AcDbSpline
 62
7
  6
CONTINUOUS
 70
0
 71
3
 72
16
 73
12
 74
0
 42
0.0000001
 43
0.0000001
 44
0.0000000001
 40
0.0
 40
0.0
 40
0.0
 40
0.0
 40
0.0089023428
 40
0.0266534131
 40
0.0531734071
 40
0.0881638474
 40
0.1821807059
 40
0.3058718341
 40
0.455728899
 40
0.6257719465
 40
1.0
 40
1.0
 40
1.0
 40
1.0
 10
127.2744459653
 20
683.3731027545
 30
0.0
 10
127.2799186581
 20
683.3791720762
 30
0.0
 10
127.3055108577
 20
683.3855427037
 30
0.0
 10
127.351907334
 20
683.3954914073
 30
0.0
 10
127.4248769126
 20
683.4043364164
 30
0.0
 10
127.5665837036
 20
683.4182238339
 30
0.0
 10
127.7984272483
 20
683.4328572263
 30
0.0
 10
128.1353975008
 20
683.4477835465
 30
0.0
 10
128.5424961814
 20
683.4597940964
 30
0.0
 10
129.1795666564
 20
683.4722993529
 30
0.0
 10
129.6792297111
 20
683.47589466
 30
0.0
 10
130.0227703363
 20
683.4758939098
 30
0.0
  0
SPLINE
  5
4CE
100
AcDbEntity
  8
0
100
AcDbSpline
 62
7
  6
CONTINUOUS
 70
0
 71
3
 72
16
 73
12
 74
0
 42
0.0000001
 43
0.0000001
 44
0.0000000001
 40
0.0
 40
0.0
 40
0.0
 40
0.0
 40
0.3747331843
 40
0.5449952643
 40
0.6950290707
 40
0.8188309396
 40
0.9128521976
 40
0.9477812463
 40
0.9741726666
 40
0.991675744
 40
1.0
 40
1.0
 40
1.0
 40
1.0
 10
130.0227703101
 20
682.1389701703
 30
0.0
 10
129.6792943867
 20
682.1389700717
 30
0.0
 10
129.1797502945
 20
682.1407613475
 30
0.0
 10
128.5427347729
 20
682.1470210765
 30
0.0
 10
128.1356966183
 20
682.1529958516
 30
0.0
 10
127.7986726013
 20
682.1605300885
 30
0.0
 10
127.566956286
 20
682.1676741503
 30
0.0
 10
127.4249533852
 20
682.1748562851
 30
0.0
 10
127.3524451288
 20
682.1788335523
 30
0.0
 10
127.3056005813
 20
682.1846400509
 30
0.0
 10
127.2811191905
 20
682.1866509515
 30
0.0
 10
127.2744459919
 20
682.1903501393
 30
0.0
  0
SPLINE
  5
4CF
100
AcDbEntity
  8
0
100
AcDbSpline
 62
7
  6
CONTINUOUS
 70
0
 71
3
 72
16
 73
12
 74
0
 42
0.0000001
 43
0.0000001
 44
0.0000000001
 40
0.0
 40
0.0
 40
0.0
 40
0.0
 40
0.008324413
 40
0.0258276168
 40
0.0522191195
 40
0.0871482005
 40
0.1811693513
 40
0.304970851
 40
0.4550040649
 40
0.6252656773
 40
1.0
 40
1.0
 40
1.0
 40
1.0
 10
132.7710947341
 20
682.1903501465
 30
0.0
 10
132.7644212732
 20
682.1866511348
 30
0.0
 10
132.7399397874
 20
682.1846401359
 30
0.0
 10
132.6930947584
 20
682.1788338058
 30
0.0
 10
132.620586351
 20
682.1748564668
 30
0.0
 10
132.4785834015
 20
682.1676743356
 30
0.0
 10
132.2468675199
 20
682.160530149
 30
0.0
 10
131.9098444631
 20
682.1529958645
 30
0.0
 10
131.5028076128
 20
682.1470211545
 30
0.0
 10
130.8657920014
 20
682.1407615504
 30
0.0
 10
130.3662472848
 20
682.1389702762
 30
0.0
 10
130.0227703101
 20
682.1389701776
 30
0.0
  0
SPLINE
  5
4D0
100
AcDbEntity
  8
0
100
AcDbSpline
 62
7
  6
CONTINUOUS
 70
0
 71
3
 72
11
 73
7
 74
0
 42
0.0000001
 43
0.0000001
 44
0.0000000001
 40
0.0
 40
0.0
 40
0.0
 40
0.0
 40
0.2228682118
 40
0.4966619022
 40
0.7563856553
 40
1.0
 40
1.0
 40
1.0
 40
1.0
 10
132.1739862793
 20
683.4357407251
 30
0.0
 10
132.2388560878
 20
683.4264702369
 30
0.0
 10
132.3889668623
 20
683.4528172182
 30
0.0
 10
132.5833401031
 20
683.5690225475
 30
0.0
 10
132.7279416862
 20
683.7537362612
 30
0.0
 10
132.7659835709
 20
683.9012904427
 30
0.0
 10
132.7710950833
 20
683.9727365941
 30
0.0
  0
SPLINE
  5
4D1
100
AcDbEntity
  8
0
100
AcDbSpline
 62
7
  6
CONTINUOUS
 70
0
 71
3
 72
9
 73
5
 74
0
 42
0.0000001
 43
0.0000001
 44
0.0000000001
 40
0.0
 40
0.0
 40
0.0
 40
0.0
 40
0.2841829553
 40
1.0
 40
1.0
 40
1.0
 40
1.0
 10
130.0227703363
 20
683.4758912498
 30
0.0
 10
130.2265909843
 20
683.4758908047
 30
0.0
 10
130.9437629517
 20
683.4721055176
 30
0.0
 10
131.6611692335
 20
683.4606660437
 30
0.0
 10
132.1739590986
 20
683.4357331194
 30
0.0
  0
SPLINE
  5
4D2
100
AcDbEntity
  8
0
100
AcDbSpline
 62
7
  6
CONTINUOUS
 70
0
 71
3
 72
11
 73
7
 74
0
 42
0.0000001
 43
0.0000001
 44
0.0000000001
 40
0.0
 40
0.0
 40
0.0
 40
0.0
 40
0.227269232
 40
0.4649395477
 40
0.7192995146
 40
1.0
 40
1.0
 40
1.0
 40
1.0
 10
132.7710950841
 20
683.9727365984
 30
0.0
 10
132.7647076704
 20
683.9376616028
 30
0.0
 10
132.734436665
 20
683.8684053132
 30
0.0
 10
132.651001848
 20
683.7888595654
 30
0.0
 10
132.5380974514
 20
683.7392276224
 30
0.0
 10
132.4525416472
 20
683.7317407217
 30
0.0
 10
132.4086738046
 20
683.735558287
 30
0.0
  0
SPLINE
  5
4D3
100
AcDbEntity
  8
0
100
AcDbSpline
 62
7
  6
CONTINUOUS
 70
0
 71
3
 72
10
 73
6
 74
0
 42
0.0000001
 43
0.0000001
 44
0.0000000001
 40
0.0
 40
0.0
 40
0.0
 40
0.0
 40
0.4234366631
 40
0.697673833
 40
1.0
 40
1.0
 40
1.0
 40
1.0
 10
127.0754213165
 20
683.1740778846
 30
0.0
 10
127.0375773236
 20
683.1551385858
 30
0.0
 10
126.962139664
 20
683.1746940865
 30
0.0
 10
126.8638450367
 20
683.1678157175
 30
0.0
 10
126.8058861844
 20
683.1688606154
 30
0.0
 10
126.7756714623
 20
683.1688422038
 30
0.0
  0
SPLINE
  5
4D4
100
AcDbEntity
  8
0
100
AcDbSpline
 62
7
  6
CONTINUOUS
 70
0
 71
3
 72
9
 73
5
 74
0
 42
0.0000001
 43
0.0000001
 44
0.0000000001
 40
0.0
 40
0.0
 40
0.0
 40
0.0
 40
0.4594019916
 40
1.0
 40
1.0
 40
1.0
 40
1.0
 10
132.4087127636
 20
683.7355529492
 30
0.0
 10
132.3461675284
 20
683.7338424366
 30
0.0
 10
132.2135477888
 20
683.6506551918
 30
0.0
 10
132.1752114578
 20
683.5093496447
 30
0.0
 10
132.1739590986
 20
683.4357331194
 30
0.0
  0
SPLINE
  5
4D5
100
AcDbEntity
  8
0
100
AcDbSpline
 62
7
  6
CONTINUOUS
 70
0
 71
3
 72
19
 73
15
 74
0
 42
0.0000001
 43
0.0000001
 44
0.0000000001
 40
0.0
 40
0.0
 40
0.0
 40
0.0
 40
0.017686816
 40
0.055149176
 40
0.1134410323
 40
0.1905910316
 40
0.2822364682
 40
0.3847387764
 40
0.49447449
 40
0.6076709221
 40
0.7192807403
 40
0.8229982933
 40
0.9159963593
 40
1.0
 40
1.0
 40
1.0
 40
1.0
 10
126.9747268391
 20
683.6729192309
 30
0.0
 10
127.0022288377
 20
683.6894094699
 30
0.0
 10
127.1062841241
 20
683.697940667
 30
0.0
 10
127.3072509984
 20
683.7213436701
 30
0.0
 10
127.6223625134
 20
683.734917984
 30
0.0
 10
128.0329912271
 20
683.751053871
 30
0.0
 10
128.5250167392
 20
683.762723566
 30
0.0
 10
129.075819327
 20
683.7712682166
 30
0.0
 10
129.6658614621
 20
683.7757074693
 30
0.0
 10
130.2723969984
 20
683.7759594694
 30
0.0
 10
130.8680186794
 20
683.7721782102
 30
0.0
 10
131.4269801211
 20
683.7645951088
 30
0.0
 10
131.9358098441
 20
683.7529151251
 30
0.0
 10
132.2565428766
 20
683.7419068187
 30
0.0
 10
132.4087124224
 20
683.7355545706
 30
0.0
  0
SPLINE
  5
4D6
100
AcDbEntity
  8
0
100
AcDbSpline
 62
7
  6
CONTINUOUS
 70
0
 71
3
 72
9
 73
5
 74
0
 42
0.0000001
 43
0.0000001
 44
0.0000000001
 40
0.0
 40
0.0
 40
0.0
 40
0.0
 40
0.4999830484
 40
1.0
 40
1.0
 40
1.0
 40
1.0
 10
127.2744459653
 20
683.3731027545
 30
0.0
 10
127.274352686
 20
683.4495517031
 30
0.0
 10
127.2103115009
 20
683.6087021929
 30
0.0
 10
127.0511809372
 20
683.672801048
 30
0.0
 10
126.9747268391
 20
683.6729191762
 30
0.0
  0
SPLINE
  5
4D7
100
AcDbEntity
  8
0
100
AcDbSpline
 62
7
  6
CONTINUOUS
 70
0
 71
3
 72
10
 73
6
 74
0
 42
0.0000001
 43
0.0000001
 44
0.0000000001
 40
0.0
 40
0.0
 40
0.0
 40
0.0
 40
0.3024835371
 40
0.5766590594
 40
1.0
 40
1.0
 40
1.0
 40
1.0
 10
132.3448817458
 20
684.0938969668
 30
0.0
 10
132.3751189907
 20
684.0939153921
 30
0.0
 10
132.4331006264
 20
684.0928693218
 30
0.0
 10
132.5314175035
 20
684.099748739
 30
0.0
 10
132.6068550512
 20
684.0801934151
 30
0.0
 10
132.6446989936
 20
684.0991326887
 30
0.0
  0
SPLINE
  5
4D8
100
AcDbEntity
  8
0
100
AcDbSpline
 62
7
  6
CONTINUOUS
 70
0
 71
3
 72
11
 73
7
 74
0
 42
0.0000001
 43
0.0000001
 44
0.0000000001
 40
0.0
 40
0.0
 40
0.0
 40
0.0
 40
0.0843939036
 40
0.3050293965
 40
0.6368506275
 40
1.0
 40
1.0
 40
1.0
 40
1.0
 10
125.0751076831
 20
681.6896537231
 30
0.0
 10
125.0675691567
 20
681.6858811308
 30
0.0
 10
125.0352555116
 20
681.6903050609
 30
0.0
 10
124.9732800581
 20
681.6838448622
 30
0.0
 10
124.8810269099
 20
681.6854026389
 30
0.0
 10
124.81182362
 20
681.6844409483
 30
0.0
 10
124.7755498794
 20
681.6844182836
 30
0.0
  0
SPLINE
  5
4D9
100
AcDbEntity
  8
0
100
AcDbSpline
 62
7
  6
CONTINUOUS
 70
0
 71
3
 72
13
 73
9
 74
0
 42
0.0000001
 43
0.0000001
 44
0.0000000001
 40
0.0
 40
0.0
 40
0.0
 40
0.0
 40
0.1836272027
 40
0.3439497296
 40
0.5091715352
 40
0.6707416001
 40
0.8301390598
 40
1.0
 40
1.0
 40
1.0
 40
1.0
 10
124.775549877
 20
681.6844181293
 30
0.0
 10
124.7795866965
 20
681.7417229377
 30
0.0
 10
124.7953389802
 20
681.8489927717
 30
0.0
 10
124.8552854684
 20
681.9985614393
 30
0.0
 10
124.9516738211
 20
682.1193025426
 30
0.0
 10
125.0747576167
 20
682.2112145047
 30
0.0
 10
125.2183924105
 20
682.2701759462
 30
0.0
 10
125.3218006628
 20
682.2829990286
 30
0.0
 10
125.3749241868
 20
682.28432681
 30
0.0
  0
SPLINE
  5
4DA
100
AcDbEntity
  8
0
100
AcDbSpline
 62
7
  6
CONTINUOUS
 70
0
 71
3
 72
11
 73
7
 74
0
 42
0.0000001
 43
0.0000001
 44
0.0000000001
 40
0.0
 40
0.0
 40
0.0
 40
0.0
 40
0.3648219594
 40
0.6969192164
 40
0.9164672203
 40
1.0
 40
1.0
 40
1.0
 40
1.0
 10
124.7768502512
 20
679.1243923133
 30
0.0
 10
124.8133226859
 20
679.1244145355
 30
0.0
 10
124.8827792212
 20
679.1253828058
 30
0.0
 10
124.9752010859
 20
679.1238233494
 30
0.0
 10
125.0370678557
 20
679.1302647828
 30
0.0
 10
125.069199897
 20
679.1258905685
 30
0.0
 10
125.0766679093
 20
679.1296280458
 30
0.0
  0
SPLINE
  5
4DB
100
AcDbEntity
  8
0
100
AcDbSpline
 62
7
  6
CONTINUOUS
 70
0
 71
3
 72
13
 73
9
 74
0
 42
0.0000001
 43
0.0000001
 44
0.0000000001
 40
0.0
 40
0.0
 40
0.0
 40
0.0
 40
0.1847695933
 40
0.3452617515
 40
0.5103973719
 40
0.6714852324
 40
0.8304916804
 40
1.0
 40
1.0
 40
1.0
 40
1.0
 10
125.3772157572
 20
678.5248490939
 30
0.0
 10
125.3195654258
 20
678.5291648409
 30
0.0
 10
125.2119402737
 20
678.5452771124
 30
0.0
 10
125.0620529549
 20
678.6055023568
 30
0.0
 10
124.9415165837
 20
678.7019913724
 30
0.0
 10
124.8499128749
 20
678.8249274197
 30
0.0
 10
124.791026164
 20
678.9681863564
 30
0.0
 10
124.7782032803
 20
679.0713729587
 30
0.0
 10
124.7768502512
 20
679.1243923183
 30
0.0
  0
SPLINE
  5
4DC
100
AcDbEntity
  8
0
100
AcDbSpline
 62
7
  6
CONTINUOUS
 70
0
 71
3
 72
11
 73
7
 74
0
 42
0.0000001
 43
0.0000001
 44
0.0000000001
 40
0.0
 40
0.0
 40
0.0
 40
0.0
 40
0.0835671116
 40
0.30317726
 40
0.6352908808
 40
1.0
 40
1.0
 40
1.0
 40
1.0
 10
134.9688727241
 20
679.1296280495
 30
0.0
 10
134.9763502832
 20
679.1258857943
 30
0.0
 10
135.0085206664
 20
679.1302679462
 30
0.0
 10
135.0704519325
 20
679.1238192524
 30
0.0
 10
135.1629504934
 20
679.1253819114
 30
0.0
 10
135.2324576731
 20
679.124413846
 30
0.0
 10
135.2689504389
 20
679.1243921639
 30
0.0
  0
SPLINE
  5
4DD
100
AcDbEntity
  8
0
100
AcDbSpline
 62
7
  6
CONTINUOUS
 70
0
 71
3
 72
13
 73
9
 74
0
 42
0.0000001
 43
0.0000001
 44
0.0000000001
 40
0.0
 40
0.0
 40
0.0
 40
0.0
 40
0.1842628472
 40
0.3446621114
 40
0.5093894966
 40
0.6704184487
 40
0.829594034
 40
1.0
 40
1.0
 40
1.0
 40
1.0
 10
135.2689504418
 20
679.1243923228
 30
0.0
 10
135.2646881608
 20
679.066891381
 30
0.0
 10
135.2485817157
 20
678.9594243302
 30
0.0
 10
135.1880610226
 20
678.8099581821
 30
0.0
 10
135.0914592573
 20
678.6897830933
 30
0.0
 10
134.9687521536
 20
678.5980332769
 30
0.0
 10
134.8251752709
 20
678.5389685787
 30
0.0
 10
134.7216302132
 20
678.5262078389
 30
0.0
 10
134.668324863
 20
678.5248490939
 30
0.0
  0
SPLINE
  5
4DE
100
AcDbEntity
  8
0
100
AcDbSpline
 62
7
  6
CONTINUOUS
 70
0
 71
3
 72
11
 73
7
 74
0
 42
0.0000001
 43
0.0000001
 44
0.0000000001
 40
0.0
 40
0.0
 40
0.0
 40
0.0
 40
0.3630356835
 40
0.694872458
 40
0.9155709258
 40
1.0
 40
1.0
 40
1.0
 40
1.0
 10
135.2702508161
 20
681.6844181603
 30
0.0
 10
135.2339569591
 20
681.6844402861
 30
0.0
 10
135.1647033392
 20
681.6854017575
 30
0.0
 10
135.0723736429
 20
681.6838407874
 30
0.0
 10
135.0103334679
 20
681.6903082725
 30
0.0
 10
134.9779811246
 20
681.6858763021
 30
0.0
 10
134.9704329104
 20
681.6896537408
 30
0.0
  0
SPLINE
  5
4DF
100
AcDbEntity
  8
0
100
AcDbSpline
 62
7
  6
CONTINUOUS
 70
0
 71
3
 72
13
 73
9
 74
0
 42
0.0000001
 43
0.0000001
 44
0.0000000001
 40
0.0
 40
0.0
 40
0.0
 40
0.0
 40
0.184106422
 40
0.3444938582
 40
0.5095460892
 40
0.6708512183
 40
0.8299926245
 40
1.0
 40
1.0
 40
1.0
 40
1.0
 10
134.6706164263
 20
682.28432681
 30
0.0
 10
134.7280632166
 20
682.2801349289
 30
0.0
 10
134.8354704921
 20
682.2641591813
 30
0.0
 10
134.9850771253
 20
682.2039707593
 30
0.0
 10
135.105602172
 20
682.1075003067
 30
0.0
 10
135.1973262488
 20
681.9845450087
 30
0.0
 10
135.2561432464
 20
681.8409681442
 30
0.0
 10
135.268905679
 20
681.7375896261
 30
0.0
 10
135.270250816
 20
681.6844181375
 30
0.0
  0
SPLINE
  5
4E0
100
AcDbEntity
  8
0
100
AcDbSpline
 62
7
  6
CONTINUOUS
 70
0
 71
3
 72
24
 73
20
 74
0
 42
0.0000001
 43
0.0000001
 44
0.0000000001
 40
0.0
 40
0.0
 40
0.0
 40
0.0
 40
0.0113601814
 40
0.038584226
 40
0.0807860907
 40
0.1363316116
 40
0.2042340055
 40
0.2818328315
 40
0.3664596224
 40
0.4552738353
 40
0.545402328
 40
0.6339761337
 40
0.7181930366
 40
0.7954042145
 40
0.8631172255
 40
0.9187126408
 40
0.9611045811
 40
0.9885359631
 40
1.0
 40
1.0
 40
1.0
 40
1.0
 10
134.470050544
 20
681.8893716239
 30
0.0
 10
134.4399360607
 20
681.8742568235
 30
0.0
 10
134.319841042
 20
681.8786093213
 30
0.0
 10
134.0855147293
 20
681.8550655137
 30
0.0
 10
133.7124225924
 20
681.8498084648
 30
0.0
 10
133.2222605373
 20
681.8368160857
 30
0.0
 10
132.6256301279
 20
681.8287908815
 30
0.0
 10
131.9432199987
 20
681.8214714249
 30
0.0
 10
131.1986001849
 20
681.8167481247
 30
0.0
 10
130.4168559078
 20
681.8142825691
 30
0.0
 10
129.6233827912
 20
681.8142918012
 30
0.0
 10
128.8435673078
 20
681.8167670664
 30
0.0
 10
128.1020263808
 20
681.8214787037
 30
0.0
 10
127.4225423621
 20
681.8287614076
 30
0.0
 10
126.8274767866
 20
681.8367454959
 30
0.0
 10
126.3371642377
 20
681.8497128641
 30
0.0
 10
125.962731764
 20
681.8549220734
 30
0.0
 10
125.7269619861
 20
681.8786188636
 30
0.0
 10
125.6058787755
 20
681.8741161885
 30
0.0
 10
125.5754901876
 20
681.8893715682
 30
0.0
  0
SPLINE
  5
4E1
100
AcDbEntity
  8
0
100
AcDbSpline
 62
7
  6
CONTINUOUS
 70
0
 71
3
 72
24
 73
20
 74
0
 42
0.0000001
 43
0.0000001
 44
0.0000000001
 40
0.0
 40
0.0
 40
0.0
 40
0.0
 40
0.0113551809
 40
0.0385793794
 40
0.08078147
 40
0.1363272805
 40
0.2042300225
 40
0.2818292431
 40
0.3664564618
 40
0.4552711222
 40
0.5454000687
 40
0.633974321
 40
0.7181916499
 40
0.7954032207
 40
0.8631165791
 40
0.9187122845
 40
0.9611044517
 40
0.9885359885
 40
1.0
 40
1.0
 40
1.0
 40
1.0
 10
125.5755341191
 20
678.9291365036
 30
0.0
 10
125.6056340447
 20
678.9442468672
 30
0.0
 10
125.7257154449
 20
678.9398907415
 30
0.0
 10
125.9600245546
 20
678.9634382775
 30
0.0
 10
126.3331181619
 20
678.9686926496
 30
0.0
 10
126.8232797575
 20
678.9816861183
 30
0.0
 10
127.419910428
 20
678.9897109279
 30
0.0
 10
128.1023205306
 20
678.9970305134
 30
0.0
 10
128.8469403858
 20
679.001753773
 30
0.0
 10
129.6286846677
 20
679.0042193405
 30
0.0
 10
130.4221577911
 20
679.0042101025
 30
0.0
 10
131.2019732903
 20
679.0017348481
 30
0.0
 10
131.9435142243
 20
678.9970231785
 30
0.0
 10
132.622998338
 20
678.9897405824
 30
0.0
 10
133.218063814
 20
678.9817561694
 30
0.0
 10
133.7083769117
 20
678.9687897077
 30
0.0
 10
134.0828083808
 20
678.9635782672
 30
0.0
 10
134.3185802044
 20
678.9398858536
 30
0.0
 10
134.4396605487
 20
678.9443832591
 30
0.0
 10
134.4700501615
 20
678.9291304704
 30
0.0
  0
SPLINE
  5
4E2
100
AcDbEntity
  8
0
100
AcDbSpline
 62
7
  6
CONTINUOUS
 70
0
 71
3
 72
16
 73
12
 74
0
 42
0.0000001
 43
0.0000001
 44
0.0000000001
 40
0.0
 40
0.0
 40
0.0
 40
0.0
 40
0.169885791
 40
0.3348342398
 40
0.4900528501
 40
0.6310334816
 40
0.7536836672
 40
0.8544460117
 40
0.9304028742
 40
0.9793667201
 40
1.0
 40
1.0
 40
1.0
 40
1.0
 10
130.0227703091
 20
679.3040504512
 30
0.0
 10
130.2916877592
 20
679.3040504554
 30
0.0
 10
130.8217098193
 20
679.303328157
 30
0.0
 10
131.5974137737
 20
679.3000371995
 30
0.0
 10
132.3273938178
 20
679.294792501
 30
0.0
 10
132.9902589662
 20
679.2873077338
 30
0.0
 10
133.567325296
 20
679.2792578379
 30
0.0
 10
134.0402072191
 20
679.2668524496
 30
0.0
 10
134.3994681408
 20
679.261325327
 30
0.0
 10
134.6253955091
 20
679.2397580139
 30
0.0
 10
134.7403091329
 20
679.2430159637
 30
0.0
 10
134.7698767651
 20
679.2291415417
 30
0.0
  0
SPLINE
  5
4E3
100
AcDbEntity
  8
0
100
AcDbSpline
 62
7
  6
CONTINUOUS
 70
0
 71
3
 72
16
 73
12
 74
0
 42
0.0000001
 43
0.0000001
 44
0.0000000001
 40
0.0
 40
0.0
 40
0.0
 40
0.0
 40
0.0206332867
 40
0.0695971104
 40
0.1455539058
 40
0.2463161472
 40
0.3689662199
 40
0.5099467689
 40
0.6651653736
 40
0.8301139374
 40
1.0
 40
1.0
 40
1.0
 40
1.0
 10
125.275663867
 20
679.2291305604
 30
0.0
 10
125.305231722
 20
679.2430045353
 30
0.0
 10
125.4201448163
 20
679.2397479329
 30
0.0
 10
125.6460724427
 20
679.2613148578
 30
0.0
 10
126.0053328359
 20
679.2668432764
 30
0.0
 10
126.4782143894
 20
679.2792495617
 30
0.0
 10
127.0552802142
 20
679.2873008667
 30
0.0
 10
127.7181450601
 20
679.2947871292
 30
0.0
 10
128.4481251556
 20
679.3000336161
 30
0.0
 10
129.2238297322
 20
679.3033260283
 30
0.0
 10
129.75385242
 20
679.304050447
 30
0.0
 10
130.0227703091
 20
679.3040504512
 30
0.0
  0
SPLINE
  5
4E4
100
AcDbEntity
  8
0
100
AcDbSpline
 62
7
  6
CONTINUOUS
 70
0
 71
3
 72
16
 73
12
 74
0
 42
0.0000001
 43
0.0000001
 44
0.0000000001
 40
0.0
 40
0.0
 40
0.0
 40
0.0
 40
0.1698565147
 40
0.3347855811
 40
0.4899952444
 40
0.6309786885
 40
0.7536387795
 40
0.8544151557
 40
0.930386105
 40
0.9793614154
 40
1.0
 40
1.0
 40
1.0
 40
1.0
 10
130.0227703091
 20
681.5144471215
 30
0.0
 10
130.2916414549
 20
681.5144471222
 30
0.0
 10
130.8215865683
 20
681.5151655151
 30
0.0
 10
131.5971994627
 20
681.5184538719
 30
0.0
 10
132.3271392273
 20
681.5236959947
 30
0.0
 10
132.9900104699
 20
681.5311794569
 30
0.0
 10
133.5671192075
 20
681.5392296593
 30
0.0
 10
134.0400613542
 20
681.551636398
 30
0.0
 10
134.3993851119
 20
681.5571664937
 30
0.0
 10
134.625360671
 20
681.5787375298
 30
0.0
 10
134.7403015464
 20
681.5754823544
 30
0.0
 10
134.7698767651
 20
681.5893603866
 30
0.0
  0
SPLINE
  5
4E5
100
AcDbEntity
  8
0
100
AcDbSpline
 62
7
  6
CONTINUOUS
 70
0
 71
3
 72
16
 73
12
 74
0
 42
0.0000001
 43
0.0000001
 44
0.0000000001
 40
0.0
 40
0.0
 40
0.0
 40
0.0
 40
0.0206389783
 40
0.0696149886
 40
0.1455866434
 40
0.2463635119
 40
0.3690237509
 40
0.5100069634
 40
0.6652160594
 40
0.830144341
 40
1.0
 40
1.0
 40
1.0
 40
1.0
 10
125.275663867
 20
681.589400401
 30
0.0
 10
125.3052398736
 20
681.575522571
 30
0.0
 10
125.4201819177
 20
681.5787755485
 30
0.0
 10
125.6461606946
 20
681.5572035776
 30
0.0
 10
126.0054871753
 20
681.5516698853
 30
0.0
 10
126.4784315306
 20
681.5392594258
 30
0.0
 10
127.0555408772
 20
681.531204295
 30
0.0
 10
127.7184111278
 20
681.5237154011
 30
0.0
 10
128.4483484309
 20
681.5184668477
 30
0.0
 10
129.2239579045
 20
681.5151732644
 30
0.0
 10
129.7539004832
 20
681.5144471209
 30
0.0
 10
130.0227703091
 20
681.5144471216
 30
0.0
  0
SPLINE
  5
4E6
100
AcDbEntity
  8
0
100
AcDbSpline
 62
7
  6
CONTINUOUS
 70
0
 71
3
 72
13
 73
9
 74
0
 42
0.0000001
 43
0.0000001
 44
0.0000000001
 40
0.0
 40
0.0
 40
0.0
 40
0.0
 40
0.214959408
 40
0.4203796959
 40
0.6060485946
 40
0.7631219646
 40
0.884256334
 40
1.0
 40
1.0
 40
1.0
 40
1.0
 10
128.859911246
 20
685.5066588103
 30
0.0
 10
128.7513716644
 20
685.5066588103
 30
0.0
 10
128.5392790659
 20
685.5087835133
 30
0.0
 10
128.2326361462
 20
685.5171225382
 30
0.0
 10
127.9585009988
 20
685.5330289053
 30
0.0
 10
127.7183222279
 20
685.5470568406
 30
0.0
 10
127.5392734756
 20
685.5845353103
 30
0.0
 10
127.3802834514
 20
685.5794986221
 30
0.0
 10
127.3570122029
 20
685.6331081073
 30
0.0
  0
SPLINE
  5
4E7
100
AcDbEntity
  8
0
100
AcDbSpline
 62
7
  6
CONTINUOUS
 70
0
 71
3
 72
10
 73
6
 74
0
 42
0.0000001
 43
0.0000001
 44
0.0000000001
 40
0.0
 40
0.0
 40
0.0
 40
0.0
 40
0.4123459063
 40
0.6910591858
 40
1.0
 40
1.0
 40
1.0
 40
1.0
 10
117.1370942026
 20
682.7596394844
 30
0.0
 10
117.1377244919
 20
682.7184117583
 30
0.0
 10
117.2599614388
 20
682.7693747071
 30
0.0
 10
117.344077701
 20
682.7550279444
 30
0.0
 10
117.406160941
 20
682.7590847634
 30
0.0
 10
117.4370489173
 20
682.7596162038
 30
0.0
  0
SPLINE
  5
4E8
100
AcDbEntity
  8
0
100
AcDbSpline
 62
7
  6
CONTINUOUS
 70
0
 71
3
 72
13
 73
9
 74
0
 42
0.0000001
 43
0.0000001
 44
0.0000000001
 40
0.0
 40
0.0
 40
0.0
 40
0.0
 40
0.3701552728
 40
0.7068372423
 40
0.8331747414
 40
0.9249002031
 40
0.9808570698
 40
1.0
 40
1.0
 40
1.0
 40
1.0
 10
117.3802349394
 20
686.0144865814
 30
0.0
 10
117.3432209458
 20
686.0138407
 30
0.0
 10
117.2728054326
 20
686.0130704476
 30
0.0
 10
117.1885834836
 20
686.0117599078
 30
0.0
 10
117.1344379527
 20
686.0129043723
 30
0.0
 10
117.1047281403
 20
686.0116305082
 30
0.0
 10
117.0922069843
 20
686.0151781725
 30
0.0
 10
117.0803240256
 20
686.0125727996
 30
0.0
 10
117.0802972145
 20
686.0144871169
 30
0.0
  0
SPLINE
  5
4E9
100
AcDbEntity
  8
0
100
AcDbSpline
 62
7
  6
CONTINUOUS
 70
0
 71
3
 72
13
 73
9
 74
0
 42
0.0000001
 43
0.0000001
 44
0.0000000001
 40
0.0
 40
0.0
 40
0.0
 40
0.0
 40
0.1671067479
 40
0.3336924875
 40
0.5000078088
 40
0.666319172
 40
0.832894528
 40
1.0
 40
1.0
 40
1.0
 40
1.0
 10
118.5753529945
 20
686.014488024
 30
0.0
 10
118.6338783162
 20
686.0144848945
 30
0.0
 10
118.7512828927
 20
685.9996716266
 30
0.0
 10
118.9157079072
 20
685.9345567449
 30
0.0
 10
119.0588831212
 20
685.8308761463
 30
0.0
 10
119.1713611787
 20
685.6949337056
 30
0.0
 10
119.2487208539
 20
685.5352393021
 30
0.0
 10
119.2673478348
 20
685.41880087
 30
0.0
 10
119.2744762356
 20
685.3607117412
 30
0.0
  0
SPLINE
  5
4EA
100
AcDbEntity
  8
0
100
AcDbSpline
 62
7
  6
CONTINUOUS
 70
0
 71
3
 72
9
 73
5
 74
0
 42
0.0000001
 43
0.0000001
 44
0.0000000001
 40
0.0
 40
0.0
 40
0.0
 40
0.0
 40
0.3321343822
 40
1.0
 40
1.0
 40
1.0
 40
1.0
 10
132.3874589565
 20
676.6144769272
 30
0.0
 10
132.3611915549
 20
676.615867526
 30
0.0
 10
132.2820946498
 20
676.6198411992
 30
0.0
 10
132.2029700428
 20
676.623371361
 30
0.0
 10
132.1501012687
 20
676.6249796773
 30
0.0
  0
SPLINE
  5
4EB
100
AcDbEntity
  8
0
100
AcDbSpline
 62
7
  6
CONTINUOUS
 70
0
 71
3
 72
9
 73
5
 74
0
 42
0.0000001
 43
0.0000001
 44
0.0000000001
 40
0.0
 40
0.0
 40
0.0
 40
0.0
 40
0.202708317
 40
1.0
 40
1.0
 40
1.0
 40
1.0
 10
132.0771010931
 20
675.2044814696
 30
0.0
 10
132.0930061886
 20
675.2039916843
 30
0.0
 10
132.1714533201
 20
675.2010823088
 30
0.0
 10
132.2498666607
 20
675.1973254585
 30
0.0
 10
132.3123665832
 20
675.1940152074
 30
0.0
  0
SPLINE
  5
4EC
100
AcDbEntity
  8
0
100
AcDbSpline
 62
7
  6
CONTINUOUS
 70
0
 71
3
 72
12
 73
8
 74
0
 42
0.0000001
 43
0.0000001
 44
0.0000000001
 40
0.0
 40
0.0
 40
0.0
 40
0.0
 40
0.1779466175
 40
0.364648067
 40
0.564898802
 40
0.7782491502
 40
1.0
 40
1.0
 40
1.0
 40
1.0
 10
132.3874609701
 20
676.9092509563
 30
0.0
 10
132.3633724247
 20
676.9092509563
 30
0.0
 10
132.3135589507
 20
676.8993657174
 30
0.0
 10
132.2478150388
 20
676.8575103216
 30
0.0
 10
132.1956957599
 20
676.7935824929
 30
0.0
 10
132.1612249144
 20
676.7137690948
 30
0.0
 10
132.1517715693
 20
676.6549440553
 30
0.0
 10
132.1505284825
 20
676.6249515024
 30
0.0
  0
SPLINE
  5
4ED
100
AcDbEntity
  8
0
100
AcDbSpline
 62
7
  6
CONTINUOUS
 70
0
 71
3
 72
9
 73
5
 74
0
 42
0.0000001
 43
0.0000001
 44
0.0000000001
 40
0.0
 40
0.0
 40
0.0
 40
0.0
 40
0.2780181621
 40
1.0
 40
1.0
 40
1.0
 40
1.0
 10
127.7331740522
 20
675.194015044
 30
0.0
 10
127.7549679324
 20
675.1951693359
 30
0.0
 10
127.8333680594
 20
675.1991119992
 30
0.0
 10
127.9117908493
 20
675.2027368223
 30
0.0
 10
127.9684395744
 20
675.2044812331
 30
0.0
  0
SPLINE
  5
4EE
100
AcDbEntity
  8
0
100
AcDbSpline
 62
7
  6
CONTINUOUS
 70
0
 71
3
 72
12
 73
8
 74
0
 42
0.0000001
 43
0.0000001
 44
0.0000000001
 40
0.0
 40
0.0
 40
0.0
 40
0.0
 40
0.2492707651
 40
0.5262894929
 40
0.6828529172
 40
0.8407100564
 40
1.0
 40
1.0
 40
1.0
 40
1.0
 10
127.7331740752
 20
675.1940152344
 30
0.0
 10
127.7379959866
 20
675.1537797823
 30
0.0
 10
127.7148126941
 20
675.0645674399
 30
0.0
 10
127.6349513948
 20
674.9831229341
 30
0.0
 10
127.552183449
 20
674.9334827551
 30
0.0
 10
127.4794479061
 20
674.906850163
 30
0.0
 10
127.4278269667
 20
674.8992509434
 30
0.0
 10
127.4019315786
 20
674.8992509564
 30
0.0
  0
SPLINE
  5
4EF
100
AcDbEntity
  8
0
100
AcDbSpline
 62
7
  6
CONTINUOUS
 70
0
 71
3
 72
12
 73
8
 74
0
 42
0.0000001
 43
0.0000001
 44
0.0000000001
 40
0.0
 40
0.0
 40
0.0
 40
0.0
 40
0.1958539042
 40
0.3978063308
 40
0.6018396864
 40
0.8039095609
 40
1.0
 40
1.0
 40
1.0
 40
1.0
 10
123.0149249972
 20
680.4148479283
 30
0.0
 10
123.004212596
 20
680.5354707982
 30
0.0
 10
122.9541750572
 20
680.7787723061
 30
0.0
 10
122.8001440131
 20
681.1205484054
 30
0.0
 10
122.5755071736
 20
681.4255587434
 30
0.0
 10
122.2946406991
 20
681.6741952613
 30
0.0
 10
122.076901002
 20
681.7941959475
 30
0.0
 10
121.9647413301
 20
681.8402424779
 30
0.0
  0
SPLINE
  5
4F0
100
AcDbEntity
  8
0
100
AcDbSpline
 62
7
  6
CONTINUOUS
 70
0
 71
3
 72
10
 73
6
 74
0
 42
0.0000001
 43
0.0000001
 44
0.0000000001
 40
0.0
 40
0.0
 40
0.0
 40
0.0
 40
0.3091485189
 40
0.5878675897
 40
1.0
 40
1.0
 40
1.0
 40
1.0
 10
137.2670355508
 20
677.9899730126
 30
0.0
 10
137.2366732006
 20
677.9953156869
 30
0.0
 10
137.1759925581
 20
678.0090257109
 30
0.0
 10
137.0915635417
 20
678.0079083359
 30
0.0
 10
136.9769508775
 20
678.0775483388
 30
0.0
 10
136.9715879246
 20
678.0368011897
 30
0.0
  0
SPLINE
  5
4F1
100
AcDbEntity
  8
0
100
AcDbSpline
 62
7
  6
CONTINUOUS
 70
0
 71
3
 72
12
 73
8
 74
0
 42
0.0000001
 43
0.0000001
 44
0.0000000001
 40
0.0
 40
0.0
 40
0.0
 40
0.0
 40
0.19583254
 40
0.3977731785
 40
0.6018062047
 40
0.803887575
 40
1.0
 40
1.0
 40
1.0
 40
1.0
 10
121.96474111
 20
681.8402419335
 30
0.0
 10
122.0767607753
 20
681.7942743082
 30
0.0
 10
122.2942902709
 20
681.6743999289
 30
0.0
 10
122.5750657012
 20
681.4260338782
 30
0.0
 10
122.7998202067
 20
681.1211108287
 30
0.0
 10
122.9540827711
 20
680.7791680628
 30
0.0
 10
123.0041785761
 20
680.5356282283
 30
0.0
 10
123.0149249972
 20
680.4148479286
 30
0.0
  0
SPLINE
  5
4F2
100
AcDbEntity
  8
0
100
AcDbSpline
 62
7
  6
CONTINUOUS
 70
0
 71
3
 72
13
 73
9
 74
0
 42
0.0000001
 43
0.0000001
 44
0.0000000001
 40
0.0
 40
0.0
 40
0.0
 40
0.0
 40
0.1490423612
 40
0.3138315447
 40
0.4859537656
 40
0.6618438054
 40
0.836213732
 40
1.0
 40
1.0
 40
1.0
 40
1.0
 10
118.5753780032
 20
686.0144900983
 30
0.0
 10
118.6262831428
 20
686.0150345593
 30
0.0
 10
118.7338806813
 20
685.9993378355
 30
0.0
 10
118.8887626582
 20
685.9356525493
 30
0.0
 10
119.0319654236
 20
685.8321215618
 30
0.0
 10
119.1513180008
 20
685.697571843
 30
0.0
 10
119.2365787175
 20
685.5423415495
 30
0.0
 10
119.2665269929
 20
685.4292562007
 30
0.0
 10
119.27336386
 20
685.3737314422
 30
0.0
  0
LINE
  5
4F3
100
AcDbEntity
  8
0
100
AcDbLine
 62
7
  6
CONTINUOUS
 10
117.3699446826
 20
686.3092509564
 11
117.380234942
 21
686.0144866783
  0
SPLINE
  5
4F4
100
AcDbEntity
  8
0
100
AcDbSpline
 62
7
  6
CONTINUOUS
 70
0
 71
3
 72
13
 73
9
 74
0
 42
0.0000001
 43
0.0000001
 44
0.0000000001
 40
0.0
 40
0.0
 40
0.0
 40
0.0
 40
0.0191446312
 40
0.0751027913
 40
0.1668290138
 40
0.2931666396
 40
0.6298470543
 40
1.0
 40
1.0
 40
1.0
 40
1.0
 10
117.0802952385
 20
686.0144869006
 30
0.0
 10
117.0803232457
 20
686.0125724176
 30
0.0
 10
117.0922039749
 20
686.0151781499
 30
0.0
 10
117.1047282214
 20
686.0116302927
 30
0.0
 10
117.1344369376
 20
686.0129042647
 30
0.0
 10
117.1885836473
 20
686.0117598006
 30
0.0
 10
117.2728051702
 20
686.0130703882
 30
0.0
 10
117.3432209384
 20
686.0138406511
 30
0.0
 10
117.3802349419
 20
686.0144865373
 30
0.0
  0
SPLINE
  5
4F5
100
AcDbEntity
  8
0
100
AcDbSpline
 62
7
  6
CONTINUOUS
 70
0
 71
3
 72
13
 73
9
 74
0
 42
0.0000001
 43
0.0000001
 44
0.0000000001
 40
0.0
 40
0.0
 40
0.0
 40
0.0
 40
0.3701537872
 40
0.7068346818
 40
0.8331722267
 40
0.9248981647
 40
0.9808558902
 40
1.0
 40
1.0
 40
1.0
 40
1.0
 10
117.3802349389
 20
686.0144866213
 30
0.0
 10
117.3432208464
 20
686.0138407337
 30
0.0
 10
117.2728049905
 20
686.0130704718
 30
0.0
 10
117.1885831537
 20
686.0117599052
 30
0.0
 10
117.1344366885
 20
686.0129043782
 30
0.0
 10
117.1047276039
 20
686.0116304547
 30
0.0
 10
117.0922042544
 20
686.0151782523
 30
0.0
 10
117.0803228538
 20
686.012572649
 30
0.0
 10
117.0802952014
 20
686.0144870851
 30
0.0
  0
SPLINE
  5
4F6
100
AcDbEntity
  8
0
100
AcDbSpline
 62
7
  6
CONTINUOUS
 70
0
 71
3
 72
10
 73
6
 74
0
 42
0.0000001
 43
0.0000001
 44
0.0000000001
 40
0.0
 40
0.0
 40
0.0
 40
0.0
 40
0.3089255429
 40
0.5876282678
 40
1.0
 40
1.0
 40
1.0
 40
1.0
 10
117.4370489499
 20
682.7596143533
 30
0.0
 10
117.4061624861
 20
682.7590835822
 30
0.0
 10
117.344082322
 20
682.7550281381
 30
0.0
 10
117.2599644316
 20
682.7693733166
 30
0.0
 10
117.1377264335
 20
682.7184095312
 30
0.0
 10
117.1370941972
 20
682.7596398147
 30
0.0
  0
SPLINE
  5
4F7
100
AcDbEntity
  8
0
100
AcDbSpline
 62
7
  6
CONTINUOUS
 70
0
 71
3
 72
10
 73
6
 74
0
 42
0.0000001
 43
0.0000001
 44
0.0000000001
 40
0.0
 40
0.0
 40
0.0
 40
0.0
 40
0.3023174801
 40
0.5805202116
 40
1.0
 40
1.0
 40
1.0
 40
1.0
 10
119.2733638564
 20
685.3737314037
 30
0.0
 10
119.3032713469
 20
685.3775202736
 30
0.0
 10
119.3635282579
 20
685.3883839018
 30
0.0
 10
119.4485102163
 20
685.3842263128
 30
0.0
 10
119.5647963149
 20
685.4530407661
 30
0.0
 10
119.5701155785
 20
685.4115506151
 30
0.0
  0
SPLINE
  5
4F8
100
AcDbEntity
  8
0
100
AcDbSpline
 62
7
  6
CONTINUOUS
 70
0
 71
3
 72
13
 73
9
 74
0
 42
0.0000001
 43
0.0000001
 44
0.0000000001
 40
0.0
 40
0.0
 40
0.0
 40
0.0
 40
0.3723758436
 40
0.7088708487
 40
0.8346863332
 40
0.9258215319
 40
0.9812595552
 40
1.0
 40
1.0
 40
1.0
 40
1.0
 10
121.964741348
 20
681.8402418333
 30
0.0
 10
121.9786108343
 20
681.8741548153
 30
0.0
 10
122.0052262612
 20
681.938324202
 30
0.0
 10
122.0361875074
 20
682.0153899091
 30
0.0
 10
122.0577893661
 20
682.0639078401
 30
0.0
 10
122.0672133454
 20
682.0915521735
 30
0.0
 10
122.0754881399
 20
682.1011741592
 30
0.0
 10
122.0765698067
 20
682.1133991816
 30
0.0
 10
122.0782763568
 20
682.1127007408
 30
0.0
  0
SPLINE
  5
4F9
100
AcDbEntity
  8
0
100
AcDbSpline
 62
7
  6
CONTINUOUS
 70
0
 71
3
 72
14
 73
10
 74
0
 42
0.0000001
 43
0.0000001
 44
0.0000000001
 40
0.0
 40
0.0
 40
0.0
 40
0.0
 40
0.1502439294
 40
0.287969883
 40
0.4247243465
 40
0.5637843917
 40
0.7027441016
 40
0.8440405256
 40
1.0
 40
1.0
 40
1.0
 40
1.0
 10
124.5386440474
 20
676.6144842828
 30
0.0
 10
124.4423261257
 20
676.6172104633
 30
0.0
 10
124.2573935685
 20
676.6366953709
 30
0.0
 10
123.9963620227
 20
676.7218297288
 30
0.0
 10
123.7670343638
 20
676.8589820579
 30
0.0
 10
123.5683713312
 20
677.0381888946
 30
0.0
 10
123.4060596773
 20
677.2551543971
 30
0.0
 10
123.2923746969
 20
677.513400407
 30
0.0
 10
123.2553558897
 20
677.7018562688
 30
0.0
 10
123.243597533
 20
677.8011847885
 30
0.0
  0
SPLINE
  5
4FA
100
AcDbEntity
  8
0
100
AcDbSpline
 62
7
  6
CONTINUOUS
 70
0
 71
3
 72
13
 73
9
 74
0
 42
0.0000001
 43
0.0000001
 44
0.0000000001
 40
0.0
 40
0.0
 40
0.0
 40
0.0
 40
0.1747293284
 40
0.3369952642
 40
0.5002243018
 40
0.6633833183
 40
0.8255337517
 40
1.0
 40
1.0
 40
1.0
 40
1.0
 10
137.2139168256
 20
677.6887447377
 30
0.0
 10
137.1932173953
 20
677.5853536879
 30
0.0
 10
137.13524311
 20
677.3884454814
 30
0.0
 10
136.9814913315
 20
677.1251902028
 30
0.0
 10
136.7747587244
 20
676.9115418778
 30
0.0
 10
136.5284104284
 20
676.7452531347
 30
0.0
 10
136.2426812362
 20
676.6397535
 30
0.0
 10
136.0389271671
 20
676.6168902186
 30
0.0
 10
135.9336706778
 20
676.6144835077
 30
0.0
  0
SPLINE
  5
4FB
100
AcDbEntity
  8
0
100
AcDbSpline
 62
7
  6
CONTINUOUS
 70
0
 71
3
 72
13
 73
9
 74
0
 42
0.0000001
 43
0.0000001
 44
0.0000000001
 40
0.0
 40
0.0
 40
0.0
 40
0.0
 40
0.0191309653
 40
0.0750551843
 40
0.1667317072
 40
0.2930113739
 40
0.6296214414
 40
1.0
 40
1.0
 40
1.0
 40
1.0
 10
136.9184685871
 20
677.7356045178
 30
0.0
 10
136.918799962
 20
677.7374837358
 30
0.0
 10
136.93007646
 20
677.733039236
 30
0.0
 10
136.9429693395
 20
677.7345848862
 30
0.0
 10
136.9720122475
 20
677.7286771459
 30
0.0
 10
137.0255122021
 20
677.7213500077
 30
0.0
 10
137.1082759799
 20
677.7069053858
 30
0.0
 10
137.1775344719
 20
677.6951579026
 30
0.0
 10
137.2139168245
 20
677.6887446469
 30
0.0
  0
SPLINE
  5
4FC
100
AcDbEntity
  8
0
100
AcDbSpline
 62
7
  6
CONTINUOUS
 70
0
 71
3
 72
13
 73
9
 74
0
 42
0.0000001
 43
0.0000001
 44
0.0000000001
 40
0.0
 40
0.0
 40
0.0
 40
0.0
 40
0.3720863321
 40
0.7085499221
 40
0.8344408725
 40
0.9256789319
 40
0.9812098734
 40
1.0
 40
1.0
 40
1.0
 40
1.0
 10
147.8947923091
 20
682.6072431022
 30
0.0
 10
147.8793102351
 20
682.6404344305
 30
0.0
 10
147.8496274594
 20
682.7032389014
 30
0.0
 10
147.8149419067
 20
682.7787041895
 30
0.0
 10
147.7909824595
 20
682.8261465116
 30
0.0
 10
147.7801599056
 20
682.8533025597
 30
0.0
 10
147.7714325929
 20
682.8625551659
 30
0.0
 10
147.7696798964
 20
682.874688248
 30
0.0
 10
147.7680023876
 20
682.8739093515
 30
0.0
  0
SPLINE
  5
4FD
100
AcDbEntity
  8
0
100
AcDbSpline
 62
7
  6
CONTINUOUS
 70
0
 71
3
 72
11
 73
7
 74
0
 42
0.0000001
 43
0.0000001
 44
0.0000000001
 40
0.0
 40
0.0
 40
0.0
 40
0.0
 40
0.2504305791
 40
0.4998557052
 40
0.7493107462
 40
1.0
 40
1.0
 40
1.0
 40
1.0
 10
149.0573853568
 20
683.8353631981
 30
0.0
 10
149.0033653576
 20
683.7015083314
 30
0.0
 10
148.8710216379
 20
683.4433332085
 30
0.0
 10
148.6027375164
 20
683.1017376658
 30
0.0
 10
148.2762879438
 20
682.8149824789
 30
0.0
 10
148.0256079223
 20
682.6686078394
 30
0.0
 10
147.8947923105
 20
682.6072431432
 30
0.0
  0
SPLINE
  5
4FE
100
AcDbEntity
  8
0
100
AcDbSpline
 62
7
  6
CONTINUOUS
 70
0
 71
3
 72
10
 73
6
 74
0
 42
0.0000001
 43
0.0000001
 44
0.0000000001
 40
0.0
 40
0.0
 40
0.0
 40
0.0
 40
0.4116210527
 40
0.6901158825
 40
1.0
 40
1.0
 40
1.0
 40
1.0
 10
148.7806101923
 20
683.9459727202
 30
0.0
 10
148.7965555325
 20
683.9836353945
 30
0.0
 10
148.8900510809
 20
683.8914699876
 30
0.0
 10
148.9730992295
 20
683.8738374732
 30
0.0
 10
149.0289807315
 20
683.847246926
 30
0.0
 10
149.057385357
 20
683.8353631734
 30
0.0
  0
SPLINE
  5
4FF
100
AcDbEntity
  8
0
100
AcDbSpline
 62
7
  6
CONTINUOUS
 70
0
 71
3
 72
13
 73
9
 74
0
 42
0.0000001
 43
0.0000001
 44
0.0000000001
 40
0.0
 40
0.0
 40
0.0
 40
0.0
 40
0.3706888128
 40
0.7072279905
 40
0.8334354526
 40
0.9250439155
 40
0.9809130704
 40
1.0
 40
1.0
 40
1.0
 40
1.0
 10
146.1921440837
 20
681.2946177947
 30
0.0
 10
146.157823054
 20
681.3080241917
 30
0.0
 10
146.0924356089
 20
681.3330907389
 30
0.0
 10
146.0143998996
 20
681.3634824996
 30
0.0
 10
145.9635981809
 20
681.381151913
 30
0.0
 10
145.9364188885
 20
681.3926895691
 30
0.0
 10
145.9235344872
 20
681.3936747455
 30
0.0
 10
145.9134238568
 20
681.4003254914
 30
0.0
 10
145.9127334024
 20
681.3985583464
 30
0.0
  0
SPLINE
  5
500
100
AcDbEntity
  8
0
100
AcDbSpline
 62
7
  6
CONTINUOUS
 70
0
 71
3
 72
10
 73
6
 74
0
 42
0.0000001
 43
0.0000001
 44
0.0000000001
 40
0.0
 40
0.0
 40
0.0
 40
0.0
 40
0.3098739712
 40
0.5883681548
 40
1.0
 40
1.0
 40
1.0
 40
1.0
 10
149.0573937721
 20
683.8353842895
 30
0.0
 10
149.0289899893
 20
683.8472675264
 30
0.0
 10
148.9731056165
 20
683.8738665902
 30
0.0
 10
148.8900907471
 20
683.8914920557
 30
0.0
 10
148.796485802
 20
683.9836937886
 30
0.0
 10
148.7806195734
 20
683.9459965093
 30
0.0
  0
SPLINE
  5
501
100
AcDbEntity
  8
0
100
AcDbSpline
 62
7
  6
CONTINUOUS
 70
0
 71
3
 72
10
 73
6
 74
0
 42
0.0000001
 43
0.0000001
 44
0.0000000001
 40
0.0
 40
0.0
 40
0.0
 40
0.0
 40
0.3100978524
 40
0.5889066227
 40
1.0
 40
1.0
 40
1.0
 40
1.0
 10
147.0571285506
 20
682.2166341169
 30
0.0
 10
147.044226026
 20
682.2442934542
 30
0.0
 10
147.021191897
 20
682.3011972299
 30
0.0
 10
146.9720187337
 20
682.3693270413
 30
0.0
 10
146.9670102456
 20
682.5003888868
 30
0.0
 10
146.9303401305
 20
682.4832893594
 30
0.0
  0
SPLINE
  5
502
100
AcDbEntity
  8
0
100
AcDbSpline
 62
7
  6
CONTINUOUS
 70
0
 71
3
 72
13
 73
9
 74
0
 42
0.0000001
 43
0.0000001
 44
0.0000000001
 40
0.0
 40
0.0
 40
0.0
 40
0.0
 40
0.3706930179
 40
0.7072316538
 40
0.8334380049
 40
0.9250452627
 40
0.9809134537
 40
1.0
 40
1.0
 40
1.0
 40
1.0
 10
146.1921354739
 20
681.2946211593
 30
0.0
 10
146.1578150981
 20
681.3080272813
 30
0.0
 10
146.0924293057
 20
681.3330931625
 30
0.0
 10
146.0143957288
 20
681.3634840442
 30
0.0
 10
145.9635958166
 20
681.381152806
 30
0.0
 10
145.9364176738
 20
681.3926899313
 30
0.0
 10
145.9235338548
 20
681.3936750861
 30
0.0
 10
145.9134237143
 20
681.4003254456
 30
0.0
 10
145.9127332908
 20
681.3985583917
 30
0.0
  0
SPLINE
  5
503
100
AcDbEntity
  8
0
100
AcDbSpline
 62
7
  6
CONTINUOUS
 70
0
 71
3
 72
17
 73
13
 74
0
 42
0.0000001
 43
0.0000001
 44
0.0000000001
 40
0.0
 40
0.0
 40
0.0
 40
0.0
 40
0.101709966
 40
0.2008695953
 40
0.3008472705
 40
0.4012191406
 40
0.5011582545
 40
0.6010115328
 40
0.7011079728
 40
0.8005989035
 40
0.8991171516
 40
1.0
 40
1.0
 40
1.0
 40
1.0
 10
138.2998263392
 20
678.4783529536
 30
0.0
 10
138.5812369088
 20
678.3227802676
 30
0.0
 10
139.1620923815
 20
678.0578417173
 30
0.0
 10
140.0867822708
 20
677.8159267897
 30
0.0
 10
141.0352104735
 20
677.7392981484
 30
0.0
 10
141.98556406
 20
677.8208095629
 30
0.0
 10
142.9076280686
 20
678.0645177087
 30
0.0
 10
143.7733240762
 20
678.4626086845
 30
0.0
 10
144.5564559243
 20
679.0023595552
 30
0.0
 10
145.2369920228
 20
679.6609456189
 30
0.0
 10
145.7942900956
 20
680.4297255985
 30
0.0
 10
146.0738586042
 20
680.9984276415
 30
0.0
 10
146.192150615
 20
681.2946150315
 30
0.0
  0
LINE
  5
504
100
AcDbEntity
  8
0
100
AcDbLine
 62
7
  6
CONTINUOUS
 10
132.0775252827
 20
675.2044524937
 11
132.1501012687
 21
676.6249796773
  0
SPLINE
  5
505
100
AcDbEntity
  8
0
100
AcDbSpline
 62
7
  6
CONTINUOUS
 70
0
 71
3
 72
10
 73
6
 74
0
 42
0.0000001
 43
0.0000001
 44
0.0000000001
 40
0.0
 40
0.0
 40
0.0
 40
0.0
 40
0.3343359386
 40
0.6673241913
 40
1.0
 40
1.0
 40
1.0
 40
1.0
 10
132.1189243983
 20
674.8992509563
 30
0.0
 10
132.1076779193
 20
674.9318876245
 30
0.0
 10
132.0897710653
 20
674.9986763845
 30
0.0
 10
132.0759476529
 20
675.101241506
 30
0.0
 10
132.0753320515
 20
675.1701773812
 30
0.0
 10
132.0771016321
 20
675.2044804327
 30
0.0
  0
SPLINE
  5
506
100
AcDbEntity
  8
0
100
AcDbSpline
 62
7
  6
CONTINUOUS
 70
0
 71
3
 72
10
 73
6
 74
0
 42
0.0000001
 43
0.0000001
 44
0.0000000001
 40
0.0
 40
0.0
 40
0.0
 40
0.0
 40
0.3272805143
 40
0.6607709059
 40
1.0
 40
1.0
 40
1.0
 40
1.0
 10
127.9684389733
 20
675.2044804058
 30
0.0
 10
127.9701794723
 20
675.1707337865
 30
0.0
 10
127.9696487081
 20
675.1023106397
 30
0.0
 10
127.955997338
 20
674.9997226788
 30
0.0
 10
127.9380286414
 20
674.9323650785
 30
0.0
 10
127.9266174011
 20
674.8992509563
 30
0.0
  0
LINE
  5
507
100
AcDbEntity
  8
0
100
AcDbLine
 62
7
  6
CONTINUOUS
 10
127.8954392677
 20
676.6249797345
 11
127.968015323
 21
675.2044524669
  0
SPLINE
  5
508
100
AcDbEntity
  8
0
100
AcDbSpline
 62
7
  6
CONTINUOUS
 70
0
 71
3
 72
11
 73
7
 74
0
 42
0.0000001
 43
0.0000001
 44
0.0000000001
 40
0.0
 40
0.0
 40
0.0
 40
0.0
 40
0.2682105555
 40
0.5822337085
 40
0.7758265107
 40
1.0
 40
1.0
 40
1.0
 40
1.0
 10
127.6580796481
 20
676.9092509563
 30
0.0
 10
127.694252221
 20
676.9092509563
 30
0.0
 10
127.7738870825
 20
676.8846542027
 30
0.0
 10
127.8462051751
 20
676.8030014484
 30
0.0
 10
127.8846477187
 20
676.7115097224
 30
0.0
 10
127.8937601215
 20
676.6551591697
 30
0.0
 10
127.8950121332
 20
676.6249516492
 30
0.0
  0
SPLINE
  5
509
100
AcDbEntity
  8
0
100
AcDbSpline
 62
7
  6
CONTINUOUS
 70
0
 71
3
 72
12
 73
8
 74
0
 42
0.0000001
 43
0.0000001
 44
0.0000000001
 40
0.0
 40
0.0
 40
0.0
 40
0.0
 40
0.2214336419
 40
0.4347818938
 40
0.6351745069
 40
0.8220155933
 40
1.0
 40
1.0
 40
1.0
 40
1.0
 10
132.1505284925
 20
676.6249517432
 30
0.0
 10
132.1517698164
 20
676.6549013021
 30
0.0
 10
132.1612051166
 20
676.7136824455
 30
0.0
 10
132.1956350727
 20
676.7934866267
 30
0.0
 10
132.2477565852
 20
676.8574631836
 30
0.0
 10
132.3135299993
 20
676.8993569157
 30
0.0
 10
132.3633673814
 20
676.9092509563
 30
0.0
 10
132.3874609701
 20
676.9092509563
 30
0.0
  0
SPLINE
  5
50A
100
AcDbEntity
  8
0
100
AcDbSpline
 62
7
  6
CONTINUOUS
 70
0
 71
3
 72
9
 73
5
 74
0
 42
0.0000001
 43
0.0000001
 44
0.0000000001
 40
0.0
 40
0.0
 40
0.0
 40
0.0
 40
0.2780181631
 40
1.0
 40
1.0
 40
1.0
 40
1.0
 10
132.3123665659
 20
675.1940150445
 30
0.0
 10
132.2905726857
 20
675.1951693364
 30
0.0
 10
132.2121725588
 20
675.1991119994
 30
0.0
 10
132.1337497692
 20
675.2027368223
 30
0.0
 10
132.0771010443
 20
675.204481233
 30
0.0
  0
SPLINE
  5
50B
100
AcDbEntity
  8
0
100
AcDbSpline
 62
7
  6
CONTINUOUS
 70
0
 71
3
 72
12
 73
8
 74
0
 42
0.0000001
 43
0.0000001
 44
0.0000000001
 40
0.0
 40
0.0
 40
0.0
 40
0.0
 40
0.2492705292
 40
0.5262891483
 40
0.6828525454
 40
0.8407097539
 40
1.0
 40
1.0
 40
1.0
 40
1.0
 10
132.3123665429
 20
675.1940152344
 30
0.0
 10
132.3075446257
 20
675.1537798094
 30
0.0
 10
132.3307279017
 20
675.0645674978
 30
0.0
 10
132.4105891585
 20
674.9831229927
 30
0.0
 10
132.4933571067
 20
674.9334827815
 30
0.0
 10
132.5660927212
 20
674.9068501524
 30
0.0
 10
132.6177137409
 20
674.8992509306
 30
0.0
 10
132.6436091859
 20
674.8992509564
 30
0.0
  0
LINE
  5
50C
100
AcDbEntity
  8
0
100
AcDbLine
 62
7
  6
CONTINUOUS
 10
127.9680153354
 20
675.2044524937
 11
127.8954393494
 21
676.6249796773
  0
SPLINE
  5
50D
100
AcDbEntity
  8
0
100
AcDbSpline
 62
7
  6
CONTINUOUS
 70
0
 71
3
 72
10
 73
6
 74
0
 42
0.0000001
 43
0.0000001
 44
0.0000000001
 40
0.0
 40
0.0
 40
0.0
 40
0.0
 40
0.3343363326
 40
0.6673220227
 40
1.0
 40
1.0
 40
1.0
 40
1.0
 10
127.9266161937
 20
674.8992509563
 30
0.0
 10
127.9378626817
 20
674.9318876651
 30
0.0
 10
127.9557695251
 20
674.9986761987
 30
0.0
 10
127.9695929186
 20
675.1012413198
 30
0.0
 10
127.9702085867
 20
675.1701771574
 30
0.0
 10
127.968438986
 20
675.2044804327
 30
0.0
  0
SPLINE
  5
50E
100
AcDbEntity
  8
0
100
AcDbSpline
 62
7
  6
CONTINUOUS
 70
0
 71
3
 72
10
 73
6
 74
0
 42
0.0000001
 43
0.0000001
 44
0.0000000001
 40
0.0
 40
0.0
 40
0.0
 40
0.0
 40
0.3272832611
 40
0.6607718928
 40
1.0
 40
1.0
 40
1.0
 40
1.0
 10
132.0771016448
 20
675.2044804059
 30
0.0
 10
132.0753611263
 20
675.1707335034
 30
0.0
 10
132.0758919516
 20
675.1023102508
 30
0.0
 10
132.0895433635
 20
674.9997222981
 30
0.0
 10
132.1075120265
 20
674.9323649833
 30
0.0
 10
132.1189232311
 20
674.8992509563
 30
0.0
  0
LINE
  5
50F
100
AcDbEntity
  8
0
100
AcDbLine
 62
7
  6
CONTINUOUS
 10
132.1501013504
 20
676.6249797345
 11
132.0775252951
 21
675.204452467
  0
SPLINE
  5
510
100
AcDbEntity
  8
0
100
AcDbSpline
 62
7
  6
CONTINUOUS
 70
0
 71
3
 72
9
 73
5
 74
0
 42
0.0000001
 43
0.0000001
 44
0.0000000001
 40
0.0
 40
0.0
 40
0.0
 40
0.0
 40
0.3321343822
 40
1.0
 40
1.0
 40
1.0
 40
1.0
 10
127.6580816616
 20
676.6144769272
 30
0.0
 10
127.6843490632
 20
676.615867526
 30
0.0
 10
127.7634459683
 20
676.6198411992
 30
0.0
 10
127.8425705753
 20
676.623371361
 30
0.0
 10
127.8954393494
 20
676.6249796773
 30
0.0
  0
SPLINE
  5
511
100
AcDbEntity
  8
0
100
AcDbSpline
 62
7
  6
CONTINUOUS
 70
0
 71
3
 72
9
 73
5
 74
0
 42
0.0000001
 43
0.0000001
 44
0.0000000001
 40
0.0
 40
0.0
 40
0.0
 40
0.0
 40
0.2027083162
 40
1.0
 40
1.0
 40
1.0
 40
1.0
 10
127.9684395241
 20
675.2044814687
 30
0.0
 10
127.9525344287
 20
675.2039916835
 30
0.0
 10
127.8740872976
 20
675.2010823085
 30
0.0
 10
127.7956739572
 20
675.1973254586
 30
0.0
 10
127.7331740348
 20
675.194015208
 30
0.0
  0
SPLINE
  5
512
100
AcDbEntity
  8
0
100
AcDbSpline
 62
7
  6
CONTINUOUS
 70
0
 71
3
 72
12
 73
8
 74
0
 42
0.0000001
 43
0.0000001
 44
0.0000000001
 40
0.0
 40
0.0
 40
0.0
 40
0.0
 40
0.158780195
 40
0.3159850981
 40
0.4718646509
 40
0.7483212276
 40
1.0
 40
1.0
 40
1.0
 40
1.0
 10
127.4019308256
 20
674.8992509564
 30
0.0
 10
127.4277416833
 20
674.8992509263
 30
0.0
 10
127.479169795
 20
674.9067987896
 30
0.0
 10
127.5516441354
 20
674.9332466219
 30
0.0
 10
127.634218849
 20
674.9825789388
 30
0.0
 10
127.714490697
 20
675.0638602715
 30
0.0
 10
127.7379277762
 20
675.1533801657
 30
0.0
 10
127.7331740185
 20
675.1940152344
 30
0.0
  0
SPLINE
  5
513
100
AcDbEntity
  8
0
100
AcDbSpline
 62
7
  6
CONTINUOUS
 70
0
 71
3
 72
14
 73
10
 74
0
 42
0.0000001
 43
0.0000001
 44
0.0000000001
 40
0.0
 40
0.0
 40
0.0
 40
0.0
 40
0.1501906198
 40
0.2879037555
 40
0.4246801335
 40
0.5637828096
 40
0.7027810232
 40
0.8441071062
 40
1.0
 40
1.0
 40
1.0
 40
1.0
 10
124.5386440501
 20
676.6144838997
 30
0.0
 10
124.4423599908
 20
676.6172089091
 30
0.0
 10
124.2574724001
 20
676.6366970293
 30
0.0
 10
123.9964532958
 20
676.7217778136
 30
0.0
 10
123.7670915578
 20
676.8589474225
 30
0.0
 10
123.5683896191
 20
677.0382091964
 30
0.0
 10
123.4060095502
 20
677.2552105163
 30
0.0
 10
123.2922913586
 20
677.5134482381
 30
0.0
 10
123.2553106301
 20
677.7018935747
 30
0.0
 10
123.2435982082
 20
677.8011848461
 30
0.0
  0
SPLINE
  5
514
100
AcDbEntity
  8
0
100
AcDbSpline
 62
7
  6
CONTINUOUS
 70
0
 71
3
 72
14
 73
10
 74
0
 42
0.0000001
 43
0.0000001
 44
0.0000000001
 40
0.0
 40
0.0
 40
0.0
 40
0.0
 40
0.1503929209
 40
0.2881592277
 40
0.4249488124
 40
0.5640172096
 40
0.7029444614
 40
0.8442063789
 40
1.0
 40
1.0
 40
1.0
 40
1.0
 10
123.2435942269
 20
677.8011844987
 30
0.0
 10
123.2547581578
 20
677.7053806806
 30
0.0
 10
123.2903526637
 20
677.5227439419
 30
0.0
 10
123.3979566135
 20
677.269986392
 30
0.0
 10
123.5546657397
 20
677.053473864
 30
0.0
 10
123.7506124093
 20
676.8712892468
 30
0.0
 10
123.9809021861
 20
676.7285986911
 30
0.0
 10
124.2479274583
 20
676.6378931866
 30
0.0
 10
124.4387736745
 20
676.6174923973
 30
0.0
 10
124.5386440498
 20
676.6144819239
 30
0.0
  0
SPLINE
  5
515
100
AcDbEntity
  8
0
100
AcDbSpline
 62
7
  6
CONTINUOUS
 70
0
 71
3
 72
13
 73
9
 74
0
 42
0.0000001
 43
0.0000001
 44
0.0000000001
 40
0.0
 40
0.0
 40
0.0
 40
0.0
 40
0.0191442233
 40
0.0750905556
 40
0.1667961478
 40
0.2931076767
 40
0.62975184
 40
1.0
 40
1.0
 40
1.0
 40
1.0
 10
123.5424529313
 20
677.8220955304
 30
0.0
 10
123.5422862556
 20
677.82400066
 30
0.0
 10
123.5306439815
 20
677.8205711315
 30
0.0
 10
123.5179084813
 20
677.8232339836
 30
0.0
 10
123.4884085957
 20
677.8198909514
 30
0.0
 10
123.4343817279
 20
677.8172570386
 30
0.0
 10
123.3505543617
 20
677.8100807004
 30
0.0
 10
123.2804394039
 20
677.8044070238
 30
0.0
 10
123.2435942271
 20
677.8011844675
 30
0.0
  0
SPLINE
  5
516
100
AcDbEntity
  8
0
100
AcDbSpline
 62
7
  6
CONTINUOUS
 70
0
 71
3
 72
13
 73
9
 74
0
 42
0.0000001
 43
0.0000001
 44
0.0000000001
 40
0.0
 40
0.0
 40
0.0
 40
0.0
 40
0.3703788834
 40
0.7069889431
 40
0.8332685315
 40
0.9249449582
 40
0.9808690888
 40
1.0
 40
1.0
 40
1.0
 40
1.0
 10
137.2139161906
 20
677.6887447641
 30
0.0
 10
137.1775338787
 20
677.6951580112
 30
0.0
 10
137.108275497
 20
677.7069054734
 30
0.0
 10
137.0255118512
 20
677.7213500682
 30
0.0
 10
136.972012035
 20
677.7286771854
 30
0.0
 10
136.9429691888
 20
677.7345849081
 30
0.0
 10
136.9300763958
 20
677.733039259
 30
0.0
 10
136.9187998981
 20
677.7374837408
 30
0.0
 10
136.9184685434
 20
677.7356045286
 30
0.0
  0
SPLINE
  5
517
100
AcDbEntity
  8
0
100
AcDbSpline
 62
7
  6
CONTINUOUS
 70
0
 71
3
 72
10
 73
6
 74
0
 42
0.0000001
 43
0.0000001
 44
0.0000000001
 40
0.0
 40
0.0
 40
0.0
 40
0.0
 40
0.4116026144
 40
0.6901023635
 40
1.0
 40
1.0
 40
1.0
 40
1.0
 10
148.7806139334
 20
683.945968786
 30
0.0
 10
148.7964790038
 20
683.983662622
 30
0.0
 10
148.8900757648
 20
683.8914601749
 30
0.0
 10
148.9730909015
 20
683.8738409456
 30
0.0
 10
149.0289787119
 20
683.8472442972
 30
0.0
 10
149.0573840884
 20
683.8353601786
 30
0.0
  0
SPLINE
  5
518
100
AcDbEntity
  8
0
100
AcDbSpline
 62
7
  6
CONTINUOUS
 70
0
 71
3
 72
13
 73
9
 74
0
 42
0.0000001
 43
0.0000001
 44
0.0000000001
 40
0.0
 40
0.0
 40
0.0
 40
0.0
 40
0.0187882116
 40
0.0743175894
 40
0.1655546279
 40
0.2914452873
 40
0.6279105974
 40
1.0
 40
1.0
 40
1.0
 40
1.0
 10
147.7680023939
 20
682.8739092816
 30
0.0
 10
147.7696785203
 20
682.8746907015
 30
0.0
 10
147.7714341626
 20
682.8625520172
 30
0.0
 10
147.7801584063
 20
682.8533056864
 30
0.0
 10
147.7909824252
 20
682.8261465596
 30
0.0
 10
147.8149409776
 20
682.7787061826
 30
0.0
 10
147.8496273263
 20
682.703239177
 30
0.0
 10
147.8793101121
 20
682.6404346979
 30
0.0
 10
147.8947923107
 20
682.6072431029
 30
0.0
  0
SPLINE
  5
519
100
AcDbEntity
  8
0
100
AcDbSpline
 62
7
  6
CONTINUOUS
 70
0
 71
3
 72
13
 73
9
 74
0
 42
0.0000001
 43
0.0000001
 44
0.0000000001
 40
0.0
 40
0.0
 40
0.0
 40
0.0
 40
0.3720026845
 40
0.7084714613
 40
0.8343801069
 40
0.9256385621
 40
0.9811886959
 40
1.0
 40
1.0
 40
1.0
 40
1.0
 10
138.2998262022
 20
678.4783530296
 30
0.0
 10
138.3178068143
 20
678.5102781173
 30
0.0
 10
138.3522304025
 20
678.5706585032
 30
0.0
 10
138.3926682051
 20
678.6432579948
 30
0.0
 10
138.42024267
 20
678.6887425335
 30
0.0
 10
138.4332158095
 20
678.7149574062
 30
0.0
 10
138.4426000316
 20
678.7235470301
 30
0.0
 10
138.4454036047
 20
678.7354491484
 30
0.0
 10
138.4470181685
 20
678.7345402431
 30
0.0
  0
SPLINE
  5
51A
100
AcDbEntity
  8
0
100
AcDbSpline
 62
7
  6
CONTINUOUS
 70
0
 71
3
 72
10
 73
6
 74
0
 42
0.0000001
 43
0.0000001
 44
0.0000000001
 40
0.0
 40
0.0
 40
0.0
 40
0.0
 40
0.3993757283
 40
0.6802094935
 40
1.0
 40
1.0
 40
1.0
 40
1.0
 10
136.9715898517
 20
678.036812614
 30
0.0
 10
136.9785055133
 20
678.0760340855
 30
0.0
 10
137.0887949424
 20
678.0082636891
 30
0.0
 10
137.1736771818
 20
678.0096143792
 30
0.0
 10
137.235626259
 20
677.9954899071
 30
0.0
 10
137.2670321777
 20
677.989953883
 30
0.0
  0
SPLINE
  5
51B
100
AcDbEntity
  8
0
100
AcDbSpline
 62
7
  6
CONTINUOUS
 70
0
 71
3
 72
10
 73
6
 74
0
 42
0.0000001
 43
0.0000001
 44
0.0000000001
 40
0.0
 40
0.0
 40
0.0
 40
0.0
 40
0.3136282298
 40
0.592359398
 40
1.0
 40
1.0
 40
1.0
 40
1.0
 10
149.0573829471
 20
683.8353574662
 30
0.0
 10
149.0286354636
 20
683.8473845825
 30
0.0
 10
148.9723952847
 20
683.8743138728
 30
0.0
 10
148.8893930036
 20
683.8918138833
 30
0.0
 10
148.7963666026
 20
683.983313897
 30
0.0
 10
148.7806253229
 20
683.9459949106
 30
0.0
  0
SPLINE
  5
51C
100
AcDbEntity
  8
0
100
AcDbSpline
 62
7
  6
CONTINUOUS
 70
0
 71
3
 72
13
 73
9
 74
0
 42
0.0000001
 43
0.0000001
 44
0.0000000001
 40
0.0
 40
0.0
 40
0.0
 40
0.0
 40
0.3720916573
 40
0.7085567162
 40
0.8344467938
 40
0.9256831882
 40
0.9812120339
 40
1.0
 40
1.0
 40
1.0
 40
1.0
 10
147.8947923055
 20
682.6072431196
 30
0.0
 10
147.8793102283
 20
682.6404344443
 30
0.0
 10
147.849627776
 20
682.7032381985
 30
0.0
 10
147.8149418351
 20
682.7787042919
 30
0.0
 10
147.7909837008
 20
682.8261438227
 30
0.0
 10
147.7801598602
 20
682.8533024628
 30
0.0
 10
147.7714358827
 20
682.8625484514
 30
0.0
 10
147.7696802017
 20
682.8746869659
 30
0.0
 10
147.7680041481
 20
682.873905509
 30
0.0
  0
SPLINE
  5
51D
100
AcDbEntity
  8
0
100
AcDbSpline
 62
7
  6
CONTINUOUS
 70
0
 71
3
 72
10
 73
6
 74
0
 42
0.0000001
 43
0.0000001
 44
0.0000000001
 40
0.0
 40
0.0
 40
0.0
 40
0.0
 40
0.3100942015
 40
0.5889057852
 40
1.0
 40
1.0
 40
1.0
 40
1.0
 10
147.0571271466
 20
682.2166334623
 30
0.0
 10
147.0442254602
 20
682.244292791
 30
0.0
 10
147.0211924847
 20
682.301196985
 30
0.0
 10
146.9720182627
 20
682.3693261424
 30
0.0
 10
146.9670118436
 20
682.5003896606
 30
0.0
 10
146.9303416681
 20
682.4832900765
 30
0.0
  0
SPLINE
  5
51E
100
AcDbEntity
  8
0
100
AcDbSpline
 62
7
  6
CONTINUOUS
 70
0
 71
3
 72
13
 73
9
 74
0
 42
0.0000001
 43
0.0000001
 44
0.0000000001
 40
0.0
 40
0.0
 40
0.0
 40
0.0
 40
0.3706866712
 40
0.7072261291
 40
0.833434154
 40
0.9250432262
 40
0.9809128702
 40
1.0
 40
1.0
 40
1.0
 40
1.0
 10
146.1921482539
 20
681.2946161444
 30
0.0
 10
146.1578268832
 20
681.3080226848
 30
0.0
 10
146.09243858
 20
681.3330895781
 30
0.0
 10
146.0144017695
 20
681.3634817932
 30
0.0
 10
145.9635991147
 20
681.3811515445
 30
0.0
 10
145.9364192394
 20
681.3926894708
 30
0.0
 10
145.9235345246
 20
681.3936746633
 30
0.0
 10
145.9134236564
 20
681.4003256037
 30
0.0
 10
145.91273318
 20
681.3985584137
 30
0.0
  0
SPLINE
  5
51F
100
AcDbEntity
  8
0
100
AcDbSpline
 62
7
  6
CONTINUOUS
 70
0
 71
3
 72
13
 73
9
 74
0
 42
0.0000001
 43
0.0000001
 44
0.0000000001
 40
0.0
 40
0.0
 40
0.0
 40
0.0
 40
0.371995194
 40
0.7084650818
 40
0.8343757266
 40
0.9256363022
 40
0.9811880919
 40
1.0
 40
1.0
 40
1.0
 40
1.0
 10
138.2998175392
 20
678.4783376217
 30
0.0
 10
138.3177987987
 20
678.510263895
 30
0.0
 10
138.352224004
 20
678.5706471817
 30
0.0
 10
138.392663895
 20
678.6432505062
 30
0.0
 10
138.420240124
 20
678.6887379952
 30
0.0
 10
138.4332143322
 20
678.7149550844
 30
0.0
 10
138.4425991962
 20
678.7235451401
 30
0.0
 10
138.4454031324
 20
678.7354486151
 30
0.0
 10
138.4470177735
 20
678.7345395104
 30
0.0
  0
SPLINE
  5
520
100
AcDbEntity
  8
0
100
AcDbSpline
 62
7
  6
CONTINUOUS
 70
0
 71
3
 72
17
 73
13
 74
0
 42
0.0000001
 43
0.0000001
 44
0.0000000001
 40
0.0
 40
0.0
 40
0.0
 40
0.0
 40
0.1016909645
 40
0.200838902
 40
0.3008125193
 40
0.4011855151
 40
0.5011286618
 40
0.6009865737
 40
0.701091998
 40
0.8005990871
 40
0.8991230247
 40
1.0
 40
1.0
 40
1.0
 40
1.0
 10
146.192155624
 20
681.2946130754
 30
0.0
 10
146.0728451481
 20
680.996081248
 30
0.0
 10
145.791000737
 20
680.4233467898
 30
0.0
 10
145.2284654304
 20
679.6507422658
 30
0.0
 10
144.5428648055
 20
678.991004192
 30
0.0
 10
143.7556111389
 20
678.4524342584
 30
0.0
 10
142.887532347
 20
678.0573423749
 30
0.0
 10
141.9653257808
 20
677.8174487349
 30
0.0
 10
141.0173125582
 20
677.7394900833
 30
0.0
 10
140.0734848353
 20
677.818470352
 30
0.0
 10
139.1553327544
 20
678.0607415248
 30
0.0
 10
138.5788806421
 20
678.3239611262
 30
0.0
 10
138.2998176647
 20
678.4783375516
 30
0.0
  0
SPLINE
  5
521
100
AcDbEntity
  8
0
100
AcDbSpline
 62
7
  6
CONTINUOUS
 70
0
 71
3
 72
13
 73
9
 74
0
 42
0.0000001
 43
0.0000001
 44
0.0000000001
 40
0.0
 40
0.0
 40
0.0
 40
0.0
 40
0.1745647614
 40
0.336805842
 40
0.5000569172
 40
0.6632904572
 40
0.8255003154
 40
1.0
 40
1.0
 40
1.0
 40
1.0
 10
137.2139188534
 20
677.6887443815
 30
0.0
 10
137.193264303
 20
677.5854455974
 30
0.0
 10
137.1353306407
 20
677.3886452897
 30
0.0
 10
136.98168108
 20
677.1254514029
 30
0.0
 10
136.774967867
 20
676.9117247671
 30
0.0
 10
136.528577303
 20
676.7453233823
 30
0.0
 10
136.2427562177
 20
676.639771414
 30
0.0
 10
136.0389473733
 20
676.6168874912
 30
0.0
 10
135.9336706746
 20
676.6144805189
 30
0.0
  0
SPLINE
  5
522
100
AcDbEntity
  8
0
100
AcDbSpline
 62
7
  6
CONTINUOUS
 70
0
 71
3
 72
10
 73
6
 74
0
 42
0.0000001
 43
0.0000001
 44
0.0000000001
 40
0.0
 40
0.0
 40
0.0
 40
0.0
 40
0.308072717
 40
0.577989266
 40
1.0
 40
1.0
 40
1.0
 40
1.0
 10
123.0149249972
 20
680.4148479286
 30
0.0
 10
123.0455760999
 20
680.4175287358
 30
0.0
 10
123.1060793812
 20
680.4257181742
 30
0.0
 10
123.1914317772
 20
680.4178373703
 30
0.0
 10
123.3101100565
 20
680.4777459825
 30
0.0
 10
123.3137834065
 20
680.4357589294
 30
0.0
  0
SPLINE
  5
523
100
AcDbEntity
  8
0
100
AcDbSpline
 62
7
  6
CONTINUOUS
 70
0
 71
3
 72
13
 73
9
 74
0
 42
0.0000001
 43
0.0000001
 44
0.0000000001
 40
0.0
 40
0.0
 40
0.0
 40
0.0
 40
0.1712984793
 40
0.3360519772
 40
0.5021250924
 40
0.668363473
 40
0.8318965277
 40
1.0
 40
1.0
 40
1.0
 40
1.0
 10
119.2717622253
 20
685.3867633485
 30
0.0
 10
119.3060058303
 20
685.1226357208
 30
0.0
 10
119.4131055058
 20
684.6083158267
 30
0.0
 10
119.7061530018
 20
683.8800971205
 30
0.0
 10
120.123736929
 20
683.2249734505
 30
0.0
 10
120.6442620478
 20
682.6509503766
 30
0.0
 10
121.2625085472
 20
682.1783057187
 30
0.0
 10
121.7236230415
 20
681.9411212293
 30
0.0
 10
121.9647413301
 20
681.8402424779
 30
0.0
  0
SPLINE
  5
524
100
AcDbEntity
  8
0
100
AcDbSpline
 62
7
  6
CONTINUOUS
 70
0
 71
3
 72
10
 73
6
 74
0
 42
0.0000001
 43
0.0000001
 44
0.0000000001
 40
0.0
 40
0.0
 40
0.0
 40
0.0
 40
0.3019838572
 40
0.580006691
 40
1.0
 40
1.0
 40
1.0
 40
1.0
 10
119.2717622247
 20
685.3867633243
 30
0.0
 10
119.3016978603
 20
685.3903099053
 30
0.0
 10
119.3621038981
 20
685.4000898948
 30
0.0
 10
119.4474322615
 20
685.393345481
 30
0.0
 10
119.5651055922
 20
685.4531752379
 30
0.0
 10
119.5701172875
 20
685.4115507917
 30
0.0
  0
SPLINE
  5
525
100
AcDbEntity
  8
0
100
AcDbSpline
 62
7
  6
CONTINUOUS
 70
0
 71
3
 72
13
 73
9
 74
0
 42
0.0000001
 43
0.0000001
 44
0.0000000001
 40
0.0
 40
0.0
 40
0.0
 40
0.0
 40
0.153717845
 40
0.3197461777
 40
0.4916598355
 40
0.665771165
 40
0.8374395857
 40
1.0
 40
1.0
 40
1.0
 40
1.0
 10
118.5753780061
 20
686.0144886707
 30
0.0
 10
118.627396364
 20
686.0148004283
 30
0.0
 10
118.7360092091
 20
685.9996687866
 30
0.0
 10
118.8916977675
 20
685.9368804105
 30
0.0
 10
119.0342649607
 20
685.8357207674
 30
0.0
 10
119.1522213884
 20
685.704211169
 30
0.0
 10
119.2359276409
 20
685.5521599245
 30
0.0
 10
119.2650427043
 20
685.441363106
 30
0.0
 10
119.2717622253
 20
685.3867633485
 30
0.0
  0
SPLINE
  5
526
100
AcDbEntity
  8
0
100
AcDbSpline
 62
7
  6
CONTINUOUS
 70
0
 71
3
 72
10
 73
6
 74
0
 42
0.0000001
 43
0.0000001
 44
0.0000000001
 40
0.0
 40
0.0
 40
0.0
 40
0.0
 40
0.3994576415
 40
0.6802986575
 40
1.0
 40
1.0
 40
1.0
 40
1.0
 10
123.3137834066
 20
680.4357589295
 30
0.0
 10
123.3103063536
 20
680.4755018256
 30
0.0
 10
123.1943362552
 20
680.4175585172
 30
0.0
 10
123.1097664491
 20
680.4263094546
 30
0.0
 10
123.0467364753
 20
680.4176302178
 30
0.0
 10
123.0149286299
 20
680.4148482463
 30
0.0
  0
SPLINE
  5
527
100
AcDbEntity
  8
0
100
AcDbSpline
 62
7
  6
CONTINUOUS
 70
0
 71
3
 72
10
 73
6
 74
0
 42
0.0000001
 43
0.0000001
 44
0.0000000001
 40
0.0
 40
0.0
 40
0.0
 40
0.0
 40
0.30684222
 40
0.5863415252
 40
1.0
 40
1.0
 40
1.0
 40
1.0
 10
119.2701515705
 20
685.3998076434
 30
0.0
 10
119.3005504094
 20
685.4035369303
 30
0.0
 10
119.3615385808
 20
685.4140016015
 30
0.0
 10
119.4468426715
 20
685.4085446561
 30
0.0
 10
119.562161683
 20
685.4720007481
 30
0.0
 10
119.5679182701
 20
685.4311156704
 30
0.0
  0
SPLINE
  5
528
100
AcDbEntity
  8
0
100
AcDbSpline
 62
7
  6
CONTINUOUS
 70
0
 71
3
 72
13
 73
9
 74
0
 42
0.0000001
 43
0.0000001
 44
0.0000000001
 40
0.0
 40
0.0
 40
0.0
 40
0.0
 40
0.1675848775
 40
0.3314398465
 40
0.4975536827
 40
0.6637842058
 40
0.8298294934
 40
1.0
 40
1.0
 40
1.0
 40
1.0
 10
121.9647417391
 20
681.8402434774
 30
0.0
 10
121.7256810117
 20
681.9401832362
 30
0.0
 10
121.2674988509
 20
682.1759701899
 30
0.0
 10
120.6520733536
 20
682.6441570106
 30
0.0
 10
120.1319307275
 20
683.213418182
 30
0.0
 10
119.7137752099
 20
683.8655270958
 30
0.0
 10
119.4199834314
 20
684.5891265909
 30
0.0
 10
119.3095910575
 20
685.0999577736
 30
0.0
 10
119.2744762356
 20
685.3607117412
 30
0.0
  0
SPLINE
  5
529
100
AcDbEntity
  8
0
100
AcDbSpline
 62
7
  6
CONTINUOUS
 70
0
 71
3
 72
8
 73
4
 74
0
 42
0.0000001
 43
0.0000001
 44
0.0000000001
 40
0.0
 40
0.0
 40
0.0
 40
0.0
 40
1.0
 40
1.0
 40
1.0
 40
1.0
 10
118.7223721333
 20
689.3092509563
 30
0.0
 10
118.7052430453
 20
689.350898715
 30
0.0
 10
118.720588703
 20
689.4010658832
 30
0.0
 10
118.7046417383
 20
689.4431804386
 30
0.0
  0
SPLINE
  5
52A
100
AcDbEntity
  8
0
100
AcDbSpline
 62
7
  6
CONTINUOUS
 70
0
 71
3
 72
8
 73
4
 74
0
 42
0.0000001
 43
0.0000001
 44
0.0000000001
 40
0.0
 40
0.0
 40
0.0
 40
0.0
 40
1.0
 40
1.0
 40
1.0
 40
1.0
 10
119.7507410832
 20
689.3092509563
 30
0.0
 10
119.76788428
 20
689.350925424
 30
0.0
 10
119.7520021929
 20
689.4013261122
 30
0.0
 10
119.7684716371
 20
689.4432714083
 30
0.0
  0
SPLINE
  5
52B
100
AcDbEntity
  8
0
100
AcDbSpline
 62
7
  6
CONTINUOUS
 70
0
 71
3
 72
8
 73
4
 74
0
 42
0.0000001
 43
0.0000001
 44
0.0000000001
 40
0.0
 40
0.0
 40
0.0
 40
0.0
 40
1.0
 40
1.0
 40
1.0
 40
1.0
 10
119.6975495802
 20
689.3092509563
 30
0.0
 10
119.7146786683
 20
689.350898715
 30
0.0
 10
119.6993330107
 20
689.4010658832
 30
0.0
 10
119.7152799753
 20
689.4431804386
 30
0.0
  0
SPLINE
  5
52C
100
AcDbEntity
  8
0
100
AcDbSpline
 62
7
  6
CONTINUOUS
 70
0
 71
3
 72
10
 73
6
 74
0
 42
0.0000001
 43
0.0000001
 44
0.0000000001
 40
0.0
 40
0.0
 40
0.0
 40
0.0
 40
0.4274231757
 40
0.6937016664
 40
1.0
 40
1.0
 40
1.0
 40
1.0
 10
124.2348134997
 20
683.8092509563
 30
0.0
 10
124.1927191273
 20
683.8092509563
 30
0.0
 10
124.2332809333
 20
683.931201866
 30
0.0
 10
124.2269107786
 20
684.014610271
 30
0.0
 10
124.2336082822
 20
684.0739694201
 30
0.0
 10
124.2362928186
 20
684.1040152347
 30
0.0
  0
SPLINE
  5
52D
100
AcDbEntity
  8
0
100
AcDbSpline
 62
7
  6
CONTINUOUS
 70
0
 71
3
 72
10
 73
6
 74
0
 42
0.0000001
 43
0.0000001
 44
0.0000000001
 40
0.0
 40
0.0
 40
0.0
 40
0.0
 40
0.4121917909
 40
0.690906144
 40
1.0
 40
1.0
 40
1.0
 40
1.0
 10
121.557816723
 20
685.6357640931
 30
0.0
 10
121.5622037219
 20
685.5948565327
 30
0.0
 10
121.6789050923
 20
685.6583054607
 30
0.0
 10
121.7636932903
 20
685.6528025591
 30
0.0
 10
121.8249610182
 20
685.6633293162
 30
0.0
 10
121.8555827957
 20
685.6670880562
 30
0.0
  0
SPLINE
  5
52E
100
AcDbEntity
  8
0
100
AcDbSpline
 62
7
  6
CONTINUOUS
 70
0
 71
3
 72
9
 73
5
 74
0
 42
0.0000001
 43
0.0000001
 44
0.0000000001
 40
0.0
 40
0.0
 40
0.0
 40
0.0
 40
0.4577147935
 40
1.0
 40
1.0
 40
1.0
 40
1.0
 10
138.0152079584
 20
681.2277246785
 30
0.0
 10
138.0000845179
 20
681.2483899694
 30
0.0
 10
137.9411208494
 20
681.2731181576
 30
0.0
 10
137.8848581093
 20
681.2568455689
 30
0.0
 10
137.8576731133
 20
681.2433746474
 30
0.0
  0
SPLINE
  5
52F
100
AcDbEntity
  8
0
100
AcDbSpline
 62
7
  6
CONTINUOUS
 70
0
 71
3
 72
9
 73
5
 74
0
 42
0.0000001
 43
0.0000001
 44
0.0000000001
 40
0.0
 40
0.0
 40
0.0
 40
0.0
 40
0.5084172655
 40
1.0
 40
1.0
 40
1.0
 40
1.0
 10
137.9248905197
 20
681.5128366196
 30
0.0
 10
137.9445938241
 20
681.5343886493
 30
0.0
 10
138.0094855651
 20
681.544916652
 30
0.0
 10
138.0693004213
 20
681.5218104282
 30
0.0
 10
138.0849066442
 20
681.4982812628
 30
0.0
  0
SPLINE
  5
530
100
AcDbEntity
  8
0
100
AcDbSpline
 62
7
  6
CONTINUOUS
 70
0
 71
3
 72
8
 73
4
 74
0
 42
0.0000001
 43
0.0000001
 44
0.0000000001
 40
0.0
 40
0.0
 40
0.0
 40
0.0
 40
1.0
 40
1.0
 40
1.0
 40
1.0
 10
144.1868596179
 20
681.2355472176
 30
0.0
 10
144.1694816648
 20
681.2671311025
 30
0.0
 10
144.1029825416
 20
681.2909286414
 30
0.0
 10
144.0819161779
 20
681.2616755499
 30
0.0
  0
SPLINE
  5
531
100
AcDbEntity
  8
0
100
AcDbSpline
 62
7
  6
CONTINUOUS
 70
0
 71
3
 72
9
 73
5
 74
0
 42
0.0000001
 43
0.0000001
 44
0.0000000001
 40
0.0
 40
0.0
 40
0.0
 40
0.0
 40
0.4592293224
 40
1.0
 40
1.0
 40
1.0
 40
1.0
 10
143.9611270331
 20
681.4979517587
 30
0.0
 10
143.9749034433
 20
681.5189656275
 30
0.0
 10
144.0284822891
 20
681.5502877729
 30
0.0
 10
144.0859331512
 20
681.5359084993
 30
0.0
 10
144.1123186239
 20
681.5225182258
 30
0.0
  0
SPLINE
  5
532
100
AcDbEntity
  8
0
100
AcDbSpline
 62
7
  6
CONTINUOUS
 70
0
 71
3
 72
9
 73
5
 74
0
 42
0.0000001
 43
0.0000001
 44
0.0000000001
 40
0.0
 40
0.0
 40
0.0
 40
0.0
 40
0.4854298692
 40
1.0
 40
1.0
 40
1.0
 40
1.0
 10
144.3930151585
 20
681.2356404109
 30
0.0
 10
144.3756982359
 20
681.210965664
 30
0.0
 10
144.3043177232
 20
681.1907728039
 30
0.0
 10
144.2444488669
 20
681.2153006171
 30
0.0
 10
144.2190110462
 20
681.2346399888
 30
0.0
  0
SPLINE
  5
533
100
AcDbEntity
  8
0
100
AcDbSpline
 62
7
  6
CONTINUOUS
 70
0
 71
3
 72
9
 73
5
 74
0
 42
0.0000001
 43
0.0000001
 44
0.0000000001
 40
0.0
 40
0.0
 40
0.0
 40
0.0
 40
0.5013479164
 40
1.0
 40
1.0
 40
1.0
 40
1.0
 10
144.1447475351
 20
681.5238472433
 30
0.0
 10
144.1554123679
 20
681.4930561087
 30
0.0
 10
144.2345997265
 20
681.47002708
 30
0.0
 10
144.3056878833
 20
681.4922369546
 30
0.0
 10
144.321846374
 20
681.520332278
 30
0.0
  0
SPLINE
  5
534
100
AcDbEntity
  8
0
100
AcDbSpline
 62
7
  6
CONTINUOUS
 70
0
 71
3
 72
14
 73
10
 74
0
 42
0.0000001
 43
0.0000001
 44
0.0000000001
 40
0.0
 40
0.0
 40
0.0
 40
0.0
 40
0.1429416973
 40
0.2857719499
 40
0.4285073617
 40
0.5712138108
 40
0.713955698
 40
0.8568190118
 40
1.0
 40
1.0
 40
1.0
 40
1.0
 10
146.708936007
 20
687.773037382
 30
0.0
 10
146.731862706
 20
687.7985116602
 30
0.0
 10
146.7869744971
 20
687.841867214
 30
0.0
 10
146.8863036994
 20
687.8749753225
 30
0.0
 10
146.991030996
 20
687.8726649965
 30
0.0
 10
147.0887740135
 20
687.8351108228
 30
0.0
 10
147.1681161138
 20
687.7667059146
 30
0.0
 10
147.2197930964
 20
687.6755673883
 30
0.0
 10
147.2317122721
 20
687.6063985653
 30
0.0
 10
147.2317018076
 20
687.5720691591
 30
0.0
  0
SPLINE
  5
535
100
AcDbEntity
  8
0
100
AcDbSpline
 62
7
  6
CONTINUOUS
 70
0
 71
3
 72
12
 73
8
 74
0
 42
0.0000001
 43
0.0000001
 44
0.0000000001
 40
0.0
 40
0.0
 40
0.0
 40
0.0
 40
0.1821339113
 40
0.3895314947
 40
0.6065512642
 40
0.8150937387
 40
1.0
 40
1.0
 40
1.0
 40
1.0
 10
144.2552773009
 20
685.5938294344
 30
0.0
 10
144.2738898394
 20
685.5679217503
 30
0.0
 10
144.3250513399
 20
685.5200409295
 30
0.0
 10
144.4255009692
 20
685.479381918
 30
0.0
 10
144.5381766311
 20
685.4730158313
 30
0.0
 10
144.6431221943
 20
685.5019257754
 30
0.0
 10
144.7008433948
 20
685.5427847059
 30
0.0
 10
144.7229877737
 20
685.5664168192
 30
0.0
  0
SPLINE
  5
536
100
AcDbEntity
  8
0
100
AcDbSpline
 62
7
  6
CONTINUOUS
 70
0
 71
3
 72
13
 73
9
 74
0
 42
0.0000001
 43
0.0000001
 44
0.0000000001
 40
0.0
 40
0.0
 40
0.0
 40
0.0
 40
0.1511146579
 40
0.3209434763
 40
0.5009833018
 40
0.6808419655
 40
0.8501453423
 40
1.0
 40
1.0
 40
1.0
 40
1.0
 10
144.6976939258
 20
685.2288531712
 30
0.0
 10
144.6791661897
 20
685.2085864682
 30
0.0
 10
144.6322049514
 20
685.1720409283
 30
0.0
 10
144.5450868921
 20
685.1410908874
 30
0.0
 10
144.447620075
 20
685.1364395364
 30
0.0
 10
144.3527587034
 20
685.1588346039
 30
0.0
 10
144.2730457428
 20
685.2049677599
 30
0.0
 10
144.2337973411
 20
685.249232633
 30
0.0
 10
144.219355704
 20
685.272317991
 30
0.0
  0
SPLINE
  5
537
100
AcDbEntity
  8
0
100
AcDbSpline
 62
7
  6
CONTINUOUS
 70
0
 71
3
 72
10
 73
6
 74
0
 42
0.0000001
 43
0.0000001
 44
0.0000000001
 40
0.0
 40
0.0
 40
0.0
 40
0.0
 40
0.3450373715
 40
0.6900969043
 40
1.0
 40
1.0
 40
1.0
 40
1.0
 10
119.5655942
 20
685.4487545644
 30
0.0
 10
119.5436357115
 20
685.6046855391
 30
0.0
 10
119.4222922905
 20
685.910777539
 30
0.0
 10
119.0654549391
 20
686.2208643247
 30
0.0
 10
118.7652967729
 20
686.300992263
 30
0.0
 10
118.6235935749
 20
686.3080456135
 30
0.0
  0
SPLINE
  5
538
100
AcDbEntity
  8
0
100
AcDbSpline
 62
7
  6
CONTINUOUS
 70
0
 71
3
 72
14
 73
10
 74
0
 42
0.0000001
 43
0.0000001
 44
0.0000000001
 40
0.0
 40
0.0
 40
0.0
 40
0.0
 40
0.1886175038
 40
0.370478892
 40
0.5385581761
 40
0.6865816176
 40
0.8099001108
 40
0.9042892194
 40
1.0
 40
1.0
 40
1.0
 40
1.0
 10
141.0227703091
 20
664.7444507909
 30
0.0
 10
140.9089654225
 20
664.7615960805
 30
0.0
 10
140.6853738732
 20
664.7952382742
 30
0.0
 10
140.3609273618
 20
664.8460075317
 30
0.0
 10
140.0605849421
 20
664.8966115339
 30
0.0
 10
139.7993856139
 20
664.9466499653
 30
0.0
 10
139.575455715
 20
664.9966020984
 30
0.0
 10
139.4096780263
 20
665.0511935744
 30
0.0
 10
139.2620045016
 20
665.1009568761
 30
0.0
 10
139.2578710724
 20
665.1592104703
 30
0.0
  0
SPLINE
  5
539
100
AcDbEntity
  8
0
100
AcDbSpline
 62
7
  6
CONTINUOUS
 70
0
 71
3
 72
15
 73
11
 74
0
 42
0.0000001
 43
0.0000001
 44
0.0000000001
 40
0.0
 40
0.0
 40
0.0
 40
0.0
 40
0.1831656846
 40
0.3429476284
 40
0.452054058
 40
0.4990493315
 40
0.5453183126
 40
0.6536670018
 40
0.8129137317
 40
1.0
 40
1.0
 40
1.0
 40
1.0
 10
141.0285399098
 20
663.9113000633
 30
0.0
 10
141.2495177238
 20
663.9438772605
 30
0.0
 10
141.6565783854
 20
664.0002413958
 30
0.0
 10
142.2237458826
 20
664.1133147385
 30
0.0
 10
142.5493769989
 20
664.1625781448
 30
0.0
 10
142.8585395512
 20
664.3251184522
 30
0.0
 10
142.5545338507
 20
664.4912353151
 30
0.0
 10
142.2289389564
 20
664.5385411322
 30
0.0
 10
141.6595549271
 20
664.6533253544
 30
0.0
 10
141.2483720096
 20
664.7104647135
 30
0.0
 10
141.0227703091
 20
664.7444507909
 30
0.0
  0
SPLINE
  5
53A
100
AcDbEntity
  8
0
100
AcDbSpline
 62
7
  6
CONTINUOUS
 70
0
 71
3
 72
38
 73
34
 74
0
 42
0.0000001
 43
0.0000001
 44
0.0000000001
 40
0.0
 40
0.0
 40
0.0
 40
0.0
 40
0.0516809925
 40
0.0982907886
 40
0.1406174833
 40
0.1788386223
 40
0.2128727301
 40
0.2397281122
 40
0.258350585
 40
0.2687751618
 40
0.2851404431
 40
0.3049355766
 40
0.3331402327
 40
0.36779845
 40
0.407478466
 40
0.4511290644
 40
0.4978508744
 40
0.5452269219
 40
0.59142308
 40
0.6353797561
 40
0.6752095102
 40
0.7088715024
 40
0.7355081539
 40
0.7548592099
 40
0.766758596
 40
0.7804084044
 40
0.7969252955
 40
0.8204495043
 40
0.849667867
 40
0.8824817437
 40
0.9187107087
 40
0.9578916523
 40
1.0
 40
1.0
 40
1.0
 40
1.0
 10
141.0253220676
 20
665.7109665234
 30
0.0
 10
140.8725984149
 20
665.6941441318
 30
0.0
 10
140.5821789195
 20
665.6619740974
 30
0.0
 10
140.1667631786
 20
665.6142545807
 30
0.0
 10
139.7919347807
 20
665.5672219349
 30
0.0
 10
139.4539376077
 20
665.5177506721
 30
0.0
 10
139.1662059998
 20
665.4686521469
 30
0.0
 10
138.92810745
 20
665.4152754665
 30
0.0
 10
138.784560732
 20
665.371465917
 30
0.0
 10
138.628267075
 20
665.2945652627
 30
0.0
 10
138.7959586767
 20
665.166461906
 30
0.0
 10
138.9627894442
 20
665.1378317797
 30
0.0
 10
139.2100180594
 20
665.0749899333
 30
0.0
 10
139.5077236438
 20
665.0261001187
 30
0.0
 10
139.8553630744
 20
664.9718927522
 30
0.0
 10
140.2380222799
 20
664.9187655521
 30
0.0
 10
140.6440634257
 20
664.8646891815
 30
0.0
 10
141.0575702599
 20
664.810483424
 30
0.0
 10
141.4629339186
 20
664.7563486954
 30
0.0
 10
141.8451703285
 20
664.7013697778
 30
0.0
 10
142.1910140851
 20
664.647189478
 30
0.0
 10
142.4812042516
 20
664.5928569418
 30
0.0
 10
142.719061078
 20
664.5411489807
 30
0.0
 10
142.8675398989
 20
664.4868223417
 30
0.0
 10
143.0243868358
 20
664.4324150013
 30
0.0
 10
142.9428502944
 20
664.2782723363
 30
0.0
 10
142.7850363804
 20
664.2504039047
 30
0.0
 10
142.5894212047
 20
664.1848758554
 30
0.0
 10
142.3394118971
 20
664.1359664204
 30
0.0
 10
142.0525270736
 20
664.0814695155
 30
0.0
 10
141.735195589
 20
664.028016537
 30
0.0
 10
141.3905167557
 20
663.9709857718
 30
0.0
 10
141.1520118371
 20
663.9319567349
 30
0.0
 10
141.0285399098
 20
663.9113000633
 30
0.0
  0
SPLINE
  5
53B
100
AcDbEntity
  8
0
100
AcDbSpline
 62
7
  6
CONTINUOUS
 70
0
 71
3
 72
20
 73
16
 74
0
 42
0.0000001
 43
0.0000001
 44
0.0000000001
 40
0.0
 40
0.0
 40
0.0
 40
0.0
 40
0.0442304118
 40
0.0847366085
 40
0.1284026201
 40
0.1916282336
 40
0.233090228
 40
0.2828345506
 40
0.3422429101
 40
0.4127000303
 40
0.4956651801
 40
0.5933154208
 40
0.7083205079
 40
0.8434835242
 40
1.0
 40
1.0
 40
1.0
 40
1.0
 10
139.2578710724
 20
665.1592104703
 30
0.0
 10
139.2575128357
 20
665.1852494304
 30
0.0
 10
139.3438962434
 20
665.1341075759
 30
0.0
 10
139.4055287326
 20
665.1483992842
 30
0.0
 10
139.4965037674
 20
665.1388664031
 30
0.0
 10
139.5822741069
 20
665.1374829051
 30
0.0
 10
139.6734567621
 20
665.1340327338
 30
0.0
 10
139.7620068788
 20
665.1315187856
 30
0.0
 10
139.867748351
 20
665.1286544407
 30
0.0
 10
139.9930100786
 20
665.1256835804
 30
0.0
 10
140.1407993044
 20
665.1223414271
 30
0.0
 10
140.3148061519
 20
665.11844574
 30
0.0
 10
140.5195448649
 20
665.1141113314
 30
0.0
 10
140.7589389624
 20
665.1092977745
 30
0.0
 10
140.9306366211
 20
665.1058931865
 30
0.0
 10
141.0227703091
 20
665.1040663782
 30
0.0
  0
SPLINE
  5
53C
100
AcDbEntity
  8
0
100
AcDbSpline
 62
7
  6
CONTINUOUS
 70
0
 71
3
 72
20
 73
16
 74
0
 42
0.0000001
 43
0.0000001
 44
0.0000000001
 40
0.0
 40
0.0
 40
0.0
 40
0.0
 40
0.1629438015
 40
0.3022774661
 40
0.4189441901
 40
0.5164534975
 40
0.5994463707
 40
0.6692594286
 40
0.7272992635
 40
0.7752239092
 40
0.8146410195
 40
0.8739734997
 40
0.9142746054
 40
0.951372356
 40
1.0
 40
1.0
 40
1.0
 40
1.0
 10
141.0227548374
 20
665.6122753322
 30
0.0
 10
140.9225004365
 20
665.597534646
 30
0.0
 10
140.7365544209
 20
665.5699391145
 30
0.0
 10
140.479080225
 20
665.5301052415
 30
0.0
 10
140.2621005211
 20
665.4947252855
 30
0.0
 10
140.0800319901
 20
665.463009838
 30
0.0
 10
139.9270749328
 20
665.4340600315
 30
0.0
 10
139.7986470497
 20
665.4075706768
 30
0.0
 10
139.6920160927
 20
665.3835083707
 30
0.0
 10
139.6042253971
 20
665.3617746497
 30
0.0
 10
139.5163818419
 20
665.3374320907
 30
0.0
 10
139.4334165801
 20
665.3118384778
 30
0.0
 10
139.3558784544
 20
665.2781366854
 30
0.0
 10
139.2823099623
 20
665.2461142541
 30
0.0
 10
139.2577533482
 20
665.1894519349
 30
0.0
 10
139.2578746902
 20
665.159211381
 30
0.0
  0
SPLINE
  5
53D
100
AcDbEntity
  8
0
100
AcDbSpline
 62
7
  6
CONTINUOUS
 70
0
 71
3
 72
15
 73
11
 74
0
 42
0.0000001
 43
0.0000001
 44
0.0000000001
 40
0.0
 40
0.0
 40
0.0
 40
0.0
 40
0.1870106989
 40
0.3673129909
 40
0.534019433
 40
0.6811059435
 40
0.8037454989
 40
0.8979008608
 40
0.9619697095
 40
1.0
 40
1.0
 40
1.0
 40
1.0
 10
141.0227719981
 20
664.9740508278
 30
0.0
 10
140.9087782839
 20
664.9938873341
 30
0.0
 10
140.6848782735
 20
665.0328265829
 30
0.0
 10
140.3597153667
 20
665.0915422602
 30
0.0
 10
140.0596739191
 20
665.1500375585
 30
0.0
 10
139.7958960423
 20
665.2084794612
 30
0.0
 10
139.5782738097
 20
665.2653129606
 30
0.0
 10
139.4134026274
 20
665.323942631
 30
0.0
 10
139.3054577266
 20
665.3756215366
 30
0.0
 10
139.2593124425
 20
665.4296809491
 30
0.0
 10
139.2578710664
 20
665.4531667598
 30
0.0
  0
SPLINE
  5
53E
100
AcDbEntity
  8
0
100
AcDbSpline
 62
7
  6
CONTINUOUS
 70
0
 71
3
 72
22
 73
18
 74
0
 42
0.0000001
 43
0.0000001
 44
0.0000000001
 40
0.0
 40
0.0
 40
0.0
 40
0.0
 40
0.0944474724
 40
0.1862038635
 40
0.2708918825
 40
0.3450181044
 40
0.4058869725
 40
0.4528063951
 40
0.4844363405
 40
0.5149599722
 40
0.5460664345
 40
0.5930337956
 40
0.6547517585
 40
0.7287287534
 40
0.8130574113
 40
0.9046710582
 40
1.0
 40
1.0
 40
1.0
 40
1.0
 10
141.0227703091
 20
666.9040137648
 30
0.0
 10
140.9083991076
 20
666.8859356937
 30
0.0
 10
140.6829332266
 20
666.8499904902
 30
0.0
 10
140.3556796537
 20
666.7940552332
 30
0.0
 10
140.0531145392
 20
666.7387160101
 30
0.0
 10
139.7906858603
 20
666.6831240057
 30
0.0
 10
139.5703263089
 20
666.632453566
 30
0.0
 10
139.4170003609
 20
666.5722662944
 30
0.0
 10
139.2730696079
 20
666.5316768653
 30
0.0
 10
139.2700350396
 20
666.3786718547
 30
0.0
 10
139.414118554
 20
666.3367581854
 30
0.0
 10
139.5671965555
 20
666.2762719735
 30
0.0
 10
139.788631559
 20
666.2249688474
 30
0.0
 10
140.0513981414
 20
666.1693270516
 30
0.0
 10
140.3534125381
 20
666.1152469869
 30
0.0
 10
140.6813227286
 20
666.0604960527
 30
0.0
 10
140.9074869471
 20
666.0232028752
 30
0.0
 10
141.0227719981
 20
666.0040097315
 30
0.0
  0
SPLINE
  5
53F
100
AcDbEntity
  8
0
100
AcDbSpline
 62
7
  6
CONTINUOUS
 70
0
 71
3
 72
22
 73
18
 74
0
 42
0.0000001
 43
0.0000001
 44
0.0000000001
 40
0.0
 40
0.0
 40
0.0
 40
0.0
 40
0.0944399459
 40
0.1862590471
 40
0.2710010224
 40
0.3451518332
 40
0.4059166384
 40
0.4528278975
 40
0.4845082234
 40
0.5150935593
 40
0.5461255586
 40
0.5929957559
 40
0.6548127818
 40
0.7286413077
 40
0.8129299852
 40
0.9045300917
 40
1.0
 40
1.0
 40
1.0
 40
1.0
 10
141.0227800753
 20
667.8041190335
 30
0.0
 10
141.1371420845
 20
667.7860474738
 30
0.0
 10
141.3626731718
 20
667.7500894846
 30
0.0
 10
141.6900427178
 20
667.6940610345
 30
0.0
 10
141.9927721861
 20
667.6386461828
 30
0.0
 10
142.2551531981
 20
667.5830547435
 30
0.0
 10
142.4754334614
 20
667.5323804985
 30
0.0
 10
142.6285931939
 20
667.4722295233
 30
0.0
 10
142.7728983192
 20
667.4315579846
 30
0.0
 10
142.7750233096
 20
667.2784078035
 30
0.0
 10
142.631373781
 20
667.23659414
 30
0.0
 10
142.4781685752
 20
667.1763412897
 30
0.0
 10
142.2568747886
 20
667.1254358278
 30
0.0
 10
141.9942390227
 20
667.069667346
 30
0.0
 10
141.6927176684
 20
667.0143373274
 30
0.0
 10
141.3649023003
 20
666.9583432291
 30
0.0
 10
141.1383819547
 20
666.9222666693
 30
0.0
 10
141.0227703091
 20
666.9040132407
 30
0.0
  0
SPLINE
  5
540
100
AcDbEntity
  8
0
100
AcDbSpline
 62
7
  6
CONTINUOUS
 70
0
 71
3
 72
22
 73
18
 74
0
 42
0.0000001
 43
0.0000001
 44
0.0000000001
 40
0.0
 40
0.0
 40
0.0
 40
0.0
 40
0.0945047331
 40
0.1860390714
 40
0.2705723265
 40
0.3447152702
 40
0.4061536047
 40
0.4531057534
 40
0.4844717854
 40
0.5149537252
 40
0.5462520427
 40
0.5933040906
 40
0.654768129
 40
0.7291115456
 40
0.8137879971
 40
0.9054401648
 40
1.0
 40
1.0
 40
1.0
 40
1.0
 10
141.0227703091
 20
666.4144331082
 30
0.0
 10
141.1372196225
 20
666.4325070779
 30
0.0
 10
141.3625008476
 20
666.4684063453
 30
0.0
 10
141.6893847366
 20
666.5242903887
 30
0.0
 10
141.991513655
 20
666.579648891
 30
0.0
 10
142.2544648001
 20
666.6353820725
 30
0.0
 10
142.4756178152
 20
666.6861603902
 30
0.0
 10
142.6293531741
 20
666.7464297073
 30
0.0
 10
142.7727200896
 20
666.7873175738
 30
0.0
 10
142.7754938717
 20
666.9400819954
 30
0.0
 10
142.6310031551
 20
666.9819656549
 30
0.0
 10
142.4778268208
 20
667.0422730834
 30
0.0
 10
142.2560949751
 20
667.0933767907
 30
0.0
 10
141.9927810799
 20
667.1491761775
 30
0.0
 10
141.6900458549
 20
667.2045219949
 30
0.0
 10
141.3627704268
 20
667.2603618309
 30
0.0
 10
141.1372877236
 20
667.2963540735
 30
0.0
 10
141.0227800753
 20
667.3144916697
 30
0.0
  0
SPLINE
  5
541
100
AcDbEntity
  8
0
100
AcDbSpline
 62
7
  6
CONTINUOUS
 70
0
 71
3
 72
22
 73
18
 74
0
 42
0.0000001
 43
0.0000001
 44
0.0000000001
 40
0.0
 40
0.0
 40
0.0
 40
0.0
 40
0.0945842608
 40
0.1863582641
 40
0.2710238912
 40
0.3451700675
 40
0.4061550923
 40
0.4530592553
 40
0.4846221807
 40
0.5151795827
 40
0.5462129259
 40
0.5929971931
 40
0.6547341991
 40
0.7285345029
 40
0.8129171974
 40
0.9045865566
 40
1.0
 40
1.0
 40
1.0
 40
1.0
 10
141.0227703091
 20
668.7041585502
 30
0.0
 10
140.9083359406
 20
668.6854294981
 30
0.0
 10
140.6828187533
 20
668.6486490558
 30
0.0
 10
140.3552975852
 20
668.5934009155
 30
0.0
 10
140.0525736698
 20
668.538788879
 30
0.0
 10
139.7900250949
 20
668.4832227329
 30
0.0
 10
139.5694937721
 20
668.4322960415
 30
0.0
 10
139.4163736462
 20
668.3719641653
 30
0.0
 10
139.272163556
 20
668.331098155
 30
0.0
 10
139.2709928951
 20
668.178170096
 30
0.0
 10
139.4143099462
 20
668.1365629823
 30
0.0
 10
139.5674169054
 20
668.0763110574
 30
0.0
 10
139.7884348532
 20
668.0254683902
 30
0.0
 10
140.0510664409
 20
667.9697103951
 30
0.0
 10
140.3527492103
 20
667.9143789642
 30
0.0
 10
140.6806979348
 20
667.8583990528
 30
0.0
 10
140.9072355075
 20
667.8223464763
 30
0.0
 10
141.0227800753
 20
667.8041190301
 30
0.0
  0
SPLINE
  5
542
100
AcDbEntity
  8
0
100
AcDbSpline
 62
7
  6
CONTINUOUS
 70
0
 71
3
 72
22
 73
18
 74
0
 42
0.0000001
 43
0.0000001
 44
0.0000000001
 40
0.0
 40
0.0
 40
0.0
 40
0.0
 40
0.0945913184
 40
0.185985119
 40
0.2704108205
 40
0.3445178242
 40
0.4063381584
 40
0.4533460414
 40
0.4845541729
 40
0.5149842462
 40
0.5463892761
 40
0.5934648692
 40
0.654783239
 40
0.7291950839
 40
0.81389907
 40
0.9055735228
 40
1.0
 40
1.0
 40
1.0
 40
1.0
 10
141.0227800753
 20
667.3144916702
 30
0.0
 10
140.9082340137
 20
667.3326260268
 30
0.0
 10
140.6830284803
 20
667.3685642014
 30
0.0
 10
140.3563249361
 20
667.4243017077
 30
0.0
 10
140.0545277175
 20
667.4795363454
 30
0.0
 10
139.7913022536
 20
667.5353271192
 30
0.0
 10
139.5696263255
 20
667.5862078523
 30
0.0
 10
139.4156507095
 20
667.6466197227
 30
0.0
 10
139.2724950816
 20
667.6877381222
 30
0.0
 10
139.2703715288
 20
667.8403095209
 30
0.0
 10
139.4149741338
 20
667.8819524661
 30
0.0
 10
139.5680862527
 20
667.9424960838
 30
0.0
 10
139.7896576753
 20
667.9938895131
 30
0.0
 10
140.0529525734
 20
668.0495399862
 30
0.0
 10
140.3560682832
 20
668.1036041654
 30
0.0
 10
140.6834381077
 20
668.1582108383
 30
0.0
 10
140.9085823889
 20
668.1954074249
 30
0.0
 10
141.0227703091
 20
668.2144845927
 30
0.0
  0
SPLINE
  5
543
100
AcDbEntity
  8
0
100
AcDbSpline
 62
7
  6
CONTINUOUS
 70
0
 71
3
 72
22
 73
18
 74
0
 42
0.0000001
 43
0.0000001
 44
0.0000000001
 40
0.0
 40
0.0
 40
0.0
 40
0.0
 40
0.0946856979
 40
0.1862676953
 40
0.2707699589
 40
0.3448401722
 40
0.4062718509
 40
0.4532542235
 40
0.4846752826
 40
0.5151888751
 40
0.5463355307
 40
0.5931422609
 40
0.6547205927
 40
0.7286274929
 40
0.8130901546
 40
0.904793283
 40
1.0
 40
1.0
 40
1.0
 40
1.0
 10
141.0227688384
 20
669.6040835092
 30
0.0
 10
141.1372450392
 20
669.5848627072
 30
0.0
 10
141.3625494115
 20
669.5475043123
 30
0.0
 10
141.6898675703
 20
669.4929922824
 30
0.0
 10
141.9921824157
 20
669.4391118743
 30
0.0
 10
142.2549875105
 20
669.3835679037
 30
0.0
 10
142.4760637469
 20
669.332423146
 30
0.0
 10
142.6295288205
 20
669.2718072558
 30
0.0
 10
142.7735407045
 20
669.2307647947
 30
0.0
 10
142.7743487162
 20
669.0779862045
 30
0.0
 10
142.6308463714
 20
669.0365630347
 30
0.0
 10
142.4778267055
 20
668.9761274408
 30
0.0
 10
142.256911013
 20
668.9250732048
 30
0.0
 10
141.9942242798
 20
668.8694102086
 30
0.0
 10
141.6921173034
 20
668.8149160165
 30
0.0
 10
141.3641511602
 20
668.7597974513
 30
0.0
 10
141.1379604673
 20
668.7229741866
 30
0.0
 10
141.0227703091
 20
668.7041549855
 30
0.0
  0
SPLINE
  5
544
100
AcDbEntity
  8
0
100
AcDbSpline
 62
7
  6
CONTINUOUS
 70
0
 71
3
 72
22
 73
18
 74
0
 42
0.0000001
 43
0.0000001
 44
0.0000000001
 40
0.0
 40
0.0
 40
0.0
 40
0.0
 40
0.0947906124
 40
0.1860780314
 40
0.270360176
 40
0.3443568475
 40
0.4064721289
 40
0.4535527044
 40
0.4846596388
 40
0.5150677255
 40
0.5465259894
 40
0.593557827
 40
0.6547940083
 40
0.7292161056
 40
0.8139938584
 40
0.9057002957
 40
1.0
 40
1.0
 40
1.0
 40
1.0
 10
141.0227703091
 20
668.2144839539
 30
0.0
 10
141.1373991245
 20
668.2336056699
 30
0.0
 10
141.3625094634
 20
668.2707764622
 30
0.0
 10
141.6893365843
 20
668.3252878324
 30
0.0
 10
141.9909183402
 20
668.379226994
 30
0.0
 10
142.2542034883
 20
668.4349026397
 30
0.0
 10
142.4761700326
 20
668.4861277528
 30
0.0
 10
142.6302527946
 20
668.5468756744
 30
0.0
 10
142.7734644304
 20
668.5881638592
 30
0.0
 10
142.7746657924
 20
668.7406317471
 30
0.0
 10
142.6302108127
 20
668.7820398161
 30
0.0
 10
142.4771102328
 20
668.8426141763
 30
0.0
 10
142.2557176958
 20
668.8939468242
 30
0.0
 10
141.9924151828
 20
668.9495819727
 30
0.0
 10
141.6891705792
 20
669.0036497876
 30
0.0
 10
141.361833653
 20
669.0582308928
 30
0.0
 10
141.1368043837
 20
669.0953577089
 30
0.0
 10
141.0227688384
 20
669.1143781337
 30
0.0
  0
SPLINE
  5
545
100
AcDbEntity
  8
0
100
AcDbSpline
 62
7
  6
CONTINUOUS
 70
0
 71
3
 72
22
 73
18
 74
0
 42
0.0000001
 43
0.0000001
 44
0.0000000001
 40
0.0
 40
0.0
 40
0.0
 40
0.0
 40
0.0946902364
 40
0.1860612976
 40
0.2704361206
 40
0.3444503113
 40
0.4063212916
 40
0.4533874627
 40
0.484658428
 40
0.5151392477
 40
0.5464591174
 40
0.5933779871
 40
0.6547848701
 40
0.7289329344
 40
0.8135350275
 40
0.9052342152
 40
1.0
 40
1.0
 40
1.0
 40
1.0
 10
141.0227703091
 20
670.5039905274
 30
0.0
 10
140.9082113877
 20
670.4852254361
 30
0.0
 10
140.6830574731
 20
670.4484947988
 30
0.0
 10
140.3562196758
 20
670.3935461372
 30
0.0
 10
140.0544863031
 20
670.3391675053
 30
0.0
 10
139.7913833384
 20
670.2835064436
 30
0.0
 10
139.5696883
 20
670.2324370605
 30
0.0
 10
139.4157381337
 20
670.1717803028
 30
0.0
 10
139.2720353267
 20
670.1305888395
 30
0.0
 10
139.2710918963
 20
669.9778761503
 30
0.0
 10
139.415123836
 20
669.9364991205
 30
0.0
 10
139.5681812109
 20
669.8759164946
 30
0.0
 10
139.789289501
 20
669.8246400869
 30
0.0
 10
140.0522513272
 20
669.7690395268
 30
0.0
 10
140.3549475357
 20
669.7151617794
 30
0.0
 10
140.6826430304
 20
669.660690486
 30
0.0
 10
140.9081934628
 20
669.623315522
 30
0.0
 10
141.0227688384
 20
669.6040835071
 30
0.0
  0
SPLINE
  5
546
100
AcDbEntity
  8
0
100
AcDbSpline
 62
7
  6
CONTINUOUS
 70
0
 71
3
 72
22
 73
18
 74
0
 42
0.0000001
 43
0.0000001
 44
0.0000000001
 40
0.0
 40
0.0
 40
0.0
 40
0.0
 40
0.0947573159
 40
0.1860548691
 40
0.2703520534
 40
0.3443208747
 40
0.4063462589
 40
0.453447274
 40
0.4846554655
 40
0.5151327794
 40
0.5465415713
 40
0.5935286194
 40
0.654865994
 40
0.7291762371
 40
0.8138831296
 40
0.9055557217
 40
1.0
 40
1.0
 40
1.0
 40
1.0
 10
141.0227688384
 20
669.1143781337
 30
0.0
 10
140.9081783272
 20
669.1334705848
 30
0.0
 10
140.6830956584
 20
669.1706135341
 30
0.0
 10
140.3562971
 20
669.2252037419
 30
0.0
 10
140.0547325814
 20
669.2791981156
 30
0.0
 10
139.7915763656
 20
669.3348399011
 30
0.0
 10
139.5697184833
 20
669.3860146433
 30
0.0
 10
139.4156261588
 20
669.4467624851
 30
0.0
 10
139.2720379341
 20
669.4880073412
 30
0.0
 10
139.2710263993
 20
669.6407367367
 30
0.0
 10
139.4153403249
 20
669.6821442869
 30
0.0
 10
139.568543493
 20
669.7425753544
 30
0.0
 10
139.7899105676
 20
669.7936503305
 30
0.0
 10
140.0530925107
 20
669.8493544568
 30
0.0
 10
140.3559086274
 20
669.9042425429
 30
0.0
 10
140.6831604124
 20
669.9596238964
 30
0.0
 10
140.9084553726
 20
669.9959481684
 30
0.0
 10
141.0227703091
 20
670.0143487865
 30
0.0
  0
SPLINE
  5
547
100
AcDbEntity
  8
0
100
AcDbSpline
 62
7
  6
CONTINUOUS
 70
0
 71
3
 72
15
 73
11
 74
0
 42
0.0000001
 43
0.0000001
 44
0.0000000001
 40
0.0
 40
0.0
 40
0.0
 40
0.0
 40
0.0587098829
 40
0.1216860207
 40
0.2149664742
 40
0.3350372744
 40
0.4771671003
 40
0.6386225153
 40
0.8151668164
 40
1.0
 40
1.0
 40
1.0
 40
1.0
 10
142.7609582912
 20
671.0040818934
 30
0.0
 10
142.7882582939
 20
670.9792085407
 30
0.0
 10
142.7586430342
 20
670.8690275789
 30
0.0
 10
142.6242890695
 20
670.8341859041
 30
0.0
 10
142.463163043
 20
670.7718437253
 30
0.0
 10
142.2440161042
 20
670.7224165464
 30
0.0
 10
141.983600438
 20
670.6673545988
 30
0.0
 10
141.6861980447
 20
670.6138414397
 30
0.0
 10
141.3618860897
 20
670.5593775058
 30
0.0
 10
141.137512867
 20
670.5227817541
 30
0.0
 10
141.0227703091
 20
670.5039904817
 30
0.0
  0
SPLINE
  5
548
100
AcDbEntity
  8
0
100
AcDbSpline
 62
7
  6
CONTINUOUS
 70
0
 71
3
 72
14
 73
10
 74
0
 42
0.0000001
 43
0.0000001
 44
0.0000000001
 40
0.0
 40
0.0
 40
0.0
 40
0.0
 40
0.1889966168
 40
0.3713538936
 40
0.5404748687
 40
0.6910909762
 40
0.8187953252
 40
0.9212699139
 40
1.0
 40
1.0
 40
1.0
 40
1.0
 10
141.0227672175
 20
671.8527672655
 30
0.0
 10
141.1394984267
 20
671.8125587262
 30
0.0
 10
141.368872616
 20
671.7335858022
 30
0.0
 10
141.7012970494
 20
671.6145901406
 30
0.0
 10
142.0070823243
 20
671.4957319849
 30
0.0
 10
142.2745040104
 20
671.3774734622
 30
0.0
 10
142.4940123126
 20
671.2593040861
 30
0.0
 10
142.6585539123
 20
671.1417777748
 30
0.0
 10
142.7378353576
 20
671.0500212397
 30
0.0
 10
142.7609582912
 20
671.0040818934
 30
0.0
  0
SPLINE
  5
549
100
AcDbEntity
  8
0
100
AcDbSpline
 62
7
  6
CONTINUOUS
 70
0
 71
3
 72
22
 73
18
 74
0
 42
0.0000001
 43
0.0000001
 44
0.0000000001
 40
0.0
 40
0.0
 40
0.0
 40
0.0
 40
0.0946233262
 40
0.1860735511
 40
0.2705292454
 40
0.3445961868
 40
0.4062867782
 40
0.4533121727
 40
0.4846527911
 40
0.515194458
 40
0.5464410079
 40
0.5932966282
 40
0.654799959
 40
0.7288907118
 40
0.813510345
 40
0.9051973768
 40
1.0
 40
1.0
 40
1.0
 40
1.0
 10
141.0227703091
 20
670.0143453449
 30
0.0
 10
141.1373017463
 20
670.0327824424
 30
0.0
 10
141.362539093
 20
670.0691273354
 30
0.0
 10
141.6894114412
 20
670.1246099382
 30
0.0
 10
141.9913190341
 20
670.179515717
 30
0.0
 10
142.254356285
 20
670.2352154022
 30
0.0
 10
142.4758703585
 20
670.2861505379
 30
0.0
 10
142.6296804997
 20
670.3466408605
 30
0.0
 10
142.7735831105
 20
670.3878058453
 30
0.0
 10
142.774390852
 20
670.5406701751
 30
0.0
 10
142.6305888198
 20
670.5821081563
 30
0.0
 10
142.4774188646
 20
670.6423740903
 30
0.0
 10
142.256249003
 20
670.6932197724
 30
0.0
 10
141.993253922
 20
670.7489991229
 30
0.0
 10
141.6909253506
 20
670.8045289239
 30
0.0
 10
141.3634321942
 20
670.8606079236
 30
0.0
 10
141.137589858
 20
670.8964201516
 30
0.0
 10
141.0227672175
 20
670.9144253081
 30
0.0
  0
SPLINE
  5
54A
100
AcDbEntity
  8
0
100
AcDbSpline
 62
7
  6
CONTINUOUS
 70
0
 71
3
 72
22
 73
18
 74
0
 42
0.0000001
 43
0.0000001
 44
0.0000000001
 40
0.0
 40
0.0
 40
0.0
 40
0.0
 40
0.0944450598
 40
0.1860802694
 40
0.2707163373
 40
0.3448779767
 40
0.406105729
 40
0.4530662005
 40
0.4845917072
 40
0.5151538491
 40
0.5462150971
 40
0.5929845996
 40
0.6546394835
 40
0.7284791488
 40
0.8129150303
 40
0.9046324953
 40
1.0
 40
1.0
 40
1.0
 40
1.0
 10
141.0227672175
 20
670.9144253069
 30
0.0
 10
140.9083803977
 20
670.9323743497
 30
0.0
 10
140.6830407904
 20
670.9681366311
 30
0.0
 10
140.3560350384
 20
671.0242103487
 30
0.0
 10
140.0536726519
 20
671.079729405
 30
0.0
 10
139.790867481
 20
671.1354224539
 30
0.0
 10
139.5698938031
 20
671.1861563802
 30
0.0
 10
139.4163977128
 20
671.2464408788
 30
0.0
 10
139.2722577578
 20
671.2873690785
 30
0.0
 10
139.2708912827
 20
671.4402908537
 30
0.0
 10
139.4143095238
 20
671.4818830212
 30
0.0
 10
139.5672823441
 20
671.5421942073
 30
0.0
 10
139.7882081868
 20
671.5931543838
 30
0.0
 10
140.0508608814
 20
671.6488716388
 30
0.0
 10
140.3527983526
 20
671.7037930587
 30
0.0
 10
140.6808786343
 20
671.7593878708
 30
0.0
 10
140.9073400414
 20
671.7959248497
 30
0.0
 10
141.0227703091
 20
671.8145132255
 30
0.0
  0
SPLINE
  5
54B
100
AcDbEntity
  8
0
100
AcDbSpline
 62
7
  6
CONTINUOUS
 70
0
 71
3
 72
21
 73
17
 74
0
 42
0.0000001
 43
0.0000001
 44
0.0000000001
 40
0.0
 40
0.0
 40
0.0
 40
0.0
 40
0.1038898908
 40
0.2043870967
 40
0.2970455652
 40
0.3782974931
 40
0.4454586367
 40
0.4969794014
 40
0.5315285224
 40
0.5674112323
 40
0.6028979462
 40
0.6552641109
 40
0.7236249794
 40
0.8060392285
 40
0.8994836936
 40
1.0
 40
1.0
 40
1.0
 40
1.0
 10
141.0227703091
 20
672.8732656727
 30
0.0
 10
140.9077765059
 20
672.8532577262
 30
0.0
 10
140.6815156711
 20
672.8138986799
 30
0.0
 10
140.3532262637
 20
672.7544816556
 30
0.0
 10
140.0502080244
 20
672.6955901427
 30
0.0
 10
139.7870734904
 20
672.6360129629
 30
0.0
 10
139.5662430141
 20
672.5804886323
 30
0.0
 10
139.4127859163
 20
672.5172676162
 30
0.0
 10
139.268132536
 20
672.4681415774
 30
0.0
 10
139.2726145783
 20
672.3097785196
 30
0.0
 10
139.4185159231
 20
672.2623922782
 30
0.0
 10
139.5758314895
 20
672.1981862974
 30
0.0
 10
139.800130416
 20
672.142630441
 30
0.0
 10
140.0668900909
 20
672.0826783195
 30
0.0
 10
140.3721314965
 20
672.0237721986
 30
0.0
 10
140.5864940277
 20
671.9850375625
 30
0.0
 10
140.6976942444
 20
671.965340821
 30
0.0
  0
SPLINE
  5
54C
100
AcDbEntity
  8
0
100
AcDbSpline
 62
7
  6
CONTINUOUS
 70
0
 71
3
 72
15
 73
11
 74
0
 42
0.0000001
 43
0.0000001
 44
0.0000000001
 40
0.0
 40
0.0
 40
0.0
 40
0.0
 40
0.1846719749
 40
0.3611640974
 40
0.5226004306
 40
0.6646881535
 40
0.784920242
 40
0.8784532188
 40
0.9411634335
 40
1.0
 40
1.0
 40
1.0
 40
1.0
 10
141.0227703091
 20
671.8145131961
 30
0.0
 10
141.1374412808
 20
671.8330182078
 30
0.0
 10
141.3617116535
 20
671.8692370232
 30
0.0
 10
141.6857386832
 20
671.9242374703
 30
0.0
 10
141.9830175185
 20
671.9778609556
 30
0.0
 10
142.2434533246
 20
672.0327760471
 30
0.0
 10
142.4628989192
 20
672.0823240437
 30
0.0
 10
142.6236865994
 20
672.1451118627
 30
0.0
 10
142.758885071
 20
672.1794028926
 30
0.0
 10
142.7878304126
 20
672.2886634096
 30
0.0
 10
142.7611123335
 20
672.3142691255
 30
0.0
  0
SPLINE
  5
54D
100
AcDbEntity
  8
0
100
AcDbSpline
 62
7
  6
CONTINUOUS
 70
0
 71
3
 72
15
 73
11
 74
0
 42
0.0000001
 43
0.0000001
 44
0.0000000001
 40
0.0
 40
0.0
 40
0.0
 40
0.0
 40
0.06303825
 40
0.1262659375
 40
0.2184552755
 40
0.3380379269
 40
0.4814020296
 40
0.6433886915
 40
0.8183463255
 40
1.0
 40
1.0
 40
1.0
 40
1.0
 10
142.7609502147
 20
673.4092509563
 30
0.0
 10
142.7891907525
 20
673.3809742031
 30
0.0
 10
142.7598656494
 20
673.2676420595
 30
0.0
 10
142.6243513339
 20
673.2262328411
 30
0.0
 10
142.4636622455
 20
673.1611635668
 30
0.0
 10
142.2440580784
 20
673.1072171716
 30
0.0
 10
141.9815510575
 20
673.0481118641
 30
0.0
 10
141.6824588479
 20
672.9902441128
 30
0.0
 10
141.3589746206
 20
672.9317230284
 30
0.0
 10
141.1362270483
 20
672.8930058334
 30
0.0
 10
141.0227703091
 20
672.8732653229
 30
0.0
  0
SPLINE
  5
54E
100
AcDbEntity
  8
0
100
AcDbSpline
 62
7
  6
CONTINUOUS
 70
0
 71
3
 72
10
 73
6
 74
0
 42
0.0000001
 43
0.0000001
 44
0.0000000001
 40
0.0
 40
0.0
 40
0.0
 40
0.0
 40
0.3336454807
 40
0.6404320714
 40
1.0
 40
1.0
 40
1.0
 40
1.0
 10
140.9795369428
 20
672.2354120381
 30
0.0
 10
140.9480342851
 20
672.2364629224
 30
0.0
 10
140.8876340976
 20
672.2393601789
 30
0.0
 10
140.7929314163
 20
672.2392938517
 30
0.0
 10
140.730844507
 20
672.251736423
 30
0.0
 10
140.6977247105
 20
672.2592849832
 30
0.0
  0
SPLINE
  5
54F
100
AcDbEntity
  8
0
100
AcDbSpline
 62
7
  6
CONTINUOUS
 70
0
 71
3
 72
14
 73
10
 74
0
 42
0.0000001
 43
0.0000001
 44
0.0000000001
 40
0.0
 40
0.0
 40
0.0
 40
0.0
 40
0.0520075613
 40
0.1420385631
 40
0.2705246215
 40
0.432847264
 40
0.6126729855
 40
0.8035511944
 40
1.0
 40
1.0
 40
1.0
 40
1.0
 10
142.7645602899
 20
673.3888505697
 30
0.0
 10
142.7343793163
 20
673.3900804848
 30
0.0
 10
142.6520206903
 20
673.3949923378
 30
0.0
 10
142.4953559961
 20
673.4071521367
 30
0.0
 10
142.2741433467
 20
673.4132081574
 30
0.0
 10
142.0008041924
 20
673.4109840228
 30
0.0
 10
141.6912324763
 20
673.4082271398
 30
0.0
 10
141.3618266518
 20
673.4089267228
 30
0.0
 10
141.1368676997
 20
673.4090393252
 30
0.0
 10
141.0227703091
 20
673.4092509563
 30
0.0
  0
SPLINE
  5
550
100
AcDbEntity
  8
0
100
AcDbSpline
 62
7
  6
CONTINUOUS
 70
0
 71
3
 72
11
 73
7
 74
0
 42
0.0000001
 43
0.0000001
 44
0.0000000001
 40
0.0
 40
0.0
 40
0.0
 40
0.0
 40
0.3482685729
 40
0.6543762321
 40
0.8810563181
 40
1.0
 40
1.0
 40
1.0
 40
1.0
 10
141.0227703091
 20
673.0452516496
 30
0.0
 10
141.2268128508
 20
673.0759845588
 30
0.0
 10
141.6096291145
 20
673.1353897425
 30
0.0
 10
142.1265456408
 20
673.2160550825
 30
0.0
 10
142.499118374
 20
673.3132657777
 30
0.0
 10
142.700762981
 20
673.3589129262
 30
0.0
 10
142.7645602899
 20
673.3888505697
 30
0.0
  0
SPLINE
  5
551
100
AcDbEntity
  8
0
100
AcDbSpline
 62
7
  6
CONTINUOUS
 70
0
 71
3
 72
11
 73
7
 74
0
 42
0.0000001
 43
0.0000001
 44
0.0000000001
 40
0.0
 40
0.0
 40
0.0
 40
0.0
 40
0.1260760424
 40
0.3509451962
 40
0.6545320031
 40
1.0
 40
1.0
 40
1.0
 40
1.0
 10
142.7687780212
 20
673.4179716704
 30
0.0
 10
142.7116473257
 20
673.3689180192
 30
0.0
 10
142.5020359306
 20
673.3076955843
 30
0.0
 10
142.126903164
 20
673.2190664975
 30
0.0
 10
141.6091525939
 20
673.1342169444
 30
0.0
 10
141.226621831
 20
673.0759740586
 30
0.0
 10
141.0225905942
 20
673.0452248062
 30
0.0
  0
SPLINE
  5
552
100
AcDbEntity
  8
0
100
AcDbSpline
 62
7
  6
CONTINUOUS
 70
0
 71
3
 72
37
 73
33
 74
0
 42
0.0000001
 43
0.0000001
 44
0.0000000001
 40
0.0
 40
0.0
 40
0.0
 40
0.0
 40
0.0153318528
 40
0.0392422507
 40
0.0712833323
 40
0.1108004197
 40
0.1559993969
 40
0.2045600512
 40
0.255540187
 40
0.3065053097
 40
0.3558856915
 40
0.4019516172
 40
0.4438151392
 40
0.4787077131
 40
0.505557657
 40
0.5234512036
 40
0.5348076082
 40
0.5498211312
 40
0.5677239587
 40
0.5927969243
 40
0.6245398194
 40
0.6621804857
 40
0.7044690255
 40
0.7490527081
 40
0.7945705365
 40
0.8384483553
 40
0.8800988529
 40
0.9178721165
 40
0.9511184433
 40
0.976355525
 40
0.9920381005
 40
1.0
 40
1.0
 40
1.0
 40
1.0
 10
143.4936779666
 20
671.7072711624
 30
0.0
 10
143.4543330237
 20
671.7292276493
 30
0.0
 10
143.3437282707
 20
671.7657554114
 30
0.0
 10
143.1403460296
 20
671.8141994076
 30
0.0
 10
142.8640260371
 20
671.8645176172
 30
0.0
 10
142.5249714995
 20
671.9167734436
 30
0.0
 10
142.1367930705
 20
671.9692695256
 30
0.0
 10
141.7147848553
 20
672.0224646075
 30
0.0
 10
141.2756800077
 20
672.075637157
 30
0.0
 10
140.8342480995
 20
672.1293090159
 30
0.0
 10
140.4072011743
 20
672.1826734612
 30
0.0
 10
140.007586677
 20
672.2363780146
 30
0.0
 10
139.649628856
 20
672.290316369
 30
0.0
 10
139.3527503222
 20
672.3434871558
 30
0.0
 10
139.1169046488
 20
672.3952802597
 30
0.0
 10
138.9752822835
 20
672.4442627206
 30
0.0
 10
138.8203062828
 20
672.5054540738
 30
0.0
 10
138.9432593354
 20
672.6500219026
 30
0.0
 10
139.1016235525
 20
672.6756497307
 30
0.0
 10
139.3165782909
 20
672.739174918
 30
0.0
 10
139.5885007616
 20
672.7879839046
 30
0.0
 10
139.9123589807
 20
672.8438951525
 30
0.0
 10
140.2740338768
 20
672.8985803166
 30
0.0
 10
140.6591031046
 20
672.9544813266
 30
0.0
 10
141.0488885477
 20
673.0099687789
 30
0.0
 10
141.4299974221
 20
673.0656058319
 30
0.0
 10
141.7879493194
 20
673.1213283949
 30
0.0
 10
142.1142959994
 20
673.1794964868
 30
0.0
 10
142.3902736821
 20
673.2370022633
 30
0.0
 10
142.6040151998
 20
673.2916795521
 30
0.0
 10
142.734944276
 20
673.3386369848
 30
0.0
 10
142.7960851553
 20
673.3896671126
 30
0.0
 10
142.7990656513
 20
673.4128746838
 30
0.0
  0
SPLINE
  5
553
100
AcDbEntity
  8
0
100
AcDbSpline
 62
7
  6
CONTINUOUS
 70
0
 71
3
 72
11
 73
7
 74
0
 42
0.0000001
 43
0.0000001
 44
0.0000000001
 40
0.0
 40
0.0
 40
0.0
 40
0.0
 40
0.3116571743
 40
0.6150739805
 40
0.8544926302
 40
1.0
 40
1.0
 40
1.0
 40
1.0
 10
140.976821052
 20
672.2171759201
 30
0.0
 10
141.1829104084
 20
672.1817885363
 30
0.0
 10
141.5899231151
 20
672.1156497201
 30
0.0
 10
142.1571863635
 20
672.0234743072
 30
0.0
 10
142.6057457034
 20
671.9273065045
 30
0.0
 10
142.8603752362
 20
671.8583669348
 30
0.0
 10
142.9429369332
 20
671.8062637587
 30
0.0
  0
SPLINE
  5
554
100
AcDbEntity
  8
0
100
AcDbSpline
 62
7
  6
CONTINUOUS
 70
0
 71
3
 72
10
 73
6
 74
0
 42
0.0000001
 43
0.0000001
 44
0.0000000001
 40
0.0
 40
0.0
 40
0.0
 40
0.0
 40
0.4018458178
 40
0.6767959505
 40
1.0
 40
1.0
 40
1.0
 40
1.0
 10
140.697724661
 20
672.2592836764
 30
0.0
 10
140.7351054198
 20
672.2536173655
 30
0.0
 10
140.7980773344
 20
672.244169688
 30
0.0
 10
140.8910356134
 20
672.2296461442
 30
0.0
 10
140.9467269804
 20
672.2215392562
 30
0.0
 10
140.976821052
 20
672.2171759201
 30
0.0
  0
SPLINE
  5
555
100
AcDbEntity
  8
0
100
AcDbSpline
 62
7
  6
CONTINUOUS
 70
0
 71
3
 72
21
 73
17
 74
0
 42
0.0000001
 43
0.0000001
 44
0.0000000001
 40
0.0
 40
0.0
 40
0.0
 40
0.0
 40
0.1047349982
 40
0.205284559
 40
0.2980039852
 40
0.3795963689
 40
0.4479041917
 40
0.4999593979
 40
0.5342491248
 40
0.5659882882
 40
0.6009862752
 40
0.6535124898
 40
0.722117079
 40
0.8050007063
 40
0.8989384131
 40
1.0
 40
1.0
 40
1.0
 40
1.0
 10
141.0227703091
 20
673.0452516496
 30
0.0
 10
140.9079437667
 20
673.0279563669
 30
0.0
 10
140.6828334174
 20
672.9941315225
 30
0.0
 10
140.3565609612
 20
672.9429484722
 30
0.0
 10
140.0555472663
 20
672.8924624723
 30
0.0
 10
139.7929324023
 20
672.8408046961
 30
0.0
 10
139.5700217128
 20
672.7938129555
 30
0.0
 10
139.4171478551
 20
672.7361543328
 30
0.0
 10
139.270453512
 20
672.7010389684
 30
0.0
 10
139.2771056827
 20
672.5502560966
 30
0.0
 10
139.4226736641
 20
672.5174417825
 30
0.0
 10
139.5785297004
 20
672.4592098837
 30
0.0
 10
139.80325957
 20
672.4124677232
 30
0.0
 10
140.069143839
 20
672.3603631077
 30
0.0
 10
140.3734792984
 20
672.3097475934
 30
0.0
 10
140.5869677199
 20
672.276251442
 30
0.0
 10
140.6977247105
 20
672.2592849832
 30
0.0
  0
SPLINE
  5
556
100
AcDbEntity
  8
0
100
AcDbSpline
 62
7
  6
CONTINUOUS
 70
0
 71
3
 72
126
 73
122
 74
0
 42
0.0000001
 43
0.0000001
 44
0.0000000001
 40
0.0
 40
0.0
 40
0.0
 40
0.0
 40
0.0021241172
 40
0.0065479655
 40
0.0117598122
 40
0.019528033
 40
0.0292664193
 40
0.0407735192
 40
0.0536758261
 40
0.0672913489
 40
0.0811474459
 40
0.0949594466
 40
0.1084346067
 40
0.1208493228
 40
0.1317036134
 40
0.1407971629
 40
0.1478254938
 40
0.1525427662
 40
0.1550428998
 40
0.1600366474
 40
0.1658958829
 40
0.1740114479
 40
0.184145491
 40
0.1957711017
 40
0.2085687209
 40
0.2222908207
 40
0.2363214899
 40
0.2501901987
 40
0.2634844178
 40
0.2757120873
 40
0.28632832
 40
0.2950927417
 40
0.3018636322
 40
0.3063487627
 40
0.3086231302
 40
0.3141447899
 40
0.3202798942
 40
0.3286082819
 40
0.3389215904
 40
0.3507514054
 40
0.3637046829
 40
0.3774568805
 40
0.3915878887
 40
0.4054305415
 40
0.4184980745
 40
0.4305119335
 40
0.4409811683
 40
0.4495659165
 40
0.4560409145
 40
0.4602277137
 40
0.463398298
 40
0.4675824285
 40
0.4740574378
 40
0.4825783634
 40
0.4930377011
 40
0.5051251357
 40
0.5182677191
 40
0.5320410922
 40
0.5460709754
 40
0.5598651475
 40
0.5728878571
 40
0.5847333258
 40
0.5950007769
 40
0.6033287281
 40
0.6094753295
 40
0.613355588
 40
0.6165891704
 40
0.6210343012
 40
0.6277902289
 40
0.6366785538
 40
0.6473677942
 40
0.6595345566
 40
0.6727776967
 40
0.6865610188
 40
0.7006030922
 40
0.7144427453
 40
0.7273509665
 40
0.7389136376
 40
0.7489139947
 40
0.7570038572
 40
0.762910557
 40
0.7665151291
 40
0.769933874
 40
0.7746670472
 40
0.7817488878
 40
0.7908999686
 40
0.8017452368
 40
0.8140255563
 40
0.827394208
 40
0.8413918554
 40
0.8554250682
 40
0.86902185
 40
0.8817866901
 40
0.8931603104
 40
0.9029420394
 40
0.9108574691
 40
0.9164700914
 40
0.9197348171
 40
0.9230293748
 40
0.9264049971
 40
0.9304924129
 40
0.9349773508
 40
0.9396159877
 40
0.9442452029
 40
0.9487584341
 40
0.9530897736
 40
0.9572017342
 40
0.9610755476
 40
0.9647036953
 40
0.9680875248
 40
0.9712333261
 40
0.9741501281
 40
0.9768493442
 40
0.9793450349
 40
0.9816507603
 40
0.9837790707
 40
0.9875569303
 40
0.9907736267
 40
0.993506649
 40
0.9958095784
 40
1.0
 40
1.0
 40
1.0
 40
1.0
 10
143.5013203487
 20
671.7061415992
 30
0.0
 10
143.5210987057
 20
671.6929673271
 30
0.0
 10
143.5683705445
 20
671.608077937
 30
0.0
 10
143.3861672238
 20
671.5584510867
 30
0.0
 10
143.2233139141
 20
671.5059354821
 30
0.0
 10
142.9630750106
 20
671.4570081963
 30
0.0
 10
142.6466301558
 20
671.4057228179
 30
0.0
 10
142.2666852948
 20
671.3539002893
 30
0.0
 10
141.8450335766
 20
671.3008473697
 30
0.0
 10
141.3962441785
 20
671.2484992952
 30
0.0
 10
140.9373382775
 20
671.1964786305
 30
0.0
 10
140.4800242198
 20
671.1441880415
 30
0.0
 10
140.0388663581
 20
671.0917957879
 30
0.0
 10
139.6313341321
 20
671.0397560897
 30
0.0
 10
139.2722947464
 20
670.986980414
 30
0.0
 10
138.9768905056
 20
670.9373527409
 30
0.0
 10
138.7439519606
 20
670.8823466729
 30
0.0
 10
138.6023501582
 20
670.8442366839
 30
0.0
 10
138.4565275647
 20
670.7512356099
 30
0.0
 10
138.6669984768
 20
670.6405849764
 30
0.0
 10
138.8435814152
 20
670.6075607085
 30
0.0
 10
139.120157969
 20
670.5482434677
 30
0.0
 10
139.4460807361
 20
670.4996720366
 30
0.0
 10
139.8306379618
 20
670.4465578879
 30
0.0
 10
140.2537433809
 20
670.3945780744
 30
0.0
 10
140.7045233098
 20
670.3421625422
 30
0.0
 10
141.1672089896
 20
670.2899751476
 30
0.0
 10
141.6250804642
 20
670.2375186993
 30
0.0
 10
142.0626534656
 20
670.184716453
 30
0.0
 10
142.4634704136
 20
670.1328704071
 30
0.0
 10
142.8137391967
 20
670.0804760186
 30
0.0
 10
143.1008047999
 20
670.0317567706
 30
0.0
 10
143.3219181035
 20
669.9752724261
 30
0.0
 10
143.4603856323
 20
669.9399748553
 30
0.0
 10
143.5923337218
 20
669.8331153486
 30
0.0
 10
143.3566739065
 20
669.7396394722
 30
0.0
 10
143.1749268451
 20
669.6996137232
 30
0.0
 10
142.8886637468
 20
669.6431546813
 30
0.0
 10
142.5567854614
 20
669.5930108083
 30
0.0
 10
142.1658797418
 20
669.5404584061
 30
0.0
 10
141.7384404058
 20
669.4884565674
 30
0.0
 10
141.2844460935
 20
669.4357963176
 30
0.0
 10
140.8206442724
 20
669.3833254674
 30
0.0
 10
140.3643901433
 20
669.3310035484
 30
0.0
 10
139.9323450157
 20
669.2782899058
 30
0.0
 10
139.5371776483
 20
669.2269312459
 30
0.0
 10
139.1959647911
 20
669.1732045553
 30
0.0
 10
138.9077633639
 20
669.1284298831
 30
0.0
 10
138.7155317857
 20
669.0629225838
 30
0.0
 10
138.5317632326
 20
669.0436103382
 30
0.0
 10
138.5311852017
 20
668.8689521059
 30
0.0
 10
138.7152496505
 20
668.8494500473
 30
0.0
 10
138.906718749
 20
668.7845421553
 30
0.0
 10
139.1940541417
 20
668.7395274548
 30
0.0
 10
139.5352102354
 20
668.6855386584
 30
0.0
 10
139.9319396318
 20
668.6340472813
 30
0.0
 10
140.364911456
 20
668.581626214
 30
0.0
 10
140.820078007
 20
668.5292319924
 30
0.0
 10
141.2824322004
 20
668.4765812671
 30
0.0
 10
141.7365476206
 20
668.4245499086
 30
0.0
 10
142.1655901099
 20
668.372056774
 30
0.0
 10
142.5562642066
 20
668.3201305482
 30
0.0
 10
142.8896389048
 20
668.2665961488
 30
0.0
 10
143.1707461964
 20
668.2207649491
 30
0.0
 10
143.34906287
 20
668.1595010989
 30
0.0
 10
143.5337886776
 20
668.1309676389
 30
0.0
 10
143.4918633093
 20
667.9596198478
 30
0.0
 10
143.3125796115
 20
667.9445806601
 30
0.0
 10
143.1051727081
 20
667.8774644493
 30
0.0
 10
142.8101618519
 20
667.833290697
 30
0.0
 10
142.4605544586
 20
667.7785918087
 30
0.0
 10
142.0595112563
 20
667.7270909189
 30
0.0
 10
141.6242810978
 20
667.6748752468
 30
0.0
 10
141.1677273976
 20
667.6227595727
 30
0.0
 10
140.7046042226
 20
667.5701532922
 30
0.0
 10
140.2511869337
 20
667.5174657782
 30
0.0
 10
139.8261590293
 20
667.4650635904
 30
0.0
 10
139.4427656777
 20
667.4134621742
 30
0.0
 10
139.1186980651
 20
667.3606940356
 30
0.0
 10
138.8450351019
 20
667.3129136949
 30
0.0
 10
138.6774379876
 20
667.2564349477
 30
0.0
 10
138.4927519262
 20
667.215999316
 30
0.0
 10
138.5766598365
 20
667.0524876216
 30
0.0
 10
138.7519656884
 20
667.0388340561
 30
0.0
 10
138.9755411465
 20
666.9711225743
 30
0.0
 10
139.2763239507
 20
666.9262113523
 30
0.0
 10
139.6329815089
 20
666.8722724405
 30
0.0
 10
140.0381678267
 20
666.820721598
 30
0.0
 10
140.4785582664
 20
666.7681594322
 30
0.0
 10
140.9388046832
 20
666.7159752998
 30
0.0
 10
141.4014930842
 20
666.6631935102
 30
0.0
 10
141.8504679218
 20
666.6105698922
 30
0.0
 10
142.2690440224
 20
666.558503775
 30
0.0
 10
142.6462691321
 20
666.5071329387
 30
0.0
 10
142.9637699635
 20
666.4548143226
 30
0.0
 10
143.2293834827
 20
666.4052860094
 30
0.0
 10
143.3887871651
 20
666.3521583244
 30
0.0
 10
143.5605019994
 20
666.304742466
 30
0.0
 10
143.476473367
 20
666.1705275347
 30
0.0
 10
143.3595178565
 20
666.1513315619
 30
0.0
 10
143.2313112497
 20
666.1101379509
 30
0.0
 10
143.0864265431
 20
666.0812982941
 30
0.0
 10
142.9352122065
 20
666.0526949886
 30
0.0
 10
142.7830666819
 20
666.0276952534
 30
0.0
 10
142.6340480404
 20
666.004942725
 30
0.0
 10
142.4905518037
 20
665.9844111293
 30
0.0
 10
142.3540126726
 20
665.9657900373
 30
0.0
 10
142.2251810165
 20
665.9488888032
 30
0.0
 10
142.1043670502
 20
665.9335079781
 30
0.0
 10
141.9915917387
 20
665.9194828156
 30
0.0
 10
141.8866859647
 20
665.9066675952
 30
0.0
 10
141.7893625764
 20
665.8949514757
 30
0.0
 10
141.699244714
 20
665.8842312996
 30
0.0
 10
141.6159066557
 20
665.8744103018
 30
0.0
 10
141.5388974363
 20
665.865407825
 30
0.0
 10
141.4476587644
 20
665.8547964148
 30
0.0
 10
141.3461357423
 20
665.8431355025
 30
0.0
 10
141.2384489202
 20
665.830635329
 30
0.0
 10
141.1455132235
 20
665.8198928031
 30
0.0
 10
141.0474230659
 20
665.8105266596
 30
0.0
 10
140.9565351803
 20
665.7972305769
 30
0.0
 10
140.9359351773
 20
665.7551169906
 30
0.0
  0
SPLINE
  5
557
100
AcDbEntity
  8
0
100
AcDbSpline
 62
7
  6
CONTINUOUS
 70
0
 71
3
 72
9
 73
5
 74
0
 42
0.0000001
 43
0.0000001
 44
0.0000000001
 40
0.0
 40
0.0
 40
0.0
 40
0.0
 40
0.5821005841
 40
1.0
 40
1.0
 40
1.0
 40
1.0
 10
141.0227815025
 20
665.9061396126
 30
0.0
 10
141.0047747382
 20
665.8773892829
 30
0.0
 10
140.9666790115
 20
665.8323809591
 30
0.0
 10
140.9446809356
 20
665.7778469507
 30
0.0
 10
140.9359351773
 20
665.7551169906
 30
0.0
  0
LINE
  5
558
100
AcDbEntity
  8
0
100
AcDbLine
 62
7
  6
CONTINUOUS
 10
143.4937056751
 20
671.7070371331
 11
142.9429147866
 21
671.8061514309
  0
SPLINE
  5
559
100
AcDbEntity
  8
0
100
AcDbSpline
 62
7
  6
CONTINUOUS
 70
0
 71
3
 72
192
 73
188
 74
0
 42
0.0000001
 43
0.0000001
 44
0.0000000001
 40
0.0
 40
0.0
 40
0.0
 40
0.0
 40
0.0072479956
 40
0.0144310015
 40
0.0214854189
 40
0.0283451663
 40
0.0349417098
 40
0.04121277
 40
0.0471089962
 40
0.0525817465
 40
0.0575828518
 40
0.062065347
 40
0.0659844689
 40
0.0693006928
 40
0.0720005435
 40
0.0756292957
 40
0.0788193229
 40
0.0831272032
 40
0.0861478802
 40
0.0897375621
 40
0.0938826203
 40
0.0985587012
 40
0.1037346136
 40
0.1093689431
 40
0.1154019931
 40
0.1217744143
 40
0.1284296551
 40
0.1353082958
 40
0.1423470389
 40
0.1494782731
 40
0.1566306968
 40
0.1637382298
 40
0.1707434042
 40
0.1775892841
 40
0.1842182255
 40
0.1905716224
 40
0.1965900074
 40
0.2022192892
 40
0.2074192195
 40
0.2121545143
 40
0.216392786
 40
0.2201041461
 40
0.2232608725
 40
0.2278209053
 40
0.231118625
 40
0.2343870639
 40
0.2400008652
 40
0.2437460072
 40
0.2481010257
 40
0.2530336212
 40
0.2585034536
 40
0.2644640575
 40
0.2708626046
 40
0.27763285
 40
0.2847014246
 40
0.2919912102
 40
0.2994222042
 40
0.3069123698
 40
0.3143791191
 40
0.3217461713
 40
0.3289451698
 40
0.3359096773
 40
0.3425748674
 40
0.3488778812
 40
0.3547606197
 40
0.3601735699
 40
0.3650788843
 40
0.3694528476
 40
0.3732755336
 40
0.3765299929
 40
0.3792023265
 40
0.3827898039
 40
0.3860121419
 40
0.3904013836
 40
0.3934823679
 40
0.397158561
 40
0.4014022371
 40
0.4061742096
 40
0.4114314475
 40
0.4171295677
 40
0.4232229745
 40
0.4296647495
 40
0.4364013499
 40
0.4433648394
 40
0.4504853806
 40
0.4576941227
 40
0.4649236869
 40
0.472108648
 40
0.4791845607
 40
0.4860845098
 40
0.4927469001
 40
0.4991152979
 40
0.505137432
 40
0.5107639943
 40
0.51594349
 40
0.5206196816
 40
0.5247510222
 40
0.5283170708
 40
0.5313065643
 40
0.5355460366
 40
0.5387178218
 40
0.5425709038
 40
0.5453759232
 40
0.5487733283
 40
0.552753732
 40
0.5572959507
 40
0.5623538618
 40
0.5678741857
 40
0.573803239
 40
0.5800874636
 40
0.5866737675
 40
0.5935093453
 40
0.6005339678
 40
0.6076794298
 40
0.6148806827
 40
0.6220769736
 40
0.62921044
 40
0.636218451
 40
0.6430296455
 40
0.649572794
 40
0.655788932
 40
0.6616276821
 40
0.6670449765
 40
0.6719960828
 40
0.6764321093
 40
0.6803030082
 40
0.6835810456
 40
0.6862623659
 40
0.6898816631
 40
0.6932332963
 40
0.6979579907
 40
0.7012379587
 40
0.7051055773
 40
0.7095324977
 40
0.7144863492
 40
0.7199236448
 40
0.7257833249
 40
0.732003947
 40
0.7385261335
 40
0.7452930003
 40
0.7522498783
 40
0.7593373654
 40
0.7664869634
 40
0.7736300876
 40
0.7807041255
 40
0.7876527476
 40
0.7944218977
 40
0.8009529571
 40
0.8071826941
 40
0.8130563777
 40
0.8185328278
 40
0.8235732532
 40
0.8281366539
 40
0.832181335
 40
0.8356671363
 40
0.838561369
 40
0.8426061244
 40
0.8457259499
 40
0.8494266465
 40
0.8521485216
 40
0.8554511328
 40
0.8593172845
 40
0.8637270041
 40
0.8686568942
 40
0.8740733179
 40
0.8799304799
 40
0.8861621467
 40
0.8926997964
 40
0.8994810718
 40
0.9064522932
 40
0.9135601185
 40
0.9207471697
 40
0.9279513753
 40
0.9351126039
 40
0.9421710215
 40
0.9490585622
 40
0.955704061
 40
0.9620347933
 40
0.9679779578
 40
0.9734739099
 40
0.9784858817
 40
0.9829808743
 40
0.9869270835
 40
0.9902950984
 40
0.9930608655
 40
0.9967756719
 40
1.0
 40
1.0
 40
1.0
 40
1.0
 10
141.0228026711
 20
665.905989995
 30
0.0
 10
141.0857991745
 20
665.915239406
 30
0.0
 10
141.2112192255
 20
665.9337105504
 30
0.0
 10
141.3979031561
 20
665.9615234461
 30
0.0
 10
141.5811373218
 20
665.9893424619
 30
0.0
 10
141.7591683831
 20
666.0171025795
 30
0.0
 10
141.9302564557
 20
666.0447076773
 30
0.0
 10
142.0927774806
 20
666.0722576987
 30
0.0
 10
142.2452575569
 20
666.0998880689
 30
0.0
 10
142.3864035809
 20
666.1275329973
 30
0.0
 10
142.514807378
 20
666.1552031432
 30
0.0
 10
142.6294342488
 20
666.1827947524
 30
0.0
 10
142.7281492918
 20
666.2105150673
 30
0.0
 10
142.8124393955
 20
666.2376650552
 30
0.0
 10
142.8861893122
 20
666.2713650365
 30
0.0
 10
142.9797471613
 20
666.3087892972
 30
0.0
 10
142.9481627899
 20
666.4300095404
 30
0.0
 10
142.8520941135
 20
666.4555074245
 30
0.0
 10
142.7643666899
 20
666.4908632515
 30
0.0
 10
142.6730416945
 20
666.5170241018
 30
0.0
 10
142.5677526155
 20
666.5447249412
 30
0.0
 10
142.447812073
 20
666.5721342924
 30
0.0
 10
142.3145741323
 20
666.5995741443
 30
0.0
 10
142.1691004801
 20
666.6266743448
 30
0.0
 10
142.0129548286
 20
666.6537509122
 30
0.0
 10
141.847750371
 20
666.6810544873
 30
0.0
 10
141.675052883
 20
666.7085511108
 30
0.0
 10
141.4964375556
 20
666.7360923368
 30
0.0
 10
141.3135827115
 20
666.7635669027
 30
0.0
 10
141.1282680659
 20
666.7908505659
 30
0.0
 10
140.9423112827
 20
666.8179185669
 30
0.0
 10
140.757482013
 20
666.8450442414
 30
0.0
 10
140.5753775995
 20
666.872188888
 30
0.0
 10
140.3975280014
 20
666.8993550017
 30
0.0
 10
140.2254729723
 20
666.9265246112
 30
0.0
 10
140.0607760242
 20
666.9536681526
 30
0.0
 10
139.904980729
 20
666.9807806499
 30
0.0
 10
139.7594443057
 20
667.0077155948
 30
0.0
 10
139.6253816477
 20
667.034593458
 30
0.0
 10
139.5037445595
 20
667.0613255694
 30
0.0
 10
139.395705079
 20
667.0884846053
 30
0.0
 10
139.3015187501
 20
667.1145291461
 30
0.0
 10
139.2078839708
 20
667.1503927382
 30
0.0
 10
139.1132264014
 20
667.1756092668
 30
0.0
 10
139.0570583522
 20
667.2889642201
 30
0.0
 10
139.1715626364
 20
667.349530113
 30
0.0
 10
139.2670246503
 20
667.386666937
 30
0.0
 10
139.3846076578
 20
667.420708999
 30
0.0
 10
139.49510593
 20
667.4486791186
 30
0.0
 10
139.6217989872
 20
667.4770136635
 30
0.0
 10
139.7626626601
 20
667.5054242219
 30
0.0
 10
139.9167061336
 20
667.5338563301
 30
0.0
 10
140.0823488818
 20
667.5621714797
 30
0.0
 10
140.2578255955
 20
667.5907148452
 30
0.0
 10
140.4412035399
 20
667.6194146706
 30
0.0
 10
140.630447444
 20
667.6481612337
 30
0.0
 10
140.823440174
 20
667.6768809782
 30
0.0
 10
141.0180170363
 20
667.7055146625
 30
0.0
 10
141.2120372875
 20
667.7340723757
 30
0.0
 10
141.403496521
 20
667.762464477
 30
0.0
 10
141.5905190623
 20
667.7906943267
 30
0.0
 10
141.7713263533
 20
667.8187827347
 30
0.0
 10
141.9441832962
 20
667.8467524995
 30
0.0
 10
142.1074254976
 20
667.8746296476
 30
0.0
 10
142.2594955112
 20
667.9024845565
 30
0.0
 10
142.3991363546
 20
667.9300873602
 30
0.0
 10
142.5252301489
 20
667.9574530855
 30
0.0
 10
142.6372373289
 20
667.9846597695
 30
0.0
 10
142.7336149637
 20
668.0119769694
 30
0.0
 10
142.8163107489
 20
668.0389445245
 30
0.0
 10
142.888696325
 20
668.0722863449
 30
0.0
 10
142.9827275356
 20
668.1109917604
 30
0.0
 10
142.943801291
 20
668.2312369186
 30
0.0
 10
142.8484350217
 20
668.2577603003
 30
0.0
 10
142.7583573311
 20
668.2936829384
 30
0.0
 10
142.6648621136
 20
668.3197375347
 30
0.0
 10
142.5569218894
 20
668.3471749789
 30
0.0
 10
142.434470555
 20
668.3744022209
 30
0.0
 10
142.2990803035
 20
668.4018882595
 30
0.0
 10
142.1518551129
 20
668.429426197
 30
0.0
 10
141.9940740317
 20
668.4570249214
 30
0.0
 10
141.8270376297
 20
668.4846196397
 30
0.0
 10
141.6522514105
 20
668.5121591135
 30
0.0
 10
141.4714296535
 20
668.5396847102
 30
0.0
 10
141.2864146387
 20
668.5672150718
 30
0.0
 10
141.09904217
 20
668.5947807756
 30
0.0
 10
140.9111061091
 20
668.6224037274
 30
0.0
 10
140.7243688927
 20
668.6501578754
 30
0.0
 10
140.540546189
 20
668.6778229642
 30
0.0
 10
140.3613297269
 20
668.7052467312
 30
0.0
 10
140.1883890033
 20
668.7325810938
 30
0.0
 10
140.0232589855
 20
668.7599220507
 30
0.0
 10
139.8673847248
 20
668.787397181
 30
0.0
 10
139.7221436782
 20
668.8150242529
 30
0.0
 10
139.5889869743
 20
668.8426314951
 30
0.0
 10
139.4690749217
 20
668.86986516
 30
0.0
 10
139.3641171908
 20
668.8972607822
 30
0.0
 10
139.2731895792
 20
668.9234049015
 30
0.0
 10
139.18746054
 20
668.9590882724
 30
0.0
 10
139.0898770787
 20
668.9864693588
 30
0.0
 10
139.0718883345
 20
669.1114536313
 30
0.0
 10
139.1687650198
 20
669.1448363494
 30
0.0
 10
139.24635695
 20
669.1794724923
 30
0.0
 10
139.3329118742
 20
669.2063251834
 30
0.0
 10
139.4335231656
 20
669.2339903385
 30
0.0
 10
139.5498048143
 20
669.2613194676
 30
0.0
 10
139.6797295671
 20
669.2887829662
 30
0.0
 10
139.8221345795
 20
669.3162575817
 30
0.0
 10
139.9754673375
 20
669.3437883888
 30
0.0
 10
140.1383019075
 20
669.3713636804
 30
0.0
 10
140.3091925757
 20
669.3990209854
 30
0.0
 10
140.4866755336
 20
669.4266382028
 30
0.0
 10
140.6691652797
 20
669.4540043931
 30
0.0
 10
140.8549111044
 20
669.4813100074
 30
0.0
 10
141.0421737953
 20
669.5086649299
 30
0.0
 10
141.2293063169
 20
669.5361822099
 30
0.0
 10
141.4146854856
 20
669.5639511618
 30
0.0
 10
141.5966365873
 20
669.5917632839
 30
0.0
 10
141.7733728371
 20
669.6193669403
 30
0.0
 10
141.9431059861
 20
669.6467175919
 30
0.0
 10
142.104193079
 20
669.6740133301
 30
0.0
 10
142.2552085905
 20
669.7014581201
 30
0.0
 10
142.3948987832
 20
669.7290985534
 30
0.0
 10
142.5219262298
 20
669.7568003996
 30
0.0
 10
142.6352587062
 20
669.7843878697
 30
0.0
 10
142.7327782921
 20
669.811893386
 30
0.0
 10
142.8162566031
 20
669.8389521995
 30
0.0
 10
142.8890357484
 20
669.8723376468
 30
0.0
 10
142.985067263
 20
669.9131600319
 30
0.0
 10
142.9381881939
 20
670.0375721304
 30
0.0
 10
142.8365479872
 20
670.0618549516
 30
0.0
 10
142.7399779954
 20
670.0990250469
 30
0.0
 10
142.6414905203
 20
670.1257482411
 30
0.0
 10
142.5286762697
 20
670.1539189657
 30
0.0
 10
142.4014308722
 20
670.1816270626
 30
0.0
 10
142.2613724027
 20
670.2092339924
 30
0.0
 10
142.1099533929
 20
670.2367337006
 30
0.0
 10
141.9488643566
 20
670.2642329051
 30
0.0
 10
141.779703673
 20
670.2917817843
 30
0.0
 10
141.604016287
 20
670.3194717221
 30
0.0
 10
141.4233060479
 20
670.3471807609
 30
0.0
 10
141.239154269
 20
670.3746165348
 30
0.0
 10
141.0533064796
 20
670.401763896
 30
0.0
 10
140.8675647397
 20
670.4288191068
 30
0.0
 10
140.6836158672
 20
670.4559341262
 30
0.0
 10
140.5030149709
 20
670.4832269645
 30
0.0
 10
140.3272455229
 20
670.5105592257
 30
0.0
 10
140.1578579499
 20
670.5378164856
 30
0.0
 10
139.9964045161
 20
670.5648531954
 30
0.0
 10
139.844331162
 20
670.5917636993
 30
0.0
 10
139.7028900246
 20
670.6187921187
 30
0.0
 10
139.5732449588
 20
670.6459584617
 30
0.0
 10
139.4563436789
 20
670.6729902735
 30
0.0
 10
139.3538688134
 20
670.7002483058
 30
0.0
 10
139.2653508772
 20
670.7262010043
 30
0.0
 10
139.1824457796
 20
670.7607155661
 30
0.0
 10
139.0894709682
 20
670.7889153106
 30
0.0
 10
139.0710767128
 20
670.9090152061
 30
0.0
 10
139.1638516952
 20
670.9435177642
 30
0.0
 10
139.2390697436
 20
670.9767418351
 30
0.0
 10
139.3230534631
 20
671.0030081482
 30
0.0
 10
139.4207023222
 20
671.0301938567
 30
0.0
 10
139.5335881549
 20
671.057524062
 30
0.0
 10
139.6601939342
 20
671.0852104237
 30
0.0
 10
139.7998535905
 20
671.112829227
 30
0.0
 10
139.9511935206
 20
671.1401204556
 30
0.0
 10
140.1125612453
 20
671.1672518695
 30
0.0
 10
140.2821506002
 20
671.1943961444
 30
0.0
 10
140.4582832151
 20
671.2217534164
 30
0.0
 10
140.6394581579
 20
671.249273626
 30
0.0
 10
140.8242279362
 20
671.2768596549
 30
0.0
 10
141.0110740968
 20
671.3043960674
 30
0.0
 10
141.1984134612
 20
671.3318022601
 30
0.0
 10
141.3845878889
 20
671.359364673
 30
0.0
 10
141.5679159712
 20
671.3871520213
 30
0.0
 10
141.7466471189
 20
671.4150270851
 30
0.0
 10
141.9189070057
 20
671.4428941399
 30
0.0
 10
142.0827747983
 20
671.4706714426
 30
0.0
 10
142.2364169917
 20
671.4982840655
 30
0.0
 10
142.3783001185
 20
671.5258570106
 30
0.0
 10
142.5071450435
 20
671.5534568184
 30
0.0
 10
142.6222278736
 20
671.5809430227
 30
0.0
 10
142.7218412508
 20
671.6086923734
 30
0.0
 10
142.8073525746
 20
671.6355072112
 30
0.0
 10
142.8834145205
 20
671.6701526872
 30
0.0
 10
142.976836741
 20
671.7037444332
 30
0.0
 10
142.9640372731
 20
671.7875866278
 30
0.0
 10
142.9425110188
 20
671.8059964914
 30
0.0
  0
SPLINE
  5
55A
100
AcDbEntity
  8
0
100
AcDbSpline
 62
7
  6
CONTINUOUS
 70
0
 71
3
 72
14
 73
10
 74
0
 42
0.0000001
 43
0.0000001
 44
0.0000000001
 40
0.0
 40
0.0
 40
0.0
 40
0.0
 40
0.2046619322
 40
0.3980125799
 40
0.5742767352
 40
0.7285342484
 40
0.8539228943
 40
0.9454402895
 40
1.0
 40
1.0
 40
1.0
 40
1.0
 10
141.0227703091
 20
672.2655518195
 30
0.0
 10
141.1414048335
 20
672.2672693198
 30
0.0
 10
141.3720798576
 20
672.2727974437
 30
0.0
 10
141.7049363629
 20
672.2792173981
 30
0.0
 10
142.0085630086
 20
672.2861366931
 30
0.0
 10
142.272764724
 20
672.2928801346
 30
0.0
 10
142.4878805505
 20
672.2992353527
 30
0.0
 10
142.6450227225
 20
672.306361589
 30
0.0
 10
142.7297290611
 20
672.3103305869
 30
0.0
 10
142.7611123335
 20
672.3142691255
 30
0.0
  0
SPLINE
  5
55B
100
AcDbEntity
  8
0
100
AcDbSpline
 62
7
  6
CONTINUOUS
 70
0
 71
3
 72
12
 73
8
 74
0
 42
0.0000001
 43
0.0000001
 44
0.0000000001
 40
0.0
 40
0.0
 40
0.0
 40
0.0
 40
0.1083393651
 40
0.2795372393
 40
0.5011815773
 40
0.7511075345
 40
1.0
 40
1.0
 40
1.0
 40
1.0
 10
142.9431033448
 20
671.8063302426
 30
0.0
 10
142.8814557326
 20
671.8451726268
 30
0.0
 10
142.6993963169
 20
671.9032634247
 30
0.0
 10
142.372807905
 20
671.9805382257
 30
0.0
 10
141.9465493731
 20
672.0570083537
 30
0.0
 10
141.4686410861
 20
672.1354577748
 30
0.0
 10
141.1380674472
 20
672.193065416
 30
0.0
 10
140.9734822097
 20
672.2235981729
 30
0.0
  0
SPLINE
  5
55C
100
AcDbEntity
  8
0
100
AcDbSpline
 62
7
  6
CONTINUOUS
 70
0
 71
3
 72
15
 73
11
 74
0
 42
0.0000001
 43
0.0000001
 44
0.0000000001
 40
0.0
 40
0.0
 40
0.0
 40
0.0
 40
0.1752709049
 40
0.3456469143
 40
0.5047119524
 40
0.6467376075
 40
0.7678103097
 40
0.8654519428
 40
0.9403916224
 40
1.0
 40
1.0
 40
1.0
 40
1.0
 10
141.0227703091
 20
666.4144347235
 30
0.0
 10
140.9081510801
 20
666.3748963102
 30
0.0
 10
140.6820321857
 20
666.2971595489
 30
0.0
 10
140.3532495532
 20
666.1796123849
 30
0.0
 10
140.0490918225
 20
666.0617176346
 30
0.0
 10
139.7814209346
 20
665.9446040575
 30
0.0
 10
139.5608282282
 20
665.8269394786
 30
0.0
 10
139.3945812192
 20
665.7090909418
 30
0.0
 10
139.2846279579
 20
665.5885329444
 30
0.0
 10
139.2565903304
 20
665.494382127
 30
0.0
 10
139.2578710664
 20
665.4531667598
 30
0.0
  0
SPLINE
  5
55D
100
AcDbEntity
  8
0
100
AcDbSpline
 62
7
  6
CONTINUOUS
 70
0
 71
3
 72
14
 73
10
 74
0
 42
0.0000001
 43
0.0000001
 44
0.0000000001
 40
0.0
 40
0.0
 40
0.0
 40
0.0
 40
0.2033110651
 40
0.3939122716
 40
0.5661392456
 40
0.7168912573
 40
0.8364865497
 40
0.92273068
 40
1.0
 40
1.0
 40
1.0
 40
1.0
 10
141.0227626209
 20
665.9062592309
 30
0.0
 10
140.898148717
 20
665.8879402775
 30
0.0
 10
140.6566966754
 20
665.8520332928
 30
0.0
 10
140.3105236171
 20
665.7975634526
 30
0.0
 10
139.996246931
 20
665.7419289955
 30
0.0
 10
139.7300466328
 20
665.6897126565
 30
0.0
 10
139.509183746
 20
665.6281996385
 30
0.0
 10
139.3602064114
 20
665.5869914782
 30
0.0
 10
139.2374352462
 20
665.4964521013
 30
0.0
 10
139.2578725774
 20
665.4531650768
 30
0.0
  0
SPLINE
  5
55E
100
AcDbEntity
  8
0
100
AcDbSpline
 62
7
  6
CONTINUOUS
 70
0
 71
3
 72
22
 73
18
 74
0
 42
0.0000001
 43
0.0000001
 44
0.0000000001
 40
0.0
 40
0.0
 40
0.0
 40
0.0
 40
0.0914867419
 40
0.1809274874
 40
0.2642911718
 40
0.3378523834
 40
0.3997371214
 40
0.4479922769
 40
0.4809078198
 40
0.4997579061
 40
0.5438310465
 40
0.5889962764
 40
0.6497019582
 40
0.7234324157
 40
0.8084729958
 40
0.9018529632
 40
1.0
 40
1.0
 40
1.0
 40
1.0
 10
141.0227703091
 20
664.9740511217
 30
0.0
 10
140.9061006403
 20
664.9936684952
 30
0.0
 10
140.6753297072
 20
665.0321944841
 30
0.0
 10
140.3384543207
 20
665.0899685105
 30
0.0
 10
140.0251011236
 20
665.1472220364
 30
0.0
 10
139.7477714136
 20
665.2045645665
 30
0.0
 10
139.5171519518
 20
665.2592115393
 30
0.0
 10
139.3396059319
 20
665.3182121027
 30
0.0
 10
139.2229274724
 20
665.3637180072
 30
0.0
 10
139.1234300071
 20
665.4721373564
 30
0.0
 10
139.3048597083
 20
665.5731888973
 30
0.0
 10
139.468627573
 20
665.6214595561
 30
0.0
 10
139.7020101298
 20
665.6815582266
 30
0.0
 10
139.9774722718
 20
665.7360127879
 30
0.0
 10
140.2995626294
 20
665.7930701206
 30
0.0
 10
140.6523909565
 20
665.8496529249
 30
0.0
 10
140.8972873791
 20
665.8871613496
 30
0.0
 10
141.0227626209
 20
665.9062592309
 30
0.0
  0
SPLINE
  5
55F
100
AcDbEntity
  8
0
100
AcDbSpline
 62
7
  6
CONTINUOUS
 70
0
 71
3
 72
15
 73
11
 74
0
 42
0.0000001
 43
0.0000001
 44
0.0000000001
 40
0.0
 40
0.0
 40
0.0
 40
0.0
 40
0.0590404473
 40
0.1442561287
 40
0.2538138856
 40
0.3862770418
 40
0.5325351018
 40
0.6879703967
 40
0.8463609884
 40
1.0
 40
1.0
 40
1.0
 40
1.0
 10
142.9429335367
 20
671.5122426718
 30
0.0
 10
142.904727567
 20
671.5363590407
 30
0.0
 10
142.8010280285
 20
671.577408293
 30
0.0
 10
142.6145606622
 20
671.6307066471
 30
0.0
 10
142.3697617833
 20
671.6847157126
 30
0.0
 10
142.0778314075
 20
671.7398039912
 30
0.0
 10
141.7503308764
 20
671.795895507
 30
0.0
 10
141.4027418769
 20
671.8519187799
 30
0.0
 10
141.0494010878
 20
671.9077748745
 30
0.0
 10
140.813686344
 20
671.9459301596
 30
0.0
 10
140.6977268148
 20
671.9653368359
 30
0.0
  0
SPLINE
  5
560
100
AcDbEntity
  8
0
100
AcDbSpline
 62
7
  6
CONTINUOUS
 70
0
 71
3
 72
37
 73
33
 74
0
 42
0.0000001
 43
0.0000001
 44
0.0000000001
 40
0.0
 40
0.0
 40
0.0
 40
0.0
 40
0.0155431601
 40
0.0313162811
 40
0.0545530982
 40
0.085153104
 40
0.122056836
 40
0.1637140844
 40
0.2087346108
 40
0.255451977
 40
0.302097233
 40
0.3469366213
 40
0.3881776843
 40
0.4241914218
 40
0.4537113669
 40
0.4755984852
 40
0.4898968553
 40
0.5052978625
 40
0.521888059
 40
0.5463213598
 40
0.5782967022
 40
0.6162444743
 40
0.6592094397
 40
0.7057020573
 40
0.7540183199
 40
0.8022710016
 40
0.8485363259
 40
0.8913025754
 40
0.9289080134
 40
0.9604770981
 40
0.9843736495
 40
1.0
 40
1.0
 40
1.0
 40
1.0
 10
142.7609335124
 20
673.4092628538
 30
0.0
 10
142.7907969303
 20
673.3823226641
 30
0.0
 10
142.769705003
 20
673.2644582647
 30
0.0
 10
142.627001104
 20
673.2248453469
 30
0.0
 10
142.4620942322
 20
673.1586366921
 30
0.0
 10
142.2318062636
 20
673.1049079743
 30
0.0
 10
141.9562843501
 20
673.0452633754
 30
0.0
 10
141.6415801983
 20
672.9872707841
 30
0.0
 10
141.301500073
 20
672.9285348852
 30
0.0
 10
140.9482391493
 20
672.8699535153
 30
0.0
 10
140.5954288532
 20
672.8112941323
 30
0.0
 10
140.2571960701
 20
672.752643167
 30
0.0
 10
139.9460855388
 20
672.6945495495
 30
0.0
 10
139.6777005464
 20
672.6358449839
 30
0.0
 10
139.4536737116
 20
672.5810044267
 30
0.0
 10
139.3047372983
 20
672.5202109825
 30
0.0
 10
139.1574895435
 20
672.468931908
 30
0.0
 10
139.1933972735
 20
672.3115211971
 30
0.0
 10
139.3441271582
 20
672.2732517228
 30
0.0
 10
139.5175843339
 20
672.2079222859
 30
0.0
 10
139.7580388927
 20
672.1550233214
 30
0.0
 10
140.0435041116
 20
672.0964092608
 30
0.0
 10
140.368482086
 20
672.0394328533
 30
0.0
 10
140.7201869045
 20
671.9815848971
 30
0.0
 10
141.0858621669
 20
671.9238409588
 30
0.0
 10
141.4509194958
 20
671.8661051217
 30
0.0
 10
141.8014512454
 20
671.8085271805
 30
0.0
 10
142.1241572614
 20
671.7513015045
 30
0.0
 10
142.4080353228
 20
671.6941525764
 30
0.0
 10
142.6426109629
 20
671.6377249644
 30
0.0
 10
142.8173124558
 20
671.5818999856
 30
0.0
 10
142.9116576793
 20
671.5378703933
 30
0.0
 10
142.9429335367
 20
671.5122426718
 30
0.0
  0
SPLINE
  5
561
100
AcDbEntity
  8
0
100
AcDbSpline
 62
7
  6
CONTINUOUS
 70
0
 71
3
 72
22
 73
18
 74
0
 42
0.0000001
 43
0.0000001
 44
0.0000000001
 40
0.0
 40
0.0
 40
0.0
 40
0.0
 40
0.0903353653
 40
0.1802823613
 40
0.264527909
 40
0.3389906644
 40
0.4008741874
 40
0.4488109421
 40
0.4818076038
 40
0.5014947136
 40
0.548590796
 40
0.5950892025
 40
0.656165482
 40
0.7299537783
 40
0.8140760258
 40
0.9053889532
 40
1.0
 40
1.0
 40
1.0
 40
1.0
 10
141.0227703091
 20
663.9492490045
 30
0.0
 10
141.1329099119
 20
663.9705158252
 30
0.0
 10
141.3521450351
 20
664.0166197057
 30
0.0
 10
141.6683476302
 20
664.1059177983
 30
0.0
 10
141.9660515559
 20
664.1878495746
 30
0.0
 10
142.2330201396
 20
664.2497026989
 30
0.0
 10
142.4561597655
 20
664.2994740677
 30
0.0
 10
142.6257651618
 20
664.355226955
 30
0.0
 10
142.7387007558
 20
664.4045027536
 30
0.0
 10
142.8253295661
 20
664.5201790438
 30
0.0
 10
142.6510142118
 20
664.6213213193
 30
0.0
 10
142.4874468881
 20
664.6747083455
 30
0.0
 10
142.2633983638
 20
664.7369789164
 30
0.0
 10
142.0002509017
 20
664.7948400037
 30
0.0
 10
141.6957856733
 20
664.8548269584
 30
0.0
 10
141.3660236835
 20
664.9142946275
 30
0.0
 10
141.1385155926
 20
664.9539074141
 30
0.0
 10
141.0227719981
 20
664.9740508278
 30
0.0
  0
SPLINE
  5
562
100
AcDbEntity
  8
0
100
AcDbSpline
 62
7
  6
CONTINUOUS
 70
0
 71
3
 72
22
 73
18
 74
0
 42
0.0000001
 43
0.0000001
 44
0.0000000001
 40
0.0
 40
0.0
 40
0.0
 40
0.0
 40
0.0946360237
 40
0.1862614963
 40
0.2707853656
 40
0.3448415328
 40
0.4060717263
 40
0.4530205868
 40
0.4844899932
 40
0.5149590458
 40
0.5462297367
 40
0.5933146914
 40
0.654894216
 40
0.7290864931
 40
0.8135291225
 40
0.905108314
 40
1.0
 40
1.0
 40
1.0
 40
1.0
 10
141.0227719981
 20
666.0040097317
 30
0.0
 10
141.1372162638
 20
665.9849427357
 30
0.0
 10
141.3625515511
 20
665.9477742961
 30
0.0
 10
141.6898771057
 20
665.8931012414
 30
0.0
 10
141.9922256174
 20
665.8390472173
 30
0.0
 10
142.2548276152
 20
665.7835139615
 30
0.0
 10
142.4755361186
 20
665.7324864468
 30
0.0
 10
142.629017517
 20
665.6720081246
 30
0.0
 10
142.772654894
 20
665.6312900966
 30
0.0
 10
142.7753562568
 20
665.4784205231
 30
0.0
 10
142.6308795429
 20
665.43661576
 30
0.0
 10
142.4776508544
 20
665.3760607975
 30
0.0
 10
142.2559898738
 20
665.3247065964
 30
0.0
 10
141.9929838271
 20
665.2690773851
 30
0.0
 10
141.6905956701
 20
665.215041233
 30
0.0
 10
141.3631123873
 20
665.1604065423
 30
0.0
 10
141.1375226841
 20
665.1231915445
 30
0.0
 10
141.0227703091
 20
665.1040666444
 30
0.0
  0
SPLINE
  5
563
100
AcDbEntity
  8
0
100
AcDbSpline
 62
7
  6
CONTINUOUS
 70
0
 71
3
 72
192
 73
188
 74
0
 42
0.0000001
 43
0.0000001
 44
0.0000000001
 40
0.0
 40
0.0
 40
0.0
 40
0.0
 40
0.0071909976
 40
0.0143951842
 40
0.0214639681
 40
0.0283331937
 40
0.0349388543
 40
0.041217744
 40
0.0471147643
 40
0.0525821097
 40
0.0575728735
 40
0.0620412488
 40
0.0659433883
 40
0.0692461787
 40
0.0719452085
 40
0.0755930886
 40
0.0788309381
 40
0.0832519198
 40
0.0863465454
 40
0.0900280266
 40
0.0942787311
 40
0.0990568743
 40
0.1043143138
 40
0.1100006917
 40
0.116064187
 40
0.1224525494
 40
0.1291078517
 40
0.1359682104
 40
0.1429712137
 40
0.1500541319
 40
0.1571541117
 40
0.1642103541
 40
0.1711660768
 40
0.1779650051
 40
0.1845509167
 40
0.1908676985
 40
0.1968601364
 40
0.202479126
 40
0.2076790127
 40
0.2124148721
 40
0.2166428596
 40
0.2203211868
 40
0.2234228718
 40
0.2278973686
 40
0.231169198
 40
0.2345605147
 40
0.2402373263
 40
0.2439643259
 40
0.2482654711
 40
0.2531057786
 40
0.2584467774
 40
0.2642485412
 40
0.2704701551
 40
0.2770655012
 40
0.283966678
 40
0.291098682
 40
0.2983862592
 40
0.3057540386
 40
0.3131267384
 40
0.3204324408
 40
0.3276030071
 40
0.3345706316
 40
0.3412676793
 40
0.3476267343
 40
0.3535852313
 40
0.3590992658
 40
0.3641303453
 40
0.3686410734
 40
0.372595553
 40
0.3759614225
 40
0.3787257167
 40
0.3825059897
 40
0.3856893785
 40
0.3899235378
 40
0.3929238106
 40
0.3965120269
 40
0.4006750165
 40
0.4053813323
 40
0.4105864683
 40
0.4162441068
 40
0.4223069839
 40
0.4287272135
 40
0.4354513111
 40
0.4424121582
 40
0.4495403946
 40
0.4567666288
 40
0.4640214663
 40
0.4712359242
 40
0.4783452595
 40
0.4852872991
 40
0.4920002184
 40
0.4984224603
 40
0.5044927483
 40
0.5101562681
 40
0.515371352
 40
0.5200988371
 40
0.5243010401
 40
0.5279423222
 40
0.5309929315
 40
0.5353178443
 40
0.5385325418
 40
0.5422364339
 40
0.5449617941
 40
0.5482763695
 40
0.5521698585
 40
0.5566232519
 40
0.5615955589
 40
0.5670365488
 40
0.5728949466
 40
0.579118864
 40
0.5856559257
 40
0.592449356
 40
0.5994362171
 40
0.6065526872
 40
0.6137350689
 40
0.6209198017
 40
0.6280436417
 40
0.635044592
 40
0.6418609849
 40
0.648431365
 40
0.6546947758
 40
0.6605909037
 40
0.6660683282
 40
0.6710856742
 40
0.6756031298
 40
0.6795827715
 40
0.6829898221
 40
0.6857985764
 40
0.6896365102
 40
0.6929394738
 40
0.6975699662
 40
0.7008440826
 40
0.7047436208
 40
0.7092488691
 40
0.7143272887
 40
0.719913605
 40
0.7259333818
 40
0.7323111754
 40
0.7389711356
 40
0.7458381558
 40
0.7528495612
 40
0.7599515208
 40
0.7670900342
 40
0.7742111482
 40
0.7812610392
 40
0.7881849829
 40
0.7949258222
 40
0.8014260627
 40
0.8076284369
 40
0.8134762195
 40
0.8189143654
 40
0.823900952
 40
0.8284025001
 40
0.8323870733
 40
0.8358252929
 40
0.838692625
 40
0.8427050845
 40
0.8458180108
 40
0.8496620855
 40
0.8524582021
 40
0.8558340133
 40
0.8597749488
 40
0.8642619343
 40
0.8692627915
 40
0.8747250241
 40
0.8805921192
 40
0.8868059519
 40
0.8933082976
 40
0.9000417065
 40
0.9069527029
 40
0.9139891153
 40
0.9210985166
 40
0.9282283242
 40
0.9353258936
 40
0.9423313585
 40
0.9491749187
 40
0.9557861642
 40
0.9620949129
 40
0.9680313614
 40
0.9735302979
 40
0.9785471502
 40
0.9830445741
 40
0.9869869022
 40
0.9903415483
 40
0.9930828041
 40
0.9967726977
 40
1.0
 40
1.0
 40
1.0
 40
1.0
 10
141.0249586323
 20
665.6126733163
 30
0.0
 10
141.0874529888
 20
665.6218637749
 30
0.0
 10
141.2125658976
 20
665.6401963427
 30
0.0
 10
141.399077095
 20
665.6677945609
 30
0.0
 10
141.5827153512
 20
665.6954953218
 30
0.0
 10
141.7610299373
 20
665.7232321025
 30
0.0
 10
141.9323075615
 20
665.7510419419
 30
0.0
 10
142.0949269837
 20
665.7788692574
 30
0.0
 10
142.2474012935
 20
665.8066222464
 30
0.0
 10
142.3883972231
 20
665.8342958241
 30
0.0
 10
142.5165341583
 20
665.861903929
 30
0.0
 10
142.6308111975
 20
665.8893743286
 30
0.0
 10
142.7291495951
 20
665.9169059606
 30
0.0
 10
142.8132200791
 20
665.9439682853
 30
0.0
 10
142.8868191907
 20
665.9777028073
 30
0.0
 10
142.9815956322
 20
666.0160818182
 30
0.0
 10
142.945483052
 20
666.1383915044
 30
0.0
 10
142.8481080796
 20
666.163984182
 30
0.0
 10
142.7578156066
 20
666.1999495209
 30
0.0
 10
142.6640494828
 20
666.2260865643
 30
0.0
 10
142.5559564239
 20
666.2534688381
 30
0.0
 10
142.4333621647
 20
666.2805813849
 30
0.0
 10
142.2980221095
 20
666.3080118418
 30
0.0
 10
142.1511844741
 20
666.3355818674
 30
0.0
 10
141.9942576464
 20
666.363149545
 30
0.0
 10
141.8286611165
 20
666.3905130822
 30
0.0
 10
141.6559497199
 20
666.4177130312
 30
0.0
 10
141.4777655016
 20
666.444849418
 30
0.0
 10
141.2957824655
 20
666.4719819971
 30
0.0
 10
141.1116797345
 20
666.4991690974
 30
0.0
 10
140.9271100115
 20
666.5263949349
 30
0.0
 10
140.7436555145
 20
666.5535248848
 30
0.0
 10
140.5628622673
 20
666.5805729121
 30
0.0
 10
140.3862364141
 20
666.607550289
 30
0.0
 10
140.2152832359
 20
666.6344850592
 30
0.0
 10
140.051502543
 20
666.6614083288
 30
0.0
 10
139.8963441126
 20
666.6883810254
 30
0.0
 10
139.7511670482
 20
666.7154558216
 30
0.0
 10
139.617258633
 20
666.7425979127
 30
0.0
 10
139.4957626638
 20
666.7695778817
 30
0.0
 10
139.3881812379
 20
666.7968443909
 30
0.0
 10
139.294756095
 20
666.8227410799
 30
0.0
 10
139.2029686686
 20
666.8582219278
 30
0.0
 10
139.1082792721
 20
666.883678621
 30
0.0
 10
139.0590429473
 20
667.0000906947
 30
0.0
 10
139.177266315
 20
667.0564176824
 30
0.0
 10
139.2734652413
 20
667.0954240598
 30
0.0
 10
139.3911060241
 20
667.1289793911
 30
0.0
 10
139.5002757815
 20
667.1562983134
 30
0.0
 10
139.6246781925
 20
667.1837432601
 30
0.0
 10
139.7622954657
 20
667.2113120355
 30
0.0
 10
139.9123051665
 20
667.2390389448
 30
0.0
 10
140.0734514055
 20
667.2669588125
 30
0.0
 10
140.2443900324
 20
667.2949152604
 30
0.0
 10
140.4234126774
 20
667.3229456445
 30
0.0
 10
140.6085766387
 20
667.3510485947
 30
0.0
 10
140.7978781971
 20
667.3791957141
 30
0.0
 10
140.9893148376
 20
667.4073571769
 30
0.0
 10
141.1809180777
 20
667.435479813
 30
0.0
 10
141.3707686312
 20
667.46361428
 30
0.0
 10
141.5570243389
 20
667.4917301988
 30
0.0
 10
141.7378812972
 20
667.5197841088
 30
0.0
 10
141.9115376375
 20
667.5477362483
 30
0.0
 10
142.0762349402
 20
667.5755519528
 30
0.0
 10
142.2304038594
 20
667.6032338157
 30
0.0
 10
142.3727309778
 20
667.6308905481
 30
0.0
 10
142.5020183387
 20
667.6585810219
 30
0.0
 10
142.6174867332
 20
667.686087775
 30
0.0
 10
142.717306953
 20
667.7136461323
 30
0.0
 10
142.8030118955
 20
667.7402889455
 30
0.0
 10
142.8795097393
 20
667.7742755087
 30
0.0
 10
142.974864487
 20
667.8087866086
 30
0.0
 10
142.9545666403
 20
667.9327924673
 30
0.0
 10
142.8572475253
 20
667.959696744
 30
0.0
 10
142.7711280976
 20
667.9953252975
 30
0.0
 10
142.6797431903
 20
668.0217764544
 30
0.0
 10
142.5740930364
 20
668.0494597765
 30
0.0
 10
142.453423639
 20
668.0767761671
 30
0.0
 10
142.3194752381
 20
668.1042796791
 30
0.0
 10
142.1733536266
 20
668.1317938583
 30
0.0
 10
142.0164077546
 20
668.1593750774
 30
0.0
 10
141.8499633022
 20
668.1869967731
 30
0.0
 10
141.6755375084
 20
668.2146671785
 30
0.0
 10
141.4948253987
 20
668.2423879341
 30
0.0
 10
141.3096537587
 20
668.270117193
 30
0.0
 10
141.121867124
 20
668.2978172042
 30
0.0
 10
140.9333066564
 20
668.3254601719
 30
0.0
 10
140.7457701603
 20
668.3530088254
 30
0.0
 10
140.5610138761
 20
668.3805771055
 30
0.0
 10
140.3807279153
 20
668.4082444266
 30
0.0
 10
140.2065485013
 20
668.4358995056
 30
0.0
 10
140.0401122468
 20
668.4634737754
 30
0.0
 10
139.8830058805
 20
668.4909185543
 30
0.0
 10
139.7366423381
 20
668.5182395848
 30
0.0
 10
139.6023228516
 20
668.5455783713
 30
0.0
 10
139.4810294118
 20
668.5728595759
 30
0.0
 10
139.3743068586
 20
668.6005750683
 30
0.0
 10
139.2817461092
 20
668.6269263324
 30
0.0
 10
139.1933273238
 20
668.6627159578
 30
0.0
 10
139.0966198194
 20
668.6890005219
 30
0.0
 10
139.0660974547
 20
668.8119457168
 30
0.0
 10
139.1617401198
 20
668.8483117082
 30
0.0
 10
139.2363783664
 20
668.882006621
 30
0.0
 10
139.3207428098
 20
668.9088344339
 30
0.0
 10
139.4189924828
 20
668.9363585417
 30
0.0
 10
139.53291025
 20
668.9637181422
 30
0.0
 10
139.6605418149
 20
668.9911868325
 30
0.0
 10
139.800830115
 20
669.0186581313
 30
0.0
 10
139.9522854481
 20
669.0461269996
 30
0.0
 10
140.1135250552
 20
669.0735704879
 30
0.0
 10
140.2830968926
 20
669.1009577914
 30
0.0
 10
140.4594539596
 20
669.1283429421
 30
0.0
 10
140.6409392736
 20
669.1558609204
 30
0.0
 10
140.8258750817
 20
669.183408163
 30
0.0
 10
141.0125732542
 20
669.2109189926
 30
0.0
 10
141.199349345
 20
669.2383446999
 30
0.0
 10
141.3845305932
 20
669.2656619956
 30
0.0
 10
141.5664394952
 20
669.2929890534
 30
0.0
 10
141.7434127512
 20
669.3204368359
 30
0.0
 10
141.9138041412
 20
669.348026209
 30
0.0
 10
142.0760047998
 20
669.3756079045
 30
0.0
 10
142.2284709869
 20
669.4030941829
 30
0.0
 10
142.3698437624
 20
669.4304705884
 30
0.0
 10
142.4988058662
 20
669.4578274418
 30
0.0
 10
142.6145005225
 20
669.4851279639
 30
0.0
 10
142.7149327848
 20
669.5127325043
 30
0.0
 10
142.8016870274
 20
669.5397244055
 30
0.0
 10
142.8788979399
 20
669.5741074714
 30
0.0
 10
142.9781072422
 20
669.6101672136
 30
0.0
 10
142.9481146236
 20
669.7395471563
 30
0.0
 10
142.8437854216
 20
669.7650093933
 30
0.0
 10
142.7490597679
 20
669.8027303182
 30
0.0
 10
142.6494957472
 20
669.8300749615
 30
0.0
 10
142.5348046531
 20
669.8588153877
 30
0.0
 10
142.4044697322
 20
669.8869725351
 30
0.0
 10
142.2607123541
 20
669.915397089
 30
0.0
 10
142.105298974
 20
669.9437802401
 30
0.0
 10
141.9403073272
 20
669.9720953716
 30
0.0
 10
141.7677355838
 20
670.0002170692
 30
0.0
 10
141.5894800175
 20
670.0280298105
 30
0.0
 10
141.4072545957
 20
670.055567797
 30
0.0
 10
141.2226025823
 20
670.0830022926
 30
0.0
 10
141.0369631368
 20
670.1103469414
 30
0.0
 10
140.8517668265
 20
670.1375611315
 30
0.0
 10
140.6684570641
 20
670.1646494402
 30
0.0
 10
140.4885104388
 20
670.1916447494
 30
0.0
 10
140.313447532
 20
670.2186435046
 30
0.0
 10
140.1448100721
 20
670.2457035526
 30
0.0
 10
139.9841403246
 20
670.2728800671
 30
0.0
 10
139.8329447687
 20
670.3000635878
 30
0.0
 10
139.6925741885
 20
670.3271126368
 30
0.0
 10
139.5642812618
 20
670.3540677858
 30
0.0
 10
139.4488970066
 20
670.3808180736
 30
0.0
 10
139.3479445536
 20
670.4078458102
 30
0.0
 10
139.2605523597
 20
670.4337865299
 30
0.0
 10
139.1791002375
 20
670.4684473894
 30
0.0
 10
139.0852376323
 20
670.4973607355
 30
0.0
 10
139.0743214755
 20
670.619505166
 30
0.0
 10
139.1694362944
 20
670.6514525693
 30
0.0
 10
139.2470982248
 20
670.6858097911
 30
0.0
 10
139.3329959269
 20
670.7123392751
 30
0.0
 10
139.432638788
 20
670.739773349
 30
0.0
 10
139.5475863503
 20
670.7668631125
 30
0.0
 10
139.6760486684
 20
670.7939801835
 30
0.0
 10
139.8169036329
 20
670.8212094289
 30
0.0
 10
139.9685446475
 20
670.8486309655
 30
0.0
 10
140.1294589465
 20
670.8760923586
 30
0.0
 10
140.298097928
 20
670.9034806811
 30
0.0
 10
140.4729660242
 20
670.9306901763
 30
0.0
 10
140.6525975718
 20
670.9577814816
 30
0.0
 10
140.835571509
 20
670.9848509964
 30
0.0
 10
141.0204759203
 20
671.012003561
 30
0.0
 10
141.2059010674
 20
671.0393075559
 30
0.0
 10
141.3903954215
 20
671.0666653768
 30
0.0
 10
141.5723393025
 20
671.0940788264
 30
0.0
 10
141.749946758
 20
671.1215938069
 30
0.0
 10
141.9213423858
 20
671.1492109703
 30
0.0
 10
142.0846507435
 20
671.1769095438
 30
0.0
 10
142.2380233583
 20
671.2046826823
 30
0.0
 10
142.3798664478
 20
671.2324545064
 30
0.0
 10
142.5087666723
 20
671.2601842162
 30
0.0
 10
142.6238541353
 20
671.2877259723
 30
0.0
 10
142.7233486775
 20
671.3154268871
 30
0.0
 10
142.808474193
 20
671.3421023781
 30
0.0
 10
142.884195452
 20
671.3764385411
 30
0.0
 10
142.9765141925
 20
671.4102484519
 30
0.0
 10
142.9644597888
 20
671.4939359026
 30
0.0
 10
142.9429160438
 20
671.5123622905
 30
0.0
  0
SPLINE
  5
564
100
AcDbEntity
  8
0
100
AcDbSpline
 62
7
  6
CONTINUOUS
 70
0
 71
3
 72
207
 73
203
 74
0
 42
0.0000001
 43
0.0000001
 44
0.0000000001
 40
0.0
 40
0.0
 40
0.0
 40
0.0
 40
0.0024906893
 40
0.005475287
 40
0.0077848417
 40
0.0106498459
 40
0.0140521499
 40
0.0179686814
 40
0.0223741715
 40
0.0272421806
 40
0.0325379115
 40
0.0382071697
 40
0.0441923281
 40
0.0504353572
 40
0.0568780401
 40
0.0634632971
 40
0.0701441246
 40
0.0768785284
 40
0.0836244484
 40
0.0903397119
 40
0.0969821241
 40
0.1035038155
 40
0.1098484666
 40
0.1159591037
 40
0.1217788201
 40
0.1272508596
 40
0.1323223806
 40
0.1369566957
 40
0.141122124
 40
0.1447879676
 40
0.1479252784
 40
0.1505092727
 40
0.1540161957
 40
0.1563424715
 40
0.1596104654
 40
0.1620417737
 40
0.1650028291
 40
0.1684838292
 40
0.1724700034
 40
0.1769312901
 40
0.1818294672
 40
0.187125663
 40
0.1927806394
 40
0.1987548254
 40
0.2050037704
 40
0.2114756543
 40
0.2181179496
 40
0.2248780961
 40
0.2317035464
 40
0.2385412947
 40
0.2453357774
 40
0.2520304407
 40
0.2585688196
 40
0.2648947211
 40
0.2709526525
 40
0.276694055
 40
0.2820765955
 40
0.2870581173
 40
0.2915967117
 40
0.2956521397
 40
0.29919098
 40
0.3021953817
 40
0.304653176
 40
0.3079180495
 40
0.3103015968
 40
0.3140144685
 40
0.3167173443
 40
0.3199793995
 40
0.3237690778
 40
0.32805051
 40
0.332786193
 40
0.3379376028
 40
0.3434646047
 40
0.3493213702
 40
0.3554601181
 40
0.3618329112
 40
0.3683915207
 40
0.375087363
 40
0.3818686882
 40
0.3886805504
 40
0.3954678448
 40
0.4021754405
 40
0.4087481747
 40
0.4151328428
 40
0.4212822755
 40
0.4271506065
 40
0.4326922219
 40
0.4378618398
 40
0.4426153764
 40
0.4469172222
 40
0.4507369534
 40
0.4540462433
 40
0.4568199859
 40
0.4590389827
 40
0.4618485054
 40
0.4644443098
 40
0.4685770194
 40
0.4714774375
 40
0.4749153663
 40
0.4788721295
 40
0.4833266171
 40
0.4882445765
 40
0.4935781273
 40
0.4992782387
 40
0.5052955577
 40
0.5115805383
 40
0.5180831196
 40
0.5247518156
 40
0.5315346284
 40
0.5383793649
 40
0.5452339019
 40
0.5520460327
 40
0.5587607831
 40
0.5653212118
 40
0.5716701573
 40
0.5777503991
 40
0.5835054496
 40
0.5888869042
 40
0.59386054
 40
0.598393951
 40
0.6024551809
 40
0.6060130677
 40
0.6090401119
 40
0.6115253213
 40
0.6148808719
 40
0.6172213699
 40
0.6206977557
 40
0.6232575383
 40
0.6263700856
 40
0.6300259265
 40
0.6341944992
 40
0.6388398107
 40
0.6439250353
 40
0.6494126679
 40
0.6552638583
 40
0.6614306141
 40
0.6678587013
 40
0.6744936647
 40
0.6812809714
 40
0.6881660022
 40
0.6950921269
 40
0.7019987609
 40
0.7088248586
 40
0.7155094425
 40
0.7219916722
 40
0.7282129944
 40
0.734128777
 40
0.739699949
 40
0.7448880843
 40
0.7496554684
 40
0.7539653689
 40
0.7577878306
 40
0.7611007941
 40
0.7638842389
 40
0.7661221406
 40
0.7689656684
 40
0.7714917043
 40
0.7754767412
 40
0.7782903321
 40
0.781628596
 40
0.7854663654
 40
0.7897762139
 40
0.7945294638
 40
0.7996930598
 40
0.80522566
 40
0.8110845379
 40
0.8172265039
 40
0.8236081854
 40
0.8301849655
 40
0.8369035424
 40
0.8437067376
 40
0.8505372224
 40
0.8573375082
 40
0.8640502472
 40
0.8706211672
 40
0.8769996981
 40
0.8831355831
 40
0.8889786603
 40
0.8944788934
 40
0.8995888865
 40
0.9042717492
 40
0.9084939503
 40
0.9122229381
 40
0.9154278672
 40
0.9180820933
 40
0.9201797491
 40
0.9227913331
 40
0.9254967738
 40
0.9297226639
 40
0.9326523296
 40
0.9361190294
 40
0.9401106806
 40
0.944595406
 40
0.9495319002
 40
0.9548781398
 40
0.9605916986
 40
0.9666297972
 40
0.9729453441
 40
0.9794852786
 40
0.9861959553
 40
0.9930236793
 40
1.0
 40
1.0
 40
1.0
 40
1.0
 10
143.4837768492
 20
671.6100616213
 30
0.0
 10
143.5068088545
 20
671.5947418304
 30
0.0
 10
143.532683426
 20
671.5102633866
 30
0.0
 10
143.4279940917
 20
671.481979872
 30
0.0
 10
143.3485618951
 20
671.4496789556
 30
0.0
 10
143.2547456191
 20
671.4250962857
 30
0.0
 10
143.1452277808
 20
671.399261151
 30
0.0
 10
143.0173394201
 20
671.3736531932
 30
0.0
 10
142.873214524
 20
671.3477668174
 30
0.0
 10
142.7134850596
 20
671.321763087
 30
0.0
 10
142.5395974379
 20
671.2956375321
 30
0.0
 10
142.3531500192
 20
671.2696220856
 30
0.0
 10
142.1560682666
 20
671.2437643913
 30
0.0
 10
141.9503079097
 20
671.2180532662
 30
0.0
 10
141.737819843
 20
671.1924540545
 30
0.0
 10
141.5204337462
 20
671.1668691437
 30
0.0
 10
141.299788124
 20
671.1412647848
 30
0.0
 10
141.0773473632
 20
671.115651419
 30
0.0
 10
140.8545152286
 20
671.0900940109
 30
0.0
 10
140.6327081373
 20
671.0645653509
 30
0.0
 10
140.413420421
 20
671.0389283363
 30
0.0
 10
140.1982949984
 20
671.0131419999
 30
0.0
 10
139.9891295796
 20
670.9872667509
 30
0.0
 10
139.7878263696
 20
670.9613581697
 30
0.0
 10
139.5962938357
 20
670.9354679145
 30
0.0
 10
139.4164073129
 20
670.9096494225
 30
0.0
 10
139.2498070118
 20
670.883865324
 30
0.0
 10
139.0979669092
 20
670.858047244
 30
0.0
 10
138.9617635862
 20
670.8324656027
 30
0.0
 10
138.8431549751
 20
670.8063627711
 30
0.0
 10
138.7406010114
 20
670.7820777486
 30
0.0
 10
138.6474842867
 20
670.7473998943
 30
0.0
 10
138.5407518229
 20
670.7283420215
 30
0.0
 10
138.5271502778
 20
670.5987483623
 30
0.0
 10
138.634166466
 20
670.575949892
 30
0.0
 10
138.7197326629
 20
670.5427389699
 30
0.0
 10
138.8168467066
 20
670.5185793144
 30
0.0
 10
138.9292836105
 20
670.4929896428
 30
0.0
 10
139.0595235419
 20
670.4677363
 30
0.0
 10
139.2054715861
 20
670.4421877265
 30
0.0
 10
139.3662330129
 20
670.4165766484
 30
0.0
 10
139.5403693308
 20
670.3908862359
 30
0.0
 10
139.7265801445
 20
670.3651751692
 30
0.0
 10
139.923468604
 20
670.3394962848
 30
0.0
 10
140.1295068006
 20
670.3138471423
 30
0.0
 10
140.343017814
 20
670.2881820824
 30
0.0
 10
140.5622409011
 20
670.2624747094
 30
0.0
 10
140.7854080751
 20
670.2366901207
 30
0.0
 10
141.0107478081
 20
670.2107973053
 30
0.0
 10
141.2364546883
 20
670.1847591686
 30
0.0
 10
141.4606993604
 20
670.1587211709
 30
0.0
 10
141.6816140956
 20
670.1328316738
 30
0.0
 10
141.8972986302
 20
670.1070271006
 30
0.0
 10
142.1058628771
 20
670.0812446213
 30
0.0
 10
142.3054920875
 20
670.0553578072
 30
0.0
 10
142.494536642
 20
670.0293382158
 30
0.0
 10
142.6714928962
 20
670.0032786596
 30
0.0
 10
142.8349736115
 20
669.9772814458
 30
0.0
 10
142.9834468541
 20
669.9514119215
 30
0.0
 10
143.1159554841
 20
669.9257525291
 30
0.0
 10
143.2301032241
 20
669.8995803617
 30
0.0
 10
143.3287851334
 20
669.8746838724
 30
0.0
 10
143.4141172054
 20
669.8412500137
 30
0.0
 10
143.5251620353
 20
669.8159936095
 30
0.0
 10
143.4965795098
 20
669.6842563228
 30
0.0
 10
143.3876680514
 20
669.667858184
 30
0.0
 10
143.2888450779
 20
669.6323082238
 30
0.0
 10
143.1823791561
 20
669.607784682
 30
0.0
 10
143.059622774
 20
669.5813451025
 30
0.0
 10
142.9196147092
 20
669.555636533
 30
0.0
 10
142.7644235996
 20
669.5297908905
 30
0.0
 10
142.5951693203
 20
669.5040275338
 30
0.0
 10
142.4133583103
 20
669.4781783194
 30
0.0
 10
142.2204816078
 20
669.4522760038
 30
0.0
 10
142.0181330893
 20
669.4263713403
 30
0.0
 10
141.8079153926
 20
669.4005736379
 30
0.0
 10
141.5914494935
 20
669.3749149762
 30
0.0
 10
141.370415874
 20
669.3492537259
 30
0.0
 10
141.1465576874
 20
669.3235346414
 30
0.0
 10
140.9216817501
 20
669.2977757891
 30
0.0
 10
140.6976323227
 20
669.2719967292
 30
0.0
 10
140.4762552576
 20
669.2462267438
 30
0.0
 10
140.2593753311
 20
669.2204997815
 30
0.0
 10
140.0487316094
 20
669.1948329086
 30
0.0
 10
139.8459665123
 20
669.1691972086
 30
0.0
 10
139.6526434891
 20
669.1435556319
 30
0.0
 10
139.4703065126
 20
669.1178639797
 30
0.0
 10
139.3005020118
 20
669.0920914608
 30
0.0
 10
139.1446291989
 20
669.0661629288
 30
0.0
 10
139.0040881882
 20
669.0401814763
 30
0.0
 10
138.8795178986
 20
669.0144165388
 30
0.0
 10
138.7732740432
 20
668.988830095
 30
0.0
 10
138.6824183603
 20
668.9636271888
 30
0.0
 10
138.6075695537
 20
668.9338158726
 30
0.0
 10
138.5029543201
 20
668.8947964102
 30
0.0
 10
138.5772783395
 20
668.7739867108
 30
0.0
 10
138.683407258
 20
668.758750681
 30
0.0
 10
138.7942930717
 20
668.7228747456
 30
0.0
 10
138.9060453053
 20
668.6983983175
 30
0.0
 10
139.0349516923
 20
668.6719698753
 30
0.0
 10
139.1807387959
 20
668.6461535688
 30
0.0
 10
139.3419843386
 20
668.6201636644
 30
0.0
 10
139.5172388529
 20
668.5942210012
 30
0.0
 10
139.7048204948
 20
668.5682532247
 30
0.0
 10
139.9030623594
 20
668.5422736696
 30
0.0
 10
140.1102844077
 20
668.5162604056
 30
0.0
 10
140.3247892147
 20
668.4901969685
 30
0.0
 10
140.5448700404
 20
668.4641973714
 30
0.0
 10
140.7687941409
 20
668.4383490205
 30
0.0
 10
140.9948010313
 20
668.4125479903
 30
0.0
 10
141.221131131
 20
668.3867072535
 30
0.0
 10
141.4459897023
 20
668.36070534
 30
0.0
 10
141.6675444625
 20
668.3345720266
 30
0.0
 10
141.8839175438
 20
668.3084296551
 30
0.0
 10
142.093205026
 20
668.2823993862
 30
0.0
 10
142.2935072948
 20
668.2566128466
 30
0.0
 10
142.4829900262
 20
668.2309441812
 30
0.0
 10
142.6600518657
 20
668.2052379965
 30
0.0
 10
142.823417066
 20
668.1795407308
 30
0.0
 10
142.9718437592
 20
668.1537897372
 30
0.0
 10
143.1045485529
 20
668.1282293383
 30
0.0
 10
143.2194086823
 20
668.1022428003
 30
0.0
 10
143.3186251268
 20
668.0778591704
 30
0.0
 10
143.4067477757
 20
668.0440565816
 30
0.0
 10
143.5146500194
 20
668.0226763489
 30
0.0
 10
143.5085172155
 20
667.8914105494
 30
0.0
 10
143.4002301644
 20
667.8721143201
 30
0.0
 10
143.3083852994
 20
667.83784571
 30
0.0
 10
143.2063724045
 20
667.8135384242
 30
0.0
 10
143.0881991647
 20
667.7873168516
 30
0.0
 10
142.9519849187
 20
667.761457736
 30
0.0
 10
142.7998879413
 20
667.7353351946
 30
0.0
 10
142.6328672817
 20
667.7093265447
 30
0.0
 10
142.4523124261
 20
667.6834141032
 30
0.0
 10
142.2596312503
 20
667.6574648092
 30
0.0
 10
142.0564309823
 20
667.6314166293
 30
0.0
 10
141.8444685519
 20
667.6052806783
 30
0.0
 10
141.6255726236
 20
667.5790737269
 30
0.0
 10
141.4015717247
 20
667.552822815
 30
0.0
 10
141.1743169537
 20
667.5265590784
 30
0.0
 10
140.9457232899
 20
667.500338175
 30
0.0
 10
140.7177815711
 20
667.4741770709
 30
0.0
 10
140.492532249
 20
667.4480840956
 30
0.0
 10
140.2720209001
 20
667.4220544062
 30
0.0
 10
140.0582679267
 20
667.3960746071
 30
0.0
 10
139.8531207276
 20
667.3700731556
 30
0.0
 10
139.6581713028
 20
667.3441183736
 30
0.0
 10
139.4747754393
 20
667.318341115
 30
0.0
 10
139.3042622482
 20
667.2926602451
 30
0.0
 10
139.14789146
 20
667.2669955396
 30
0.0
 10
139.0070348492
 20
667.241207146
 30
0.0
 10
138.8823237299
 20
667.2153233417
 30
0.0
 10
138.7759721759
 20
667.1893939277
 30
0.0
 10
138.6848102269
 20
667.1640035384
 30
0.0
 10
138.6093758487
 20
667.1337693463
 30
0.0
 10
138.5041395176
 20
667.0976286248
 30
0.0
 10
138.5714723324
 20
666.9766865989
 30
0.0
 10
138.6754882334
 20
666.9609715853
 30
0.0
 10
138.7823649119
 20
666.9257986621
 30
0.0
 10
138.8908345629
 20
666.9017549184
 30
0.0
 10
139.0156962719
 20
666.8758459218
 30
0.0
 10
139.1567393891
 20
666.8504740578
 30
0.0
 10
139.3126468637
 20
666.8248435834
 30
0.0
 10
139.4823065892
 20
666.7991912662
 30
0.0
 10
139.6643711408
 20
666.7735362236
 30
0.0
 10
139.857418661
 20
666.7480005063
 30
0.0
 10
140.0599756242
 20
666.7224834247
 30
0.0
 10
140.2705582153
 20
666.6969032122
 30
0.0
 10
140.4875711588
 20
666.6711631635
 30
0.0
 10
140.7092823244
 20
666.6452928108
 30
0.0
 10
140.9338246627
 20
666.6193765321
 30
0.0
 10
141.1592853068
 20
666.5935026502
 30
0.0
 10
141.3837532545
 20
666.5677901454
 30
0.0
 10
141.6053241924
 20
666.5421179052
 30
0.0
 10
141.8221708427
 20
666.5163738564
 30
0.0
 10
142.0325577428
 20
666.4905722575
 30
0.0
 10
142.2347906685
 20
666.4647059825
 30
0.0
 10
142.427177984
 20
666.4387839425
 30
0.0
 10
142.6080592512
 20
666.4128127067
 30
0.0
 10
142.7758991219
 20
666.3868090756
 30
0.0
 10
142.9294118937
 20
666.360910288
 30
0.0
 10
143.0672737304
 20
666.3351624716
 30
0.0
 10
143.1887591833
 20
666.3095499378
 30
0.0
 10
143.2914867238
 20
666.284234742
 30
0.0
 10
143.3782438821
 20
666.2587883647
 30
0.0
 10
143.4485338584
 20
666.2301432819
 30
0.0
 10
143.5480958927
 20
666.1857849467
 30
0.0
 10
143.4579897387
 20
666.0728183192
 30
0.0
 10
143.3546444587
 20
666.05551746
 30
0.0
 10
143.240784282
 20
666.0201768596
 30
0.0
 10
143.1282514377
 20
665.9958632773
 30
0.0
 10
142.998106128
 20
665.9697929398
 30
0.0
 10
142.8513829221
 20
665.944135932
 30
0.0
 10
142.6894292988
 20
665.9181887072
 30
0.0
 10
142.5136827401
 20
665.8922057513
 30
0.0
 10
142.3255870058
 20
665.8661454952
 30
0.0
 10
142.1266352389
 20
665.8400462185
 30
0.0
 10
141.9184249554
 20
665.8139939041
 30
0.0
 10
141.7026830705
 20
665.7879930428
 30
0.0
 10
141.481210349
 20
665.7620155589
 30
0.0
 10
141.2548709377
 20
665.7359322244
 30
0.0
 10
141.1025543067
 20
665.7185233727
 30
0.0
 10
141.0255761551
 20
665.7097253659
 30
0.0
  0
LINE
  5
565
100
AcDbEntity
  8
0
100
AcDbLine
 62
7
  6
CONTINUOUS
 10
142.9429160438
 20
671.5123622905
 11
143.4837768492
 21
671.6100616213
  0
SPLINE
  5
566
100
AcDbEntity
  8
0
100
AcDbSpline
 62
7
  6
CONTINUOUS
 70
0
 71
3
 72
16
 73
12
 74
0
 42
0.0000001
 43
0.0000001
 44
0.0000000001
 40
0.0
 40
0.0
 40
0.0
 40
0.0
 40
0.1673845138
 40
0.3150198661
 40
0.4258036907
 40
0.4883714684
 40
0.5138124387
 40
0.5771025157
 40
0.6885827125
 40
0.836351161
 40
1.0
 40
1.0
 40
1.0
 40
1.0
 10
141.0227703091
 20
664.7444507909
 30
0.0
 10
141.2243796118
 20
664.7140835899
 30
0.0
 10
141.5988108292
 20
664.6539942664
 30
0.0
 10
142.1290184835
 20
664.5789137275
 30
0.0
 10
142.4671713597
 20
664.469612807
 30
0.0
 10
142.7742437182
 20
664.4368062587
 30
0.0
 10
142.7699722565
 20
664.2145126312
 30
0.0
 10
142.4639168997
 20
664.1836265992
 30
0.0
 10
142.1220456979
 20
664.0733452635
 30
0.0
 10
141.5962808274
 20
663.9992108687
 30
0.0
 10
141.225726255
 20
663.9404737645
 30
0.0
 10
141.0285394442
 20
663.9113032107
 30
0.0
  0
ELLIPSE
  5
567
100
AcDbEntity
  8
0
100
AcDbEllipse
 62
7
  6
CONTINUOUS
 10
135.3221213886
 20
687.0294147326
 30
0.0
 11
-0.1926475374
 21
0.230145192
 31
0.0
 40
0.9995043128
 41
-1.5344528816
 42
0.8733083452
  0
ELLIPSE
  5
568
100
AcDbEntity
  8
0
100
AcDbEllipse
 62
7
  6
CONTINUOUS
 10
135.8148704424
 20
684.6860805764
 30
0.0
 11
0.9830509577
 21
-0.1842177568
 31
0.0
 40
0.9996947711
 41
-2.9560978643
 42
-1.8218279017
  0
ELLIPSE
  5
569
100
AcDbEntity
  8
0
100
AcDbEllipse
 62
7
  6
CONTINUOUS
 10
124.4996569352
 20
685.5503430944
 30
0.0
 11
0.5016954476
 21
0.0002522231
 31
0.0
 40
0.0870718604
 41
-1.5765701269
 42
0.0757850343
  0
ELLIPSE
  5
56A
100
AcDbEntity
  8
0
100
AcDbEllipse
 62
7
  6
CONTINUOUS
 10
131.9245572978
 20
686.2380846078
 30
0.0
 11
1.0006000436
 21
0.0002289707
 31
0.0
 40
0.0873497152
 41
-0.6453554475
 42
-0.0348743382
  0
ELLIPSE
  5
56B
100
AcDbEntity
  8
0
100
AcDbEllipse
 62
7
  6
CONTINUOUS
 10
124.0179635744
 20
683.1740778846
 30
0.0
 11
0.0274387891
 21
0.2999912253
 31
0.0
 40
0.0836225002
 41
0.0425549933
 42
1.5958980277
  0
ELLIPSE
  5
56C
100
AcDbEntity
  8
0
100
AcDbEllipse
 62
7
  6
CONTINUOUS
 10
130.0227703091
 20
685.8599439392
 30
0.0
 11
2.7622335773
 21
-0.0
 31
0.0
 40
0.0874890718
 41
2.3164410341
 42
3.179552391
  0
ELLIPSE
  5
56D
100
AcDbEntity
  8
0
100
AcDbEllipse
 62
7
  6
CONTINUOUS
 10
127.8227703091
 20
686.068365354
 30
0.0
 11
0.4804730526
 21
0.0
 31
0.0
 40
0.0874890718
 41
-0.8251516194
 42
0.9441533029
  0
ELLIPSE
  5
56E
100
AcDbEntity
  8
0
100
AcDbEllipse
 62
7
  6
CONTINUOUS
 10
127.0610988011
 20
686.1146016951
 30
0.0
 11
0.5000322465
 21
-0.0000261356
 31
0.0
 40
0.0872697066
 41
0.9433542929
 42
1.5713952491
  0
ELLIPSE
  5
56F
100
AcDbEntity
  8
0
100
AcDbEllipse
 62
7
  6
CONTINUOUS
 10
146.0239864475
 20
684.8177526331
 30
0.0
 11
-0.6314688551
 21
0.7759930096
 31
0.0
 40
0.9994907281
 41
-3.3880835344
 42
-2.2538135728
  0
ENDSEC
  0
SECTION
  2
OBJECTS
  0
DICTIONARY
  5
C
100
AcDbDictionary
280
0
281
1
  3
ACAD_GROUP
350
D
  3
ACAD_MLINESTYLE
350
17
  3
ACAD_LAYOUT
350
1A
  3
ACAD_PLOTSETTINGS
350
19
  3
ACAD_PLOTSTYLENAME
350
E
  0
DICTIONARY
  5
D
102
{ACAD_REACTORS
330
C
102
}
100
AcDbDictionary
280
0
281
1
  0
ACDBDICTIONARYWDFLT
  5
E
102
{ACAD_REACTORS
330
C
102
}
100
AcDbDictionary
281
1
  3
Normal
350
F
100
AcDbDictionaryWithDefault
340
F
  0
DICTIONARY
  5
17
102
{ACAD_REACTORS
330
C
102
}
100
AcDbDictionary
280
0
281
1
  3
Standard
350
18
  0
DICTIONARY
  5
19
102
{ACAD_REACTORS
330
C
102
}
100
AcDbDictionary
281
1
  0
DICTIONARY
  5
1A
102
{ACAD_REACTORS
330
C
102
}
100
AcDbDictionary
281
1
  3
Model
350
570
  3
Layout1
350
571
  0
ACDBPLACEHOLDER
  5
F
102
{ACAD_REACTORS
330
E
102
}
  0
MLINESTYLE
  5
18
102
{ACAD_REACTORS
330
17
102
}
100
AcDbMlineStyle
  2
STANDARD
 70
0
  3

 62
256
 51
90.0
 52
90.0
 71
2
 49
0.5
 62
256
  6
BYLAYER
 49
-0.5
 62
256
  6
BYLAYER
  0
LAYOUT
  5
570
102
{ACAD_REACTORS
330
1A
102
}
100
AcDbPlotSettings
  1

  2
none_device
  4

  6

 40
0.0
 41
0.0
 42
0.0
 43
0.0
 44
210.0
 45
297.0
 46
0.0
 47
0.0
 48
0.0
 49
0.0
140
0.0
141
0.0
142
1.0
143
1.0
 70
1024
 72
1
 73
0
 74
0
  7

 75
0
147
1.0
148
0.0
149
0.0
100
AcDbLayout
  1
Model
 70
0
 71
0
 10
0.0
 20
0.0
 11
210.0
 21
297.0
 12
0.0
 22
0.0
 32
0.0
 14
0.0
 24
0.0
 34
0.0
 15
0.0
 25
0.0
 35
0.0
146
0.0
 13
0.0
 23
0.0
 33
0.0
 16
1.0
 26
0.0
 36
0.0
 17
0.0
 27
1.0
 37
0.0
 76
0
330
210
345
0
346
0
  0
LAYOUT
  5
571
102
{ACAD_REACTORS
330
1A
102
}
100
AcDbPlotSettings
  1

  2
none_device
  4

  6

 40
0.0
 41
0.0
 42
0.0
 43
0.0
 44
210.0
 45
297.0
 46
0.0
 47
0.0
 48
0.0
 49
0.0
140
0.0
141
0.0
142
1.0
143
1.0
 70
0
 72
1
 73
0
 74
0
  7

 75
0
147
1.0
148
0.0
149
0.0
100
AcDbLayout
  1
Layout1
 70
0
 71
1
 10
0.0
 20
0.0
 11
210.0
 21
297.0
 12
0.0
 22
0.0
 32
0.0
 14
0.0
 24
0.0
 34
0.0
 15
0.0
 25
0.0
 35
0.0
146
0.0
 13
0.0
 23
0.0
 33
0.0
 16
1.0
 26
0.0
 36
0.0
 17
0.0
 27
1.0
 37
0.0
 76
0
330
211
345
0
346
0
  0
ENDSEC
  0
EOF
