999
DXF file: C:\Users\sesa63760\Dev\_Creo\CAD\MCADID0004275_3D-CAD\drw0001_1.dxf
999
Pro/ENGINEER 2019471 by Parametric Technology Corporation
  0
SECTION
  2
HEADER
  9
$ACADVER
  1
AC1024
  9
$DWGCODEPAGE
  3
ANSI_1252
  9
$EXTMAX
 10
684.6561379002
 20
968.2993950303
 30
0.0
  9
$EXTMIN
 10
0.0
 20
0.0
 30
0.0
  9
$LIMMIN
 10
0.0
 20
0.0
  9
$LIMMAX
 10
684.6561379002
 20
968.2993950303
  9
$VIEWCTR
 10
342.3280689501
 20
484.1496975151
  9
$VIEWSIZE
 40
968.2993950303
  9
$CLAYER
  8
0
  9
$LTSCALE
 40
63.1187753798
  9
$CELTYPE
  6
BYLAYER
  9
$DIMSCALE
 40
1.0
  9
$DIMASZ
 40
8.1506683083
  9
$DIMEXO
 40
1.0
  9
$DIMDLI
 40
43.6093357169
  9
$DIMEXE
 40
1.0
  9
$DIMCEN
 40
10.3285268803
  9
$DIMLFAC
 40
1.0
  9
$DIMBLK
  1
_FILLED
  9
$DIMALT
 70
0
  9
$DIMALTF
 40
0.0393700787
  9
$DIMTXT
 40
11.4109356317
  9
$DIMTOL
 70
1
  9
$DIMLIM
 70
0
  9
$DIMTFAC
 40
1.0
  9
$DIMTP
 40
0.01
  9
$DIMTM
 40
0.01
  9
$DIMGAP
 40
0.625
  9
$DIMDSEP
 70
46
  9
$AUNITS
 70
0
  9
$PDMODE
 70
3
  9
$PDSIZE
 40
0.3125
  9
$HANDSEED
  5
342
  9
$TILEMODE
 70
1
  9
$MEASUREMENT
 70
1
  9
$INSUNITS
 70
4
  0
ENDSEC
  0
SECTION
  2
CLASSES
  0
CLASS
  1
ACDBDICTIONARYWDFLT
  2
AcDbDictionaryWithDefault
  3
AutoCAD 2000
 90
0
 91
1
280
0
281
0
  0
CLASS
  1
ACDBPLACEHOLDER
  2
AcDbPlaceHolder
  3
AutoCAD 2000
 90
0
 91
1
280
0
281
0
  0
CLASS
  1
LAYOUT
  2
AcDbLayout
  3
AutoCAD 2000
 90
0
 91
0
280
0
281
0
  0
ENDSEC
  0
SECTION
  2
TABLES
  0
TABLE
  2
VPORT
  5
8
100
AcDbSymbolTable
 70
2
  0
VPORT
  5
1F4
100
AcDbSymbolTableRecord
100
AcDbViewportTableRecord
  2
*ACTIVE
 70
0
 10
0.0
 20
0.0
 11
1.0
 21
1.0
 12
342.3280689501
 22
484.1496975151
 13
0.0
 23
0.0
 14
1.0
 24
1.0
 15
0.0
 25
0.0
 16
0.0
 26
0.0
 36
1.0
 17
0.0
 27
0.0
 37
0.0
 40
968.2993950303
 41
0.7070707071
 42
50.0
 43
0.0
 44
0.0
 50
0.0
 51
0.0
 71
0
 72
100
 73
1
 74
1
 75
0
 76
0
 77
0
 78
0
  0
ENDTAB
  0
TABLE
  2
LTYPE
  5
5
100
AcDbSymbolTable
 70
6
  0
LTYPE
  5
14
100
AcDbSymbolTableRecord
100
AcDbLinetypeTableRecord
  2
BYBLOCK
 70
0
  3

 72
65
 73
0
 40
0.0
  0
LTYPE
  5
15
100
AcDbSymbolTableRecord
100
AcDbLinetypeTableRecord
  2
BYLAYER
 70
0
  3

 72
65
 73
0
 40
0.0
  0
LTYPE
  5
16
100
AcDbSymbolTableRecord
100
AcDbLinetypeTableRecord
  2
CONTINUOUS
 70
64
  3
Solid line
 72
65
 73
0
 40
0.0
  0
LTYPE
  5
1F5
100
AcDbSymbolTableRecord
100
AcDbLinetypeTableRecord
  2
CENTER
 70
64
  3
____ _ ____ _ ____ _ ____ _ ____ _ ____ _ ____
 72
65
 73
4
 40
0.6
 49
0.375
 74
0
 49
-0.075
 74
0
 49
0.075
 74
0
 49
-0.075
 74
0
  0
LTYPE
  5
1F6
100
AcDbSymbolTableRecord
100
AcDbLinetypeTableRecord
  2
HIDDEN
 70
64
  3
- - - - - - - - - - - - - - - - - - - -
 72
65
 73
2
 40
0.2
 49
0.1
 74
0
 49
-0.1
 74
0
  0
LTYPE
  5
1F7
100
AcDbSymbolTableRecord
100
AcDbLinetypeTableRecord
  2
PHANTOM
 70
64
  3
_____ _ _ _____ _ _ _____ _ _ _____
 72
65
 73
6
 40
0.8
 49
0.45
 74
0
 49
-0.05
 74
0
 49
0.1
 74
0
 49
-0.05
 74
0
 49
0.1
 74
0
 49
-0.05
 74
0
  0
LTYPE
  5
1F8
100
AcDbSymbolTableRecord
100
AcDbLinetypeTableRecord
  2
DOT
 70
64
  3
. . . . . . . . . . . . . . . . . . . .
 72
65
 73
2
 40
0.2
 49
0.1
 74
0
 49
-0.1
 74
0
  0
LTYPE
  5
1F9
100
AcDbSymbolTableRecord
100
AcDbLinetypeTableRecord
  2
DASHED
 70
64
  3
- - - - - - - - - - - - - - - - - - - -
 72
65
 73
2
 40
0.2
 49
0.1
 74
0
 49
-0.1
 74
0
  0
ENDTAB
  0
TABLE
  2
LAYER
  5
2
100
AcDbSymbolTable
 70
36
  0
LAYER
  5
10
100
AcDbSymbolTableRecord
100
AcDbLayerTableRecord
  2
0
 70
0
 62
7
  6
CONTINUOUS
370
-3
390
F
  0
LAYER
  5
1FA
100
AcDbSymbolTableRecord
100
AcDbLayerTableRecord
  2
DEFAULT_1
 70
0
 62
7
  6
CENTER
370
-3
390
F
  0
LAYER
  5
1FB
100
AcDbSymbolTableRecord
100
AcDbLayerTableRecord
  2
DEFAULT_2
 70
0
 62
7
  6
HIDDEN
370
-3
390
F
  0
LAYER
  5
1FC
100
AcDbSymbolTableRecord
100
AcDbLayerTableRecord
  2
DEFAULT_3
 70
0
 62
7
  6
PHANTOM
370
-3
390
F
  0
LAYER
  5
1FD
100
AcDbSymbolTableRecord
100
AcDbLayerTableRecord
  2
00_COMPONENTS
 70
0
 62
7
  6
CONTINUOUS
370
-3
390
F
  0
LAYER
  5
1FE
100
AcDbSymbolTableRecord
100
AcDbLayerTableRecord
  2
01_1_DEFAULT_DATUMS
 70
0
 62
7
  6
CONTINUOUS
370
-3
390
F
  0
LAYER
  5
1FF
100
AcDbSymbolTableRecord
100
AcDbLayerTableRecord
  2
01_PLANES
 70
0
 62
7
  6
CONTINUOUS
370
-3
390
F
  0
LAYER
  5
200
100
AcDbSymbolTableRecord
100
AcDbLayerTableRecord
  2
02_COORD_SYS
 70
0
 62
7
  6
CONTINUOUS
370
-3
390
F
  0
LAYER
  5
201
100
AcDbSymbolTableRecord
100
AcDbLayerTableRecord
  2
03_AXES
 70
0
 62
7
  6
CONTINUOUS
370
-3
390
F
  0
LAYER
  5
202
100
AcDbSymbolTableRecord
100
AcDbLayerTableRecord
  2
04_POINTS
 70
0
 62
7
  6
CONTINUOUS
370
-3
390
F
  0
LAYER
  5
203
100
AcDbSymbolTableRecord
100
AcDbLayerTableRecord
  2
05_CURVES
 70
0
 62
7
  6
CONTINUOUS
370
-3
390
F
  0
LAYER
  5
204
100
AcDbSymbolTableRecord
100
AcDbLayerTableRecord
  2
06_SURFS
 70
0
 62
7
  6
CONTINUOUS
370
-3
390
F
  0
LAYER
  5
205
100
AcDbSymbolTableRecord
100
AcDbLayerTableRecord
  2
07_COSMETICS
 70
0
 62
7
  6
CONTINUOUS
370
-3
390
F
  0
LAYER
  5
206
100
AcDbSymbolTableRecord
100
AcDbLayerTableRecord
  2
10_NOTES
 70
0
 62
7
  6
CONTINUOUS
370
-3
390
F
  0
LAYER
  5
207
100
AcDbSymbolTableRecord
100
AcDbLayerTableRecord
  2
11_NOTES_PUB
 70
0
 62
7
  6
CONTINUOUS
370
-3
390
F
  0
LAYER
  5
208
100
AcDbSymbolTableRecord
100
AcDbLayerTableRecord
  2
13_REF_GTOL
 70
0
 62
7
  6
CONTINUOUS
370
-3
390
F
  0
LAYER
  5
209
100
AcDbSymbolTableRecord
100
AcDbLayerTableRecord
  2
16_MISC
 70
0
 62
7
  6
CONTINUOUS
370
-3
390
F
  0
LAYER
  5
20A
100
AcDbSymbolTableRecord
100
AcDbLayerTableRecord
  2
17_NO_PRINT
 70
0
 62
7
  6
CONTINUOUS
370
-3
390
F
  0
LAYER
  5
20B
100
AcDbSymbolTableRecord
100
AcDbLayerTableRecord
  2
18_DATUM_CAMS_JOINTS
 70
0
 62
7
  6
CONTINUOUS
370
-3
390
F
  0
LAYER
  5
20C
100
AcDbSymbolTableRecord
100
AcDbLayerTableRecord
  2
19_DATUM_FUNCTIONAL
 70
0
 62
7
  6
CONTINUOUS
370
-3
390
F
  0
LAYER
  5
20D
100
AcDbSymbolTableRecord
100
AcDbLayerTableRecord
  2
20_DATUM_KINEMATIC_SCHEME
 70
0
 62
7
  6
CONTINUOUS
370
-3
390
F
  0
LAYER
  5
20E
100
AcDbSymbolTableRecord
100
AcDbLayerTableRecord
  2
3
 70
0
 62
7
  6
CONTINUOUS
370
-3
390
F
  0
LAYER
  5
20F
100
AcDbSymbolTableRecord
100
AcDbLayerTableRecord
  2
4
 70
0
 62
7
  6
CONTINUOUS
370
-3
390
F
  0
LAYER
  5
210
100
AcDbSymbolTableRecord
100
AcDbLayerTableRecord
  2
5
 70
0
 62
7
  6
CONTINUOUS
370
-3
390
F
  0
LAYER
  5
211
100
AcDbSymbolTableRecord
100
AcDbLayerTableRecord
  2
6
 70
0
 62
7
  6
CONTINUOUS
370
-3
390
F
  0
LAYER
  5
212
100
AcDbSymbolTableRecord
100
AcDbLayerTableRecord
  2
7
 70
0
 62
7
  6
CONTINUOUS
370
-3
390
F
  0
ENDTAB
  0
TABLE
  2
STYLE
  5
3
100
AcDbSymbolTable
 70
1
  0
STYLE
  5
11
100
AcDbSymbolTableRecord
100
AcDbTextStyleTableRecord
  2
STANDARD
 70
0
 40
0.0
 41
1.0
 50
0.0
 71
0
 42
0.2
  3
ARIAL.TTF
  4

  0
STYLE
  5
213
100
AcDbSymbolTableRecord
100
AcDbTextStyleTableRecord
  2
TEXTSTYLE_1
 70
0
 40
0.0
 41
0.8
 50
0.0
 71
0
 42
0.2
  3
gdt
  4

  0
ENDTAB
  0
TABLE
  2
VIEW
  5
6
100
AcDbSymbolTable
 70
0
  0
ENDTAB
  0
TABLE
  2
UCS
  5
7
100
AcDbSymbolTable
 70
0
  0
ENDTAB
  0
TABLE
  2
APPID
  5
9
100
AcDbSymbolTable
 70
1
  0
APPID
  5
214
100
AcDbSymbolTableRecord
100
AcDbRegAppTableRecord
  2
ACAD
 70
0
  0
ENDTAB
  0
TABLE
  2
BLOCK_RECORD
  5
1
100
AcDbSymbolTable
 70
0
  0
BLOCK_RECORD
  5
215
100
AcDbSymbolTableRecord
100
AcDbBlockTableRecord
  2
*Model_Space
  0
BLOCK_RECORD
  5
216
100
AcDbSymbolTableRecord
100
AcDbBlockTableRecord
  2
*Paper_Space
  0
BLOCK_RECORD
  5
217
100
AcDbSymbolTableRecord
100
AcDbBlockTableRecord
  2
_FILLED
  0
ENDTAB
  0
TABLE
  2
DIMSTYLE
  5
A
100
AcDbSymbolTable
 70
1
100
AcDbDimStyleTable
 71
0
  0
DIMSTYLE
105
218
100
AcDbSymbolTableRecord
100
AcDbDimStyleTableRecord
  2
STANDARD
 70
0
  3

  4

 40
1.0
 41
8.1506683083
 42
1.0
 43
0.38
 44
1.0
 45
0.0
 46
0.0
 47
0.01
 48
0.01
140
11.4109356317
141
0.09
142
0.0
143
25.4
144
1.0
145
0.0
146
1.0
147
0.625
 71
1
 72
0
 73
0
 74
0
 75
0
 76
0
 77
1
 78
8
 79
2
170
0
171
1
172
0
173
0
174
0
175
0
176
0
177
0
178
0
270
2
179
2
271
2
272
2
273
2
274
2
275
0
280
0
281
0
282
0
283
1
284
8
285
0
286
0
287
3
288
0
340
11
278
46
341
217
342
217
343
217
344
217
  0
ENDTAB
  0
ENDSEC
  0
SECTION
  2
BLOCKS
  0
BLOCK
  5
20
100
AcDbEntity
  8
0
100
AcDbBlockBegin
  2
*Model_Space
 70
0
 10
0.0
 20
0.0
 30
0.0
  3
*Model_Space
  1

  0
ENDBLK
  5
21
100
AcDbEntity
  8
0
100
AcDbBlockEnd
  0
BLOCK
  5
1C
100
AcDbEntity
  8
0
100
AcDbBlockBegin
  2
*Paper_Space
 70
0
 10
0.0
 20
0.0
 30
0.0
  3
*Paper_Space
  1

  0
ENDBLK
  5
1D
100
AcDbEntity
  8
0
100
AcDbBlockEnd
  0
BLOCK
  5
219
100
AcDbEntity
  8
0
100
AcDbBlockBegin
  2
_FILLED
 70
64
 10
0.0
 20
0.0
  3
_FILLED
  1

  0
SOLID
  5
21A
100
AcDbEntity
  8
0
  6
BYBLOCK
 62
0
100
AcDbTrace
 10
0.0
 20
0.0
 11
-1.0
 21
0.25
 12
-1.0
 22
-0.25
 13
-1.0
 23
-0.25
  0
ENDBLK
  5
21B
100
AcDbEntity
  8
0
  6
BYBLOCK
 62
0
100
AcDbBlockEnd
  0
ENDSEC
  0
SECTION
  2
ENTITIES
  0
LINE
  5
21C
100
AcDbEntity
  8
6
100
AcDbLine
 62
7
  6
BYLAYER
 10
404.7978259922
 20
74.7347622439
 11
302.7978259931
 21
74.7345170661
  0
LINE
  5
21D
100
AcDbEntity
  8
6
100
AcDbLine
 62
7
  6
BYLAYER
 10
302.7978259931
 20
77.1840243175
 11
403.7978259922
 21
77.1842670916
  0
LINE
  5
21E
100
AcDbEntity
  8
7
100
AcDbLine
 62
7
  6
BYLAYER
 10
294.7974631243
 20
888.5129019451
 11
286.9624258314
 21
883.9893680568
  0
LINE
  5
21F
100
AcDbEntity
  8
6
100
AcDbLine
 62
7
  6
BYLAYER
 10
406.7978259922
 20
126.1744193305
 11
409.7978259922
 21
126.1744265416
  0
LINE
  5
220
100
AcDbEntity
  8
6
100
AcDbLine
 62
7
  6
BYLAYER
 10
403.7974096525
 20
134.9184686376
 11
380.1748714945
 21
134.9184118561
  0
LINE
  5
221
100
AcDbEntity
  8
7
100
AcDbLine
 62
7
  6
BYLAYER
 10
286.9624553816
 20
124.4954712933
 11
293.4213293685
 21
120.7665230184
  0
LINE
  5
222
100
AcDbEntity
  8
7
100
AcDbLine
 62
7
  6
BYLAYER
 10
351.4802186132
 20
87.2469659978
 11
357.9390926001
 21
83.5180177229
  0
LINE
  5
223
100
AcDbEntity
  8
7
100
AcDbLine
 62
7
  6
BYLAYER
 10
297.537956597
 20
120.8484881619
 11
319.1350554638
 21
108.3796793996
  0
LINE
  5
224
100
AcDbEntity
  8
7
100
AcDbLine
 62
7
  6
BYLAYER
 10
330.0250552907
 20
102.0924773036
 11
350.745227142
 21
90.1299511361
  0
LINE
  5
225
100
AcDbEntity
  8
7
100
AcDbLine
 62
7
  6
BYLAYER
 10
286.9624553816
 20
140.8255196359
 11
293.4213293685
 21
137.096571361
  0
LINE
  5
226
100
AcDbEntity
  8
7
100
AcDbLine
 62
7
  6
BYLAYER
 10
351.4802186132
 20
103.5770143404
 11
357.9390926001
 21
99.8480660655
  0
LINE
  5
227
100
AcDbEntity
  8
6
100
AcDbLine
 62
7
  6
BYLAYER
 10
409.7974096524
 20
183.9086280876
 11
406.7974096524
 21
183.9086208765
  0
LINE
  5
228
100
AcDbEntity
  8
4
100
AcDbLine
 62
7
  6
BYLAYER
 10
321.9519996811
 20
122.7430382682
 11
326.6185770449
 21
120.0488495217
  0
LINE
  5
229
100
AcDbEntity
  8
7
100
AcDbLine
 62
7
  6
BYLAYER
 10
297.537956597
 20
137.1785365045
 11
319.1350554638
 21
124.7097277421
  0
LINE
  5
22A
100
AcDbEntity
  8
7
100
AcDbLine
 62
7
  6
BYLAYER
 10
330.0250552907
 20
118.4225256461
 11
351.1321928913
 21
106.2365897533
  0
LINE
  5
22B
100
AcDbEntity
  8
7
100
AcDbLine
 62
7
  6
BYLAYER
 10
380.6514421634
 20
110.9120791871
 11
380.1748714945
 21
111.1872211665
  0
LINE
  5
22C
100
AcDbEntity
  8
7
100
AcDbLine
 62
7
  6
BYLAYER
 10
365.0367267717
 20
822.5841207868
 11
380.6514569385
 21
831.599235639
  0
LINE
  5
22D
100
AcDbEntity
  8
7
100
AcDbLine
 62
7
  6
BYLAYER
 10
285.4924724392
 20
881.9404833146
 11
285.4924724392
 21
865.610434972
  0
LINE
  5
22E
100
AcDbEntity
  8
7
100
AcDbLine
 62
7
  6
BYLAYER
 10
285.4924724392
 20
142.8743973113
 11
285.4924724392
 21
126.5443489687
  0
LINE
  5
22F
100
AcDbEntity
  8
5
100
AcDbLine
 62
7
  6
BYLAYER
 10
286.8598166825
 20
863.6502424685
 11
286.8598166825
 21
141.2517124156
  0
LINE
  5
230
100
AcDbEntity
  8
7
100
AcDbLine
 62
7
  6
BYLAYER
 10
286.9624553816
 20
124.4954712933
 11
286.9624553816
 21
140.8255196359
  0
LINE
  5
231
100
AcDbEntity
  8
7
100
AcDbLine
 62
7
  6
BYLAYER
 10
286.9624553816
 20
863.5615572966
 11
286.9624553816
 21
879.8916056391
  0
LINE
  5
232
100
AcDbEntity
  8
5
100
AcDbLine
 62
7
  6
BYLAYER
 10
288.1536390613
 20
139.4184666597
 11
288.1536390613
 21
862.8738426366
  0
LINE
  5
233
100
AcDbEntity
  8
7
100
AcDbLine
 62
7
  6
BYLAYER
 10
293.4213293685
 20
876.1626573642
 11
293.4213293685
 21
859.8326090216
  0
LINE
  5
234
100
AcDbEntity
  8
7
100
AcDbLine
 62
7
  6
BYLAYER
 10
293.4213293685
 20
137.096571361
 11
293.4213293685
 21
120.7665230184
  0
LINE
  5
235
100
AcDbEntity
  8
5
100
AcDbLine
 62
7
  6
BYLAYER
 10
294.2685000951
 20
859.5240725766
 11
294.2685000951
 21
137.6606860419
  0
LINE
  5
236
100
AcDbEntity
  8
6
100
AcDbLine
 62
7
  6
BYLAYER
 10
294.7975145474
 20
120.3724582806
 11
294.797792686
 21
81.8027412115
  0
LINE
  5
237
100
AcDbEntity
  8
6
100
AcDbLine
 62
7
  6
BYLAYER
 10
294.797792686
 20
842.8122949191
 11
294.797792686
 21
840.3627876677
  0
LINE
  5
238
100
AcDbEntity
  8
6
100
AcDbLine
 62
7
  6
BYLAYER
 10
294.797792686
 20
81.8027412115
 11
294.797792686
 21
79.3532339601
  0
LINE
  5
239
100
AcDbEntity
  8
6
100
AcDbLine
 62
7
  6
BYLAYER
 10
294.7974429606
 20
891.3090242177
 11
294.797792686
 21
842.8122949191
  0
LINE
  5
23A
100
AcDbEntity
  8
6
100
AcDbLine
 62
7
  6
BYLAYER
 10
327.719606638
 20
847.2019951693
 11
327.6441171923
 21
846.7007346711
  0
LINE
  5
23B
100
AcDbEntity
  8
5
100
AcDbLine
 62
7
  6
BYLAYER
 10
296.3080389562
 20
136.0320567967
 11
296.3080389562
 21
837.8165424669
  0
LINE
  5
23C
100
AcDbEntity
  8
7
100
AcDbLine
 62
7
  6
BYLAYER
 10
296.9701464543
 20
120.7665315487
 11
296.9701464543
 21
137.0965798913
  0
LINE
  5
23D
100
AcDbEntity
  8
7
100
AcDbLine
 62
7
  6
BYLAYER
 10
297.1120985467
 20
137.1785354808
 11
297.1120985467
 21
120.8484871382
  0
LINE
  5
23E
100
AcDbEntity
  8
5
100
AcDbLine
 62
7
  6
BYLAYER
 10
297.3105441262
 20
837.0968536663
 11
297.3105441262
 21
138.0467289462
  0
LINE
  5
23F
100
AcDbEntity
  8
5
100
AcDbLine
 62
7
  6
BYLAYER
 10
297.3617914382
 20
837.0968536663
 11
297.3617914382
 21
138.0467289462
  0
LINE
  5
240
100
AcDbEntity
  8
7
100
AcDbLine
 62
7
  6
BYLAYER
 10
297.537956597
 20
120.8484881619
 11
297.537956597
 21
137.1785365045
  0
LINE
  5
241
100
AcDbEntity
  8
6
100
AcDbLine
 62
7
  6
BYLAYER
 10
302.7978259931
 20
74.7345170661
 11
302.7978259931
 21
77.1840243175
  0
LINE
  5
242
100
AcDbEntity
  8
6
100
AcDbLine
 62
7
  6
BYLAYER
 10
302.7978259931
 20
835.7440707736
 11
302.7978259931
 21
838.193578025
  0
LINE
  5
243
100
AcDbEntity
  8
6
100
AcDbLine
 62
7
  6
BYLAYER
 10
303.0859858627
 20
884.7514651998
 11
303.0859858627
 21
882.3019579484
  0
LINE
  5
244
100
AcDbEntity
  8
7
100
AcDbLine
 62
7
  6
BYLAYER
 10
309.1124773673
 20
881.4897976373
 11
309.1124773673
 21
883.1038284441
  0
LINE
  5
245
100
AcDbEntity
  8
6
100
AcDbLine
 62
7
  6
BYLAYER
 10
309.5140849164
 20
853.8338550088
 11
309.5140849164
 21
851.3843477574
  0
LINE
  5
246
100
AcDbEntity
  8
6
100
AcDbLine
 62
7
  6
BYLAYER
 10
309.5140849164
 20
90.3747940499
 11
309.5140849164
 21
92.8243013013
  0
LINE
  5
247
100
AcDbEntity
  8
7
100
AcDbLine
 62
7
  6
BYLAYER
 10
309.8624773673
 20
883.1038284441
 11
309.8624773673
 21
889.6358477811
  0
LINE
  5
248
100
AcDbEntity
  8
7
100
AcDbLine
 62
7
  6
BYLAYER
 10
317.8624773673
 20
883.16678927
 11
317.8624773673
 21
889.6358477811
  0
LINE
  5
249
100
AcDbEntity
  8
7
100
AcDbLine
 62
7
  6
BYLAYER
 10
319.1350554638
 20
848.2750113884
 11
319.1350554638
 21
847.4457654028
  0
LINE
  5
24A
100
AcDbEntity
  8
7
100
AcDbLine
 62
7
  6
BYLAYER
 10
319.1350554638
 20
124.7097277421
 11
319.1350554638
 21
108.3796793996
  0
LINE
  5
24B
100
AcDbEntity
  8
7
100
AcDbLine
 62
7
  6
BYLAYER
 10
320.0088042118
 20
123.6089273508
 11
320.0088042118
 21
107.2788790082
  0
LINE
  5
24C
100
AcDbEntity
  8
7
100
AcDbLine
 62
7
  6
BYLAYER
 10
320.0088042118
 20
846.3449650115
 11
320.0088042118
 21
848.1149380018
  0
LINE
  5
24D
100
AcDbEntity
  8
6
100
AcDbLine
 62
7
  6
BYLAYER
 10
321.8515267106
 20
889.8035603168
 11
321.8515267106
 21
887.3540530654
  0
LINE
  5
24E
100
AcDbEntity
  8
6
100
AcDbLine
 62
7
  6
BYLAYER
 10
323.5882952001
 20
850.0448513313
 11
323.5882952001
 21
847.5953440799
  0
LINE
  5
24F
100
AcDbEntity
  8
6
100
AcDbLine
 62
7
  6
BYLAYER
 10
323.5882952001
 20
86.5857903724
 11
323.5882952001
 21
89.0352976238
  0
LINE
  5
250
100
AcDbEntity
  8
7
100
AcDbLine
 62
7
  6
BYLAYER
 10
324.7676421038
 20
865.8134468237
 11
324.7676421038
 21
871.195952729
  0
LINE
  5
251
100
AcDbEntity
  8
7
100
AcDbLine
 62
7
  6
BYLAYER
 10
328.118378551
 20
118.9269683432
 11
328.118378551
 21
102.5969200006
  0
LINE
  5
252
100
AcDbEntity
  8
7
100
AcDbLine
 62
7
  6
BYLAYER
 10
330.0250552907
 20
102.0924773036
 11
330.0250552907
 21
118.4225256461
  0
LINE
  5
253
100
AcDbEntity
  8
7
100
AcDbLine
 62
7
  6
BYLAYER
 10
332.7676421038
 20
865.8324326939
 11
332.7676421038
 21
871.195952729
  0
LINE
  5
254
100
AcDbEntity
  8
7
100
AcDbLine
 62
7
  6
BYLAYER
 10
350.745227142
 20
835.744186025
 11
350.745227142
 21
827.3374908388
  0
LINE
  5
255
100
AcDbEntity
  8
7
100
AcDbLine
 62
7
  6
BYLAYER
 10
350.745227142
 20
104.6014531781
 11
350.745227142
 21
88.2714048355
  0
LINE
  5
256
100
AcDbEntity
  8
5
100
AcDbLine
 62
7
  6
BYLAYER
 10
351.1321928913
 20
104.6014531781
 11
351.1321928913
 21
826.574907955
  0
LINE
  5
257
100
AcDbEntity
  8
6
100
AcDbLine
 62
7
  6
BYLAYER
 10
368.2652168515
 20
863.5931703746
 11
368.2205774384
 21
863.2053129037
  0
LINE
  5
258
100
AcDbEntity
  8
5
100
AcDbLine
 62
7
  6
BYLAYER
 10
351.3989226885
 20
103.4101526014
 11
351.3989226885
 21
826.3130520011
  0
LINE
  5
259
100
AcDbEntity
  8
7
100
AcDbLine
 62
7
  6
BYLAYER
 10
351.4802186132
 20
87.2469659978
 11
351.4802186132
 21
103.5770143404
  0
LINE
  5
25A
100
AcDbEntity
  8
7
100
AcDbLine
 62
7
  6
BYLAYER
 10
351.4802186132
 20
826.3130520011
 11
351.4802186132
 21
835.7441877917
  0
LINE
  5
25B
100
AcDbEntity
  8
6
100
AcDbLine
 62
7
  6
BYLAYER
 10
351.7790311012
 20
853.51928981
 11
351.7790311012
 21
855.9687970614
  0
LINE
  5
25C
100
AcDbEntity
  8
5
100
AcDbLine
 62
7
  6
BYLAYER
 10
357.5137837223
 20
822.8296503662
 11
357.5137837223
 21
101.345174956
  0
LINE
  5
25D
100
AcDbEntity
  8
7
100
AcDbLine
 62
7
  6
BYLAYER
 10
357.9390926001
 20
835.7442033169
 11
357.9390926001
 21
822.5841037262
  0
LINE
  5
25E
100
AcDbEntity
  8
7
100
AcDbLine
 62
7
  6
BYLAYER
 10
357.9390926001
 20
99.8480660655
 11
357.9390926001
 21
83.5180177229
  0
LINE
  5
25F
100
AcDbEntity
  8
6
100
AcDbLine
 62
7
  6
BYLAYER
 10
358.3418718022
 20
861.6449227412
 11
358.3418718022
 21
864.0944299926
  0
LINE
  5
260
100
AcDbEntity
  8
6
100
AcDbLine
 62
7
  6
BYLAYER
 10
359.4392884972
 20
879.4556394586
 11
359.4392884972
 21
881.90514671
  0
LINE
  5
261
100
AcDbEntity
  8
5
100
AcDbLine
 62
7
  6
BYLAYER
 10
363.8492646168
 20
100.5492575216
 11
363.8492646168
 21
822.1260356168
  0
LINE
  5
262
100
AcDbEntity
  8
7
100
AcDbLine
 62
7
  6
BYLAYER
 10
365.0367267717
 20
83.5180347835
 11
365.0367267717
 21
99.8480831261
  0
LINE
  5
263
100
AcDbEntity
  8
7
100
AcDbLine
 62
7
  6
BYLAYER
 10
365.0367267717
 20
822.5841207868
 11
365.0367267717
 21
835.7442203775
  0
LINE
  5
264
100
AcDbEntity
  8
6
100
AcDbLine
 62
7
  6
BYLAYER
 10
368.2205215342
 20
870.4364347327
 11
368.2205215342
 21
870.9576085548
  0
LINE
  5
265
100
AcDbEntity
  8
5
100
AcDbLine
 62
7
  6
BYLAYER
 10
375.2462160782
 20
828.4785370013
 11
375.2462160782
 21
107.1330982703
  0
LINE
  5
266
100
AcDbEntity
  8
3
100
AcDbLine
 62
7
  6
BYLAYER
 10
375.3907956414
 20
828.5620095528
 11
375.3907956414
 21
107.2165708218
  0
LINE
  5
267
100
AcDbEntity
  8
3
100
AcDbLine
 62
7
  6
BYLAYER
 10
379.7454118575
 20
831.07613339
 11
379.7454118575
 21
109.5311990801
  0
LINE
  5
268
100
AcDbEntity
  8
3
100
AcDbLine
 62
7
  6
BYLAYER
 10
380.1748714945
 20
831.324080547
 11
380.1748714945
 21
110.9120791871
  0
LINE
  5
269
100
AcDbEntity
  8
7
100
AcDbLine
 62
7
  6
BYLAYER
 10
380.6514569385
 20
835.7442579107
 11
380.6514569385
 21
831.599235639
  0
LINE
  5
26A
100
AcDbEntity
  8
7
100
AcDbLine
 62
7
  6
BYLAYER
 10
380.6514569385
 20
108.8631979783
 11
380.6514569385
 21
92.5331496357
  0
LINE
  5
26B
100
AcDbEntity
  8
7
100
AcDbLine
 62
7
  6
BYLAYER
 10
381.3864336346
 20
835.7442596774
 11
381.3864336346
 21
832.6236780101
  0
LINE
  5
26C
100
AcDbEntity
  8
7
100
AcDbLine
 62
7
  6
BYLAYER
 10
381.3864336346
 20
109.8876403494
 11
381.3864336346
 21
93.5575920068
  0
LINE
  5
26D
100
AcDbEntity
  8
6
100
AcDbLine
 62
7
  6
BYLAYER
 10
403.7978259922
 20
77.1842670916
 11
403.7974096525
 21
134.9184686376
  0
LINE
  5
26E
100
AcDbEntity
  8
6
100
AcDbLine
 62
7
  6
BYLAYER
 10
404.7978259922
 20
838.1938232028
 11
404.7974096525
 21
895.9280247489
  0
LINE
  5
26F
100
AcDbEntity
  8
6
100
AcDbLine
 62
7
  6
BYLAYER
 10
327.719606638
 20
86.1924414618
 11
327.6441171923
 21
85.6911809635
  0
LINE
  5
270
100
AcDbEntity
  8
6
100
AcDbLine
 62
7
  6
BYLAYER
 10
327.6438232499
 20
887.4619917193
 11
327.7193216992
 21
886.9607075514
  0
LINE
  5
271
100
AcDbEntity
  8
6
100
AcDbLine
 62
7
  6
BYLAYER
 10
406.7974096524
 20
183.9086208765
 11
406.7978259922
 21
126.1744193305
  0
LINE
  5
272
100
AcDbEntity
  8
6
100
AcDbLine
 62
7
  6
BYLAYER
 10
406.7978259922
 20
126.1744193305
 11
406.7978259922
 21
79.6337815541
  0
LINE
  5
273
100
AcDbEntity
  8
6
100
AcDbLine
 62
7
  6
BYLAYER
 10
406.7978259922
 20
786.7541757311
 11
406.7978259922
 21
833.2948135075
  0
LINE
  5
274
100
AcDbEntity
  8
6
100
AcDbLine
 62
7
  6
BYLAYER
 10
409.7978259922
 20
126.1744265416
 11
409.7974096524
 21
183.9086280876
  0
LINE
  5
275
100
AcDbEntity
  8
6
100
AcDbLine
 62
7
  6
BYLAYER
 10
409.7978259922
 20
834.1113231357
 11
409.7978259922
 21
786.7541829422
  0
LINE
  5
276
100
AcDbEntity
  8
6
100
AcDbLine
 62
7
  6
BYLAYER
 10
409.7978259922
 20
78.8172863481
 11
409.7978259922
 21
126.1744265416
  0
LINE
  5
277
100
AcDbEntity
  8
6
100
AcDbLine
 62
7
  6
BYLAYER
 10
409.7978259922
 20
834.1113231357
 11
409.7974096524
 21
891.8455246818
  0
LINE
  5
278
100
AcDbEntity
  8
6
100
AcDbLine
 62
7
  6
BYLAYER
 10
368.2205215342
 20
870.9576085548
 11
368.2651685843
 21
870.5697272667
  0
LINE
  5
279
100
AcDbEntity
  8
7
100
AcDbLine
 62
7
  6
BYLAYER
 10
296.9701464543
 20
137.0965798913
 11
297.1120985467
 21
137.1785354808
  0
LINE
  5
27A
100
AcDbEntity
  8
7
100
AcDbLine
 62
7
  6
BYLAYER
 10
296.9701464543
 20
120.7665315487
 11
297.1120985467
 21
120.8484871382
  0
LINE
  5
27B
100
AcDbEntity
  8
6
100
AcDbLine
 62
7
  6
BYLAYER
 10
409.7978259922
 20
786.7541829422
 11
406.7978259922
 21
786.7541757311
  0
LINE
  5
27C
100
AcDbEntity
  8
7
100
AcDbLine
 62
7
  6
BYLAYER
 10
286.9624553816
 20
863.5615572966
 11
293.4213293685
 21
859.8326090216
  0
LINE
  5
27D
100
AcDbEntity
  8
7
100
AcDbLine
 62
7
  6
BYLAYER
 10
351.4802186132
 20
826.3130520011
 11
357.9390926001
 21
822.5841037262
  0
LINE
  5
27E
100
AcDbEntity
  8
7
100
AcDbLine
 62
7
  6
BYLAYER
 10
316.7790366297
 20
848.8059827387
 11
319.1350554638
 21
847.4457654028
  0
LINE
  5
27F
100
AcDbEntity
  8
7
100
AcDbLine
 62
7
  6
BYLAYER
 10
339.4032912137
 20
835.7441587623
 11
350.745227142
 21
829.1960371393
  0
LINE
  5
280
100
AcDbEntity
  8
7
100
AcDbLine
 62
7
  6
BYLAYER
 10
286.9624553816
 20
879.8916056391
 11
293.4213293685
 21
876.1626573642
  0
LINE
  5
281
100
AcDbEntity
  8
7
100
AcDbLine
 62
7
  6
BYLAYER
 10
365.9279122674
 20
858.4786068336
 11
359.0066423915
 21
862.4745134601
  0
LINE
  5
282
100
AcDbEntity
  8
7
100
AcDbLine
 62
7
  6
BYLAYER
 10
321.8984583812
 20
883.8984488134
 11
317.8624773673
 21
886.2285708238
  0
LINE
  5
283
100
AcDbEntity
  8
7
100
AcDbLine
 62
7
  6
BYLAYER
 10
366.2682665162
 20
858.9599724479
 11
364.8793170777
 21
859.7618646388
  0
LINE
  5
284
100
AcDbEntity
  8
7
100
AcDbLine
 62
7
  6
BYLAYER
 10
322.856984227
 20
884.0229209638
 11
322.2519141382
 21
884.3722504395
  0
LINE
  5
285
100
AcDbEntity
  8
7
100
AcDbLine
 62
7
  6
BYLAYER
 10
363.8426013224
 20
100.5492575216
 11
379.3998733163
 21
109.5311990801
  0
LINE
  5
286
100
AcDbEntity
  8
7
100
AcDbLine
 62
7
  6
BYLAYER
 10
365.0367267717
 20
99.8480831261
 11
380.6514569385
 21
108.8631979783
  0
LINE
  5
287
100
AcDbEntity
  8
7
100
AcDbLine
 62
7
  6
BYLAYER
 10
365.0367267717
 20
83.5180347835
 11
380.6514569385
 21
92.5331496357
  0
LINE
  5
288
100
AcDbEntity
  8
6
100
AcDbLine
 62
7
  6
BYLAYER
 10
403.7978259922
 20
835.7443135478
 11
302.7978259931
 21
835.7440707736
  0
LINE
  5
289
100
AcDbEntity
  8
6
100
AcDbLine
 62
7
  6
BYLAYER
 10
302.7978259931
 20
838.193578025
 11
404.7978259922
 21
838.1938232028
  0
LINE
  5
28A
100
AcDbEntity
  8
6
100
AcDbLine
 62
7
  6
BYLAYER
 10
404.7974096525
 20
895.9280247489
 11
302.7974096533
 21
895.927779571
  0
ARC
  5
28B
100
AcDbEntity
  8
6
100
AcDbCircle
 62
7
  6
BYLAYER
 10
328.5288942591
 20
821.6466652051
 40
66.0458027191
100
AcDbArc
 50
95.8026362461
 51
99.2992751488
  0
ARC
  5
28C
100
AcDbEntity
  8
6
100
AcDbCircle
 62
7
  6
BYLAYER
 10
328.4617466423
 20
824.6027276206
 40
65.5350562052
100
AcDbArc
 50
95.7890064636
 51
99.3129049313
  0
ARC
  5
28D
100
AcDbEntity
  8
6
100
AcDbCircle
 62
7
  6
BYLAYER
 10
327.7848078874
 20
839.3968533131
 40
44.8942587742
100
AcDbArc
 50
102.7983918752
 51
105.053136241
  0
ARC
  5
28E
100
AcDbEntity
  8
7
100
AcDbCircle
 62
7
  6
BYLAYER
 10
361.7376190449
 20
106.2167170571
 40
7.1934933639
100
AcDbArc
 50
283.4312920995
 51
286.5974788108
  0
ARC
  5
28F
100
AcDbEntity
  8
7
100
AcDbCircle
 62
7
  6
BYLAYER
 10
327.9043337556
 20
113.866361565
 40
5.0651314038
100
AcDbArc
 50
81.4424181373
 51
87.5780457699
  0
ARC
  5
290
100
AcDbEntity
  8
7
100
AcDbCircle
 62
7
  6
BYLAYER
 10
289.3068395052
 20
144.8862203196
 40
4.6888620114
100
AcDbArc
 50
239.7883698471
 51
240.0006615003
  0
ARC
  5
291
100
AcDbEntity
  8
7
100
AcDbCircle
 62
7
  6
BYLAYER
 10
311.4368953624
 20
881.8526363469
 40
2.4230689931
100
AcDbArc
 50
217.1482407954
 51
218.0818276463
  0
ARC
  5
292
100
AcDbEntity
  8
7
100
AcDbCircle
 62
7
  6
BYLAYER
 10
310.6928439637
 20
881.4900831962
 40
1.5859660927
100
AcDbArc
 50
180.0103162194
 51
181.2723789673
  0
ARC
  5
293
100
AcDbEntity
  8
7
100
AcDbCircle
 62
7
  6
BYLAYER
 10
310.6915652107
 20
881.4900792914
 40
1.584687339
100
AcDbArc
 50
179.226093274
 51
180.0101833626
  0
ARC
  5
294
100
AcDbEntity
  8
7
100
AcDbCircle
 62
7
  6
BYLAYER
 10
297.3250122637
 20
136.7109273702
 40
0.5185290857
100
AcDbArc
 50
85.8976696163
 51
89.9983490757
  0
SPLINE
  5
295
100
AcDbEntity
  8
7
100
AcDbSpline
 62
7
  6
BYLAYER
 70
0
 71
3
 72
11
 73
7
 74
0
 42
0.0000001
 43
0.0000001
 44
0.0000000001
 40
0.0
 40
0.0
 40
0.0
 40
0.0
 40
0.2751178522
 40
0.5299309087
 40
0.7692055488
 40
1.0
 40
1.0
 40
1.0
 40
1.0
 10
309.8239006618
 20
884.5474588685
 30
0.0
 10
309.7130047696
 20
884.4440489091
 30
0.0
 10
309.5135697394
 20
884.2285433225
 30
0.0
 10
309.2848141433
 20
883.8684734013
 30
0.0
 10
309.1443192512
 20
883.4910921462
 30
0.0
 10
309.1124800906
 20
883.2310294129
 30
0.0
 10
309.1124791655
 20
883.1038284439
 30
0.0
  0
SPLINE
  5
296
100
AcDbEntity
  8
7
100
AcDbSpline
 62
7
  6
BYLAYER
 70
0
 71
3
 72
17
 73
13
 74
0
 42
0.0000001
 43
0.0000001
 44
0.0000000001
 40
0.0
 40
0.0
 40
0.0
 40
0.0
 40
0.0428601496
 40
0.0874897921
 40
0.1353238702
 40
0.1872887618
 40
0.3045539998
 40
0.4382245522
 40
0.5825709292
 40
0.7297267323
 40
0.8713183388
 40
1.0
 40
1.0
 40
1.0
 40
1.0
 10
317.8624755691
 20
889.635847781
 30
0.0
 10
317.862475655
 20
889.749719287
 30
0.0
 10
317.832030223
 20
889.9831552251
 30
0.0
 10
317.6981462329
 20
890.3202026775
 30
0.0
 10
317.4809215283
 20
890.6397589988
 30
0.0
 10
317.0719468303
 20
891.0501596672
 30
0.0
 10
316.3751211439
 20
891.4743375406
 30
0.0
 10
315.3731844061
 20
891.8089962357
 30
0.0
 10
314.2488091524
 20
891.9669718074
 30
0.0
 10
313.0931310422
 20
891.9349928129
 30
0.0
 10
312.0005171434
 20
891.7163521779
 30
0.0
 10
311.3301186356
 20
891.439751744
 30
0.0
 10
311.0340384667
 20
891.2688107992
 30
0.0
  0
SPLINE
  5
297
100
AcDbEntity
  8
7
100
AcDbSpline
 62
7
  6
BYLAYER
 70
0
 71
3
 72
11
 73
7
 74
0
 42
0.0000001
 43
0.0000001
 44
0.0000000001
 40
0.0
 40
0.0
 40
0.0
 40
0.0
 40
0.2898090087
 40
0.549046274
 40
0.7822267183
 40
1.0
 40
1.0
 40
1.0
 40
1.0
 10
311.0340384667
 20
891.2688107992
 30
0.0
 10
310.8584579685
 20
891.1674399564
 30
0.0
 10
310.5399732902
 20
890.9482177354
 30
0.0
 10
310.159548459
 20
890.5481255013
 30
0.0
 10
309.9187117135
 20
890.1058041541
 30
0.0
 10
309.8624792805
 20
889.788196116
 30
0.0
 10
309.8624791655
 20
889.6358477812
 30
0.0
  0
SPLINE
  5
298
100
AcDbEntity
  8
7
100
AcDbSpline
 62
7
  6
BYLAYER
 70
0
 71
3
 72
10
 73
6
 74
0
 42
0.0000001
 43
0.0000001
 44
0.0000000001
 40
0.0
 40
0.0
 40
0.0
 40
0.0
 40
0.231256385
 40
0.47254738
 40
1.0
 40
1.0
 40
1.0
 40
1.0
 10
318.5952166999
 20
883.3373483298
 30
0.0
 10
318.5791991663
 20
883.4455644412
 30
0.0
 10
318.5236556598
 20
883.6638968355
 30
0.0
 10
318.3219750637
 20
884.0940964014
 30
0.0
 10
318.0828894832
 20
884.3779973327
 30
0.0
 10
317.9003540081
 20
884.548102997
 30
0.0
  0
SPLINE
  5
299
100
AcDbEntity
  8
7
100
AcDbSpline
 62
7
  6
BYLAYER
 70
0
 71
3
 72
13
 73
9
 74
0
 42
0.0000001
 43
0.0000001
 44
0.0000000001
 40
0.0
 40
0.0
 40
0.0
 40
0.0
 40
0.2979688259
 40
0.4340130891
 40
0.5611241469
 40
0.7905415696
 40
0.8966988343
 40
1.0
 40
1.0
 40
1.0
 40
1.0
 10
311.5559339955
 20
881.2170746426
 30
0.0
 10
311.3094297722
 20
881.3175166247
 30
0.0
 10
310.9605696101
 20
881.4942468224
 30
0.0
 10
310.5570527099
 20
881.7936553627
 30
0.0
 10
310.2388458957
 20
882.0983884262
 30
0.0
 10
310.0017320596
 20
882.4481259222
 30
0.0
 10
309.8822169674
 20
882.8238702637
 30
0.0
 10
309.8624791147
 20
883.011547234
 30
0.0
 10
309.8624791243
 20
883.1038284441
 30
0.0
  0
SPLINE
  5
29A
100
AcDbEntity
  8
7
100
AcDbSpline
 62
7
  6
BYLAYER
 70
0
 71
3
 72
13
 73
9
 74
0
 42
0.0000001
 43
0.0000001
 44
0.0000000001
 40
0.0
 40
0.0
 40
0.0
 40
0.0
 40
0.1046505058
 40
0.2119110614
 40
0.4422151037
 40
0.5689784597
 40
0.7042494197
 40
1.0
 40
1.0
 40
1.0
 40
1.0
 10
309.1124791655
 20
883.1038284439
 30
0.0
 10
309.11247841
 20
882.9999405551
 30
0.0
 10
309.1334893035
 20
882.78899777
 30
0.0
 10
309.2606054555
 20
882.3664573728
 30
0.0
 10
309.5136076179
 20
881.9697368904
 30
0.0
 10
309.8559049297
 20
881.619956216
 30
0.0
 10
310.2899111968
 20
881.2740455595
 30
0.0
 10
310.6674569156
 20
881.0650991169
 30
0.0
 10
310.9350056977
 20
880.9442029332
 30
0.0
  0
SPLINE
  5
29B
100
AcDbEntity
  8
7
100
AcDbSpline
 62
7
  6
BYLAYER
 70
0
 71
3
 72
11
 73
7
 74
0
 42
0.0000001
 43
0.0000001
 44
0.0000000001
 40
0.0
 40
0.0
 40
0.0
 40
0.0
 40
0.2898090087
 40
0.549046274
 40
0.7822267183
 40
1.0
 40
1.0
 40
1.0
 40
1.0
 10
316.6909162679
 20
888.002884763
 30
0.0
 10
316.8664967661
 20
888.1042556058
 30
0.0
 10
317.1849814444
 20
888.3234778268
 30
0.0
 10
317.5654062755
 20
888.7235700609
 30
0.0
 10
317.8062430211
 20
889.1658914081
 30
0.0
 10
317.8624754541
 20
889.4834994462
 30
0.0
 10
317.8624755691
 20
889.635847781
 30
0.0
  0
SPLINE
  5
29C
100
AcDbEntity
  8
7
100
AcDbSpline
 62
7
  6
BYLAYER
 70
0
 71
3
 72
17
 73
13
 74
0
 42
0.0000001
 43
0.0000001
 44
0.0000000001
 40
0.0
 40
0.0
 40
0.0
 40
0.0
 40
0.0428601496
 40
0.0874897921
 40
0.1353238702
 40
0.1872887618
 40
0.3045539998
 40
0.4382245522
 40
0.5825709292
 40
0.7297267323
 40
0.8713183388
 40
1.0
 40
1.0
 40
1.0
 40
1.0
 10
309.8624791655
 20
889.6358477812
 30
0.0
 10
309.8624790795
 20
889.5219762752
 30
0.0
 10
309.8929245116
 20
889.2885403371
 30
0.0
 10
310.0268085017
 20
888.9514928847
 30
0.0
 10
310.2440332063
 20
888.6319365634
 30
0.0
 10
310.6530079043
 20
888.221535895
 30
0.0
 10
311.3498335906
 20
887.7973580216
 30
0.0
 10
312.3517703284
 20
887.4626993265
 30
0.0
 10
313.4761455822
 20
887.3047237548
 30
0.0
 10
314.6318236924
 20
887.3367027493
 30
0.0
 10
315.7244375912
 20
887.5553433843
 30
0.0
 10
316.3948360989
 20
887.8319438182
 30
0.0
 10
316.6909162679
 20
888.002884763
 30
0.0
  0
SPLINE
  5
29D
100
AcDbEntity
  8
7
100
AcDbSpline
 62
7
  6
BYLAYER
 70
0
 71
3
 72
17
 73
13
 74
0
 42
0.0000001
 43
0.0000001
 44
0.0000000001
 40
0.0
 40
0.0
 40
0.0
 40
0.0
 40
0.0428601496
 40
0.0874897921
 40
0.1353238702
 40
0.1872887618
 40
0.3045539998
 40
0.4382245522
 40
0.5825709292
 40
0.7297267323
 40
0.8713183388
 40
1.0
 40
1.0
 40
1.0
 40
1.0
 10
332.7676403056
 20
871.1959527289
 30
0.0
 10
332.7676403916
 20
871.3098242348
 30
0.0
 10
332.7371949595
 20
871.543260173
 30
0.0
 10
332.6033109694
 20
871.8803076253
 30
0.0
 10
332.3860862648
 20
872.1998639467
 30
0.0
 10
331.9771115668
 20
872.6102646151
 30
0.0
 10
331.2802858805
 20
873.0344424884
 30
0.0
 10
330.2783491427
 20
873.3691011836
 30
0.0
 10
329.1539738889
 20
873.5270767553
 30
0.0
 10
327.9982957787
 20
873.4950977607
 30
0.0
 10
326.9056818799
 20
873.2764571257
 30
0.0
 10
326.2352833722
 20
872.9998566919
 30
0.0
 10
325.9392032032
 20
872.828915747
 30
0.0
  0
SPLINE
  5
29E
100
AcDbEntity
  8
7
100
AcDbSpline
 62
7
  6
BYLAYER
 70
0
 71
3
 72
11
 73
7
 74
0
 42
0.0000001
 43
0.0000001
 44
0.0000000001
 40
0.0
 40
0.0
 40
0.0
 40
0.0
 40
0.2898090087
 40
0.549046274
 40
0.7822267183
 40
1.0
 40
1.0
 40
1.0
 40
1.0
 10
325.9392032032
 20
872.828915747
 30
0.0
 10
325.763622705
 20
872.7275449042
 30
0.0
 10
325.4451380267
 20
872.5083226832
 30
0.0
 10
325.0647131956
 20
872.1082304492
 30
0.0
 10
324.82387645
 20
871.6659091019
 30
0.0
 10
324.767644017
 20
871.3483010638
 30
0.0
 10
324.767643902
 20
871.1959527291
 30
0.0
  0
SPLINE
  5
29F
100
AcDbEntity
  8
7
100
AcDbSpline
 62
7
  6
BYLAYER
 70
0
 71
3
 72
11
 73
7
 74
0
 42
0.0000001
 43
0.0000001
 44
0.0000000001
 40
0.0
 40
0.0
 40
0.0
 40
0.0
 40
0.2898090087
 40
0.549046274
 40
0.7822267183
 40
1.0
 40
1.0
 40
1.0
 40
1.0
 10
331.5960810044
 20
869.5629897109
 30
0.0
 10
331.7716615026
 20
869.6643605537
 30
0.0
 10
332.0901461809
 20
869.8835827747
 30
0.0
 10
332.4705710121
 20
870.2836750087
 30
0.0
 10
332.7114077576
 20
870.725996356
 30
0.0
 10
332.7676401906
 20
871.0436043941
 30
0.0
 10
332.7676403056
 20
871.1959527289
 30
0.0
  0
SPLINE
  5
2A0
100
AcDbEntity
  8
7
100
AcDbSpline
 62
7
  6
BYLAYER
 70
0
 71
3
 72
17
 73
13
 74
0
 42
0.0000001
 43
0.0000001
 44
0.0000000001
 40
0.0
 40
0.0
 40
0.0
 40
0.0
 40
0.0428601496
 40
0.0874897921
 40
0.1353238702
 40
0.1872887618
 40
0.3045539998
 40
0.4382245522
 40
0.5825709292
 40
0.7297267323
 40
0.8713183388
 40
1.0
 40
1.0
 40
1.0
 40
1.0
 10
324.767643902
 20
871.1959527291
 30
0.0
 10
324.7676438161
 20
871.0820812231
 30
0.0
 10
324.7980892481
 20
870.848645285
 30
0.0
 10
324.9319732382
 20
870.5115978326
 30
0.0
 10
325.1491979428
 20
870.1920415112
 30
0.0
 10
325.5581726408
 20
869.7816408429
 30
0.0
 10
326.2549983272
 20
869.3574629695
 30
0.0
 10
327.256935065
 20
869.0228042743
 30
0.0
 10
328.3813103187
 20
868.8648287026
 30
0.0
 10
329.5369884289
 20
868.8968076972
 30
0.0
 10
330.6296023277
 20
869.1154483322
 30
0.0
 10
331.3000008355
 20
869.392048766
 30
0.0
 10
331.5960810044
 20
869.5629897109
 30
0.0
  0
SPLINE
  5
2A1
100
AcDbEntity
  8
7
100
AcDbSpline
 62
7
  6
BYLAYER
 70
0
 71
3
 72
11
 73
7
 74
0
 42
0.0000001
 43
0.0000001
 44
0.0000000001
 40
0.0
 40
0.0
 40
0.0
 40
0.0
 40
0.2898001512
 40
0.5490497799
 40
0.7822288614
 40
1.0
 40
1.0
 40
1.0
 40
1.0
 10
286.9624553816
 20
124.4954712933
 30
0.0
 10
286.7421590697
 20
124.622656551
 30
0.0
 10
286.3425563228
 20
124.897722017
 30
0.0
 10
285.8652111112
 20
125.3997028066
 30
0.0
 10
285.5630355957
 20
125.9546985168
 30
0.0
 10
285.4924738176
 20
126.3531982863
 30
0.0
 10
285.4924724392
 20
126.5443489687
 30
0.0
  0
SPLINE
  5
2A2
100
AcDbEntity
  8
7
100
AcDbSpline
 62
7
  6
BYLAYER
 70
0
 71
3
 72
9
 73
5
 74
0
 42
0.0000001
 43
0.0000001
 44
0.0000000001
 40
0.0
 40
0.0
 40
0.0
 40
0.0
 40
0.5255657768
 40
1.0
 40
1.0
 40
1.0
 40
1.0
 10
295.1957409714
 20
120.3421900913
 30
0.0
 10
294.8735339138
 20
120.3421893168
 30
0.0
 10
294.2588172617
 20
120.4088250981
 30
0.0
 10
293.673222931
 20
120.6210954923
 30
0.0
 10
293.4213293685
 20
120.7665230184
 30
0.0
  0
SPLINE
  5
2A3
100
AcDbEntity
  8
7
100
AcDbSpline
 62
7
  6
BYLAYER
 70
0
 71
3
 72
9
 73
5
 74
0
 42
0.0000001
 43
0.0000001
 44
0.0000000001
 40
0.0
 40
0.0
 40
0.0
 40
0.0
 40
0.4744336899
 40
1.0
 40
1.0
 40
1.0
 40
1.0
 10
296.9701464543
 20
120.7665315487
 30
0.0
 10
296.7182547538
 20
120.6211026757
 30
0.0
 10
296.1326627267
 20
120.4088293713
 30
0.0
 10
295.517947678
 20
120.3421908658
 30
0.0
 10
295.1957409714
 20
120.3421900913
 30
0.0
  0
SPLINE
  5
2A4
100
AcDbEntity
  8
7
100
AcDbSpline
 62
7
  6
BYLAYER
 70
0
 71
3
 72
9
 73
5
 74
0
 42
0.0000001
 43
0.0000001
 44
0.0000000001
 40
0.0
 40
0.0
 40
0.0
 40
0.0
 40
0.2671444907
 40
1.0
 40
1.0
 40
1.0
 40
1.0
 10
297.3250272047
 20
120.8994081131
 30
0.0
 10
297.305419074
 20
120.899408066
 30
0.0
 10
297.2322516656
 20
120.8952491796
 30
0.0
 10
297.1586828503
 20
120.8753824379
 30
0.0
 10
297.1120985467
 20
120.8484871382
 30
0.0
  0
SPLINE
  5
2A5
100
AcDbEntity
  8
7
100
AcDbSpline
 62
7
  6
BYLAYER
 70
0
 71
3
 72
9
 73
5
 74
0
 42
0.0000001
 43
0.0000001
 44
0.0000000001
 40
0.0
 40
0.0
 40
0.0
 40
0.0
 40
0.2291146192
 40
1.0
 40
1.0
 40
1.0
 40
1.0
 10
297.537956597
 20
120.8484881619
 30
0.0
 10
297.523383489
 20
120.8569017593
 30
0.0
 10
297.456548416
 20
120.8879483229
 30
0.0
 10
297.3816454105
 20
120.8994082492
 30
0.0
 10
297.3250272047
 20
120.8994081131
 30
0.0
  0
SPLINE
  5
2A6
100
AcDbEntity
  8
7
100
AcDbSpline
 62
7
  6
BYLAYER
 70
0
 71
3
 72
9
 73
5
 74
0
 42
0.0000001
 43
0.0000001
 44
0.0000000001
 40
0.0
 40
0.0
 40
0.0
 40
0.0
 40
0.231885901
 40
1.0
 40
1.0
 40
1.0
 40
1.0
 10
319.7432916569
 20
107.8746167889
 30
0.0
 10
319.7051689883
 20
107.9226459834
 30
0.0
 10
319.5285936334
 20
108.1201194759
 30
0.0
 10
319.31096386
 20
108.2781209372
 30
0.0
 10
319.1350554638
 20
108.3796793996
 30
0.0
  0
SPLINE
  5
2A7
100
AcDbEntity
  8
7
100
AcDbSpline
 62
7
  6
BYLAYER
 70
0
 71
3
 72
9
 73
5
 74
0
 42
0.0000001
 43
0.0000001
 44
0.0000000001
 40
0.0
 40
0.0
 40
0.0
 40
0.0
 40
0.238485877
 40
1.0
 40
1.0
 40
1.0
 40
1.0
 10
320.0088042118
 20
107.2788790082
 30
0.0
 10
320.0021523731
 20
107.3306816085
 30
0.0
 10
319.9576616744
 20
107.5458303223
 30
0.0
 10
319.8469726841
 20
107.7439932938
 30
0.0
 10
319.7432916569
 20
107.8746167889
 30
0.0
  0
SPLINE
  5
2A8
100
AcDbEntity
  8
7
100
AcDbSpline
 62
7
  6
BYLAYER
 70
0
 71
3
 72
11
 73
7
 74
0
 42
0.0000001
 43
0.0000001
 44
0.0000000001
 40
0.0
 40
0.0
 40
0.0
 40
0.0
 40
0.2870676202
 40
0.5467112348
 40
0.7818711823
 40
1.0
 40
1.0
 40
1.0
 40
1.0
 10
322.5572380602
 20
104.0682112003
 30
0.0
 10
322.2061852847
 20
104.2708870295
 30
0.0
 10
321.5638761249
 20
104.7065571754
 30
0.0
 10
320.7740663296
 20
105.4888221975
 30
0.0
 10
320.2312265963
 20
106.3485990334
 30
0.0
 10
320.0480331981
 20
106.9733749868
 30
0.0
 10
320.0088042118
 20
107.2788790082
 30
0.0
  0
SPLINE
  5
2A9
100
AcDbEntity
  8
7
100
AcDbSpline
 62
7
  6
BYLAYER
 70
0
 71
3
 72
9
 73
5
 74
0
 42
0.0000001
 43
0.0000001
 44
0.0000000001
 40
0.0
 40
0.0
 40
0.0
 40
0.0
 40
0.5253111196
 40
1.0
 40
1.0
 40
1.0
 40
1.0
 10
328.118378551
 20
102.5969200006
 30
0.0
 10
327.1050958897
 20
102.64028487
 30
0.0
 10
325.1794562581
 20
102.913255764
 30
0.0
 10
323.3509328191
 20
103.6099816841
 30
0.0
 10
322.5572380602
 20
104.0682112003
 30
0.0
  0
SPLINE
  5
2AA
100
AcDbEntity
  8
7
100
AcDbSpline
 62
7
  6
BYLAYER
 70
0
 71
3
 72
9
 73
5
 74
0
 42
0.0000001
 43
0.0000001
 44
0.0000000001
 40
0.0
 40
0.0
 40
0.0
 40
0.0
 40
0.2439492689
 40
1.0
 40
1.0
 40
1.0
 40
1.0
 10
329.1502436173
 20
102.4436334076
 30
0.0
 10
329.0681467423
 20
102.4653534864
 30
0.0
 10
328.7290419291
 20
102.5444865644
 30
0.0
 10
328.3813276279
 20
102.5856667217
 30
0.0
 10
328.118378551
 20
102.5969200006
 30
0.0
  0
SPLINE
  5
2AB
100
AcDbEntity
  8
7
100
AcDbSpline
 62
7
  6
BYLAYER
 70
0
 71
3
 72
9
 73
5
 74
0
 42
0.0000001
 43
0.0000001
 44
0.0000000001
 40
0.0
 40
0.0
 40
0.0
 40
0.0
 40
0.2365442313
 40
1.0
 40
1.0
 40
1.0
 40
1.0
 10
330.0250552907
 20
102.0924773036
 30
0.0
 10
329.9605777174
 20
102.1297026057
 30
0.0
 10
329.6818197424
 20
102.2763253797
 30
0.0
 10
329.3825473342
 20
102.3821736378
 30
0.0
 10
329.1502436173
 20
102.4436334076
 30
0.0
  0
SPLINE
  5
2AC
100
AcDbEntity
  8
7
100
AcDbSpline
 62
7
  6
BYLAYER
 70
0
 71
3
 72
11
 73
7
 74
0
 42
0.0000001
 43
0.0000001
 44
0.0000000001
 40
0.0
 40
0.0
 40
0.0
 40
0.0
 40
0.2897062311
 40
0.5490596185
 40
0.7822840529
 40
1.0
 40
1.0
 40
1.0
 40
1.0
 10
351.4802186132
 20
87.2469659978
 30
0.0
 10
351.3701081125
 20
87.3105368869
 30
0.0
 10
351.1703784353
 20
87.4481449247
 30
0.0
 10
350.9315274543
 20
87.6990153983
 30
0.0
 10
350.7806134153
 20
87.9766463511
 30
0.0
 10
350.745227831
 20
88.1758554157
 30
0.0
 10
350.745227142
 20
88.2714048355
 30
0.0
  0
SPLINE
  5
2AD
100
AcDbEntity
  8
7
100
AcDbSpline
 62
7
  6
BYLAYER
 70
0
 71
3
 72
9
 73
5
 74
0
 42
0.0000001
 43
0.0000001
 44
0.0000000001
 40
0.0
 40
0.0
 40
0.0
 40
0.0
 40
0.5255628984
 40
1.0
 40
1.0
 40
1.0
 40
1.0
 10
361.4879158059
 20
82.6693518688
 30
0.0
 10
360.8435064209
 20
82.6693503198
 30
0.0
 10
359.6140853414
 20
82.8026733972
 30
0.0
 10
358.4428818425
 20
83.2271614482
 30
0.0
 10
357.9390926001
 20
83.5180177229
 30
0.0
  0
SPLINE
  5
2AE
100
AcDbEntity
  8
7
100
AcDbSpline
 62
7
  6
BYLAYER
 70
0
 71
3
 72
9
 73
5
 74
0
 42
0.0000001
 43
0.0000001
 44
0.0000000001
 40
0.0
 40
0.0
 40
0.0
 40
0.0
 40
0.4744365683
 40
1.0
 40
1.0
 40
1.0
 40
1.0
 10
365.0367267717
 20
83.5180347835
 30
0.0
 10
364.5329412532
 20
83.227175815
 30
0.0
 10
363.3617423612
 20
82.8026819436
 30
0.0
 10
362.1323244886
 20
82.6693534178
 30
0.0
 10
361.4879158059
 20
82.6693518688
 30
0.0
  0
SPLINE
  5
2AF
100
AcDbEntity
  8
7
100
AcDbSpline
 62
7
  6
BYLAYER
 70
0
 71
3
 72
11
 73
7
 74
0
 42
0.0000001
 43
0.0000001
 44
0.0000000001
 40
0.0
 40
0.0
 40
0.0
 40
0.0
 40
0.2177164324
 40
0.4509408358
 40
0.7102939719
 40
1.0
 40
1.0
 40
1.0
 40
1.0
 10
381.3864336346
 20
93.5575920068
 30
0.0
 10
381.3864343236
 20
93.4620427394
 30
0.0
 10
381.351051748
 20
93.2628336894
 30
0.0
 10
381.2001416658
 20
92.9852017669
 30
0.0
 10
380.9612941751
 20
92.7343300108
 30
0.0
 10
380.7615664826
 20
92.5967210311
 30
0.0
 10
380.6514569385
 20
92.5331496357
 30
0.0
  0
SPLINE
  5
2B0
100
AcDbEntity
  8
7
100
AcDbSpline
 62
7
  6
BYLAYER
 70
0
 71
3
 72
11
 73
7
 74
0
 42
0.0000001
 43
0.0000001
 44
0.0000000001
 40
0.0
 40
0.0
 40
0.0
 40
0.0
 40
0.2177159471
 40
0.4509403815
 40
0.7102937689
 40
1.0
 40
1.0
 40
1.0
 40
1.0
 10
381.3864336346
 20
109.8876403494
 30
0.0
 10
381.3864329456
 20
109.9831897692
 30
0.0
 10
381.3510473613
 20
110.1823988338
 30
0.0
 10
381.2001333223
 20
110.4600297866
 30
0.0
 10
380.9612823413
 20
110.7109002602
 30
0.0
 10
380.7615526641
 20
110.848508298
 30
0.0
 10
380.6514421634
 20
110.9120791871
 30
0.0
  0
SPLINE
  5
2B1
100
AcDbEntity
  8
7
100
AcDbSpline
 62
7
  6
BYLAYER
 70
0
 71
3
 72
9
 73
5
 74
0
 42
0.0000001
 43
0.0000001
 44
0.0000000001
 40
0.0
 40
0.0
 40
0.0
 40
0.0
 40
0.5307943283
 40
1.0
 40
1.0
 40
1.0
 40
1.0
 10
351.1241420294
 20
105.3669412307
 30
0.0
 10
351.0108638769
 20
105.2619383213
 30
0.0
 10
350.8217010374
 20
105.0314579237
 30
0.0
 10
350.7452261574
 20
104.7379900373
 30
0.0
 10
350.745227142
 20
104.6014531781
 30
0.0
  0
SPLINE
  5
2B2
100
AcDbEntity
  8
7
100
AcDbSpline
 62
7
  6
BYLAYER
 70
0
 71
3
 72
11
 73
7
 74
0
 42
0.0000001
 43
0.0000001
 44
0.0000000001
 40
0.0
 40
0.0
 40
0.0
 40
0.0
 40
0.2877341345
 40
0.5461833169
 40
0.7802234672
 40
1.0
 40
1.0
 40
1.0
 40
1.0
 10
286.8358471029
 20
144.8474852489
 30
0.0
 10
286.6332499373
 20
144.721659514
 30
0.0
 10
286.2662121047
 20
144.4516794517
 30
0.0
 10
285.8304637033
 20
143.9663622523
 30
0.0
 10
285.5561503022
 20
143.4350819451
 30
0.0
 10
285.4924711255
 20
143.0565606796
 30
0.0
 10
285.4924724392
 20
142.8743973113
 30
0.0
  0
SPLINE
  5
2B3
100
AcDbEntity
  8
7
100
AcDbSpline
 62
7
  6
BYLAYER
 70
0
 71
3
 72
9
 73
5
 74
0
 42
0.0000001
 43
0.0000001
 44
0.0000000001
 40
0.0
 40
0.0
 40
0.0
 40
0.0
 40
0.2523587665
 40
1.0
 40
1.0
 40
1.0
 40
1.0
 10
328.2316533932
 20
119.8092197561
 30
0.0
 10
328.0925475299
 20
119.8151729889
 30
0.0
 10
327.5417730122
 20
119.8480276632
 30
0.0
 10
326.993091324
 20
119.9176439088
 30
0.0
 10
326.5872685349
 20
119.9915300528
 30
0.0
  0
SPLINE
  5
2B4
100
AcDbEntity
  8
7
100
AcDbSpline
 62
7
  6
BYLAYER
 70
0
 71
3
 72
9
 73
5
 74
0
 42
0.0000001
 43
0.0000001
 44
0.0000000001
 40
0.0
 40
0.0
 40
0.0
 40
0.0
 40
0.2656584038
 40
1.0
 40
1.0
 40
1.0
 40
1.0
 10
326.5872685349
 20
119.9915300528
 30
0.0
 10
326.3145638982
 20
120.0411800345
 30
0.0
 10
325.2960035019
 20
120.2652070268
 30
0.0
 10
324.3043083078
 20
120.6407207748
 30
0.0
 10
323.6407464984
 20
121.0238196972
 30
0.0
  0
SPLINE
  5
2B5
100
AcDbEntity
  8
7
100
AcDbSpline
 62
7
  6
BYLAYER
 70
0
 71
3
 72
9
 73
5
 74
0
 42
0.0000001
 43
0.0000001
 44
0.0000000001
 40
0.0
 40
0.0
 40
0.0
 40
0.0
 40
0.2770581612
 40
1.0
 40
1.0
 40
1.0
 40
1.0
 10
323.6407464984
 20
121.0238196972
 30
0.0
 10
323.4420837283
 20
121.1385151063
 30
0.0
 10
322.7479700371
 20
121.5862886202
 30
0.0
 10
322.1396579052
 20
122.1996496623
 30
0.0
 10
321.8527182901
 20
122.7249620726
 30
0.0
  0
SPLINE
  5
2B6
100
AcDbEntity
  8
7
100
AcDbSpline
 62
7
  6
BYLAYER
 70
0
 71
3
 72
9
 73
5
 74
0
 42
0.0000001
 43
0.0000001
 44
0.0000000001
 40
0.0
 40
0.0
 40
0.0
 40
0.0
 40
0.2586910649
 40
1.0
 40
1.0
 40
1.0
 40
1.0
 10
321.8527182901
 20
122.7249620726
 30
0.0
 10
321.8112273814
 20
122.8009212226
 30
0.0
 10
321.6631055367
 20
123.1009694901
 30
0.0
 10
321.5685183212
 20
123.4283275188
 30
0.0
 10
321.5369293867
 20
123.6743330229
 30
0.0
  0
SPLINE
  5
2B7
100
AcDbEntity
  8
7
100
AcDbSpline
 62
7
  6
BYLAYER
 70
0
 71
3
 72
9
 73
5
 74
0
 42
0.0000001
 43
0.0000001
 44
0.0000000001
 40
0.0
 40
0.0
 40
0.0
 40
0.0
 40
0.4746888804
 40
1.0
 40
1.0
 40
1.0
 40
1.0
 10
322.5572380602
 20
120.3982595428
 30
0.0
 10
323.3509328191
 20
119.9400300267
 30
0.0
 10
325.1794562581
 20
119.2433041066
 30
0.0
 10
327.1050958897
 20
118.9703332126
 30
0.0
 10
328.118378551
 20
118.9269683432
 30
0.0
  0
SPLINE
  5
2B8
100
AcDbEntity
  8
7
100
AcDbSpline
 62
7
  6
BYLAYER
 70
0
 71
3
 72
11
 73
7
 74
0
 42
0.0000001
 43
0.0000001
 44
0.0000000001
 40
0.0
 40
0.0
 40
0.0
 40
0.0
 40
0.2181288177
 40
0.4532887652
 40
0.7129323798
 40
1.0
 40
1.0
 40
1.0
 40
1.0
 10
320.0088042118
 20
123.6089273508
 30
0.0
 10
320.0480331981
 20
123.3034233294
 30
0.0
 10
320.2312265963
 20
122.678647376
 30
0.0
 10
320.7740663296
 20
121.8188705401
 30
0.0
 10
321.5638761249
 20
121.036605518
 30
0.0
 10
322.2061852847
 20
120.6009353721
 30
0.0
 10
322.5572380602
 20
120.3982595428
 30
0.0
  0
SPLINE
  5
2B9
100
AcDbEntity
  8
7
100
AcDbSpline
 62
7
  6
BYLAYER
 70
0
 71
3
 72
9
 73
5
 74
0
 42
0.0000001
 43
0.0000001
 44
0.0000000001
 40
0.0
 40
0.0
 40
0.0
 40
0.0
 40
0.2587775642
 40
1.0
 40
1.0
 40
1.0
 40
1.0
 10
319.7432916569
 20
124.2046651315
 30
0.0
 10
319.7612324209
 20
124.182062295
 30
0.0
 10
319.8281311575
 20
124.0928421033
 30
0.0
 10
319.8848412881
 20
123.9957830121
 30
0.0
 10
319.9189631734
 20
123.9204972878
 30
0.0
  0
SPLINE
  5
2BA
100
AcDbEntity
  8
7
100
AcDbSpline
 62
7
  6
BYLAYER
 70
0
 71
3
 72
9
 73
5
 74
0
 42
0.0000001
 43
0.0000001
 44
0.0000000001
 40
0.0
 40
0.0
 40
0.0
 40
0.0
 40
0.2559881211
 40
1.0
 40
1.0
 40
1.0
 40
1.0
 10
319.9189631734
 20
123.9204972878
 30
0.0
 10
319.9304089384
 20
123.8952436214
 30
0.0
 10
319.9717166688
 20
123.7951005628
 30
0.0
 10
319.9985407836
 20
123.6888559677
 30
0.0
 10
320.0088042118
 20
123.6089273508
 30
0.0
  0
SPLINE
  5
2BB
100
AcDbEntity
  8
7
100
AcDbSpline
 62
7
  6
BYLAYER
 70
0
 71
3
 72
9
 73
5
 74
0
 42
0.0000001
 43
0.0000001
 44
0.0000000001
 40
0.0
 40
0.0
 40
0.0
 40
0.0
 40
0.2693949548
 40
1.0
 40
1.0
 40
1.0
 40
1.0
 10
319.1350554638
 20
124.7097277421
 30
0.0
 10
319.1967301757
 20
124.6741206361
 30
0.0
 10
319.4204023535
 20
124.5335689325
 30
0.0
 10
319.6232178011
 20
124.3559412825
 30
0.0
 10
319.7432916569
 20
124.2046651315
 30
0.0
  0
SPLINE
  5
2BC
100
AcDbEntity
  8
7
100
AcDbSpline
 62
7
  6
BYLAYER
 70
0
 71
3
 72
9
 73
5
 74
0
 42
0.0000001
 43
0.0000001
 44
0.0000000001
 40
0.0
 40
0.0
 40
0.0
 40
0.0
 40
0.2675841917
 40
1.0
 40
1.0
 40
1.0
 40
1.0
 10
297.3621068042
 20
137.2281279191
 30
0.0
 10
297.3784329243
 20
137.2269571169
 30
0.0
 10
297.4391025277
 20
137.2196898455
 30
0.0
 10
297.4991569998
 20
137.2009369556
 30
0.0
 10
297.537956597
 20
137.1785365045
 30
0.0
  0
SPLINE
  5
2BD
100
AcDbEntity
  8
7
100
AcDbSpline
 62
7
  6
BYLAYER
 70
0
 71
3
 72
9
 73
5
 74
0
 42
0.0000001
 43
0.0000001
 44
0.0000000001
 40
0.0
 40
0.0
 40
0.0
 40
0.0
 40
0.2291142508
 40
1.0
 40
1.0
 40
1.0
 40
1.0
 10
297.1120985467
 20
137.1785354808
 30
0.0
 10
297.1266715398
 20
137.1869491521
 30
0.0
 10
297.1935062772
 20
137.2179960824
 30
0.0
 10
297.2684090913
 20
137.2294563196
 30
0.0
 10
297.3250272047
 20
137.2294564557
 30
0.0
  0
SPLINE
  5
2BE
100
AcDbEntity
  8
7
100
AcDbSpline
 62
7
  6
BYLAYER
 70
0
 71
3
 72
9
 73
5
 74
0
 42
0.0000001
 43
0.0000001
 44
0.0000000001
 40
0.0
 40
0.0
 40
0.0
 40
0.0
 40
0.5255663101
 40
1.0
 40
1.0
 40
1.0
 40
1.0
 10
295.1957409714
 20
136.6722384339
 30
0.0
 10
295.517947678
 20
136.6722392084
 30
0.0
 10
296.1326627267
 20
136.7388777139
 30
0.0
 10
296.7182547538
 20
136.9511510183
 30
0.0
 10
296.9701464543
 20
137.0965798913
 30
0.0
  0
SPLINE
  5
2BF
100
AcDbEntity
  8
7
100
AcDbSpline
 62
7
  6
BYLAYER
 70
0
 71
3
 72
9
 73
5
 74
0
 42
0.0000001
 43
0.0000001
 44
0.0000000001
 40
0.0
 40
0.0
 40
0.0
 40
0.0
 40
0.4744342232
 40
1.0
 40
1.0
 40
1.0
 40
1.0
 10
293.4213293685
 20
137.096571361
 30
0.0
 10
293.673222931
 20
136.9511438348
 30
0.0
 10
294.2588172617
 20
136.7388734407
 30
0.0
 10
294.8735339138
 20
136.6722376594
 30
0.0
 10
295.1957409714
 20
136.6722384339
 30
0.0
  0
SPLINE
  5
2C0
100
AcDbEntity
  8
7
100
AcDbSpline
 62
7
  6
BYLAYER
 70
0
 71
3
 72
11
 73
7
 74
0
 42
0.0000001
 43
0.0000001
 44
0.0000000001
 40
0.0
 40
0.0
 40
0.0
 40
0.0
 40
0.2231442278
 40
0.4587193062
 40
0.7159292794
 40
1.0
 40
1.0
 40
1.0
 40
1.0
 10
285.4924724392
 20
142.8743973113
 30
0.0
 10
285.4924736462
 20
142.7070243945
 30
0.0
 10
285.5457203923
 20
142.3610531645
 30
0.0
 10
285.7770298709
 20
141.8697258897
 30
0.0
 10
286.1476418245
 20
141.4140923682
 30
0.0
 10
286.4630391961
 20
141.1544589456
 30
0.0
 10
286.6375184529
 20
141.0321618227
 30
0.0
  0
SPLINE
  5
2C1
100
AcDbEntity
  8
7
100
AcDbSpline
 62
7
  6
BYLAYER
 70
0
 71
3
 72
9
 73
5
 74
0
 42
0.0000001
 43
0.0000001
 44
0.0000000001
 40
0.0
 40
0.0
 40
0.0
 40
0.0
 40
0.2456502863
 40
1.0
 40
1.0
 40
1.0
 40
1.0
 10
286.6375184529
 20
141.0321618227
 30
0.0
 10
286.6621790616
 20
141.0148765503
 30
0.0
 10
286.7633451438
 20
140.9456239396
 30
0.0
 10
286.8675084132
 20
140.8807688388
 30
0.0
 10
286.9474258476
 20
140.8342338741
 30
0.0
  0
SPLINE
  5
2C2
100
AcDbEntity
  8
7
100
AcDbSpline
 62
7
  6
BYLAYER
 70
0
 71
3
 72
11
 73
7
 74
0
 42
0.0000001
 43
0.0000001
 44
0.0000000001
 40
0.0
 40
0.0
 40
0.0
 40
0.0
 40
0.2897060281
 40
0.5490591642
 40
0.7822835676
 40
1.0
 40
1.0
 40
1.0
 40
1.0
 10
380.6514569385
 20
108.8631979783
 30
0.0
 10
380.7615664826
 20
108.9267693737
 30
0.0
 10
380.9612941751
 20
109.0643783534
 30
0.0
 10
381.2001416658
 20
109.3152501095
 30
0.0
 10
381.351051748
 20
109.592882032
 30
0.0
 10
381.3864343236
 20
109.792091082
 30
0.0
 10
381.3864336346
 20
109.8876403494
 30
0.0
  0
SPLINE
  5
2C3
100
AcDbEntity
  8
7
100
AcDbSpline
 62
7
  6
BYLAYER
 70
0
 71
3
 72
9
 73
5
 74
0
 42
0.0000001
 43
0.0000001
 44
0.0000000001
 40
0.0
 40
0.0
 40
0.0
 40
0.0
 40
0.2541102066
 40
1.0
 40
1.0
 40
1.0
 40
1.0
 10
361.4879158059
 20
98.9994002114
 30
0.0
 10
361.6518727366
 20
98.9994006055
 30
0.0
 10
362.2968861913
 20
99.0177321091
 30
0.0
 10
362.9404531054
 20
99.1080361416
 30
0.0
 10
363.4085175734
 20
99.2199717507
 30
0.0
  0
SPLINE
  5
2C4
100
AcDbEntity
  8
7
100
AcDbSpline
 62
7
  6
BYLAYER
 70
0
 71
3
 72
9
 73
5
 74
0
 42
0.0000001
 43
0.0000001
 44
0.0000000001
 40
0.0
 40
0.0
 40
0.0
 40
0.0
 40
0.2618164835
 40
1.0
 40
1.0
 40
1.0
 40
1.0
 10
363.7924130747
 20
99.3229395534
 30
0.0
 10
363.9054984549
 20
99.3566866617
 30
0.0
 10
364.3339478575
 20
99.4965597447
 30
0.0
 10
364.7485691677
 20
99.6817162489
 30
0.0
 10
365.0367267717
 20
99.8480831261
 30
0.0
  0
SPLINE
  5
2C5
100
AcDbEntity
  8
7
100
AcDbSpline
 62
7
  6
BYLAYER
 70
0
 71
3
 72
9
 73
5
 74
0
 42
0.0000001
 43
0.0000001
 44
0.0000000001
 40
0.0
 40
0.0
 40
0.0
 40
0.0
 40
0.4744371016
 40
1.0
 40
1.0
 40
1.0
 40
1.0
 10
357.9390926001
 20
99.8480660655
 30
0.0
 10
358.4428818425
 20
99.5572097908
 30
0.0
 10
359.6140853415
 20
99.1327217398
 30
0.0
 10
360.8435064209
 20
98.9993986624
 30
0.0
 10
361.4879158059
 20
98.9994002114
 30
0.0
  0
SPLINE
  5
2C6
100
AcDbEntity
  8
7
100
AcDbSpline
 62
7
  6
BYLAYER
 70
0
 71
3
 72
9
 73
5
 74
0
 42
0.0000001
 43
0.0000001
 44
0.0000000001
 40
0.0
 40
0.0
 40
0.0
 40
0.0
 40
0.469205699
 40
1.0
 40
1.0
 40
1.0
 40
1.0
 10
350.745227142
 20
104.6014531781
 30
0.0
 10
350.7452281266
 20
104.4649178349
 30
0.0
 10
350.8217052982
 20
104.1714544583
 30
0.0
 10
351.0108665124
 20
103.9409773816
 30
0.0
 10
351.1241435272
 20
103.8359757925
 30
0.0
  0
SPLINE
  5
2C7
100
AcDbEntity
  8
7
100
AcDbSpline
 62
7
  6
BYLAYER
 70
0
 71
3
 72
9
 73
5
 74
0
 42
0.0000001
 43
0.0000001
 44
0.0000000001
 40
0.0
 40
0.0
 40
0.0
 40
0.0
 40
0.2387423731
 40
1.0
 40
1.0
 40
1.0
 40
1.0
 10
351.1241435272
 20
103.8359757925
 30
0.0
 10
351.149870976
 20
103.8121278563
 30
0.0
 10
351.2608556515
 20
103.7157289605
 30
0.0
 10
351.3833466223
 20
103.6329421452
 30
0.0
 10
351.4802186132
 20
103.5770143404
 30
0.0
  0
SPLINE
  5
2C8
100
AcDbEntity
  8
7
100
AcDbSpline
 62
7
  6
BYLAYER
 70
0
 71
3
 72
9
 73
5
 74
0
 42
0.0000001
 43
0.0000001
 44
0.0000000001
 40
0.0
 40
0.0
 40
0.0
 40
0.0
 40
0.2630734034
 40
1.0
 40
1.0
 40
1.0
 40
1.0
 10
329.1502436173
 20
118.7736817502
 30
0.0
 10
329.2302821394
 20
118.7525062425
 30
0.0
 10
329.5320384194
 20
118.6633347886
 30
0.0
 10
329.8242059579
 20
118.5384834392
 30
0.0
 10
330.0250552907
 20
118.4225256461
 30
0.0
  0
SPLINE
  5
2C9
100
AcDbEntity
  8
7
100
AcDbSpline
 62
7
  6
BYLAYER
 70
0
 71
3
 72
9
 73
5
 74
0
 42
0.0000001
 43
0.0000001
 44
0.0000000001
 40
0.0
 40
0.0
 40
0.0
 40
0.0
 40
0.2536140252
 40
1.0
 40
1.0
 40
1.0
 40
1.0
 10
328.658041975
 20
118.8751019314
 30
0.0
 10
328.7000607384
 20
118.8687542486
 30
0.0
 10
328.8654039673
 20
118.8415636122
 30
0.0
 10
329.0293391258
 20
118.8056690223
 30
0.0
 10
329.1502436173
 20
118.7736817502
 30
0.0
  0
SPLINE
  5
2CA
100
AcDbEntity
  8
6
100
AcDbSpline
 62
7
  6
BYLAYER
 70
0
 71
3
 72
9
 73
5
 74
0
 42
0.0000001
 43
0.0000001
 44
0.0000000001
 40
0.0
 40
0.0
 40
0.0
 40
0.0
 40
0.4517369589
 40
1.0
 40
1.0
 40
1.0
 40
1.0
 10
327.1924696427
 20
85.0334802116
 30
0.0
 10
326.7994111151
 20
85.4874728184
 30
0.0
 10
325.623822471
 20
86.2146437609
 30
0.0
 10
324.3133654575
 20
86.5119793107
 30
0.0
 10
323.5882952001
 20
86.5857903724
 30
0.0
  0
SPLINE
  5
2CB
100
AcDbEntity
  8
6
100
AcDbSpline
 62
7
  6
BYLAYER
 70
0
 71
3
 72
11
 73
7
 74
0
 42
0.0000001
 43
0.0000001
 44
0.0000000001
 40
0.0
 40
0.0
 40
0.0
 40
0.0
 40
0.2898001512
 40
0.5490497799
 40
0.7822288614
 40
1.0
 40
1.0
 40
1.0
 40
1.0
 10
297.1409619882
 20
76.0872999588
 30
0.0
 10
296.7898071954
 20
76.2900346865
 30
0.0
 10
296.1528359337
 20
76.7284921253
 30
0.0
 10
295.391942311
 20
77.5286551357
 30
0.0
 10
294.9102711492
 20
78.4133245245
 30
0.0
 10
294.7977948832
 20
79.0485376278
 30
0.0
 10
294.797792686
 20
79.3532339601
 30
0.0
  0
SPLINE
  5
2CC
100
AcDbEntity
  8
6
100
AcDbSpline
 62
7
  6
BYLAYER
 70
0
 71
3
 72
9
 73
5
 74
0
 42
0.0000001
 43
0.0000001
 44
0.0000000001
 40
0.0
 40
0.0
 40
0.0
 40
0.0
 40
0.5255628984
 40
1.0
 40
1.0
 40
1.0
 40
1.0
 10
302.7978259931
 20
74.7345170661
 30
0.0
 10
301.7706302036
 20
74.734514597
 30
0.0
 10
299.8109192099
 20
74.9470330781
 30
0.0
 10
297.9440076928
 20
75.6236717938
 30
0.0
 10
297.1409619882
 20
76.0872999588
 30
0.0
  0
SPLINE
  5
2CD
100
AcDbEntity
  8
6
100
AcDbSpline
 62
7
  6
BYLAYER
 70
0
 71
3
 72
9
 73
5
 74
0
 42
0.0000001
 43
0.0000001
 44
0.0000000001
 40
0.0
 40
0.0
 40
0.0
 40
0.0
 40
0.2637079311
 40
1.0
 40
1.0
 40
1.0
 40
1.0
 10
302.4699272183
 20
90.0189703746
 30
0.0
 10
302.4023722908
 20
89.9724888529
 30
0.0
 10
302.151692878
 20
89.7886057658
 30
0.0
 10
301.923303817
 20
89.5726100253
 30
0.0
 10
301.7783598839
 20
89.3953786755
 30
0.0
  0
SPLINE
  5
2CE
100
AcDbEntity
  8
6
100
AcDbSpline
 62
7
  6
BYLAYER
 70
0
 71
3
 72
11
 73
7
 74
0
 42
0.0000001
 43
0.0000001
 44
0.0000000001
 40
0.0
 40
0.0
 40
0.0
 40
0.0
 40
0.2453434937
 40
0.5110181894
 40
0.7706936429
 40
1.0
 40
1.0
 40
1.0
 40
1.0
 10
309.5140849164
 20
90.3747940499
 30
0.0
 10
308.9758142858
 20
90.6355556915
 30
0.0
 10
307.765023262
 20
90.9970548798
 30
0.0
 10
305.8755847988
 20
91.1097162041
 30
0.0
 10
304.0450607077
 20
90.8187317947
 30
0.0
 10
302.9304563479
 20
90.3358398549
 30
0.0
 10
302.4699272183
 20
90.0189703746
 30
0.0
  0
SPLINE
  5
2CF
100
AcDbEntity
  8
6
100
AcDbSpline
 62
7
  6
BYLAYER
 70
0
 71
3
 72
9
 73
5
 74
0
 42
0.0000001
 43
0.0000001
 44
0.0000000001
 40
0.0
 40
0.0
 40
0.0
 40
0.0
 40
0.2588804299
 40
1.0
 40
1.0
 40
1.0
 40
1.0
 10
316.1253333335
 20
87.9530273294
 30
0.0
 10
315.5381856764
 20
88.1110969181
 30
0.0
 10
313.2834867126
 20
88.7690741938
 30
0.0
 10
311.0828822783
 20
89.6204716644
 30
0.0
 10
309.5140849164
 20
90.3747940499
 30
0.0
  0
SPLINE
  5
2D0
100
AcDbEntity
  8
6
100
AcDbSpline
 62
7
  6
BYLAYER
 70
0
 71
3
 72
9
 73
5
 74
0
 42
0.0000001
 43
0.0000001
 44
0.0000000001
 40
0.0
 40
0.0
 40
0.0
 40
0.0
 40
0.2547153844
 40
1.0
 40
1.0
 40
1.0
 40
1.0
 10
323.5882952001
 20
86.5857903724
 30
0.0
 10
322.9471866812
 20
86.6524618033
 30
0.0
 10
320.435542976
 20
86.9618857381
 30
0.0
 10
317.9464604432
 20
87.4627506334
 30
0.0
 10
316.1253333335
 20
87.9530273294
 30
0.0
  0
SPLINE
  5
2D1
100
AcDbEntity
  8
6
100
AcDbSpline
 62
7
  6
BYLAYER
 70
0
 71
3
 72
9
 73
5
 74
0
 42
0.0000001
 43
0.0000001
 44
0.0000000001
 40
0.0
 40
0.0
 40
0.0
 40
0.0
 40
0.511973868
 40
1.0
 40
1.0
 40
1.0
 40
1.0
 10
404.7978259922
 20
74.7347622439
 30
0.0
 10
405.4439923696
 20
74.7347637971
 30
0.0
 10
406.7146598833
 20
74.9337208631
 30
0.0
 10
407.8562553997
 20
75.5409527249
 30
0.0
 10
408.3333598981
 20
75.9305108479
 30
0.0
  0
SPLINE
  5
2D2
100
AcDbEntity
  8
6
100
AcDbSpline
 62
7
  6
BYLAYER
 70
0
 71
3
 72
9
 73
5
 74
0
 42
0.0000001
 43
0.0000001
 44
0.0000000001
 40
0.0
 40
0.0
 40
0.0
 40
0.0
 40
0.5155793843
 40
1.0
 40
1.0
 40
1.0
 40
1.0
 10
408.3333598981
 20
75.9305108479
 30
0.0
 10
408.7752488866
 20
76.2913153373
 30
0.0
 10
409.5163399914
 20
77.1615019603
 30
0.0
 10
409.7978259922
 20
78.281284384
 30
0.0
 10
409.7978259922
 20
78.8172863481
 30
0.0
  0
SPLINE
  5
2D3
100
AcDbEntity
  8
6
100
AcDbSpline
 62
7
  6
BYLAYER
 70
0
 71
3
 72
9
 73
5
 74
0
 42
0.0000001
 43
0.0000001
 44
0.0000000001
 40
0.0
 40
0.0
 40
0.0
 40
0.0
 40
0.2590400614
 40
1.0
 40
1.0
 40
1.0
 40
1.0
 10
311.8927388808
 20
85.1620433908
 30
0.0
 10
311.1097360399
 20
85.3728403438
 30
0.0
 10
308.1050685736
 20
86.2506801504
 30
0.0
 10
305.1735388976
 20
87.3901356196
 30
0.0
 10
303.0862407131
 20
88.4015894233
 30
0.0
  0
SPLINE
  5
2D4
100
AcDbEntity
  8
6
100
AcDbSpline
 62
7
  6
BYLAYER
 70
0
 71
3
 72
9
 73
5
 74
0
 42
0.0000001
 43
0.0000001
 44
0.0000000001
 40
0.0
 40
0.0
 40
0.0
 40
0.0
 40
0.2547499752
 40
1.0
 40
1.0
 40
1.0
 40
1.0
 10
321.8518544249
 20
83.3495845201
 30
0.0
 10
320.9961678721
 20
83.4366236661
 30
0.0
 10
317.6442964149
 20
83.8427977683
 30
0.0
 10
314.3223888193
 20
84.5079425662
 30
0.0
 10
311.8927388808
 20
85.1620433908
 30
0.0
  0
SPLINE
  5
2D5
100
AcDbEntity
  8
6
100
AcDbSpline
 62
7
  6
BYLAYER
 70
0
 71
3
 72
11
 73
7
 74
0
 42
0.0000001
 43
0.0000001
 44
0.0000000001
 40
0.0
 40
0.0
 40
0.0
 40
0.0
 40
0.4222532032
 40
0.5589255854
 40
0.703154022
 40
1.0
 40
1.0
 40
1.0
 40
1.0
 10
327.6441171923
 20
85.6911809635
 30
0.0
 10
327.3739493398
 20
84.8065571278
 30
0.0
 10
326.1728102456
 20
83.9859335966
 30
0.0
 10
324.7253523283
 20
83.529224167
 30
0.0
 10
323.4740422657
 20
83.2939106965
 30
0.0
 10
322.4987619621
 20
83.2837303058
 30
0.0
 10
321.8518544249
 20
83.3495845201
 30
0.0
  0
SPLINE
  5
2D6
100
AcDbEntity
  8
6
100
AcDbSpline
 62
7
  6
BYLAYER
 70
0
 71
3
 72
11
 73
7
 74
0
 42
0.0000001
 43
0.0000001
 44
0.0000000001
 40
0.0
 40
0.0
 40
0.0
 40
0.0
 40
0.2944618757
 40
0.5556957675
 40
0.7869486445
 40
1.0
 40
1.0
 40
1.0
 40
1.0
 10
303.0862407131
 20
88.4015894233
 30
0.0
 10
302.8225607717
 20
88.5293274243
 30
0.0
 10
302.3427690281
 20
88.8117173665
 30
0.0
 10
301.7616288011
 20
89.3475811601
 30
0.0
 10
301.3888209571
 20
89.9554655954
 30
0.0
 10
301.3001939039
 20
90.4009575794
 30
0.0
 10
301.3002462824
 20
90.612945181
 30
0.0
  0
SPLINE
  5
2D7
100
AcDbEntity
  8
6
100
AcDbSpline
 62
7
  6
BYLAYER
 70
0
 71
3
 72
9
 73
5
 74
0
 42
0.0000001
 43
0.0000001
 44
0.0000000001
 40
0.0
 40
0.0
 40
0.0
 40
0.0
 40
0.5155793843
 40
1.0
 40
1.0
 40
1.0
 40
1.0
 10
405.918729996
 20
135.6359178
 30
0.0
 10
406.1838633891
 20
135.8524004937
 30
0.0
 10
406.628518052
 20
136.3745124675
 30
0.0
 10
406.7974096524
 20
137.0463819217
 30
0.0
 10
406.7974096524
 20
137.3679831001
 30
0.0
  0
SPLINE
  5
2D8
100
AcDbEntity
  8
6
100
AcDbSpline
 62
7
  6
BYLAYER
 70
0
 71
3
 72
9
 73
5
 74
0
 42
0.0000001
 43
0.0000001
 44
0.0000000001
 40
0.0
 40
0.0
 40
0.0
 40
0.0
 40
0.511973868
 40
1.0
 40
1.0
 40
1.0
 40
1.0
 10
403.7974096525
 20
134.9184686376
 30
0.0
 10
404.1851094789
 20
134.9184695696
 30
0.0
 10
404.9475099871
 20
135.0378438091
 30
0.0
 10
405.632467297
 20
135.4021829263
 30
0.0
 10
405.918729996
 20
135.6359178
 30
0.0
  0
SPLINE
  5
2D9
100
AcDbEntity
  8
6
100
AcDbSpline
 62
7
  6
BYLAYER
 70
0
 71
3
 72
9
 73
5
 74
0
 42
0.0000001
 43
0.0000001
 44
0.0000000001
 40
0.0
 40
0.0
 40
0.0
 40
0.0
 40
0.4744371016
 40
1.0
 40
1.0
 40
1.0
 40
1.0
 10
297.1409619882
 20
78.5368072102
 30
0.0
 10
297.9440076928
 20
78.0731790452
 30
0.0
 10
299.8109192099
 20
77.3965403294
 30
0.0
 10
301.7706302036
 20
77.1840218484
 30
0.0
 10
302.7978259931
 20
77.1840243175
 30
0.0
  0
SPLINE
  5
2DA
100
AcDbEntity
  8
6
100
AcDbSpline
 62
7
  6
BYLAYER
 70
0
 71
3
 72
11
 73
7
 74
0
 42
0.0000001
 43
0.0000001
 44
0.0000000001
 40
0.0
 40
0.0
 40
0.0
 40
0.0
 40
0.2177711386
 40
0.4509502201
 40
0.7101998488
 40
1.0
 40
1.0
 40
1.0
 40
1.0
 10
294.797792686
 20
81.8027412115
 30
0.0
 10
294.7977948832
 20
81.4980448792
 30
0.0
 10
294.9102711492
 20
80.8628317758
 30
0.0
 10
295.391942311
 20
79.9781623871
 30
0.0
 10
296.1528359337
 20
79.1779993767
 30
0.0
 10
296.7898071954
 20
78.7395419379
 30
0.0
 10
297.1409619882
 20
78.5368072102
 30
0.0
  0
SPLINE
  5
2DB
100
AcDbEntity
  8
6
100
AcDbSpline
 62
7
  6
BYLAYER
 70
0
 71
3
 72
12
 73
8
 74
0
 42
0.0000001
 43
0.0000001
 44
0.0000000001
 40
0.0
 40
0.0
 40
0.0
 40
0.0
 40
0.3078681697
 40
0.5807222566
 40
0.8074248999
 40
0.9063385555
 40
1.0
 40
1.0
 40
1.0
 40
1.0
 10
323.5882952001
 20
89.0352976238
 30
0.0
 10
324.1412593404
 20
88.979006706
 30
0.0
 10
325.1786194476
 20
88.7697130683
 30
0.0
 10
326.5168328052
 20
88.1586081392
 30
0.0
 10
327.3350844931
 20
87.4019683225
 30
0.0
 10
327.6655584218
 20
86.7112184802
 30
0.0
 10
327.7200010354
 20
86.3615367931
 30
0.0
 10
327.7199468762
 20
86.1924414254
 30
0.0
  0
SPLINE
  5
2DC
100
AcDbEntity
  8
6
100
AcDbSpline
 62
7
  6
BYLAYER
 70
0
 71
3
 72
9
 73
5
 74
0
 42
0.0000001
 43
0.0000001
 44
0.0000000001
 40
0.0
 40
0.0
 40
0.0
 40
0.0
 40
0.2448195009
 40
1.0
 40
1.0
 40
1.0
 40
1.0
 10
316.1253333335
 20
90.4025345807
 30
0.0
 10
316.7235670898
 20
90.2414804358
 30
0.0
 10
319.1810040454
 20
89.6358301132
 30
0.0
 10
321.6875060602
 20
89.2329682646
 30
0.0
 10
323.5882952001
 20
89.0352976238
 30
0.0
  0
SPLINE
  5
2DD
100
AcDbEntity
  8
6
100
AcDbSpline
 62
7
  6
BYLAYER
 70
0
 71
3
 72
9
 73
5
 74
0
 42
0.0000001
 43
0.0000001
 44
0.0000000001
 40
0.0
 40
0.0
 40
0.0
 40
0.0
 40
0.24086164
 40
1.0
 40
1.0
 40
1.0
 40
1.0
 10
309.5140849164
 20
92.8243013013
 30
0.0
 10
310.0239589802
 20
92.5791393515
 30
0.0
 10
312.1671698405
 20
91.6163976734
 30
0.0
 10
314.403521211
 20
90.8660740855
 30
0.0
 10
316.1253333335
 20
90.4025345807
 30
0.0
  0
SPLINE
  5
2DE
100
AcDbEntity
  8
6
100
AcDbSpline
 62
7
  6
BYLAYER
 70
0
 71
3
 72
11
 73
7
 74
0
 42
0.0000001
 43
0.0000001
 44
0.0000000001
 40
0.0
 40
0.0
 40
0.0
 40
0.0
 40
0.2293062555
 40
0.4889816731
 40
0.7546564
 40
1.0
 40
1.0
 40
1.0
 40
1.0
 10
302.4699272183
 20
92.468477626
 30
0.0
 10
302.930456144
 20
92.785346966
 30
0.0
 10
304.0450601347
 20
93.2682388567
 30
0.0
 10
305.8755839434
 20
93.5592234147
 30
0.0
 10
307.765022664
 20
93.4465622614
 30
0.0
 10
308.9758140523
 20
93.085063056
 30
0.0
 10
309.5140849164
 20
92.8243013013
 30
0.0
  0
SPLINE
  5
2DF
100
AcDbEntity
  8
6
100
AcDbSpline
 62
7
  6
BYLAYER
 70
0
 71
3
 72
10
 73
6
 74
0
 42
0.0000001
 43
0.0000001
 44
0.0000000001
 40
0.0
 40
0.0
 40
0.0
 40
0.0
 40
0.2232659802
 40
0.459201113
 40
1.0
 40
1.0
 40
1.0
 40
1.0
 10
301.3002462824
 20
90.612945181
 30
0.0
 10
301.3002880362
 20
90.7819324149
 30
0.0
 10
301.3547141003
 20
91.1315697532
 30
0.0
 10
301.6844205288
 20
91.82177283
 30
0.0
 10
302.1327145636
 20
92.2364566924
 30
0.0
 10
302.4699272183
 20
92.468477626
 30
0.0
  0
SPLINE
  5
2E0
100
AcDbEntity
  8
6
100
AcDbSpline
 62
7
  6
BYLAYER
 70
0
 71
3
 72
9
 73
5
 74
0
 42
0.0000001
 43
0.0000001
 44
0.0000000001
 40
0.0
 40
0.0
 40
0.0
 40
0.0
 40
0.488026132
 40
1.0
 40
1.0
 40
1.0
 40
1.0
 10
405.9191463358
 20
77.901716254
 30
0.0
 10
405.6328836367
 20
77.6679813802
 30
0.0
 10
404.9479263269
 20
77.3036422631
 30
0.0
 10
404.1855258186
 20
77.1842680235
 30
0.0
 10
403.7978259922
 20
77.1842670916
 30
0.0
  0
SPLINE
  5
2E1
100
AcDbEntity
  8
6
100
AcDbSpline
 62
7
  6
BYLAYER
 70
0
 71
3
 72
9
 73
5
 74
0
 42
0.0000001
 43
0.0000001
 44
0.0000000001
 40
0.0
 40
0.0
 40
0.0
 40
0.0
 40
0.4844206157
 40
1.0
 40
1.0
 40
1.0
 40
1.0
 10
406.7978259922
 20
79.6337815541
 30
0.0
 10
406.7978259922
 20
79.3121803756
 30
0.0
 10
406.6289343917
 20
78.6403109215
 30
0.0
 10
406.1842797288
 20
78.1181989476
 30
0.0
 10
405.9191463358
 20
77.901716254
 30
0.0
  0
SPLINE
  5
2E2
100
AcDbEntity
  8
7
100
AcDbSpline
 62
7
  6
BYLAYER
 70
0
 71
3
 72
11
 73
7
 74
0
 42
0.0000001
 43
0.0000001
 44
0.0000000001
 40
0.0
 40
0.0
 40
0.0
 40
0.0
 40
0.2898001512
 40
0.5490497799
 40
0.7822288614
 40
1.0
 40
1.0
 40
1.0
 40
1.0
 10
286.9624553816
 20
863.5615572966
 30
0.0
 10
286.7421590697
 20
863.6887425542
 30
0.0
 10
286.3425563228
 20
863.9638080203
 30
0.0
 10
285.8652111112
 20
864.4657888099
 30
0.0
 10
285.5630355957
 20
865.0207845201
 30
0.0
 10
285.4924738176
 20
865.4192842896
 30
0.0
 10
285.4924724392
 20
865.610434972
 30
0.0
  0
SPLINE
  5
2E3
100
AcDbEntity
  8
7
100
AcDbSpline
 62
7
  6
BYLAYER
 70
0
 71
3
 72
9
 73
5
 74
0
 42
0.0000001
 43
0.0000001
 44
0.0000000001
 40
0.0
 40
0.0
 40
0.0
 40
0.0
 40
0.2674082746
 40
1.0
 40
1.0
 40
1.0
 40
1.0
 10
294.7944301505
 20
859.4269691988
 30
0.0
 10
294.6668552135
 20
859.4388941752
 30
0.0
 10
294.1927374656
 20
859.5050152152
 30
0.0
 10
293.7253301416
 20
859.657098064
 30
0.0
 10
293.4213293685
 20
859.8326090216
 30
0.0
  0
SPLINE
  5
2E4
100
AcDbEntity
  8
7
100
AcDbSpline
 62
7
  6
BYLAYER
 70
0
 71
3
 72
9
 73
5
 74
0
 42
0.0000001
 43
0.0000001
 44
0.0000000001
 40
0.0
 40
0.0
 40
0.0
 40
0.0
 40
0.231885901
 40
1.0
 40
1.0
 40
1.0
 40
1.0
 10
319.7432916569
 20
846.9407027922
 30
0.0
 10
319.7051689883
 20
846.9887319867
 30
0.0
 10
319.5285936334
 20
847.1862054792
 30
0.0
 10
319.31096386
 20
847.3442069405
 30
0.0
 10
319.1350554638
 20
847.4457654028
 30
0.0
  0
SPLINE
  5
2E5
100
AcDbEntity
  8
7
100
AcDbSpline
 62
7
  6
BYLAYER
 70
0
 71
3
 72
9
 73
5
 74
0
 42
0.0000001
 43
0.0000001
 44
0.0000000001
 40
0.0
 40
0.0
 40
0.0
 40
0.0
 40
0.238485877
 40
1.0
 40
1.0
 40
1.0
 40
1.0
 10
320.0088042118
 20
846.3449650115
 30
0.0
 10
320.0021523731
 20
846.3967676118
 30
0.0
 10
319.9576616744
 20
846.6119163256
 30
0.0
 10
319.8469726841
 20
846.8100792971
 30
0.0
 10
319.7432916569
 20
846.9407027922
 30
0.0
  0
SPLINE
  5
2E6
100
AcDbEntity
  8
7
100
AcDbSpline
 62
7
  6
BYLAYER
 70
0
 71
3
 72
9
 73
5
 74
0
 42
0.0000001
 43
0.0000001
 44
0.0000000001
 40
0.0
 40
0.0
 40
0.0
 40
0.0
 40
0.5212300808
 40
1.0
 40
1.0
 40
1.0
 40
1.0
 10
320.9018038554
 20
844.4639870554
 30
0.0
 10
320.6632876076
 20
844.7411846195
 30
0.0
 10
320.2627669227
 20
845.3283028114
 30
0.0
 10
320.0515849507
 20
846.0118009659
 30
0.0
 10
320.0088042118
 20
846.3449650115
 30
0.0
  0
SPLINE
  5
2E7
100
AcDbEntity
  8
7
100
AcDbSpline
 62
7
  6
BYLAYER
 70
0
 71
3
 72
9
 73
5
 74
0
 42
0.0000001
 43
0.0000001
 44
0.0000000001
 40
0.0
 40
0.0
 40
0.0
 40
0.0
 40
0.2614484968
 40
1.0
 40
1.0
 40
1.0
 40
1.0
 10
351.4802186132
 20
826.3130520011
 30
0.0
 10
351.4469509525
 20
826.3322586594
 30
0.0
 10
351.3215684462
 20
826.408833047
 30
0.0
 10
351.2037260219
 20
826.4982448388
 30
0.0
 10
351.1241435272
 20
826.5720134532
 30
0.0
  0
SPLINE
  5
2E8
100
AcDbEntity
  8
7
100
AcDbSpline
 62
7
  6
BYLAYER
 70
0
 71
3
 72
9
 73
5
 74
0
 42
0.0000001
 43
0.0000001
 44
0.0000000001
 40
0.0
 40
0.0
 40
0.0
 40
0.0
 40
0.530794301
 40
1.0
 40
1.0
 40
1.0
 40
1.0
 10
351.1241435272
 20
826.5720134532
 30
0.0
 10
351.0108665124
 20
826.6770150423
 30
0.0
 10
350.8217052982
 20
826.907492119
 30
0.0
 10
350.7452281266
 20
827.2009554956
 30
0.0
 10
350.745227142
 20
827.3374908388
 30
0.0
  0
SPLINE
  5
2E9
100
AcDbEntity
  8
7
100
AcDbSpline
 62
7
  6
BYLAYER
 70
0
 71
3
 72
9
 73
5
 74
0
 42
0.0000001
 43
0.0000001
 44
0.0000000001
 40
0.0
 40
0.0
 40
0.0
 40
0.0
 40
0.5255628984
 40
1.0
 40
1.0
 40
1.0
 40
1.0
 10
361.4879158059
 20
821.7354378721
 30
0.0
 10
360.8435064209
 20
821.7354363231
 30
0.0
 10
359.6140853414
 20
821.8687594005
 30
0.0
 10
358.4428818425
 20
822.2932474515
 30
0.0
 10
357.9390926001
 20
822.5841037262
 30
0.0
  0
SPLINE
  5
2EA
100
AcDbEntity
  8
7
100
AcDbSpline
 62
7
  6
BYLAYER
 70
0
 71
3
 72
9
 73
5
 74
0
 42
0.0000001
 43
0.0000001
 44
0.0000000001
 40
0.0
 40
0.0
 40
0.0
 40
0.0
 40
0.4744365683
 40
1.0
 40
1.0
 40
1.0
 40
1.0
 10
365.0367267717
 20
822.5841207868
 30
0.0
 10
364.5329412532
 20
822.2932618183
 30
0.0
 10
363.3617423612
 20
821.8687679468
 30
0.0
 10
362.1323244886
 20
821.7354394211
 30
0.0
 10
361.4879158059
 20
821.7354378721
 30
0.0
  0
SPLINE
  5
2EB
100
AcDbEntity
  8
7
100
AcDbSpline
 62
7
  6
BYLAYER
 70
0
 71
3
 72
11
 73
7
 74
0
 42
0.0000001
 43
0.0000001
 44
0.0000000001
 40
0.0
 40
0.0
 40
0.0
 40
0.0
 40
0.2177164324
 40
0.4509408358
 40
0.7102939719
 40
1.0
 40
1.0
 40
1.0
 40
1.0
 10
381.3864336346
 20
832.6236780101
 30
0.0
 10
381.3864343236
 20
832.5281287427
 30
0.0
 10
381.351051748
 20
832.3289196927
 30
0.0
 10
381.2001416658
 20
832.0512877702
 30
0.0
 10
380.9612941751
 20
831.8004160141
 30
0.0
 10
380.7615664826
 20
831.6628070344
 30
0.0
 10
380.6514569385
 20
831.599235639
 30
0.0
  0
SPLINE
  5
2EC
100
AcDbEntity
  8
7
100
AcDbSpline
 62
7
  6
BYLAYER
 70
0
 71
3
 72
9
 73
5
 74
0
 42
0.0000001
 43
0.0000001
 44
0.0000000001
 40
0.0
 40
0.0
 40
0.0
 40
0.0
 40
0.259974611
 40
1.0
 40
1.0
 40
1.0
 40
1.0
 10
321.909719492
 20
884.465360155
 30
0.0
 10
321.940615513
 20
884.4644838826
 30
0.0
 10
322.0591364345
 20
884.4547598989
 30
0.0
 10
322.1757216849
 20
884.4162448198
 30
0.0
 10
322.2519161745
 20
884.3722539492
 30
0.0
  0
SPLINE
  5
2ED
100
AcDbEntity
  8
7
100
AcDbSpline
 62
7
  6
BYLAYER
 70
0
 71
3
 72
9
 73
5
 74
0
 42
0.0000001
 43
0.0000001
 44
0.0000000001
 40
0.0
 40
0.0
 40
0.0
 40
0.0
 40
0.2773091446
 40
1.0
 40
1.0
 40
1.0
 40
1.0
 10
321.2559009924
 20
884.2742874959
 30
0.0
 10
321.3108182969
 20
884.3059206835
 30
0.0
 10
321.513748822
 20
884.4098378782
 30
0.0
 10
321.7446216583
 20
884.4700426567
 30
0.0
 10
321.909719492
 20
884.465360155
 30
0.0
  0
SPLINE
  5
2EE
100
AcDbEntity
  8
7
100
AcDbSpline
 62
7
  6
BYLAYER
 70
0
 71
3
 72
9
 73
5
 74
0
 42
0.0000001
 43
0.0000001
 44
0.0000000001
 40
0.0
 40
0.0
 40
0.0
 40
0.0
 40
0.2567062993
 40
1.0
 40
1.0
 40
1.0
 40
1.0
 10
294.7888718159
 20
884.3753368297
 30
0.0
 10
294.7753002562
 20
884.4070215233
 30
0.0
 10
294.7281421418
 20
884.5327864844
 30
0.0
 10
294.7059832303
 20
884.6681634402
 30
0.0
 10
294.7059968672
 20
884.7679683041
 30
0.0
  0
SPLINE
  5
2EF
100
AcDbEntity
  8
7
100
AcDbSpline
 62
7
  6
BYLAYER
 70
0
 71
3
 72
9
 73
5
 74
0
 42
0.0000001
 43
0.0000001
 44
0.0000000001
 40
0.0
 40
0.0
 40
0.0
 40
0.0
 40
0.5185157881
 40
1.0
 40
1.0
 40
1.0
 40
1.0
 10
309.505525782
 20
880.3893951196
 30
0.0
 10
309.3853063249
 20
880.5480846577
 30
0.0
 10
309.1895056136
 20
880.8853876476
 30
0.0
 10
309.1113735982
 20
881.2700445475
 30
0.0
 10
309.1072689224
 20
881.4548662211
 30
0.0
  0
SPLINE
  5
2F0
100
AcDbEntity
  8
7
100
AcDbSpline
 62
7
  6
BYLAYER
 70
0
 71
3
 72
11
 73
7
 74
0
 42
0.0000001
 43
0.0000001
 44
0.0000000001
 40
0.0
 40
0.0
 40
0.0
 40
0.0
 40
0.3051456214
 40
0.5727593642
 40
0.8002407674
 40
1.0
 40
1.0
 40
1.0
 40
1.0
 10
358.7697276442
 20
851.9372199923
 30
0.0
 10
358.3735191893
 20
852.0392551343
 30
0.0
 10
357.6435139291
 20
852.2964523412
 30
0.0
 10
356.7267707022
 20
852.8750408744
 30
0.0
 10
356.1084860271
 20
853.598736988
 30
0.0
 10
355.9515059685
 20
854.1768432008
 30
0.0
 10
355.9514584609
 20
854.4446782834
 30
0.0
  0
SPLINE
  5
2F1
100
AcDbEntity
  8
7
100
AcDbSpline
 62
7
  6
BYLAYER
 70
0
 71
3
 72
11
 73
7
 74
0
 42
0.0000001
 43
0.0000001
 44
0.0000000001
 40
0.0
 40
0.0
 40
0.0
 40
0.0
 40
0.2897999482
 40
0.5490493256
 40
0.7822283757
 40
1.0
 40
1.0
 40
1.0
 40
1.0
 10
286.9624258314
 20
883.9893680568
 30
0.0
 10
286.7421314334
 20
883.862181786
 30
0.0
 10
286.3425326537
 20
883.5871144355
 30
0.0
 10
285.8651944266
 20
883.0851310835
 30
0.0
 10
285.5630268198
 20
882.5301334303
 30
0.0
 10
285.4924710607
 20
882.1316336923
 30
0.0
 10
285.4924724392
 20
881.9404833146
 30
0.0
  0
SPLINE
  5
2F2
100
AcDbEntity
  8
7
100
AcDbSpline
 62
7
  6
BYLAYER
 70
0
 71
3
 72
9
 73
5
 74
0
 42
0.0000001
 43
0.0000001
 44
0.0000000001
 40
0.0
 40
0.0
 40
0.0
 40
0.0
 40
0.259974611
 40
1.0
 40
1.0
 40
1.0
 40
1.0
 10
364.5371224316
 20
859.8549743543
 30
0.0
 10
364.5680184526
 20
859.8540980819
 30
0.0
 10
364.6865393741
 20
859.8443740982
 30
0.0
 10
364.8031246245
 20
859.8058590191
 30
0.0
 10
364.8793191141
 20
859.7618681485
 30
0.0
  0
SPLINE
  5
2F3
100
AcDbEntity
  8
7
100
AcDbSpline
 62
7
  6
BYLAYER
 70
0
 71
3
 72
9
 73
5
 74
0
 42
0.0000001
 43
0.0000001
 44
0.0000000001
 40
0.0
 40
0.0
 40
0.0
 40
0.0
 40
0.2773091446
 40
1.0
 40
1.0
 40
1.0
 40
1.0
 10
363.883303932
 20
859.6639016952
 30
0.0
 10
363.9382212365
 20
859.6955348827
 30
0.0
 10
364.1411517616
 20
859.7994520775
 30
0.0
 10
364.3720245979
 20
859.859656856
 30
0.0
 10
364.5371224316
 20
859.8549743543
 30
0.0
  0
SPLINE
  5
2F4
100
AcDbEntity
  8
7
100
AcDbSpline
 62
7
  6
BYLAYER
 70
0
 71
3
 72
11
 73
7
 74
0
 42
0.0000001
 43
0.0000001
 44
0.0000000001
 40
0.0
 40
0.0
 40
0.0
 40
0.0
 40
0.2384291463
 40
0.5025153907
 40
0.7652354843
 40
1.0
 40
1.0
 40
1.0
 40
1.0
 10
357.3443071419
 20
856.3861194376
 30
0.0
 10
357.8342743786
 20
856.669000465
 30
0.0
 10
358.9762215817
 20
857.0772497697
 30
0.0
 10
360.7969505654
 20
857.2592590191
 30
0.0
 10
362.6046260022
 20
857.0387390834
 30
0.0
 10
363.7252053765
 20
856.6041169432
 30
0.0
 10
364.1978267622
 20
856.3092360767
 30
0.0
  0
SPLINE
  5
2F5
100
AcDbEntity
  8
7
100
AcDbSpline
 62
7
  6
BYLAYER
 70
0
 71
3
 72
11
 73
7
 74
0
 42
0.0000001
 43
0.0000001
 44
0.0000000001
 40
0.0
 40
0.0
 40
0.0
 40
0.0
 40
0.2177711386
 40
0.4509502201
 40
0.7101998488
 40
1.0
 40
1.0
 40
1.0
 40
1.0
 10
285.4924724392
 20
881.9404833146
 30
0.0
 10
285.4924738176
 20
881.7493326322
 30
0.0
 10
285.5630355957
 20
881.3508328627
 30
0.0
 10
285.8652111112
 20
880.7958371525
 30
0.0
 10
286.3425563228
 20
880.2938563628
 30
0.0
 10
286.7421590697
 20
880.0187908968
 30
0.0
 10
286.9624553816
 20
879.8916056391
 30
0.0
  0
SPLINE
  5
2F6
100
AcDbEntity
  8
7
100
AcDbSpline
 62
7
  6
BYLAYER
 70
0
 71
3
 72
9
 73
5
 74
0
 42
0.0000001
 43
0.0000001
 44
0.0000000001
 40
0.0
 40
0.0
 40
0.0
 40
0.0
 40
0.2306448989
 40
1.0
 40
1.0
 40
1.0
 40
1.0
 10
293.4213293685
 20
876.1626573642
 30
0.0
 10
293.5170694667
 20
876.1073830432
 30
0.0
 10
293.9489333779
 20
875.8970168637
 30
0.0
 10
294.4271535223
 20
875.7913587758
 30
0.0
 10
294.7943120025
 20
875.7570285869
 30
0.0
  0
SPLINE
  5
2F7
100
AcDbEntity
  8
7
100
AcDbSpline
 62
7
  6
BYLAYER
 70
0
 71
3
 72
9
 73
5
 74
0
 42
0.0000001
 43
0.0000001
 44
0.0000000001
 40
0.0
 40
0.0
 40
0.0
 40
0.0
 40
0.2308081482
 40
1.0
 40
1.0
 40
1.0
 40
1.0
 10
366.1723022533
 20
858.8282746434
 30
0.0
 10
366.1298668902
 20
858.8233235538
 30
0.0
 10
365.9473700331
 20
858.7900772632
 30
0.0
 10
365.7744537929
 20
858.7143659671
 30
0.0
 10
365.6510782448
 20
858.6432998089
 30
0.0
  0
SPLINE
  5
2F8
100
AcDbEntity
  8
7
100
AcDbSpline
 62
7
  6
BYLAYER
 70
0
 71
3
 72
11
 73
7
 74
0
 42
0.0000001
 43
0.0000001
 44
0.0000000001
 40
0.0
 40
0.0
 40
0.0
 40
0.0
 40
0.217779442
 40
0.4509236993
 40
0.7102591805
 40
1.0
 40
1.0
 40
1.0
 40
1.0
 10
355.9514584609
 20
854.4446782834
 30
0.0
 10
355.9514263326
 20
854.6258090173
 30
0.0
 10
356.0184090467
 20
855.0033611441
 30
0.0
 10
356.3045872553
 20
855.5293621901
 30
0.0
 10
356.7570052596
 20
856.0049240325
 30
0.0
 10
357.1356101272
 20
856.2656288792
 30
0.0
 10
357.3443071419
 20
856.3861194376
 30
0.0
  0
SPLINE
  5
2F9
100
AcDbEntity
  8
7
100
AcDbSpline
 62
7
  6
BYLAYER
 70
0
 71
3
 72
9
 73
5
 74
0
 42
0.0000001
 43
0.0000001
 44
0.0000000001
 40
0.0
 40
0.0
 40
0.0
 40
0.0
 40
0.2459413699
 40
1.0
 40
1.0
 40
1.0
 40
1.0
 10
294.7059968672
 20
884.7679683041
 30
0.0
 10
294.7060015754
 20
884.8024271185
 30
0.0
 10
294.7136657521
 20
884.9425012293
 30
0.0
 10
294.7528133259
 20
885.0802854373
 30
0.0
 10
294.7959287215
 20
885.176738583
 30
0.0
  0
SPLINE
  5
2FA
100
AcDbEntity
  8
6
100
AcDbSpline
 62
7
  6
BYLAYER
 70
0
 71
3
 72
12
 73
8
 74
0
 42
0.0000001
 43
0.0000001
 44
0.0000000001
 40
0.0
 40
0.0
 40
0.0
 40
0.0
 40
0.0936615295
 40
0.1925752422
 40
0.4192778203
 40
0.692131727
 40
1.0
 40
1.0
 40
1.0
 40
1.0
 10
327.7196602312
 20
886.9607075875
 30
0.0
 10
327.7197144103
 20
886.7916133451
 30
0.0
 10
327.665272421
 20
886.4419340822
 30
0.0
 10
327.3348029712
 20
885.7511884769
 30
0.0
 10
326.5165608742
 20
884.9945514172
 30
0.0
 10
325.1783605061
 20
884.383445433
 30
0.0
 10
324.1410093569
 20
884.174148785
 30
0.0
 10
323.5880494887
 20
884.1178555611
 30
0.0
  0
SPLINE
  5
2FB
100
AcDbEntity
  8
6
100
AcDbSpline
 62
7
  6
BYLAYER
 70
0
 71
3
 72
11
 73
7
 74
0
 42
0.0000001
 43
0.0000001
 44
0.0000000001
 40
0.0
 40
0.0
 40
0.0
 40
0.0
 40
0.2898001512
 40
0.5490497799
 40
0.7822288614
 40
1.0
 40
1.0
 40
1.0
 40
1.0
 10
297.1409619882
 20
837.0968536663
 30
0.0
 10
296.7898071954
 20
837.299588394
 30
0.0
 10
296.1528359337
 20
837.7380458328
 30
0.0
 10
295.391942311
 20
838.5382088433
 30
0.0
 10
294.9102711492
 20
839.422878232
 30
0.0
 10
294.7977948832
 20
840.0580913354
 30
0.0
 10
294.797792686
 20
840.3627876677
 30
0.0
  0
SPLINE
  5
2FC
100
AcDbEntity
  8
6
100
AcDbSpline
 62
7
  6
BYLAYER
 70
0
 71
3
 72
9
 73
5
 74
0
 42
0.0000001
 43
0.0000001
 44
0.0000000001
 40
0.0
 40
0.0
 40
0.0
 40
0.0
 40
0.5255628984
 40
1.0
 40
1.0
 40
1.0
 40
1.0
 10
302.7978259931
 20
835.7440707736
 30
0.0
 10
301.7706302036
 20
835.7440683046
 30
0.0
 10
299.8109192099
 20
835.9565867856
 30
0.0
 10
297.9440076928
 20
836.6332255013
 30
0.0
 10
297.1409619882
 20
837.0968536663
 30
0.0
  0
SPLINE
  5
2FD
100
AcDbEntity
  8
6
100
AcDbSpline
 62
7
  6
BYLAYER
 70
0
 71
3
 72
11
 73
7
 74
0
 42
0.0000001
 43
0.0000001
 44
0.0000000001
 40
0.0
 40
0.0
 40
0.0
 40
0.0
 40
0.2293070026
 40
0.4889827224
 40
0.7546571795
 40
1.0
 40
1.0
 40
1.0
 40
1.0
 10
359.4392884972
 20
879.4556394586
 30
0.0
 10
358.9787553801
 20
879.772506324
 30
0.0
 10
357.8641459321
 20
880.2553925625
 30
0.0
 10
356.0336181164
 20
880.5463687813
 30
0.0
 10
354.1441809877
 20
880.4336989914
 30
0.0
 10
352.9333933115
 20
880.0721938741
 30
0.0
 10
352.3951256674
 20
879.8114292697
 30
0.0
  0
SPLINE
  5
2FE
100
AcDbEntity
  8
6
100
AcDbSpline
 62
7
  6
BYLAYER
 70
0
 71
3
 72
9
 73
5
 74
0
 42
0.0000001
 43
0.0000001
 44
0.0000000001
 40
0.0
 40
0.0
 40
0.0
 40
0.0
 40
0.2356692222
 40
1.0
 40
1.0
 40
1.0
 40
1.0
 10
365.1499903204
 20
874.3348156457
 30
0.0
 10
364.7721256665
 20
874.8058984309
 30
0.0
 10
363.0785065824
 20
876.7323080696
 30
0.0
 10
361.065553968
 20
878.3641301371
 30
0.0
 10
359.4392884972
 20
879.4556394586
 30
0.0
  0
SPLINE
  5
2FF
100
AcDbEntity
  8
6
100
AcDbSpline
 62
7
  6
BYLAYER
 70
0
 71
3
 72
9
 73
5
 74
0
 42
0.0000001
 43
0.0000001
 44
0.0000000001
 40
0.0
 40
0.0
 40
0.0
 40
0.0
 40
0.2402011136
 40
1.0
 40
1.0
 40
1.0
 40
1.0
 10
367.9168829007
 20
869.4754532761
 30
0.0
 10
367.7671143128
 20
869.8986843531
 30
0.0
 10
367.0610208033
 20
871.631290528
 30
0.0
 10
366.0385540682
 20
873.2270457583
 30
0.0
 10
365.1499903204
 20
874.3348156457
 30
0.0
  0
SPLINE
  5
300
100
AcDbEntity
  8
6
100
AcDbSpline
 62
7
  6
BYLAYER
 70
0
 71
3
 72
9
 73
5
 74
0
 42
0.0000001
 43
0.0000001
 44
0.0000000001
 40
0.0
 40
0.0
 40
0.0
 40
0.0
 40
0.4517369589
 40
1.0
 40
1.0
 40
1.0
 40
1.0
 10
327.1924696427
 20
846.0430339191
 30
0.0
 10
326.7994111151
 20
846.4970265259
 30
0.0
 10
325.623822471
 20
847.2241974684
 30
0.0
 10
324.3133654575
 20
847.5215330182
 30
0.0
 10
323.5882952001
 20
847.5953440799
 30
0.0
  0
SPLINE
  5
301
100
AcDbEntity
  8
6
100
AcDbSpline
 62
7
  6
BYLAYER
 70
0
 71
3
 72
9
 73
5
 74
0
 42
0.0000001
 43
0.0000001
 44
0.0000000001
 40
0.0
 40
0.0
 40
0.0
 40
0.0
 40
0.2711339726
 40
1.0
 40
1.0
 40
1.0
 40
1.0
 10
352.3951256674
 20
879.8114292697
 30
0.0
 10
352.2677829088
 20
879.7497378705
 30
0.0
 10
351.8080507487
 20
879.5038687397
 30
0.0
 10
351.385052746
 20
879.177792371
 30
0.0
 10
351.1361657515
 20
878.8901395564
 30
0.0
  0
SPLINE
  5
302
100
AcDbEntity
  8
6
100
AcDbSpline
 62
7
  6
BYLAYER
 70
0
 71
3
 72
9
 73
5
 74
0
 42
0.0000001
 43
0.0000001
 44
0.0000000001
 40
0.0
 40
0.0
 40
0.0
 40
0.0
 40
0.4758821788
 40
1.0
 40
1.0
 40
1.0
 40
1.0
 10
333.3176155538
 20
867.0813658972
 30
0.0
 10
333.3176076069
 20
866.8689980896
 30
0.0
 10
333.2186534076
 20
866.419217825
 30
0.0
 10
332.9611251981
 20
866.0435080318
 30
0.0
 10
332.8046441233
 20
865.8696694664
 30
0.0
  0
SPLINE
  5
303
100
AcDbEntity
  8
6
100
AcDbSpline
 62
7
  6
BYLAYER
 70
0
 71
3
 72
9
 73
5
 74
0
 42
0.0000001
 43
0.0000001
 44
0.0000000001
 40
0.0
 40
0.0
 40
0.0
 40
0.0
 40
0.4514563759
 40
1.0
 40
1.0
 40
1.0
 40
1.0
 10
332.8046441233
 20
865.8696694664
 30
0.0
 10
332.365602898
 20
865.3819280776
 30
0.0
 10
331.0215834699
 20
864.6613070463
 30
0.0
 10
329.5650257954
 20
864.4544616424
 30
0.0
 10
328.7676610473
 20
864.4544597258
 30
0.0
  0
SPLINE
  5
304
100
AcDbEntity
  8
6
100
AcDbSpline
 62
7
  6
BYLAYER
 70
0
 71
3
 72
9
 73
5
 74
0
 42
0.0000001
 43
0.0000001
 44
0.0000000001
 40
0.0
 40
0.0
 40
0.0
 40
0.0
 40
0.2637079311
 40
1.0
 40
1.0
 40
1.0
 40
1.0
 10
351.7790311012
 20
853.51928981
 30
0.0
 10
351.7114761737
 20
853.4728082882
 30
0.0
 10
351.460796761
 20
853.2889252012
 30
0.0
 10
351.2324076999
 20
853.0729294607
 30
0.0
 10
351.0874637668
 20
852.8956981109
 30
0.0
  0
SPLINE
  5
305
100
AcDbEntity
  8
6
100
AcDbSpline
 62
7
  6
BYLAYER
 70
0
 71
3
 72
9
 73
5
 74
0
 42
0.0000001
 43
0.0000001
 44
0.0000000001
 40
0.0
 40
0.0
 40
0.0
 40
0.0
 40
0.235593978
 40
1.0
 40
1.0
 40
1.0
 40
1.0
 10
356.0459620929
 20
857.3167909671
 30
0.0
 10
355.7634774585
 20
856.9670389996
 30
0.0
 10
354.4972222969
 20
855.5368632056
 30
0.0
 10
352.9934224116
 20
854.3274282085
 30
0.0
 10
351.7790311012
 20
853.51928981
 30
0.0
  0
SPLINE
  5
306
100
AcDbEntity
  8
6
100
AcDbSpline
 62
7
  6
BYLAYER
 70
0
 71
3
 72
9
 73
5
 74
0
 42
0.0000001
 43
0.0000001
 44
0.0000000001
 40
0.0
 40
0.0
 40
0.0
 40
0.0
 40
0.4835197584
 40
1.0
 40
1.0
 40
1.0
 40
1.0
 10
358.3418718022
 20
861.6449227412
 30
0.0
 10
358.1306321284
 20
860.8797107952
 30
0.0
 10
357.5045467799
 20
859.3454831907
 30
0.0
 10
356.5787504826
 20
857.9764508739
 30
0.0
 10
356.0459620929
 20
857.3167909671
 30
0.0
  0
SPLINE
  5
307
100
AcDbEntity
  8
6
100
AcDbSpline
 62
7
  6
BYLAYER
 70
0
 71
3
 72
11
 73
7
 74
0
 42
0.0000001
 43
0.0000001
 44
0.0000000001
 40
0.0
 40
0.0
 40
0.0
 40
0.0
 40
0.2973598109
 40
0.4414480741
 40
0.5778649065
 40
1.0
 40
1.0
 40
1.0
 40
1.0
 10
364.0360753731
 20
863.9959221997
 30
0.0
 10
363.3967635756
 20
864.0534624347
 30
0.0
 10
362.4352209204
 20
864.0341945503
 30
0.0
 10
361.2039781792
 20
863.7919608896
 30
0.0
 10
359.7816539331
 20
863.3310251104
 30
0.0
 10
358.6080330458
 20
862.5164275412
 30
0.0
 10
358.3418718022
 20
861.6449227412
 30
0.0
  0
SPLINE
  5
308
100
AcDbEntity
  8
6
100
AcDbSpline
 62
7
  6
BYLAYER
 70
0
 71
3
 72
9
 73
5
 74
0
 42
0.0000001
 43
0.0000001
 44
0.0000000001
 40
0.0
 40
0.0
 40
0.0
 40
0.0
 40
0.4453075901
 40
1.0
 40
1.0
 40
1.0
 40
1.0
 10
367.8876077513
 20
862.2451171456
 30
0.0
 10
367.5147188347
 20
862.766460502
 30
0.0
 10
366.2524188772
 20
863.6078254229
 30
0.0
 10
364.831280571
 20
863.9243510287
 30
0.0
 10
364.0360753731
 20
863.9959221997
 30
0.0
  0
SPLINE
  5
309
100
AcDbEntity
  8
6
100
AcDbSpline
 62
7
  6
BYLAYER
 70
0
 71
3
 72
9
 73
5
 74
0
 42
0.0000001
 43
0.0000001
 44
0.0000000001
 40
0.0
 40
0.0
 40
0.0
 40
0.0
 40
0.2711339726
 40
1.0
 40
1.0
 40
1.0
 40
1.0
 10
303.0859858627
 20
882.3019579484
 30
0.0
 10
302.9586431042
 20
882.2402665493
 30
0.0
 10
302.4989109441
 20
881.9943974184
 30
0.0
 10
302.0759129414
 20
881.6683210497
 30
0.0
 10
301.8270259469
 20
881.3806682352
 30
0.0
  0
SPLINE
  5
30A
100
AcDbEntity
  8
6
100
AcDbSpline
 62
7
  6
BYLAYER
 70
0
 71
3
 72
9
 73
5
 74
0
 42
0.0000001
 43
0.0000001
 44
0.0000000001
 40
0.0
 40
0.0
 40
0.0
 40
0.0
 40
0.2574635527
 40
1.0
 40
1.0
 40
1.0
 40
1.0
 10
309.8461907603
 20
884.9488887644
 30
0.0
 10
309.2508725002
 20
884.7639699904
 30
0.0
 10
306.9513257289
 20
884.0060164657
 30
0.0
 10
304.7038820473
 20
883.085964246
 30
0.0
 10
303.0859858627
 20
882.3019579484
 30
0.0
  0
SPLINE
  5
30B
100
AcDbEntity
  8
6
100
AcDbSpline
 62
7
  6
BYLAYER
 70
0
 71
3
 72
11
 73
7
 74
0
 42
0.0000001
 43
0.0000001
 44
0.0000000001
 40
0.0
 40
0.0
 40
0.0
 40
0.0
 40
0.2067732246
 40
0.4505188447
 40
0.7206982332
 40
1.0
 40
1.0
 40
1.0
 40
1.0
 10
327.2423037928
 20
885.742280299
 30
0.0
 10
326.9889035928
 20
886.0527003488
 30
0.0
 10
326.2863736252
 20
886.6054679846
 30
0.0
 10
324.9842494587
 20
887.1394715381
 30
0.0
 10
323.4620486463
 20
887.4159693339
 30
0.0
 10
322.3900143447
 20
887.4088729659
 30
0.0
 10
321.8515267106
 20
887.3540530654
 30
0.0
  0
SPLINE
  5
30C
100
AcDbEntity
  8
6
100
AcDbSpline
 62
7
  6
BYLAYER
 70
0
 71
3
 72
13
 73
9
 74
0
 42
0.0000001
 43
0.0000001
 44
0.0000000001
 40
0.0
 40
0.0
 40
0.0
 40
0.0
 40
0.0932244608
 40
0.1918166316
 40
0.2998839153
 40
0.4195014954
 40
0.6924911818
 40
1.0
 40
1.0
 40
1.0
 40
1.0
 10
368.2657273576
 20
870.569727259
 30
0.0
 10
368.265720248
 20
870.3981798091
 30
0.0
 10
368.2096615136
 20
870.0431255265
 30
0.0
 10
367.9657949609
 20
869.5408845256
 30
0.0
 10
367.5763102726
 20
869.0773467043
 30
0.0
 10
366.8507906888
 20
868.5016810755
 30
0.0
 10
365.6572472395
 20
867.9690116441
 30
0.0
 10
364.5996517255
 20
867.7681992793
 30
0.0
 10
364.0360662
 20
867.7174718909
 30
0.0
  0
SPLINE
  5
30D
100
AcDbEntity
  8
6
100
AcDbSpline
 62
7
  6
BYLAYER
 70
0
 71
3
 72
9
 73
5
 74
0
 42
0.0000001
 43
0.0000001
 44
0.0000000001
 40
0.0
 40
0.0
 40
0.0
 40
0.0
 40
0.2637079311
 40
1.0
 40
1.0
 40
1.0
 40
1.0
 10
302.4699272183
 20
851.0285240822
 30
0.0
 10
302.4023722908
 20
850.9820425604
 30
0.0
 10
302.151692878
 20
850.7981594734
 30
0.0
 10
301.923303817
 20
850.5821637328
 30
0.0
 10
301.7783598839
 20
850.404932383
 30
0.0
  0
SPLINE
  5
30E
100
AcDbEntity
  8
6
100
AcDbSpline
 62
7
  6
BYLAYER
 70
0
 71
3
 72
11
 73
7
 74
0
 42
0.0000001
 43
0.0000001
 44
0.0000000001
 40
0.0
 40
0.0
 40
0.0
 40
0.0
 40
0.2453434937
 40
0.5110181894
 40
0.7706936429
 40
1.0
 40
1.0
 40
1.0
 40
1.0
 10
309.5140849164
 20
851.3843477574
 30
0.0
 10
308.9758142858
 20
851.645109399
 30
0.0
 10
307.765023262
 20
852.0066085874
 30
0.0
 10
305.8755847988
 20
852.1192699116
 30
0.0
 10
304.0450607077
 20
851.8282855023
 30
0.0
 10
302.9304563479
 20
851.3453935624
 30
0.0
 10
302.4699272183
 20
851.0285240822
 30
0.0
  0
SPLINE
  5
30F
100
AcDbEntity
  8
6
100
AcDbSpline
 62
7
  6
BYLAYER
 70
0
 71
3
 72
9
 73
5
 74
0
 42
0.0000001
 43
0.0000001
 44
0.0000000001
 40
0.0
 40
0.0
 40
0.0
 40
0.0
 40
0.2588804299
 40
1.0
 40
1.0
 40
1.0
 40
1.0
 10
316.1253333335
 20
848.9625810369
 30
0.0
 10
315.5381856764
 20
849.1206506257
 30
0.0
 10
313.2834867126
 20
849.7786279013
 30
0.0
 10
311.0828822783
 20
850.6300253719
 30
0.0
 10
309.5140849164
 20
851.3843477574
 30
0.0
  0
SPLINE
  5
310
100
AcDbEntity
  8
6
100
AcDbSpline
 62
7
  6
BYLAYER
 70
0
 71
3
 72
9
 73
5
 74
0
 42
0.0000001
 43
0.0000001
 44
0.0000000001
 40
0.0
 40
0.0
 40
0.0
 40
0.0
 40
0.2547153844
 40
1.0
 40
1.0
 40
1.0
 40
1.0
 10
323.5882952001
 20
847.5953440799
 30
0.0
 10
322.9471866812
 20
847.6620155108
 30
0.0
 10
320.435542976
 20
847.9714394456
 30
0.0
 10
317.9464604432
 20
848.4723043409
 30
0.0
 10
316.1253333335
 20
848.9625810369
 30
0.0
  0
SPLINE
  5
311
100
AcDbEntity
  8
6
100
AcDbSpline
 62
7
  6
BYLAYER
 70
0
 71
3
 72
9
 73
5
 74
0
 42
0.0000001
 43
0.0000001
 44
0.0000000001
 40
0.0
 40
0.0
 40
0.0
 40
0.0
 40
0.5155790719
 40
1.0
 40
1.0
 40
1.0
 40
1.0
 10
405.9191463358
 20
835.0268745834
 30
0.0
 10
406.1842797285
 20
834.8103931646
 30
0.0
 10
406.6289347702
 20
834.2882827677
 30
0.0
 10
406.7978259922
 20
833.6164143304
 30
0.0
 10
406.7978259922
 20
833.2948135075
 30
0.0
  0
SPLINE
  5
312
100
AcDbEntity
  8
6
100
AcDbSpline
 62
7
  6
BYLAYER
 70
0
 71
3
 72
9
 73
5
 74
0
 42
0.0000001
 43
0.0000001
 44
0.0000000001
 40
0.0
 40
0.0
 40
0.0
 40
0.0
 40
0.511974183
 40
1.0
 40
1.0
 40
1.0
 40
1.0
 10
403.7978259922
 20
835.7443135478
 30
0.0
 10
404.1855255237
 20
835.7443144797
 30
0.0
 10
404.9479256065
 20
835.6249441729
 30
0.0
 10
405.6328835411
 20
835.2606081591
 30
0.0
 10
405.9191463358
 20
835.0268745834
 30
0.0
  0
SPLINE
  5
313
100
AcDbEntity
  8
6
100
AcDbSpline
 62
7
  6
BYLAYER
 70
0
 71
3
 72
9
 73
5
 74
0
 42
0.0000001
 43
0.0000001
 44
0.0000000001
 40
0.0
 40
0.0
 40
0.0
 40
0.0
 40
0.5155790719
 40
1.0
 40
1.0
 40
1.0
 40
1.0
 10
408.3329435584
 20
894.7322931416
 30
0.0
 10
408.7748325464
 20
894.371490777
 30
0.0
 10
409.5159242824
 20
893.5013067821
 30
0.0
 10
409.7974096524
 20
892.3815260534
 30
0.0
 10
409.7974096524
 20
891.8455246818
 30
0.0
  0
SPLINE
  5
314
100
AcDbEntity
  8
6
100
AcDbSpline
 62
7
  6
BYLAYER
 70
0
 71
3
 72
9
 73
5
 74
0
 42
0.0000001
 43
0.0000001
 44
0.0000000001
 40
0.0
 40
0.0
 40
0.0
 40
0.0
 40
0.511974183
 40
1.0
 40
1.0
 40
1.0
 40
1.0
 10
404.7974096525
 20
895.9280247489
 30
0.0
 10
405.4435755383
 20
895.9280263021
 30
0.0
 10
406.7142423429
 20
895.7290757908
 30
0.0
 10
407.8558389007
 20
895.1218491011
 30
0.0
 10
408.3329435584
 20
894.7322931416
 30
0.0
  0
SPLINE
  5
315
100
AcDbEntity
  8
6
100
AcDbSpline
 62
7
  6
BYLAYER
 70
0
 71
3
 72
11
 73
7
 74
0
 42
0.0000001
 43
0.0000001
 44
0.0000000001
 40
0.0
 40
0.0
 40
0.0
 40
0.0
 40
0.2897999482
 40
0.5490493256
 40
0.7822283757
 40
1.0
 40
1.0
 40
1.0
 40
1.0
 10
297.1405651593
 20
894.5749694835
 30
0.0
 10
296.7894134174
 20
894.372233141
 30
0.0
 10
296.1524484794
 20
893.9337726982
 30
0.0
 10
295.3915659901
 20
893.1336056034
 30
0.0
 10
294.9099074348
 20
892.2489331175
 30
0.0
 10
294.7974407633
 20
891.6137200644
 30
0.0
 10
294.7974429606
 20
891.3090242177
 30
0.0
  0
SPLINE
  5
316
100
AcDbEntity
  8
6
100
AcDbSpline
 62
7
  6
BYLAYER
 70
0
 71
3
 72
9
 73
5
 74
0
 42
0.0000001
 43
0.0000001
 44
0.0000000001
 40
0.0
 40
0.0
 40
0.0
 40
0.0
 40
0.5255634317
 40
1.0
 40
1.0
 40
1.0
 40
1.0
 10
302.7974096533
 20
895.927779571
 30
0.0
 10
301.7702149834
 20
895.927777102
 30
0.0
 10
299.8105091015
 20
895.7152499361
 30
0.0
 10
297.9436049278
 20
895.0386019425
 30
0.0
 10
297.1405651593
 20
894.5749694835
 30
0.0
  0
SPLINE
  5
317
100
AcDbEntity
  8
6
100
AcDbSpline
 62
7
  6
BYLAYER
 70
0
 71
3
 72
10
 73
6
 74
0
 42
0.0000001
 43
0.0000001
 44
0.0000000001
 40
0.0
 40
0.0
 40
0.0
 40
0.0
 40
0.5407994969
 40
0.7767344306
 40
1.0
 40
1.0
 40
1.0
 40
1.0
 10
351.7788708279
 20
878.1940453556
 30
0.0
 10
351.4416511838
 20
878.4260671747
 30
0.0
 10
350.9933471018
 20
878.8407537533
 30
0.0
 10
350.6636323741
 20
879.5309650417
 30
0.0
 10
350.6092048571
 20
879.8806068976
 30
0.0
 10
350.6091630847
 20
880.0495962143
 30
0.0
  0
SPLINE
  5
318
100
AcDbEntity
  8
6
100
AcDbSpline
 62
7
  6
BYLAYER
 70
0
 71
3
 72
9
 73
5
 74
0
 42
0.0000001
 43
0.0000001
 44
0.0000000001
 40
0.0
 40
0.0
 40
0.0
 40
0.0
 40
0.235593987
 40
1.0
 40
1.0
 40
1.0
 40
1.0
 10
356.0458565894
 20
874.3965647115
 30
0.0
 10
355.7633668909
 20
874.7463153455
 30
0.0
 10
354.4970911663
 20
876.1764849552
 30
0.0
 10
352.9932741409
 20
877.3859125641
 30
0.0
 10
351.7788708279
 20
878.1940453556
 30
0.0
  0
SPLINE
  5
319
100
AcDbEntity
  8
6
100
AcDbSpline
 62
7
  6
BYLAYER
 70
0
 71
3
 72
9
 73
5
 74
0
 42
0.0000001
 43
0.0000001
 44
0.0000000001
 40
0.0
 40
0.0
 40
0.0
 40
0.0
 40
0.4835194808
 40
1.0
 40
1.0
 40
1.0
 40
1.0
 10
358.3418287217
 20
870.0684439749
 30
0.0
 10
358.1305778306
 20
870.8336555608
 30
0.0
 10
357.5044698412
 20
872.3678806847
 30
0.0
 10
356.5786543516
 20
873.7369075413
 30
0.0
 10
356.0458565894
 20
874.3965647115
 30
0.0
  0
SPLINE
  5
31A
100
AcDbEntity
  8
6
100
AcDbSpline
 62
7
  6
BYLAYER
 70
0
 71
3
 72
11
 73
7
 74
0
 42
0.0000001
 43
0.0000001
 44
0.0000000001
 40
0.0
 40
0.0
 40
0.0
 40
0.0
 40
0.2973590597
 40
0.4414471913
 40
0.577864043
 40
1.0
 40
1.0
 40
1.0
 40
1.0
 10
364.0360662
 20
867.7174718909
 30
0.0
 10
363.3967545444
 20
867.6599285205
 30
0.0
 10
362.4352110795
 20
867.6791920698
 30
0.0
 10
361.20396564
 20
867.9214196396
 30
0.0
 10
359.78163317
 20
868.38234961
 30
0.0
 10
358.6080030945
 20
869.1969386216
 30
0.0
 10
358.3418287217
 20
870.0684439749
 30
0.0
  0
SPLINE
  5
31B
100
AcDbEntity
  8
6
100
AcDbSpline
 62
7
  6
BYLAYER
 70
0
 71
3
 72
11
 73
7
 74
0
 42
0.0000001
 43
0.0000001
 44
0.0000000001
 40
0.0
 40
0.0
 40
0.0
 40
0.0
 40
0.2944618757
 40
0.5556957675
 40
0.7869486445
 40
1.0
 40
1.0
 40
1.0
 40
1.0
 10
352.395344596
 20
851.9019088587
 30
0.0
 10
352.1316646546
 20
852.0296468597
 30
0.0
 10
351.6518729111
 20
852.3120368019
 30
0.0
 10
351.070732684
 20
852.8479005955
 30
0.0
 10
350.69792484
 20
853.4557850308
 30
0.0
 10
350.6092977869
 20
853.9012770148
 30
0.0
 10
350.6093501653
 20
854.1132646164
 30
0.0
  0
SPLINE
  5
31C
100
AcDbEntity
  8
6
100
AcDbSpline
 62
7
  6
BYLAYER
 70
0
 71
3
 72
11
 73
7
 74
0
 42
0.0000001
 43
0.0000001
 44
0.0000000001
 40
0.0
 40
0.0
 40
0.0
 40
0.0
 40
0.2293062555
 40
0.4889816731
 40
0.7546564
 40
1.0
 40
1.0
 40
1.0
 40
1.0
 10
359.4395022941
 20
852.2577325339
 30
0.0
 10
358.9789733684
 20
851.940863194
 30
0.0
 10
357.8643693778
 20
851.4579713033
 30
0.0
 10
356.033845569
 20
851.1669867453
 30
0.0
 10
354.1444068485
 20
851.2796478986
 30
0.0
 10
352.9336154601
 20
851.641147104
 30
0.0
 10
352.395344596
 20
851.9019088587
 30
0.0
  0
SPLINE
  5
31D
100
AcDbEntity
  8
6
100
AcDbSpline
 62
7
  6
BYLAYER
 70
0
 71
3
 72
9
 73
5
 74
0
 42
0.0000001
 43
0.0000001
 44
0.0000000001
 40
0.0
 40
0.0
 40
0.0
 40
0.0
 40
0.2356692153
 40
1.0
 40
1.0
 40
1.0
 40
1.0
 10
365.1501302614
 20
857.3785838003
 30
0.0
 10
364.7722724292
 20
856.9074992329
 30
0.0
 10
363.0786810589
 20
854.9810813379
 30
0.0
 10
361.06575157
 20
853.3492493698
 30
0.0
 10
359.4395022941
 20
852.2577325339
 30
0.0
  0
SPLINE
  5
31E
100
AcDbEntity
  8
6
100
AcDbSpline
 62
7
  6
BYLAYER
 70
0
 71
3
 72
9
 73
5
 74
0
 42
0.0000001
 43
0.0000001
 44
0.0000000001
 40
0.0
 40
0.0
 40
0.0
 40
0.0
 40
0.4836737985
 40
1.0
 40
1.0
 40
1.0
 40
1.0
 10
368.2205774384
 20
863.2053129037
 30
0.0
 10
367.938323467
 20
862.175861393
 30
0.0
 10
367.1016835077
 20
860.111671951
 30
0.0
 10
365.8631131484
 20
858.2674769403
 30
0.0
 10
365.1501302614
 20
857.3785838003
 30
0.0
  0
SPLINE
  5
31F
100
AcDbEntity
  8
6
100
AcDbSpline
 62
7
  6
BYLAYER
 70
0
 71
3
 72
9
 73
5
 74
0
 42
0.0000001
 43
0.0000001
 44
0.0000000001
 40
0.0
 40
0.0
 40
0.0
 40
0.0
 40
0.5490968504
 40
1.0
 40
1.0
 40
1.0
 40
1.0
 10
328.7676610473
 20
864.4544597258
 30
0.0
 10
327.9658906387
 20
864.4544577986
 30
0.0
 10
326.5028647183
 20
864.6630410182
 30
0.0
 10
325.1536489096
 20
865.3920357105
 30
0.0
 10
324.7170731474
 20
865.8848655183
 30
0.0
  0
SPLINE
  5
320
100
AcDbEntity
  8
6
100
AcDbSpline
 62
7
  6
BYLAYER
 70
0
 71
3
 72
9
 73
5
 74
0
 42
0.0000001
 43
0.0000001
 44
0.0000000001
 40
0.0
 40
0.0
 40
0.0
 40
0.0
 40
0.5235690279
 40
1.0
 40
1.0
 40
1.0
 40
1.0
 10
324.7170731474
 20
865.8848655183
 30
0.0
 10
324.5644679882
 20
866.0571342922
 30
0.0
 10
324.3136729414
 20
866.4289594856
 30
0.0
 10
324.2176608172
 20
866.8719450182
 30
0.0
 10
324.2176686539
 20
867.0813658951
 30
0.0
  0
SPLINE
  5
321
100
AcDbEntity
  8
6
100
AcDbSpline
 62
7
  6
BYLAYER
 70
0
 71
3
 72
9
 73
5
 74
0
 42
0.0000001
 43
0.0000001
 44
0.0000000001
 40
0.0
 40
0.0
 40
0.0
 40
0.0
 40
0.2547499752
 40
1.0
 40
1.0
 40
1.0
 40
1.0
 10
321.8518544249
 20
844.3591382277
 30
0.0
 10
320.9961678721
 20
844.4461773736
 30
0.0
 10
317.6442964149
 20
844.8523514758
 30
0.0
 10
314.3223888193
 20
845.5174962738
 30
0.0
 10
311.8927388808
 20
846.1715970983
 30
0.0
  0
SPLINE
  5
322
100
AcDbEntity
  8
6
100
AcDbSpline
 62
7
  6
BYLAYER
 70
0
 71
3
 72
11
 73
7
 74
0
 42
0.0000001
 43
0.0000001
 44
0.0000000001
 40
0.0
 40
0.0
 40
0.0
 40
0.0
 40
0.4222532032
 40
0.5589255854
 40
0.703154022
 40
1.0
 40
1.0
 40
1.0
 40
1.0
 10
327.6441171923
 20
846.7007346711
 30
0.0
 10
327.3739493398
 20
845.8161108353
 30
0.0
 10
326.1728102456
 20
844.9954873041
 30
0.0
 10
324.7253523283
 20
844.5387778746
 30
0.0
 10
323.4740422657
 20
844.303464404
 30
0.0
 10
322.4987619621
 20
844.2932840133
 30
0.0
 10
321.8518544249
 20
844.3591382277
 30
0.0
  0
SPLINE
  5
323
100
AcDbEntity
  8
6
100
AcDbSpline
 62
7
  6
BYLAYER
 70
0
 71
3
 72
11
 73
7
 74
0
 42
0.0000001
 43
0.0000001
 44
0.0000000001
 40
0.0
 40
0.0
 40
0.0
 40
0.0
 40
0.2944618757
 40
0.5556957675
 40
0.7869486445
 40
1.0
 40
1.0
 40
1.0
 40
1.0
 10
303.0862407131
 20
849.4111431309
 30
0.0
 10
302.8225607717
 20
849.5388811319
 30
0.0
 10
302.3427690281
 20
849.821271074
 30
0.0
 10
301.7616288011
 20
850.3571348677
 30
0.0
 10
301.3888209571
 20
850.9650193029
 30
0.0
 10
301.3001939039
 20
851.4105112869
 30
0.0
 10
301.3002462824
 20
851.6224988885
 30
0.0
  0
SPLINE
  5
324
100
AcDbEntity
  8
6
100
AcDbSpline
 62
7
  6
BYLAYER
 70
0
 71
3
 72
9
 73
5
 74
0
 42
0.0000001
 43
0.0000001
 44
0.0000000001
 40
0.0
 40
0.0
 40
0.0
 40
0.0
 40
0.2590400614
 40
1.0
 40
1.0
 40
1.0
 40
1.0
 10
311.8927388808
 20
846.1715970983
 30
0.0
 10
311.1097360399
 20
846.3823940513
 30
0.0
 10
308.1050685736
 20
847.2602338579
 30
0.0
 10
305.1735388976
 20
848.3996893272
 30
0.0
 10
303.0862407131
 20
849.4111431309
 30
0.0
  0
SPLINE
  5
325
100
AcDbEntity
  8
6
100
AcDbSpline
 62
7
  6
BYLAYER
 70
0
 71
3
 72
9
 73
5
 74
0
 42
0.0000001
 43
0.0000001
 44
0.0000000001
 40
0.0
 40
0.0
 40
0.0
 40
0.0
 40
0.2532418043
 40
1.0
 40
1.0
 40
1.0
 40
1.0
 10
323.5880494887
 20
884.1178555611
 30
0.0
 10
323.0988167668
 20
884.0669758716
 30
0.0
 10
321.1699830009
 20
883.8381260189
 30
0.0
 10
319.25414805
 20
883.4971534392
 30
0.0
 10
317.8397810455
 20
883.1757399138
 30
0.0
  0
SPLINE
  5
326
100
AcDbEntity
  8
6
100
AcDbSpline
 62
7
  6
BYLAYER
 70
0
 71
3
 72
10
 73
6
 74
0
 42
0.0000001
 43
0.0000001
 44
0.0000000001
 40
0.0
 40
0.0
 40
0.0
 40
0.0
 40
0.5407994969
 40
0.7767344306
 40
1.0
 40
1.0
 40
1.0
 40
1.0
 10
302.4697310232
 20
880.6845740344
 30
0.0
 10
302.1325113792
 20
880.9165958534
 30
0.0
 10
301.6842072972
 20
881.331282432
 30
0.0
 10
301.3544925695
 20
882.0214937205
 30
0.0
 10
301.3000650524
 20
882.3711355763
 30
0.0
 10
301.3000232801
 20
882.540124893
 30
0.0
  0
SPLINE
  5
327
100
AcDbEntity
  8
6
100
AcDbSpline
 62
7
  6
BYLAYER
 70
0
 71
3
 72
11
 73
7
 74
0
 42
0.0000001
 43
0.0000001
 44
0.0000000001
 40
0.0
 40
0.0
 40
0.0
 40
0.0
 40
0.2453427141
 40
0.5110171401
 40
0.7706928958
 40
1.0
 40
1.0
 40
1.0
 40
1.0
 10
309.513893853
 20
880.3287842233
 30
0.0
 10
308.9756264423
 20
880.068019732
 30
0.0
 10
307.7648391307
 20
879.7065146317
 30
0.0
 10
305.8754022594
 20
879.5938446709
 30
0.0
 10
304.0448741613
 20
879.884820741
 30
0.0
 10
302.9302643442
 20
880.3677070287
 30
0.0
 10
302.4697310232
 20
880.6845740344
 30
0.0
  0
SPLINE
  5
328
100
AcDbEntity
  8
6
100
AcDbSpline
 62
7
  6
BYLAYER
 70
0
 71
3
 72
9
 73
5
 74
0
 42
0.0000001
 43
0.0000001
 44
0.0000000001
 40
0.0
 40
0.0
 40
0.0
 40
0.0
 40
0.2588805612
 40
1.0
 40
1.0
 40
1.0
 40
1.0
 10
316.1251073416
 20
882.7505827267
 30
0.0
 10
315.5379620673
 20
882.592510343
 30
0.0
 10
313.2832737442
 20
881.9345225817
 30
0.0
 10
311.0826810916
 20
881.0831145141
 30
0.0
 10
309.513893853
 20
880.3287842233
 30
0.0
  0
SPLINE
  5
329
100
AcDbEntity
  8
6
100
AcDbSpline
 62
7
  6
BYLAYER
 70
0
 71
3
 72
11
 73
7
 74
0
 42
0.0000001
 43
0.0000001
 44
0.0000000001
 40
0.0
 40
0.0
 40
0.0
 40
0.0
 40
0.213051754
 40
0.444304758
 40
0.7055385298
 40
1.0
 40
1.0
 40
1.0
 40
1.0
 10
301.3000232801
 20
882.540124893
 30
0.0
 10
301.2999708795
 20
882.75211039
 30
0.0
 10
301.3885961711
 20
883.1975975826
 30
0.0
 10
301.7613966452
 20
883.8054769636
 30
0.0
 10
302.3425265136
 20
884.341337608
 30
0.0
 10
302.8223102431
 20
884.6237271323
 30
0.0
 10
303.0859858627
 20
884.7514651998
 30
0.0
  0
SPLINE
  5
32A
100
AcDbEntity
  8
6
100
AcDbSpline
 62
7
  6
BYLAYER
 70
0
 71
3
 72
11
 73
7
 74
0
 42
0.0000001
 43
0.0000001
 44
0.0000000001
 40
0.0
 40
0.0
 40
0.0
 40
0.0
 40
0.213051754
 40
0.444304758
 40
0.7055385298
 40
1.0
 40
1.0
 40
1.0
 40
1.0
 10
350.6091630847
 20
880.0495962143
 30
0.0
 10
350.6091106842
 20
880.2615817112
 30
0.0
 10
350.6977359757
 20
880.7070689038
 30
0.0
 10
351.0705364498
 20
881.3149482849
 30
0.0
 10
351.6516663183
 20
881.8508089292
 30
0.0
 10
352.1314500477
 20
882.1331984536
 30
0.0
 10
352.3951256674
 20
882.260936521
 30
0.0
  0
SPLINE
  5
32B
100
AcDbEntity
  8
6
100
AcDbSpline
 62
7
  6
BYLAYER
 70
0
 71
3
 72
13
 73
9
 74
0
 42
0.0000001
 43
0.0000001
 44
0.0000000001
 40
0.0
 40
0.0
 40
0.0
 40
0.0
 40
0.3075087008
 40
0.5804985669
 40
0.7001162137
 40
0.8081835044
 40
0.9067756264
 40
1.0
 40
1.0
 40
1.0
 40
1.0
 10
364.0360753731
 20
866.4454294511
 30
0.0
 10
364.5996651285
 20
866.3947044572
 30
0.0
 10
365.6572695444
 20
866.1938952325
 30
0.0
 10
366.850824444
 20
865.661226861
 30
0.0
 10
367.5763520337
 20
865.0855594468
 30
0.0
 10
367.9658413587
 20
864.6220195576
 30
0.0
 10
368.2097110941
 20
864.1197756557
 30
0.0
 10
368.2657704775
 20
863.7647189493
 30
0.0
 10
368.2657776228
 20
863.5931703824
 30
0.0
  0
SPLINE
  5
32C
100
AcDbEntity
  8
6
100
AcDbSpline
 62
7
  6
BYLAYER
 70
0
 71
3
 72
9
 73
5
 74
0
 42
0.0000001
 43
0.0000001
 44
0.0000000001
 40
0.0
 40
0.0
 40
0.0
 40
0.0
 40
0.5235690279
 40
1.0
 40
1.0
 40
1.0
 40
1.0
 10
332.8182110603
 20
868.277866274
 30
0.0
 10
332.9708162194
 20
868.1055975001
 30
0.0
 10
333.2216112663
 20
867.7337723066
 30
0.0
 10
333.3176233904
 20
867.2907867741
 30
0.0
 10
333.3176155538
 20
867.0813658972
 30
0.0
  0
SPLINE
  5
32D
100
AcDbEntity
  8
6
100
AcDbSpline
 62
7
  6
BYLAYER
 70
0
 71
3
 72
12
 73
8
 74
0
 42
0.0000001
 43
0.0000001
 44
0.0000000001
 40
0.0
 40
0.0
 40
0.0
 40
0.0
 40
0.3078681697
 40
0.5807222566
 40
0.8074248999
 40
0.9063385555
 40
1.0
 40
1.0
 40
1.0
 40
1.0
 10
323.5882952001
 20
850.0448513313
 30
0.0
 10
324.1412593404
 20
849.9885604135
 30
0.0
 10
325.1786194476
 20
849.7792667758
 30
0.0
 10
326.5168328052
 20
849.1681618468
 30
0.0
 10
327.3350844931
 20
848.41152203
 30
0.0
 10
327.6655584218
 20
847.7207721877
 30
0.0
 10
327.7200010354
 20
847.3710905006
 30
0.0
 10
327.7199468762
 20
847.201995133
 30
0.0
  0
SPLINE
  5
32E
100
AcDbEntity
  8
6
100
AcDbSpline
 62
7
  6
BYLAYER
 70
0
 71
3
 72
9
 73
5
 74
0
 42
0.0000001
 43
0.0000001
 44
0.0000000001
 40
0.0
 40
0.0
 40
0.0
 40
0.0
 40
0.2448195009
 40
1.0
 40
1.0
 40
1.0
 40
1.0
 10
316.1253333335
 20
851.4120882883
 30
0.0
 10
316.7235670898
 20
851.2510341433
 30
0.0
 10
319.1810040454
 20
850.6453838208
 30
0.0
 10
321.6875060602
 20
850.2425219721
 30
0.0
 10
323.5882952001
 20
850.0448513313
 30
0.0
  0
SPLINE
  5
32F
100
AcDbEntity
  8
6
100
AcDbSpline
 62
7
  6
BYLAYER
 70
0
 71
3
 72
9
 73
5
 74
0
 42
0.0000001
 43
0.0000001
 44
0.0000000001
 40
0.0
 40
0.0
 40
0.0
 40
0.0
 40
0.24086164
 40
1.0
 40
1.0
 40
1.0
 40
1.0
 10
309.5140849164
 20
853.8338550088
 30
0.0
 10
310.0239589802
 20
853.588693059
 30
0.0
 10
312.1671698405
 20
852.6259513809
 30
0.0
 10
314.403521211
 20
851.875627793
 30
0.0
 10
316.1253333335
 20
851.4120882883
 30
0.0
  0
SPLINE
  5
330
100
AcDbEntity
  8
6
100
AcDbSpline
 62
7
  6
BYLAYER
 70
0
 71
3
 72
11
 73
7
 74
0
 42
0.0000001
 43
0.0000001
 44
0.0000000001
 40
0.0
 40
0.0
 40
0.0
 40
0.0
 40
0.2293062555
 40
0.4889816731
 40
0.7546564
 40
1.0
 40
1.0
 40
1.0
 40
1.0
 10
302.4699272183
 20
853.4780313335
 30
0.0
 10
302.930456144
 20
853.7949006735
 30
0.0
 10
304.0450601347
 20
854.2777925642
 30
0.0
 10
305.8755839434
 20
854.5687771222
 30
0.0
 10
307.765022664
 20
854.4561159689
 30
0.0
 10
308.9758140523
 20
854.0946167635
 30
0.0
 10
309.5140849164
 20
853.8338550088
 30
0.0
  0
SPLINE
  5
331
100
AcDbEntity
  8
6
100
AcDbSpline
 62
7
  6
BYLAYER
 70
0
 71
3
 72
9
 73
5
 74
0
 42
0.0000001
 43
0.0000001
 44
0.0000000001
 40
0.0
 40
0.0
 40
0.0
 40
0.0
 40
0.4744371016
 40
1.0
 40
1.0
 40
1.0
 40
1.0
 10
297.1409619882
 20
839.5463609177
 30
0.0
 10
297.9440076928
 20
839.0827327527
 30
0.0
 10
299.8109192099
 20
838.406094037
 30
0.0
 10
301.7706302036
 20
838.1935755559
 30
0.0
 10
302.7978259931
 20
838.193578025
 30
0.0
  0
SPLINE
  5
332
100
AcDbEntity
  8
6
100
AcDbSpline
 62
7
  6
BYLAYER
 70
0
 71
3
 72
11
 73
7
 74
0
 42
0.0000001
 43
0.0000001
 44
0.0000000001
 40
0.0
 40
0.0
 40
0.0
 40
0.0
 40
0.2968450959
 40
0.4410733801
 40
0.5777457833
 40
1.0
 40
1.0
 40
1.0
 40
1.0
 10
321.8515267106
 20
889.8035603168
 30
0.0
 10
322.4984337414
 20
889.8694176862
 30
0.0
 10
323.4737144291
 20
889.8592417486
 30
0.0
 10
324.7250267947
 20
889.6239346313
 30
0.0
 10
326.1724932482
 20
889.1672312423
 30
0.0
 10
327.3736419897
 20
888.3466163813
 30
0.0
 10
327.6438232499
 20
887.4619917193
 30
0.0
  0
SPLINE
  5
333
100
AcDbEntity
  8
6
100
AcDbSpline
 62
7
  6
BYLAYER
 70
0
 71
3
 72
9
 73
5
 74
0
 42
0.0000001
 43
0.0000001
 44
0.0000000001
 40
0.0
 40
0.0
 40
0.0
 40
0.0
 40
0.2424017489
 40
1.0
 40
1.0
 40
1.0
 40
1.0
 10
303.0859858627
 20
884.7514651998
 30
0.0
 10
303.6141606735
 20
885.007410162
 30
0.0
 10
305.8147703804
 20
886.0182653049
 30
0.0
 10
308.0944030667
 20
886.8542527326
 30
0.0
 10
309.8461907603
 20
887.3983960158
 30
0.0
  0
SPLINE
  5
334
100
AcDbEntity
  8
6
100
AcDbSpline
 62
7
  6
BYLAYER
 70
0
 71
3
 72
11
 73
7
 74
0
 42
0.0000001
 43
0.0000001
 44
0.0000000001
 40
0.0
 40
0.0
 40
0.0
 40
0.0
 40
0.2177711386
 40
0.4509502201
 40
0.7101998488
 40
1.0
 40
1.0
 40
1.0
 40
1.0
 10
294.797792686
 20
842.8122949191
 30
0.0
 10
294.7977948832
 20
842.5075985867
 30
0.0
 10
294.9102711492
 20
841.8723854834
 30
0.0
 10
295.391942311
 20
840.9877160947
 30
0.0
 10
296.1528359337
 20
840.1875530842
 30
0.0
 10
296.7898071954
 20
839.7490956454
 30
0.0
 10
297.1409619882
 20
839.5463609177
 30
0.0
  0
SPLINE
  5
335
100
AcDbEntity
  8
6
100
AcDbSpline
 62
7
  6
BYLAYER
 70
0
 71
3
 72
10
 73
6
 74
0
 42
0.0000001
 43
0.0000001
 44
0.0000000001
 40
0.0
 40
0.0
 40
0.0
 40
0.0
 40
0.2232659802
 40
0.459201113
 40
1.0
 40
1.0
 40
1.0
 40
1.0
 10
301.3002462824
 20
851.6224988885
 30
0.0
 10
301.3002880362
 20
851.7914861224
 30
0.0
 10
301.3547141003
 20
852.1411234608
 30
0.0
 10
301.6844205288
 20
852.8313265375
 30
0.0
 10
302.1327145636
 20
853.2460103999
 30
0.0
 10
302.4699272183
 20
853.4780313335
 30
0.0
  0
SPLINE
  5
336
100
AcDbEntity
  8
6
100
AcDbSpline
 62
7
  6
BYLAYER
 70
0
 71
3
 72
9
 73
5
 74
0
 42
0.0000001
 43
0.0000001
 44
0.0000000001
 40
0.0
 40
0.0
 40
0.0
 40
0.0
 40
0.4758821788
 40
1.0
 40
1.0
 40
1.0
 40
1.0
 10
324.2176686539
 20
867.0813658951
 30
0.0
 10
324.2176766008
 20
867.2937337027
 30
0.0
 10
324.3166308001
 20
867.7435139673
 30
0.0
 10
324.5741590095
 20
868.1192237605
 30
0.0
 10
324.7306400843
 20
868.2930623259
 30
0.0
  0
SPLINE
  5
337
100
AcDbEntity
  8
6
100
AcDbSpline
 62
7
  6
BYLAYER
 70
0
 71
3
 72
9
 73
5
 74
0
 42
0.0000001
 43
0.0000001
 44
0.0000000001
 40
0.0
 40
0.0
 40
0.0
 40
0.0
 40
0.488025817
 40
1.0
 40
1.0
 40
1.0
 40
1.0
 10
408.3333598981
 20
836.9980915956
 30
0.0
 10
407.8562552404
 20
837.387647555
 30
0.0
 10
406.7146586826
 20
837.9948742448
 30
0.0
 10
405.4439918781
 20
838.193824756
 30
0.0
 10
404.7978259922
 20
838.1938232028
 30
0.0
  0
SPLINE
  5
338
100
AcDbEntity
  8
6
100
AcDbSpline
 62
7
  6
BYLAYER
 70
0
 71
3
 72
9
 73
5
 74
0
 42
0.0000001
 43
0.0000001
 44
0.0000000001
 40
0.0
 40
0.0
 40
0.0
 40
0.0
 40
0.4844209281
 40
1.0
 40
1.0
 40
1.0
 40
1.0
 10
409.7978259922
 20
834.1113231357
 30
0.0
 10
409.7978259922
 20
834.6473245073
 30
0.0
 10
409.5163406222
 20
835.767105236
 30
0.0
 10
408.7752488861
 20
836.637289231
 30
0.0
 10
408.3333598981
 20
836.9980915956
 30
0.0
  0
SPLINE
  5
339
100
AcDbEntity
  8
6
100
AcDbSpline
 62
7
  6
BYLAYER
 70
0
 71
3
 72
10
 73
6
 74
0
 42
0.0000001
 43
0.0000001
 44
0.0000000001
 40
0.0
 40
0.0
 40
0.0
 40
0.0
 40
0.2232659802
 40
0.459201113
 40
1.0
 40
1.0
 40
1.0
 40
1.0
 10
350.6093501653
 20
854.1132646164
 30
0.0
 10
350.6093919191
 20
854.2822518502
 30
0.0
 10
350.6638179832
 20
854.6318891886
 30
0.0
 10
350.9935244117
 20
855.3220922653
 30
0.0
 10
351.4418184466
 20
855.7367761278
 30
0.0
 10
351.7790311012
 20
855.9687970614
 30
0.0
  0
SPLINE
  5
33A
100
AcDbEntity
  8
6
100
AcDbSpline
 62
7
  6
BYLAYER
 70
0
 71
3
 72
9
 73
5
 74
0
 42
0.0000001
 43
0.0000001
 44
0.0000000001
 40
0.0
 40
0.0
 40
0.0
 40
0.0
 40
0.5163264802
 40
1.0
 40
1.0
 40
1.0
 40
1.0
 10
365.1499903204
 20
876.7843228971
 30
0.0
 10
365.8629858349
 20
875.8954334249
 30
0.0
 10
367.1015820534
 20
874.0512457309
 30
0.0
 10
367.938252474
 20
871.9870595886
 30
0.0
 10
368.2205215342
 20
870.9576085548
 30
0.0
  0
SPLINE
  5
33B
100
AcDbEntity
  8
6
100
AcDbSpline
 62
7
  6
BYLAYER
 70
0
 71
3
 72
9
 73
5
 74
0
 42
0.0000001
 43
0.0000001
 44
0.0000000001
 40
0.0
 40
0.0
 40
0.0
 40
0.0
 40
0.2652665173
 40
1.0
 40
1.0
 40
1.0
 40
1.0
 10
359.4392884972
 20
881.90514671
 30
0.0
 10
360.0035997839
 20
881.5263948759
 30
0.0
 10
362.0840874999
 20
880.0323853374
 30
0.0
 10
363.9721418015
 20
878.2527432827
 30
0.0
 10
365.1499903204
 20
876.7843228971
 30
0.0
  0
SPLINE
  5
33C
100
AcDbEntity
  8
6
100
AcDbSpline
 62
7
  6
BYLAYER
 70
0
 71
3
 72
11
 73
7
 74
0
 42
0.0000001
 43
0.0000001
 44
0.0000000001
 40
0.0
 40
0.0
 40
0.0
 40
0.0
 40
0.2453427141
 40
0.5110171401
 40
0.7706928958
 40
1.0
 40
1.0
 40
1.0
 40
1.0
 10
352.3951256674
 20
882.260936521
 30
0.0
 10
352.9333930781
 20
882.5217010124
 30
0.0
 10
354.1441803897
 20
882.8832061126
 30
0.0
 10
356.033617261
 20
882.9958760734
 30
0.0
 10
357.8641453591
 20
882.7049000033
 30
0.0
 10
358.9787551762
 20
882.2220137157
 30
0.0
 10
359.4392884972
 20
881.90514671
 30
0.0
  0
SPLINE
  5
33D
100
AcDbEntity
  8
6
100
AcDbSpline
 62
7
  6
BYLAYER
 70
0
 71
3
 72
11
 73
7
 74
0
 42
0.0000001
 43
0.0000001
 44
0.0000000001
 40
0.0
 40
0.0
 40
0.0
 40
0.0
 40
0.4221349687
 40
0.558551798
 40
0.702640077
 40
1.0
 40
1.0
 40
1.0
 40
1.0
 10
358.3418718022
 20
864.0944299926
 30
0.0
 10
358.608032969
 20
864.965934541
 30
0.0
 10
359.7816534136
 20
865.7805320416
 30
0.0
 10
361.2039773876
 20
866.2414679485
 30
0.0
 10
362.4352203827
 20
866.4837017681
 30
0.0
 10
363.39676333
 20
866.5029697082
 30
0.0
 10
364.0360753731
 20
866.4454294511
 30
0.0
  0
SPLINE
  5
33E
100
AcDbEntity
  8
6
100
AcDbSpline
 62
7
  6
BYLAYER
 70
0
 71
3
 72
9
 73
5
 74
0
 42
0.0000001
 43
0.0000001
 44
0.0000000001
 40
0.0
 40
0.0
 40
0.0
 40
0.0
 40
0.5164802416
 40
1.0
 40
1.0
 40
1.0
 40
1.0
 10
356.0459620929
 20
859.7662982185
 30
0.0
 10
356.5787504826
 20
860.4259581253
 30
0.0
 10
357.5045467799
 20
861.7949904421
 30
0.0
 10
358.1306321284
 20
863.3292180466
 30
0.0
 10
358.3418718022
 20
864.0944299926
 30
0.0
  0
SPLINE
  5
33F
100
AcDbEntity
  8
6
100
AcDbSpline
 62
7
  6
BYLAYER
 70
0
 71
3
 72
9
 73
5
 74
0
 42
0.0000001
 43
0.0000001
 44
0.0000000001
 40
0.0
 40
0.0
 40
0.0
 40
0.0
 40
0.2653356643
 40
1.0
 40
1.0
 40
1.0
 40
1.0
 10
351.7790311012
 20
855.9687970614
 30
0.0
 10
352.20049051
 20
856.2492647564
 30
0.0
 10
353.7541481109
 20
857.3557804022
 30
0.0
 10
355.1652272545
 20
858.675836278
 30
0.0
 10
356.0459620929
 20
859.7662982185
 30
0.0
  0
ENDSEC
  0
SECTION
  2
OBJECTS
  0
DICTIONARY
  5
C
100
AcDbDictionary
280
0
281
1
  3
ACAD_GROUP
350
D
  3
ACAD_MLINESTYLE
350
17
  3
ACAD_LAYOUT
350
1A
  3
ACAD_PLOTSETTINGS
350
19
  3
ACAD_PLOTSTYLENAME
350
E
  0
DICTIONARY
  5
D
102
{ACAD_REACTORS
330
C
102
}
100
AcDbDictionary
280
0
281
1
  0
ACDBDICTIONARYWDFLT
  5
E
102
{ACAD_REACTORS
330
C
102
}
100
AcDbDictionary
281
1
  3
Normal
350
F
100
AcDbDictionaryWithDefault
340
F
  0
DICTIONARY
  5
17
102
{ACAD_REACTORS
330
C
102
}
100
AcDbDictionary
280
0
281
1
  3
Standard
350
18
  0
DICTIONARY
  5
19
102
{ACAD_REACTORS
330
C
102
}
100
AcDbDictionary
281
1
  0
DICTIONARY
  5
1A
102
{ACAD_REACTORS
330
C
102
}
100
AcDbDictionary
281
1
  3
Model
350
340
  3
Layout1
350
341
  0
ACDBPLACEHOLDER
  5
F
102
{ACAD_REACTORS
330
E
102
}
  0
MLINESTYLE
  5
18
102
{ACAD_REACTORS
330
17
102
}
100
AcDbMlineStyle
  2
STANDARD
 70
0
  3

 62
256
 51
90.0
 52
90.0
 71
2
 49
0.5
 62
256
  6
BYLAYER
 49
-0.5
 62
256
  6
BYLAYER
  0
LAYOUT
  5
340
102
{ACAD_REACTORS
330
1A
102
}
100
AcDbPlotSettings
  1

  2
none_device
  4

  6

 40
0.0
 41
0.0
 42
0.0
 43
0.0
 44
210.0
 45
297.0
 46
0.0
 47
0.0
 48
0.0
 49
0.0
140
0.0
141
0.0
142
1.0
143
1.0
 70
1024
 72
1
 73
0
 74
0
  7

 75
0
147
1.0
148
0.0
149
0.0
100
AcDbLayout
  1
Model
 70
0
 71
0
 10
0.0
 20
0.0
 11
210.0
 21
297.0
 12
0.0
 22
0.0
 32
0.0
 14
0.0
 24
0.0
 34
0.0
 15
0.0
 25
0.0
 35
0.0
146
0.0
 13
0.0
 23
0.0
 33
0.0
 16
1.0
 26
0.0
 36
0.0
 17
0.0
 27
1.0
 37
0.0
 76
0
330
215
345
0
346
0
  0
LAYOUT
  5
341
102
{ACAD_REACTORS
330
1A
102
}
100
AcDbPlotSettings
  1

  2
none_device
  4

  6

 40
0.0
 41
0.0
 42
0.0
 43
0.0
 44
210.0
 45
297.0
 46
0.0
 47
0.0
 48
0.0
 49
0.0
140
0.0
141
0.0
142
1.0
143
1.0
 70
0
 72
1
 73
0
 74
0
  7

 75
0
147
1.0
148
0.0
149
0.0
100
AcDbLayout
  1
Layout1
 70
0
 71
1
 10
0.0
 20
0.0
 11
210.0
 21
297.0
 12
0.0
 22
0.0
 32
0.0
 14
0.0
 24
0.0
 34
0.0
 15
0.0
 25
0.0
 35
0.0
146
0.0
 13
0.0
 23
0.0
 33
0.0
 16
1.0
 26
0.0
 36
0.0
 17
0.0
 27
1.0
 37
0.0
 76
0
330
216
345
0
346
0
  0
ENDSEC
  0
EOF
