999
DXF file: C:\Users\sesa63760\Dev\_Creo\CAD\MCADID0005271_3D-CAD\drw0001_3.dxf
999
Pro/ENGINEER 2019471 by Parametric Technology Corporation
  0
SECTION
  2
HEADER
  9
$ACADVER
  1
AC1024
  9
$DWGCODEPAGE
  3
ANSI_1252
  9
$EXTMAX
 10
58.9371878081
 20
83.3540227571
 30
0.0
  9
$EXTMIN
 10
0.0
 20
0.0
 30
0.0
  9
$LIMMIN
 10
0.0
 20
0.0
  9
$LIMMAX
 10
58.9371878081
 20
83.3540227571
  9
$VIEWCTR
 10
29.468593904
 20
41.6770113786
  9
$VIEWSIZE
 40
83.3540227571
  9
$CLAYER
  8
0
  9
$LTSCALE
 40
5.4334474094
  9
$CELTYPE
  6
BYLAYER
  9
$DIMSCALE
 40
1.0
  9
$DIMASZ
 40
0.7016331882
  9
$DIMEXO
 40
1.0
  9
$DIMDLI
 40
3.7540182101
  9
$DIMEXE
 40
1.0
  9
$DIMCEN
 40
0.8891095761
  9
$DIMLFAC
 40
1.0
  9
$DIMBLK
  1
_FILLED
  9
$DIMALT
 70
0
  9
$DIMALTF
 40
0.0393700787
  9
$DIMTXT
 40
0.9822864635
  9
$DIMTOL
 70
1
  9
$DIMLIM
 70
0
  9
$DIMTFAC
 40
1.0
  9
$DIMTP
 40
0.01
  9
$DIMTM
 40
0.01
  9
$DIMGAP
 40
0.625
  9
$DIMDSEP
 70
46
  9
$AUNITS
 70
0
  9
$PDMODE
 70
3
  9
$PDSIZE
 40
0.3125
  9
$HANDSEED
  5
259
  9
$TILEMODE
 70
1
  9
$MEASUREMENT
 70
1
  9
$INSUNITS
 70
4
  0
ENDSEC
  0
SECTION
  2
CLASSES
  0
CLASS
  1
ACDBDICTIONARYWDFLT
  2
AcDbDictionaryWithDefault
  3
AutoCAD 2000
 90
0
 91
1
280
0
281
0
  0
CLASS
  1
ACDBPLACEHOLDER
  2
AcDbPlaceHolder
  3
AutoCAD 2000
 90
0
 91
1
280
0
281
0
  0
CLASS
  1
LAYOUT
  2
AcDbLayout
  3
AutoCAD 2000
 90
0
 91
0
280
0
281
0
  0
ENDSEC
  0
SECTION
  2
TABLES
  0
TABLE
  2
VPORT
  5
8
100
AcDbSymbolTable
 70
2
  0
VPORT
  5
1F4
100
AcDbSymbolTableRecord
100
AcDbViewportTableRecord
  2
*ACTIVE
 70
0
 10
0.0
 20
0.0
 11
1.0
 21
1.0
 12
29.468593904
 22
41.6770113786
 13
0.0
 23
0.0
 14
1.0
 24
1.0
 15
0.0
 25
0.0
 16
0.0
 26
0.0
 36
1.0
 17
0.0
 27
0.0
 37
0.0
 40
83.3540227571
 41
0.7070707071
 42
50.0
 43
0.0
 44
0.0
 50
0.0
 51
0.0
 71
0
 72
100
 73
1
 74
1
 75
0
 76
0
 77
0
 78
0
  0
ENDTAB
  0
TABLE
  2
LTYPE
  5
5
100
AcDbSymbolTable
 70
6
  0
LTYPE
  5
14
100
AcDbSymbolTableRecord
100
AcDbLinetypeTableRecord
  2
BYBLOCK
 70
0
  3

 72
65
 73
0
 40
0.0
  0
LTYPE
  5
15
100
AcDbSymbolTableRecord
100
AcDbLinetypeTableRecord
  2
BYLAYER
 70
0
  3

 72
65
 73
0
 40
0.0
  0
LTYPE
  5
16
100
AcDbSymbolTableRecord
100
AcDbLinetypeTableRecord
  2
CONTINUOUS
 70
64
  3
Solid line
 72
65
 73
0
 40
0.0
  0
LTYPE
  5
1F5
100
AcDbSymbolTableRecord
100
AcDbLinetypeTableRecord
  2
CENTER
 70
64
  3
____ _ ____ _ ____ _ ____ _ ____ _ ____ _ ____
 72
65
 73
4
 40
0.6
 49
0.375
 74
0
 49
-0.075
 74
0
 49
0.075
 74
0
 49
-0.075
 74
0
  0
LTYPE
  5
1F6
100
AcDbSymbolTableRecord
100
AcDbLinetypeTableRecord
  2
HIDDEN
 70
64
  3
- - - - - - - - - - - - - - - - - - - -
 72
65
 73
2
 40
0.2
 49
0.1
 74
0
 49
-0.1
 74
0
  0
LTYPE
  5
1F7
100
AcDbSymbolTableRecord
100
AcDbLinetypeTableRecord
  2
PHANTOM
 70
64
  3
_____ _ _ _____ _ _ _____ _ _ _____
 72
65
 73
6
 40
0.8
 49
0.45
 74
0
 49
-0.05
 74
0
 49
0.1
 74
0
 49
-0.05
 74
0
 49
0.1
 74
0
 49
-0.05
 74
0
  0
LTYPE
  5
1F8
100
AcDbSymbolTableRecord
100
AcDbLinetypeTableRecord
  2
DOT
 70
64
  3
. . . . . . . . . . . . . . . . . . . .
 72
65
 73
2
 40
0.2
 49
0.1
 74
0
 49
-0.1
 74
0
  0
LTYPE
  5
1F9
100
AcDbSymbolTableRecord
100
AcDbLinetypeTableRecord
  2
DASHED
 70
64
  3
- - - - - - - - - - - - - - - - - - - -
 72
65
 73
2
 40
0.2
 49
0.1
 74
0
 49
-0.1
 74
0
  0
ENDTAB
  0
TABLE
  2
LAYER
  5
2
100
AcDbSymbolTable
 70
36
  0
LAYER
  5
10
100
AcDbSymbolTableRecord
100
AcDbLayerTableRecord
  2
0
 70
0
 62
7
  6
CONTINUOUS
370
-3
390
F
  0
LAYER
  5
1FA
100
AcDbSymbolTableRecord
100
AcDbLayerTableRecord
  2
DEFAULT_1
 70
0
 62
7
  6
CENTER
370
-3
390
F
  0
LAYER
  5
1FB
100
AcDbSymbolTableRecord
100
AcDbLayerTableRecord
  2
DEFAULT_2
 70
0
 62
7
  6
HIDDEN
370
-3
390
F
  0
LAYER
  5
1FC
100
AcDbSymbolTableRecord
100
AcDbLayerTableRecord
  2
DEFAULT_3
 70
0
 62
7
  6
PHANTOM
370
-3
390
F
  0
LAYER
  5
1FD
100
AcDbSymbolTableRecord
100
AcDbLayerTableRecord
  2
00_COMPONENTS
 70
0
 62
7
  6
CONTINUOUS
370
-3
390
F
  0
LAYER
  5
1FE
100
AcDbSymbolTableRecord
100
AcDbLayerTableRecord
  2
00_COMPONENTS_2
 70
0
 62
7
  6
CONTINUOUS
370
-3
390
F
  0
LAYER
  5
1FF
100
AcDbSymbolTableRecord
100
AcDbLayerTableRecord
  2
00_COMPONENTS_4
 70
0
 62
7
  6
CONTINUOUS
370
-3
390
F
  0
LAYER
  5
200
100
AcDbSymbolTableRecord
100
AcDbLayerTableRecord
  2
00_COMPONENTS_5
 70
0
 62
7
  6
CONTINUOUS
370
-3
390
F
  0
LAYER
  5
201
100
AcDbSymbolTableRecord
100
AcDbLayerTableRecord
  2
01_1_DEFAULT_DATUMS
 70
0
 62
7
  6
CONTINUOUS
370
-3
390
F
  0
LAYER
  5
202
100
AcDbSymbolTableRecord
100
AcDbLayerTableRecord
  2
01_PLANES
 70
0
 62
7
  6
CONTINUOUS
370
-3
390
F
  0
LAYER
  5
203
100
AcDbSymbolTableRecord
100
AcDbLayerTableRecord
  2
02_COORD_SYS
 70
0
 62
7
  6
CONTINUOUS
370
-3
390
F
  0
LAYER
  5
204
100
AcDbSymbolTableRecord
100
AcDbLayerTableRecord
  2
03_AXES
 70
0
 62
7
  6
CONTINUOUS
370
-3
390
F
  0
LAYER
  5
205
100
AcDbSymbolTableRecord
100
AcDbLayerTableRecord
  2
04_POINTS
 70
0
 62
7
  6
CONTINUOUS
370
-3
390
F
  0
LAYER
  5
206
100
AcDbSymbolTableRecord
100
AcDbLayerTableRecord
  2
05_CURVES
 70
0
 62
7
  6
CONTINUOUS
370
-3
390
F
  0
LAYER
  5
207
100
AcDbSymbolTableRecord
100
AcDbLayerTableRecord
  2
06_SURFS
 70
0
 62
7
  6
CONTINUOUS
370
-3
390
F
  0
LAYER
  5
208
100
AcDbSymbolTableRecord
100
AcDbLayerTableRecord
  2
07_COSMETICS
 70
0
 62
7
  6
CONTINUOUS
370
-3
390
F
  0
LAYER
  5
209
100
AcDbSymbolTableRecord
100
AcDbLayerTableRecord
  2
10_NOTES
 70
0
 62
7
  6
CONTINUOUS
370
-3
390
F
  0
LAYER
  5
20A
100
AcDbSymbolTableRecord
100
AcDbLayerTableRecord
  2
11_NOTES_PUB
 70
0
 62
7
  6
CONTINUOUS
370
-3
390
F
  0
LAYER
  5
20B
100
AcDbSymbolTableRecord
100
AcDbLayerTableRecord
  2
13_REF_GTOL
 70
0
 62
7
  6
CONTINUOUS
370
-3
390
F
  0
LAYER
  5
20C
100
AcDbSymbolTableRecord
100
AcDbLayerTableRecord
  2
16_MISC
 70
0
 62
7
  6
CONTINUOUS
370
-3
390
F
  0
LAYER
  5
20D
100
AcDbSymbolTableRecord
100
AcDbLayerTableRecord
  2
17_NO_PRINT
 70
0
 62
7
  6
CONTINUOUS
370
-3
390
F
  0
LAYER
  5
20E
100
AcDbSymbolTableRecord
100
AcDbLayerTableRecord
  2
18_DATUM_CAMS_JOINTS
 70
0
 62
7
  6
CONTINUOUS
370
-3
390
F
  0
LAYER
  5
20F
100
AcDbSymbolTableRecord
100
AcDbLayerTableRecord
  2
19_DATUM_FUNCTIONAL
 70
0
 62
7
  6
CONTINUOUS
370
-3
390
F
  0
LAYER
  5
210
100
AcDbSymbolTableRecord
100
AcDbLayerTableRecord
  2
20_DATUM_KINEMATIC_SCHEME
 70
0
 62
7
  6
CONTINUOUS
370
-3
390
F
  0
LAYER
  5
211
100
AcDbSymbolTableRecord
100
AcDbLayerTableRecord
  2
INTF_BLANK
 70
0
 62
7
  6
CONTINUOUS
370
-3
390
F
  0
LAYER
  5
212
100
AcDbSymbolTableRecord
100
AcDbLayerTableRecord
  2
SHELL1
 70
0
 62
7
  6
CONTINUOUS
370
-3
390
F
  0
LAYER
  5
213
100
AcDbSymbolTableRecord
100
AcDbLayerTableRecord
  2
SHELL2
 70
0
 62
7
  6
CONTINUOUS
370
-3
390
F
  0
LAYER
  5
214
100
AcDbSymbolTableRecord
100
AcDbLayerTableRecord
  2
SHELL980
 70
0
 62
7
  6
CONTINUOUS
370
-3
390
F
  0
LAYER
  5
215
100
AcDbSymbolTableRecord
100
AcDbLayerTableRecord
  2
_BLACK_HOLE
 70
0
 62
7
  6
CONTINUOUS
370
-3
390
F
  0
LAYER
  5
216
100
AcDbSymbolTableRecord
100
AcDbLayerTableRecord
  2
black
 70
0
 62
7
  6
CONTINUOUS
370
-3
390
F
  0
ENDTAB
  0
TABLE
  2
STYLE
  5
3
100
AcDbSymbolTable
 70
1
  0
STYLE
  5
11
100
AcDbSymbolTableRecord
100
AcDbTextStyleTableRecord
  2
STANDARD
 70
0
 40
0.0
 41
1.0
 50
0.0
 71
0
 42
0.2
  3
ARIAL.TTF
  4

  0
STYLE
  5
217
100
AcDbSymbolTableRecord
100
AcDbTextStyleTableRecord
  2
TEXTSTYLE_1
 70
0
 40
0.0
 41
0.8
 50
0.0
 71
0
 42
0.2
  3
gdt
  4

  0
ENDTAB
  0
TABLE
  2
VIEW
  5
6
100
AcDbSymbolTable
 70
0
  0
ENDTAB
  0
TABLE
  2
UCS
  5
7
100
AcDbSymbolTable
 70
0
  0
ENDTAB
  0
TABLE
  2
APPID
  5
9
100
AcDbSymbolTable
 70
1
  0
APPID
  5
218
100
AcDbSymbolTableRecord
100
AcDbRegAppTableRecord
  2
ACAD
 70
0
  0
ENDTAB
  0
TABLE
  2
BLOCK_RECORD
  5
1
100
AcDbSymbolTable
 70
0
  0
BLOCK_RECORD
  5
219
100
AcDbSymbolTableRecord
100
AcDbBlockTableRecord
  2
*Model_Space
  0
BLOCK_RECORD
  5
21A
100
AcDbSymbolTableRecord
100
AcDbBlockTableRecord
  2
*Paper_Space
  0
BLOCK_RECORD
  5
21B
100
AcDbSymbolTableRecord
100
AcDbBlockTableRecord
  2
_FILLED
  0
ENDTAB
  0
TABLE
  2
DIMSTYLE
  5
A
100
AcDbSymbolTable
 70
1
100
AcDbDimStyleTable
 71
0
  0
DIMSTYLE
105
21C
100
AcDbSymbolTableRecord
100
AcDbDimStyleTableRecord
  2
STANDARD
 70
0
  3

  4

 40
1.0
 41
0.7016331882
 42
1.0
 43
0.38
 44
1.0
 45
0.0
 46
0.0
 47
0.01
 48
0.01
140
0.9822864635
141
0.09
142
0.0
143
25.4
144
1.0
145
0.0
146
1.0
147
0.625
 71
1
 72
0
 73
0
 74
0
 75
0
 76
0
 77
1
 78
8
 79
2
170
0
171
1
172
0
173
0
174
0
175
0
176
0
177
0
178
0
270
2
179
2
271
2
272
2
273
2
274
2
275
0
280
0
281
0
282
0
283
1
284
8
285
0
286
0
287
3
288
0
340
11
278
46
341
21B
342
21B
343
21B
344
21B
  0
ENDTAB
  0
ENDSEC
  0
SECTION
  2
BLOCKS
  0
BLOCK
  5
20
100
AcDbEntity
  8
0
100
AcDbBlockBegin
  2
*Model_Space
 70
0
 10
0.0
 20
0.0
 30
0.0
  3
*Model_Space
  1

  0
ENDBLK
  5
21
100
AcDbEntity
  8
0
100
AcDbBlockEnd
  0
BLOCK
  5
1C
100
AcDbEntity
  8
0
100
AcDbBlockBegin
  2
*Paper_Space
 70
0
 10
0.0
 20
0.0
 30
0.0
  3
*Paper_Space
  1

  0
ENDBLK
  5
1D
100
AcDbEntity
  8
0
100
AcDbBlockEnd
  0
BLOCK
  5
21D
100
AcDbEntity
  8
0
100
AcDbBlockBegin
  2
_FILLED
 70
64
 10
0.0
 20
0.0
  3
_FILLED
  1

  0
SOLID
  5
21E
100
AcDbEntity
  8
0
  6
BYBLOCK
 62
0
100
AcDbTrace
 10
0.0
 20
0.0
 11
-1.0
 21
0.25
 12
-1.0
 22
-0.25
 13
-1.0
 23
-0.25
  0
ENDBLK
  5
21F
100
AcDbEntity
  8
0
  6
BYBLOCK
 62
0
100
AcDbBlockEnd
  0
ENDSEC
  0
SECTION
  2
ENTITIES
  0
LINE
  5
220
100
AcDbEntity
  8
00_COMPONENTS
100
AcDbLine
 62
7
  6
BYLAYER
 10
6.9721899653
 20
60.7102362933
 11
6.9721899653
 21
22.2202844945
  0
LINE
  5
221
100
AcDbEntity
  8
00_COMPONENTS
100
AcDbLine
 62
7
  6
BYLAYER
 10
6.9721899653
 20
22.2202844945
 11
10.7221899653
 21
21.2551626665
  0
LINE
  5
222
100
AcDbEntity
  8
00_COMPONENTS
100
AcDbLine
 62
7
  6
BYLAYER
 10
8.5215899653
 20
38.0997603939
 11
8.5215899653
 21
44.8307603939
  0
LINE
  5
223
100
AcDbEntity
  8
00_COMPONENTS_4
100
AcDbLine
 62
7
  6
BYLAYER
 10
10.7221899653
 20
19.7830603939
 11
53.5973899653
 21
19.7830603939
  0
LINE
  5
224
100
AcDbEntity
  8
00_COMPONENTS_4
100
AcDbLine
 62
7
  6
BYLAYER
 10
10.7221899653
 20
19.7830603939
 11
10.7221899653
 21
62.6582603939
  0
LINE
  5
225
100
AcDbEntity
  8
00_COMPONENTS_4
100
AcDbLine
 62
7
  6
BYLAYER
 10
25.6489919531
 20
62.470604729
 11
30.5722899653
 21
63.9790603939
  0
LINE
  5
226
100
AcDbEntity
  8
00_COMPONENTS_5
100
AcDbLine
 62
7
  6
BYLAYER
 10
13.1097899653
 20
46.7769103939
 11
13.1097899653
 21
35.6644103939
  0
LINE
  5
227
100
AcDbEntity
  8
00_COMPONENTS_5
100
AcDbLine
 62
7
  6
BYLAYER
 10
39.3929942982
 20
23.7581603939
 11
24.9265856324
 21
23.7581603939
  0
LINE
  5
228
100
AcDbEntity
  8
00_COMPONENTS_5
100
AcDbLine
 62
7
  6
BYLAYER
 10
13.7447899653
 20
44.2897540712
 11
13.7447899653
 21
38.1515667166
  0
LINE
  5
229
100
AcDbEntity
  8
00_COMPONENTS_5
100
AcDbLine
 62
7
  6
BYLAYER
 10
14.6972899653
 20
33.9874560609
 11
14.6972899653
 21
48.4538647268
  0
LINE
  5
22A
100
AcDbEntity
  8
00_COMPONENTS_5
100
AcDbLine
 62
7
  6
BYLAYER
 10
14.6972899653
 20
48.4538647268
 11
24.9265856324
 21
58.6831603939
  0
LINE
  5
22B
100
AcDbEntity
  8
00_COMPONENTS_5
100
AcDbLine
 62
7
  6
BYLAYER
 10
24.9265856324
 20
23.7581603939
 11
14.6972899653
 21
33.9874560609
  0
LINE
  5
22C
100
AcDbEntity
  8
00_COMPONENTS
100
AcDbLine
 62
7
  6
BYLAYER
 10
10.7221899653
 20
28.6953361897
 11
6.9721899653
 21
28.6953361897
  0
LINE
  5
22D
100
AcDbEntity
  8
00_COMPONENTS
100
AcDbLine
 62
7
  6
BYLAYER
 10
10.7221899653
 20
38.0997603939
 11
8.5215899653
 21
38.0997603939
  0
LINE
  5
22E
100
AcDbEntity
  8
00_COMPONENTS
100
AcDbLine
 62
7
  6
BYLAYER
 10
8.5215899653
 20
44.8307603939
 11
10.7221899653
 21
44.8307603939
  0
LINE
  5
22F
100
AcDbEntity
  8
00_COMPONENTS
100
AcDbLine
 62
7
  6
BYLAYER
 10
10.7221899653
 20
54.235184598
 11
6.9721899653
 21
54.235184598
  0
LINE
  5
230
100
AcDbEntity
  8
00_COMPONENTS_5
100
AcDbLine
 62
7
  6
BYLAYER
 10
24.9265856324
 20
58.6831603939
 11
39.3929942982
 21
58.6831603939
  0
LINE
  5
231
100
AcDbEntity
  8
00_COMPONENTS_5
100
AcDbLine
 62
7
  6
BYLAYER
 10
49.6222899653
 20
48.4538647268
 11
49.6222899653
 21
33.9874560609
  0
LINE
  5
232
100
AcDbEntity
  8
00_COMPONENTS_5
100
AcDbLine
 62
7
  6
BYLAYER
 10
49.6222899653
 20
33.9874560609
 11
39.3929942982
 21
23.7581603939
  0
LINE
  5
233
100
AcDbEntity
  8
00_COMPONENTS_5
100
AcDbLine
 62
7
  6
BYLAYER
 10
35.2288836426
 20
59.6356603939
 11
29.090696288
 21
59.6356603939
  0
LINE
  5
234
100
AcDbEntity
  8
00_COMPONENTS_5
100
AcDbLine
 62
7
  6
BYLAYER
 10
39.3929942982
 20
58.6831603939
 11
49.6222899653
 21
48.4538647268
  0
LINE
  5
235
100
AcDbEntity
  8
00_COMPONENTS_5
100
AcDbLine
 62
7
  6
BYLAYER
 10
50.5747899653
 20
38.1515667166
 11
50.5747899653
 21
44.2897540712
  0
LINE
  5
236
100
AcDbEntity
  8
00_COMPONENTS_5
100
AcDbLine
 62
7
  6
BYLAYER
 10
51.2097899653
 20
35.6644103939
 11
51.2097899653
 21
46.7769103939
  0
LINE
  5
237
100
AcDbEntity
  8
00_COMPONENTS_4
100
AcDbLine
 62
7
  6
BYLAYER
 10
10.7221899653
 20
62.6582603939
 11
26.2614625636
 21
62.6582603939
  0
LINE
  5
238
100
AcDbEntity
  8
00_COMPONENTS_4
100
AcDbLine
 62
7
  6
BYLAYER
 10
38.058117367
 20
62.6582603939
 11
53.5973899653
 21
62.6582603939
  0
LINE
  5
239
100
AcDbEntity
  8
00_COMPONENTS_4
100
AcDbLine
 62
7
  6
BYLAYER
 10
53.5973899653
 20
19.7830603939
 11
53.5973899653
 21
62.6582603939
  0
LINE
  5
23A
100
AcDbEntity
  8
00_COMPONENTS_4
100
AcDbLine
 62
7
  6
BYLAYER
 10
30.5722899653
 20
63.9790603939
 11
33.7472899653
 21
63.9790603939
  0
LINE
  5
23B
100
AcDbEntity
  8
00_COMPONENTS_4
100
AcDbLine
 62
7
  6
BYLAYER
 10
33.7472899653
 20
63.9790603939
 11
38.6705879774
 21
62.470604729
  0
LINE
  5
23C
100
AcDbEntity
  8
00_COMPONENTS
100
AcDbLine
 62
7
  6
BYLAYER
 10
10.7221899653
 20
61.6753581213
 11
6.9721899653
 21
60.7102362933
  0
ARC
  5
23D
100
AcDbEntity
  8
00_COMPONENTS_4
100
AcDbCircle
 62
7
  6
BYLAYER
 10
32.1597899653
 20
41.2206603939
 40
22.225
100
AcDbArc
 50
15.2969576344
 51
72.9653914043
  0
ARC
  5
23E
100
AcDbEntity
  8
00_COMPONENTS_4
100
AcDbCircle
 62
7
  6
BYLAYER
 10
32.1597899653
 20
41.2206603939
 40
22.225
100
AcDbArc
 50
285.2969576344
 51
344.7030423656
  0
ARC
  5
23F
100
AcDbEntity
  8
00_COMPONENTS_4
100
AcDbCircle
 62
7
  6
BYLAYER
 10
32.1597899653
 20
41.2206603939
 40
22.225
100
AcDbArc
 50
195.2969576344
 51
254.7030423656
  0
ARC
  5
240
100
AcDbEntity
  8
00_COMPONENTS_4
100
AcDbCircle
 62
7
  6
BYLAYER
 10
32.1597899653
 20
41.2206603939
 40
22.225
100
AcDbArc
 50
107.0346085959
 51
164.7030423656
  0
CIRCLE
  5
241
100
AcDbEntity
  8
00_COMPONENTS_4
100
AcDbCircle
 62
7
  6
BYLAYER
 10
32.1597899653
 20
41.2206603939
 40
20.2946
  0
ARC
  5
242
100
AcDbEntity
  8
00_COMPONENTS_5
100
AcDbCircle
 62
7
  6
BYLAYER
 10
32.1597899653
 20
41.2206603939
 40
19.84375
100
AcDbArc
 50
196.2602047083
 51
343.7397952917
  0
ARC
  5
243
100
AcDbEntity
  8
00_COMPONENTS_5
100
AcDbCircle
 62
7
  6
BYLAYER
 10
32.1597899653
 20
41.2206603939
 40
19.84375
100
AcDbArc
 50
16.2602047083
 51
163.7397952917
  0
ARC
  5
244
100
AcDbEntity
  8
00_COMPONENTS_4
100
AcDbCircle
 62
7
  6
BYLAYER
 10
32.1597899653
 20
41.2206603939
 40
19.84375
100
AcDbArc
 50
340.3664208685
 51
19.6455721172
  0
ARC
  5
245
100
AcDbEntity
  8
00_COMPONENTS_4
100
AcDbCircle
 62
7
  6
BYLAYER
 10
32.1597899653
 20
41.2206603939
 40
19.84375
100
AcDbArc
 50
160.3664208685
 51
199.6455721172
  0
ARC
  5
246
100
AcDbEntity
  8
00_COMPONENTS_5
100
AcDbCircle
 62
7
  6
BYLAYER
 10
32.1597899653
 20
41.2206603939
 40
18.669
100
AcDbArc
 50
114.2886757167
 51
155.7113242833
  0
ARC
  5
247
100
AcDbEntity
  8
00_COMPONENTS_5
100
AcDbCircle
 62
7
  6
BYLAYER
 10
32.1597899653
 20
41.2206603939
 40
18.669
100
AcDbArc
 50
69.2886757167
 51
80.5378987509
  0
ARC
  5
248
100
AcDbEntity
  8
00_COMPONENTS_5
100
AcDbCircle
 62
7
  6
BYLAYER
 10
32.1597899653
 20
41.2206603939
 40
18.669
100
AcDbArc
 50
99.4621012491
 51
110.7113242833
  0
ARC
  5
249
100
AcDbEntity
  8
00_COMPONENTS_5
100
AcDbCircle
 62
7
  6
BYLAYER
 10
32.1597899653
 20
41.2206603939
 40
18.669
100
AcDbArc
 50
24.2886757167
 51
65.7113242833
  0
ARC
  5
24A
100
AcDbEntity
  8
00_COMPONENTS_5
100
AcDbCircle
 62
7
  6
BYLAYER
 10
32.1597899653
 20
41.2206603939
 40
18.669
100
AcDbArc
 50
339.2886757167
 51
350.5378987509
  0
ARC
  5
24B
100
AcDbEntity
  8
00_COMPONENTS_5
100
AcDbCircle
 62
7
  6
BYLAYER
 10
32.1597899653
 20
41.2206603939
 40
18.669
100
AcDbArc
 50
9.4621012491
 51
20.7113242833
  0
ARC
  5
24C
100
AcDbEntity
  8
00_COMPONENTS_5
100
AcDbCircle
 62
7
  6
BYLAYER
 10
32.1597899653
 20
41.2206603939
 40
18.669
100
AcDbArc
 50
294.2886757167
 51
335.7113242833
  0
ARC
  5
24D
100
AcDbEntity
  8
00_COMPONENTS_5
100
AcDbCircle
 62
7
  6
BYLAYER
 10
32.1597899653
 20
41.2206603939
 40
18.669
100
AcDbArc
 50
249.2886757167
 51
290.7113242833
  0
ARC
  5
24E
100
AcDbEntity
  8
00_COMPONENTS_5
100
AcDbCircle
 62
7
  6
BYLAYER
 10
32.1597899653
 20
41.2206603939
 40
18.669
100
AcDbArc
 50
204.2886757167
 51
245.7113242833
  0
ARC
  5
24F
100
AcDbEntity
  8
00_COMPONENTS_5
100
AcDbCircle
 62
7
  6
BYLAYER
 10
32.1597899653
 20
41.2206603939
 40
18.669
100
AcDbArc
 50
159.2886757167
 51
170.5378987509
  0
ARC
  5
250
100
AcDbEntity
  8
00_COMPONENTS_5
100
AcDbCircle
 62
7
  6
BYLAYER
 10
32.1597899653
 20
41.2206603939
 40
18.669
100
AcDbArc
 50
189.4621012491
 51
200.7113242833
  0
CIRCLE
  5
251
100
AcDbEntity
  8
00_COMPONENTS_5
100
AcDbCircle
 62
7
  6
BYLAYER
 10
32.1597899653
 20
41.2206603939
 40
16.393700004
  0
CIRCLE
  5
252
100
AcDbEntity
  8
00_COMPONENTS_5
100
AcDbCircle
 62
7
  6
BYLAYER
 10
32.1597899653
 20
41.2206603939
 40
16.000000004
  0
CIRCLE
  5
253
100
AcDbEntity
  8
00_COMPONENTS_5
100
AcDbCircle
 62
7
  6
BYLAYER
 10
32.1597899653
 20
41.2206603939
 40
15.746000004
  0
CIRCLE
  5
254
100
AcDbEntity
  8
00_COMPONENTS_5
100
AcDbCircle
 62
7
  6
BYLAYER
 10
32.1597899653
 20
41.2206603939
 40
12.9999999969
  0
CIRCLE
  5
255
100
AcDbEntity
  8
00_COMPONENTS_5
100
AcDbCircle
 62
7
  6
BYLAYER
 10
32.1597899653
 20
41.2206603939
 40
12.0000000005
  0
CIRCLE
  5
256
100
AcDbEntity
  8
00_COMPONENTS_5
100
AcDbCircle
 62
7
  6
BYLAYER
 10
32.1597899653
 20
41.2206603939
 40
9.5000000005
  0
ENDSEC
  0
SECTION
  2
OBJECTS
  0
DICTIONARY
  5
C
100
AcDbDictionary
280
0
281
1
  3
ACAD_GROUP
350
D
  3
ACAD_MLINESTYLE
350
17
  3
ACAD_LAYOUT
350
1A
  3
ACAD_PLOTSETTINGS
350
19
  3
ACAD_PLOTSTYLENAME
350
E
  0
DICTIONARY
  5
D
102
{ACAD_REACTORS
330
C
102
}
100
AcDbDictionary
280
0
281
1
  0
ACDBDICTIONARYWDFLT
  5
E
102
{ACAD_REACTORS
330
C
102
}
100
AcDbDictionary
281
1
  3
Normal
350
F
100
AcDbDictionaryWithDefault
340
F
  0
DICTIONARY
  5
17
102
{ACAD_REACTORS
330
C
102
}
100
AcDbDictionary
280
0
281
1
  3
Standard
350
18
  0
DICTIONARY
  5
19
102
{ACAD_REACTORS
330
C
102
}
100
AcDbDictionary
281
1
  0
DICTIONARY
  5
1A
102
{ACAD_REACTORS
330
C
102
}
100
AcDbDictionary
281
1
  3
Model
350
257
  3
Layout1
350
258
  0
ACDBPLACEHOLDER
  5
F
102
{ACAD_REACTORS
330
E
102
}
  0
MLINESTYLE
  5
18
102
{ACAD_REACTORS
330
17
102
}
100
AcDbMlineStyle
  2
STANDARD
 70
0
  3

 62
256
 51
90.0
 52
90.0
 71
2
 49
0.5
 62
256
  6
BYLAYER
 49
-0.5
 62
256
  6
BYLAYER
  0
LAYOUT
  5
257
102
{ACAD_REACTORS
330
1A
102
}
100
AcDbPlotSettings
  1

  2
none_device
  4

  6

 40
0.0
 41
0.0
 42
0.0
 43
0.0
 44
210.0
 45
297.0
 46
0.0
 47
0.0
 48
0.0
 49
0.0
140
0.0
141
0.0
142
1.0
143
1.0
 70
1024
 72
1
 73
0
 74
0
  7

 75
0
147
1.0
148
0.0
149
0.0
100
AcDbLayout
  1
Model
 70
0
 71
0
 10
0.0
 20
0.0
 11
210.0
 21
297.0
 12
0.0
 22
0.0
 32
0.0
 14
0.0
 24
0.0
 34
0.0
 15
0.0
 25
0.0
 35
0.0
146
0.0
 13
0.0
 23
0.0
 33
0.0
 16
1.0
 26
0.0
 36
0.0
 17
0.0
 27
1.0
 37
0.0
 76
0
330
219
345
0
346
0
  0
LAYOUT
  5
258
102
{ACAD_REACTORS
330
1A
102
}
100
AcDbPlotSettings
  1

  2
none_device
  4

  6

 40
0.0
 41
0.0
 42
0.0
 43
0.0
 44
210.0
 45
297.0
 46
0.0
 47
0.0
 48
0.0
 49
0.0
140
0.0
141
0.0
142
1.0
143
1.0
 70
0
 72
1
 73
0
 74
0
  7

 75
0
147
1.0
148
0.0
149
0.0
100
AcDbLayout
  1
Layout1
 70
0
 71
1
 10
0.0
 20
0.0
 11
210.0
 21
297.0
 12
0.0
 22
0.0
 32
0.0
 14
0.0
 24
0.0
 34
0.0
 15
0.0
 25
0.0
 35
0.0
146
0.0
 13
0.0
 23
0.0
 33
0.0
 16
1.0
 26
0.0
 36
0.0
 17
0.0
 27
1.0
 37
0.0
 76
0
330
21A
345
0
346
0
  0
ENDSEC
  0
EOF
