999
DXF file: C:\Users\sesa63760\Dev\_Creo\CAD\MCADPP0003191_3D-CAD\drw0001_1.dxf
999
Pro/ENGINEER 2019471 by Parametric Technology Corporation
  0
SECTION
  2
HEADER
  9
$ACADVER
  1
AC1024
  9
$DWGCODEPAGE
  3
ANSI_1252
  9
$EXTMAX
 10
657.0596805824
 20
929.2701196808
 30
0.0
  9
$EXTMIN
 10
0.0
 20
0.0
 30
0.0
  9
$LIMMIN
 10
0.0
 20
0.0
  9
$LIMMAX
 10
657.0596805824
 20
929.2701196808
  9
$VIEWCTR
 10
328.5298402912
 20
464.6350598404
  9
$VIEWSIZE
 40
929.2701196808
  9
$CLAYER
  8
0
  9
$LTSCALE
 40
60.5746448385
  9
$CELTYPE
  6
BYLAYER
  9
$DIMSCALE
 40
1.0
  9
$DIMASZ
 40
7.8221390546
  9
$DIMEXO
 40
1.0
  9
$DIMDLI
 40
41.8515727975
  9
$DIMEXE
 40
1.0
  9
$DIMCEN
 40
9.9122146099
  9
$DIMLFAC
 40
1.0
  9
$DIMBLK
  1
_FILLED
  9
$DIMALT
 70
0
  9
$DIMALTF
 40
0.0393700787
  9
$DIMTXT
 40
10.9509946764
  9
$DIMTOL
 70
1
  9
$DIMLIM
 70
0
  9
$DIMTFAC
 40
1.0
  9
$DIMTP
 40
0.01
  9
$DIMTM
 40
0.01
  9
$DIMGAP
 40
0.625
  9
$DIMDSEP
 70
46
  9
$AUNITS
 70
0
  9
$PDMODE
 70
3
  9
$PDSIZE
 40
0.3125
  9
$HANDSEED
  5
8AE
  9
$TILEMODE
 70
1
  9
$MEASUREMENT
 70
1
  9
$INSUNITS
 70
4
  0
ENDSEC
  0
SECTION
  2
CLASSES
  0
CLASS
  1
ACDBDICTIONARYWDFLT
  2
AcDbDictionaryWithDefault
  3
AutoCAD 2000
 90
0
 91
1
280
0
281
0
  0
CLASS
  1
ACDBPLACEHOLDER
  2
AcDbPlaceHolder
  3
AutoCAD 2000
 90
0
 91
1
280
0
281
0
  0
CLASS
  1
LAYOUT
  2
AcDbLayout
  3
AutoCAD 2000
 90
0
 91
0
280
0
281
0
  0
ENDSEC
  0
SECTION
  2
TABLES
  0
TABLE
  2
VPORT
  5
8
100
AcDbSymbolTable
 70
2
  0
VPORT
  5
1F4
100
AcDbSymbolTableRecord
100
AcDbViewportTableRecord
  2
*ACTIVE
 70
0
 10
0.0
 20
0.0
 11
1.0
 21
1.0
 12
328.5298402912
 22
464.6350598404
 13
0.0
 23
0.0
 14
1.0
 24
1.0
 15
0.0
 25
0.0
 16
0.0
 26
0.0
 36
1.0
 17
0.0
 27
0.0
 37
0.0
 40
929.2701196808
 41
0.7070707071
 42
50.0
 43
0.0
 44
0.0
 50
0.0
 51
0.0
 71
0
 72
100
 73
1
 74
1
 75
0
 76
0
 77
0
 78
0
  0
ENDTAB
  0
TABLE
  2
LTYPE
  5
5
100
AcDbSymbolTable
 70
6
  0
LTYPE
  5
14
100
AcDbSymbolTableRecord
100
AcDbLinetypeTableRecord
  2
BYBLOCK
 70
0
  3

 72
65
 73
0
 40
0.0
  0
LTYPE
  5
15
100
AcDbSymbolTableRecord
100
AcDbLinetypeTableRecord
  2
BYLAYER
 70
0
  3

 72
65
 73
0
 40
0.0
  0
LTYPE
  5
16
100
AcDbSymbolTableRecord
100
AcDbLinetypeTableRecord
  2
CONTINUOUS
 70
64
  3
Solid line
 72
65
 73
0
 40
0.0
  0
LTYPE
  5
1F5
100
AcDbSymbolTableRecord
100
AcDbLinetypeTableRecord
  2
CENTER
 70
64
  3
____ _ ____ _ ____ _ ____ _ ____ _ ____ _ ____
 72
65
 73
4
 40
0.6
 49
0.375
 74
0
 49
-0.075
 74
0
 49
0.075
 74
0
 49
-0.075
 74
0
  0
LTYPE
  5
1F6
100
AcDbSymbolTableRecord
100
AcDbLinetypeTableRecord
  2
HIDDEN
 70
64
  3
- - - - - - - - - - - - - - - - - - - -
 72
65
 73
2
 40
0.2
 49
0.1
 74
0
 49
-0.1
 74
0
  0
LTYPE
  5
1F7
100
AcDbSymbolTableRecord
100
AcDbLinetypeTableRecord
  2
PHANTOM
 70
64
  3
_____ _ _ _____ _ _ _____ _ _ _____
 72
65
 73
6
 40
0.8
 49
0.45
 74
0
 49
-0.05
 74
0
 49
0.1
 74
0
 49
-0.05
 74
0
 49
0.1
 74
0
 49
-0.05
 74
0
  0
LTYPE
  5
1F8
100
AcDbSymbolTableRecord
100
AcDbLinetypeTableRecord
  2
DOT
 70
64
  3
. . . . . . . . . . . . . . . . . . . .
 72
65
 73
2
 40
0.2
 49
0.1
 74
0
 49
-0.1
 74
0
  0
LTYPE
  5
1F9
100
AcDbSymbolTableRecord
100
AcDbLinetypeTableRecord
  2
DASHED
 70
64
  3
- - - - - - - - - - - - - - - - - - - -
 72
65
 73
2
 40
0.2
 49
0.1
 74
0
 49
-0.1
 74
0
  0
ENDTAB
  0
TABLE
  2
LAYER
  5
2
100
AcDbSymbolTable
 70
36
  0
LAYER
  5
10
100
AcDbSymbolTableRecord
100
AcDbLayerTableRecord
  2
0
 70
0
 62
7
  6
CONTINUOUS
370
-3
390
F
  0
LAYER
  5
1FA
100
AcDbSymbolTableRecord
100
AcDbLayerTableRecord
  2
DEFAULT_1
 70
0
 62
7
  6
CENTER
370
-3
390
F
  0
LAYER
  5
1FB
100
AcDbSymbolTableRecord
100
AcDbLayerTableRecord
  2
DEFAULT_2
 70
0
 62
8
  6
HIDDEN
370
-3
390
F
  0
LAYER
  5
1FC
100
AcDbSymbolTableRecord
100
AcDbLayerTableRecord
  2
DEFAULT_3
 70
0
 62
7
  6
PHANTOM
370
-3
390
F
  0
LAYER
  5
1FD
100
AcDbSymbolTableRecord
100
AcDbLayerTableRecord
  2
00_COMPONENTS
 70
0
 62
7
  6
CONTINUOUS
370
-3
390
F
  0
LAYER
  5
1FE
100
AcDbSymbolTableRecord
100
AcDbLayerTableRecord
  2
01_1_DEFAULT_DATUMS
 70
0
 62
7
  6
CONTINUOUS
370
-3
390
F
  0
LAYER
  5
1FF
100
AcDbSymbolTableRecord
100
AcDbLayerTableRecord
  2
01_PLANES
 70
0
 62
7
  6
CONTINUOUS
370
-3
390
F
  0
LAYER
  5
200
100
AcDbSymbolTableRecord
100
AcDbLayerTableRecord
  2
02_COORD_SYS
 70
0
 62
7
  6
CONTINUOUS
370
-3
390
F
  0
LAYER
  5
201
100
AcDbSymbolTableRecord
100
AcDbLayerTableRecord
  2
03_AXES
 70
0
 62
7
  6
CONTINUOUS
370
-3
390
F
  0
LAYER
  5
202
100
AcDbSymbolTableRecord
100
AcDbLayerTableRecord
  2
04_POINTS
 70
0
 62
7
  6
CONTINUOUS
370
-3
390
F
  0
LAYER
  5
203
100
AcDbSymbolTableRecord
100
AcDbLayerTableRecord
  2
05_CURVES
 70
0
 62
7
  6
CONTINUOUS
370
-3
390
F
  0
LAYER
  5
204
100
AcDbSymbolTableRecord
100
AcDbLayerTableRecord
  2
06_SURFS
 70
0
 62
7
  6
CONTINUOUS
370
-3
390
F
  0
LAYER
  5
205
100
AcDbSymbolTableRecord
100
AcDbLayerTableRecord
  2
07_COSMETICS
 70
0
 62
7
  6
CONTINUOUS
370
-3
390
F
  0
LAYER
  5
206
100
AcDbSymbolTableRecord
100
AcDbLayerTableRecord
  2
10_NOTES
 70
0
 62
7
  6
CONTINUOUS
370
-3
390
F
  0
LAYER
  5
207
100
AcDbSymbolTableRecord
100
AcDbLayerTableRecord
  2
11_NOTES_PUB
 70
0
 62
7
  6
CONTINUOUS
370
-3
390
F
  0
LAYER
  5
208
100
AcDbSymbolTableRecord
100
AcDbLayerTableRecord
  2
13_REF_GTOL
 70
0
 62
7
  6
CONTINUOUS
370
-3
390
F
  0
LAYER
  5
209
100
AcDbSymbolTableRecord
100
AcDbLayerTableRecord
  2
16_MISC
 70
0
 62
7
  6
CONTINUOUS
370
-3
390
F
  0
LAYER
  5
20A
100
AcDbSymbolTableRecord
100
AcDbLayerTableRecord
  2
17_NO_PRINT
 70
0
 62
7
  6
CONTINUOUS
370
-3
390
F
  0
LAYER
  5
20B
100
AcDbSymbolTableRecord
100
AcDbLayerTableRecord
  2
18_DATUM_CAMS_JOINTS
 70
0
 62
7
  6
CONTINUOUS
370
-3
390
F
  0
LAYER
  5
20C
100
AcDbSymbolTableRecord
100
AcDbLayerTableRecord
  2
19_DATUM_FUNCTIONAL
 70
0
 62
7
  6
CONTINUOUS
370
-3
390
F
  0
LAYER
  5
20D
100
AcDbSymbolTableRecord
100
AcDbLayerTableRecord
  2
20_DATUM_KINEMATIC_SCHEME
 70
0
 62
7
  6
CONTINUOUS
370
-3
390
F
  0
LAYER
  5
20E
100
AcDbSymbolTableRecord
100
AcDbLayerTableRecord
  2
INTFCLR_23130
 70
0
 62
7
  6
CONTINUOUS
370
-3
390
F
  0
LAYER
  5
20F
100
AcDbSymbolTableRecord
100
AcDbLayerTableRecord
  2
NONE
 70
0
 62
7
  6
CONTINUOUS
370
-3
390
F
  0
ENDTAB
  0
TABLE
  2
STYLE
  5
3
100
AcDbSymbolTable
 70
1
  0
STYLE
  5
11
100
AcDbSymbolTableRecord
100
AcDbTextStyleTableRecord
  2
STANDARD
 70
0
 40
0.0
 41
0.8
 50
0.0
 71
0
 42
0.2
  3
txt
  4

  0
STYLE
  5
210
100
AcDbSymbolTableRecord
100
AcDbTextStyleTableRecord
  2
TEXTSTYLE_1
 70
0
 40
0.0
 41
0.8
 50
0.0
 71
0
 42
0.2
  3
gdt
  4

  0
ENDTAB
  0
TABLE
  2
VIEW
  5
6
100
AcDbSymbolTable
 70
0
  0
ENDTAB
  0
TABLE
  2
UCS
  5
7
100
AcDbSymbolTable
 70
0
  0
ENDTAB
  0
TABLE
  2
APPID
  5
9
100
AcDbSymbolTable
 70
1
  0
APPID
  5
211
100
AcDbSymbolTableRecord
100
AcDbRegAppTableRecord
  2
ACAD
 70
0
  0
ENDTAB
  0
TABLE
  2
BLOCK_RECORD
  5
1
100
AcDbSymbolTable
 70
0
  0
BLOCK_RECORD
  5
212
100
AcDbSymbolTableRecord
100
AcDbBlockTableRecord
  2
*Model_Space
  0
BLOCK_RECORD
  5
213
100
AcDbSymbolTableRecord
100
AcDbBlockTableRecord
  2
*Paper_Space
  0
BLOCK_RECORD
  5
214
100
AcDbSymbolTableRecord
100
AcDbBlockTableRecord
  2
_FILLED
  0
ENDTAB
  0
TABLE
  2
DIMSTYLE
  5
A
100
AcDbSymbolTable
 70
1
100
AcDbDimStyleTable
 71
0
  0
DIMSTYLE
105
215
100
AcDbSymbolTableRecord
100
AcDbDimStyleTableRecord
  2
STANDARD
 70
0
  3

  4

 40
1.0
 41
7.8221390546
 42
1.0
 43
0.38
 44
1.0
 45
0.0
 46
0.0
 47
0.01
 48
0.01
140
10.9509946764
141
0.09
142
0.0
143
25.4
144
1.0
145
0.0
146
1.0
147
0.625
 71
1
 72
0
 73
0
 74
0
 75
0
 76
0
 77
1
 78
8
 79
2
170
0
171
1
172
0
173
0
174
0
175
0
176
0
177
0
178
0
270
2
179
2
271
2
272
2
273
2
274
2
275
0
280
0
281
0
282
0
283
1
284
8
285
0
286
0
287
3
288
0
340
11
278
46
341
214
342
214
343
214
344
214
  0
ENDTAB
  0
ENDSEC
  0
SECTION
  2
BLOCKS
  0
BLOCK
  5
20
100
AcDbEntity
  8
0
100
AcDbBlockBegin
  2
*Model_Space
 70
0
 10
0.0
 20
0.0
 30
0.0
  3
*Model_Space
  1

  0
ENDBLK
  5
21
100
AcDbEntity
  8
0
100
AcDbBlockEnd
  0
BLOCK
  5
1C
100
AcDbEntity
  8
0
100
AcDbBlockBegin
  2
*Paper_Space
 70
0
 10
0.0
 20
0.0
 30
0.0
  3
*Paper_Space
  1

  0
ENDBLK
  5
1D
100
AcDbEntity
  8
0
100
AcDbBlockEnd
  0
BLOCK
  5
216
100
AcDbEntity
  8
0
100
AcDbBlockBegin
  2
_FILLED
 70
64
 10
0.0
 20
0.0
  3
_FILLED
  1

  0
SOLID
  5
217
100
AcDbEntity
  8
0
  6
BYBLOCK
 62
0
100
AcDbTrace
 10
0.0
 20
0.0
 11
-1.0
 21
0.25
 12
-1.0
 22
-0.25
 13
-1.0
 23
-0.25
  0
ENDBLK
  5
218
100
AcDbEntity
  8
0
  6
BYBLOCK
 62
0
100
AcDbBlockEnd
  0
ENDSEC
  0
SECTION
  2
ENTITIES
  0
LINE
  5
219
100
AcDbEntity
  8
0
100
AcDbLine
 62
7
  6
CONTINUOUS
 10
76.2264825987
 20
615.9424921823
 11
79.7620017848
 21
622.0662250373
  0
LINE
  5
21A
100
AcDbEntity
  8
0
100
AcDbLine
 62
7
  6
CONTINUOUS
 10
76.2264825987
 20
558.7873229832
 11
76.2264825987
 21
560.828579026
  0
LINE
  5
21B
100
AcDbEntity
  8
0
100
AcDbLine
 62
7
  6
CONTINUOUS
 10
76.2264825987
 20
613.9012361394
 11
76.2264825987
 21
615.9424921823
  0
LINE
  5
21C
100
AcDbEntity
  8
0
100
AcDbLine
 62
7
  6
CONTINUOUS
 10
76.3148705784
 20
562.5126143795
 11
76.3148705784
 21
613.1357642415
  0
LINE
  5
21D
100
AcDbEntity
  8
0
100
AcDbLine
 62
7
  6
CONTINUOUS
 10
76.2971929824
 20
560.8694034414
 11
76.3148705784
 21
562.5126143795
  0
LINE
  5
21E
100
AcDbEntity
  8
0
100
AcDbLine
 62
7
  6
CONTINUOUS
 10
101.788286314
 20
634.7830304304
 11
79.7620017848
 21
622.0662250373
  0
LINE
  5
21F
100
AcDbEntity
  8
0
100
AcDbLine
 62
7
  6
CONTINUOUS
 10
102.1418411766
 20
634.5789100531
 11
124.4509672407
 21
647.4590131077
  0
LINE
  5
220
100
AcDbEntity
  8
0
100
AcDbLine
 62
7
  6
CONTINUOUS
 10
116.6728368072
 20
641.3353575984
 11
103.5560606269
 21
633.7624285441
  0
LINE
  5
221
100
AcDbEntity
  8
0
100
AcDbLine
 62
7
  6
CONTINUOUS
 10
104.263170352
 20
633.3541877895
 11
113.8444273463
 21
638.8858960745
  0
LINE
  5
222
100
AcDbEntity
  8
0
100
AcDbLine
 62
7
  6
CONTINUOUS
 10
103.167362538
 20
567.4018200321
 11
103.167362538
 21
577.1998490377
  0
LINE
  5
223
100
AcDbEntity
  8
0
100
AcDbLine
 62
7
  6
CONTINUOUS
 10
136.3307797966
 20
589.4069646756
 11
132.7952606105
 21
583.2832318206
  0
LINE
  5
224
100
AcDbEntity
  8
0
100
AcDbLine
 62
7
  6
CONTINUOUS
 10
134.2801786686
 20
583.5457820357
 11
136.9165637953
 21
588.112160372
  0
LINE
  5
225
100
AcDbEntity
  8
0
100
AcDbLine
 62
7
  6
CONTINUOUS
 10
124.6278506548
 20
632.6602245681
 11
115.0465936605
 21
627.1285162831
  0
LINE
  5
226
100
AcDbEntity
  8
0
100
AcDbLine
 62
7
  6
CONTINUOUS
 10
115.7537033857
 20
626.7202755286
 11
125.3349603799
 21
632.2519838135
  0
LINE
  5
227
100
AcDbEntity
  8
0
100
AcDbLine
 62
7
  6
CONTINUOUS
 10
126.7491798302
 20
631.4355023045
 11
117.167922836
 21
625.9037940195
  0
LINE
  5
228
100
AcDbEntity
  8
0
100
AcDbLine
 62
7
  6
CONTINUOUS
 10
117.8750325611
 20
625.495553265
 11
127.4562895553
 21
631.02726155
  0
LINE
  5
229
100
AcDbEntity
  8
0
100
AcDbLine
 62
7
  6
CONTINUOUS
 10
138.2397128638
 20
624.8015900435
 11
128.6584558696
 21
619.2698817586
  0
LINE
  5
22A
100
AcDbEntity
  8
0
100
AcDbLine
 62
7
  6
CONTINUOUS
 10
129.3655655947
 20
618.8616410041
 11
138.946822589
 21
624.393349289
  0
LINE
  5
22B
100
AcDbEntity
  8
0
100
AcDbLine
 62
7
  6
CONTINUOUS
 10
140.3610420393
 20
623.57686778
 11
130.779785045
 21
618.045159495
  0
LINE
  5
22C
100
AcDbEntity
  8
0
100
AcDbLine
 62
7
  6
CONTINUOUS
 10
131.4868947702
 20
617.6369187405
 11
141.0681517644
 21
623.1686270255
  0
LINE
  5
22D
100
AcDbEntity
  8
0
100
AcDbLine
 62
7
  6
CONTINUOUS
 10
105.9958014386
 20
575.5668860196
 11
105.9958014386
 21
565.768857014
  0
LINE
  5
22E
100
AcDbEntity
  8
0
100
AcDbLine
 62
7
  6
CONTINUOUS
 10
116.6728368072
 20
637.252950053
 11
116.6728368072
 21
641.3353575984
  0
LINE
  5
22F
100
AcDbEntity
  8
0
100
AcDbLine
 62
7
  6
CONTINUOUS
 10
124.6278506548
 20
631.8437362603
 11
124.6278506548
 21
632.6602245681
  0
LINE
  5
230
100
AcDbEntity
  8
0
100
AcDbLine
 62
7
  6
CONTINUOUS
 10
151.8515750729
 20
616.942955519
 11
142.2703180787
 21
611.4112472341
  0
LINE
  5
231
100
AcDbEntity
  8
0
100
AcDbLine
 62
7
  6
CONTINUOUS
 10
142.9774278038
 20
611.0030064796
 11
152.5586847981
 21
616.5347147645
  0
LINE
  5
232
100
AcDbEntity
  8
0
100
AcDbLine
 62
7
  6
CONTINUOUS
 10
153.9729042484
 20
615.7182332555
 11
144.3916472541
 21
610.1865249705
  0
LINE
  5
233
100
AcDbEntity
  8
0
100
AcDbLine
 62
7
  6
CONTINUOUS
 10
145.0987569793
 20
609.778284216
 11
154.6800139735
 21
615.3099925009
  0
LINE
  5
234
100
AcDbEntity
  8
0
100
AcDbLine
 62
7
  6
CONTINUOUS
 10
76.2264825987
 20
560.828579026
 11
76.2971929824
 21
560.8694034414
  0
LINE
  5
235
100
AcDbEntity
  8
0
100
AcDbLine
 62
7
  6
CONTINUOUS
 10
165.463437282
 20
609.0843209945
 11
155.8821802878
 21
603.5526127096
  0
LINE
  5
236
100
AcDbEntity
  8
0
100
AcDbLine
 62
7
  6
CONTINUOUS
 10
156.5892900129
 20
603.144371955
 11
169.7060661932
 21
610.7173010094
  0
LINE
  5
237
100
AcDbEntity
  8
0
100
AcDbLine
 62
7
  6
CONTINUOUS
 10
132.8659709942
 20
581.2828001932
 11
132.8836485901
 21
580.4765038799
  0
LINE
  5
238
100
AcDbEntity
  8
0
100
AcDbLine
 62
7
  6
CONTINUOUS
 10
126.7491798302
 20
630.6190139967
 11
126.7491798302
 21
631.4355023045
  0
LINE
  5
239
100
AcDbEntity
  8
0
100
AcDbLine
 62
7
  6
CONTINUOUS
 10
132.7952606105
 20
583.2832318206
 11
132.7952606105
 21
581.2419757778
  0
LINE
  5
23A
100
AcDbEntity
  8
0
100
AcDbLine
 62
7
  6
CONTINUOUS
 10
132.7952606105
 20
528.1693186644
 11
132.7952606105
 21
526.1280626216
  0
LINE
  5
23B
100
AcDbEntity
  8
0
100
AcDbLine
 62
7
  6
CONTINUOUS
 10
132.8836485901
 20
580.4765038799
 11
132.8836485901
 21
529.8533540179
  0
LINE
  5
23C
100
AcDbEntity
  8
0
100
AcDbLine
 62
7
  6
CONTINUOUS
 10
134.2801786686
 20
527.5801378528
 11
134.2801786686
 21
583.5457820357
  0
LINE
  5
23D
100
AcDbEntity
  8
0
100
AcDbLine
 62
7
  6
CONTINUOUS
 10
135.6943833991
 20
529.0266085238
 11
135.6943833991
 21
584.5487728886
  0
LINE
  5
23E
100
AcDbEntity
  8
0
100
AcDbLine
 62
7
  6
CONTINUOUS
 10
138.2397128638
 20
623.9851017358
 11
138.2397128638
 21
624.8015900435
  0
LINE
  5
23F
100
AcDbEntity
  8
0
100
AcDbLine
 62
7
  6
CONTINUOUS
 10
140.3610420393
 20
622.7603794722
 11
140.3610420393
 21
623.57686778
  0
LINE
  5
240
100
AcDbEntity
  8
0
100
AcDbLine
 62
7
  6
CONTINUOUS
 10
132.8836485901
 20
529.8533540179
 11
132.8659709942
 21
528.2101430798
  0
LINE
  5
241
100
AcDbEntity
  8
0
100
AcDbLine
 62
7
  6
CONTINUOUS
 10
171.8273894807
 20
593.9790153116
 11
174.797225597
 21
596.6734436584
  0
LINE
  5
242
100
AcDbEntity
  8
0
100
AcDbLine
 62
7
  6
CONTINUOUS
 10
187.8787555122
 20
589.1209896998
 11
184.9089193959
 21
586.426561353
  0
LINE
  5
243
100
AcDbEntity
  8
0
100
AcDbLine
 62
7
  6
CONTINUOUS
 10
186.8181156538
 20
585.3243113158
 11
189.7879517701
 21
588.0187396626
  0
LINE
  5
244
100
AcDbEntity
  8
0
100
AcDbLine
 62
7
  6
CONTINUOUS
 10
158.0035094632
 20
602.327890446
 11
180.3126355273
 21
615.2079935006
  0
LINE
  5
245
100
AcDbEntity
  8
0
100
AcDbLine
 62
7
  6
CONTINUOUS
 10
158.3570643258
 20
602.1237700687
 11
136.3307797966
 21
589.4069646756
  0
LINE
  5
246
100
AcDbEntity
  8
0
100
AcDbLine
 62
7
  6
CONTINUOUS
 10
136.9165637953
 20
588.112160372
 11
158.3570643258
 21
600.4907652345
  0
LINE
  5
247
100
AcDbEntity
  8
0
100
AcDbLine
 62
7
  6
CONTINUOUS
 10
103.167362538
 20
567.4018200321
 11
105.9958014386
 21
569.0348102451
  0
LINE
  5
248
100
AcDbEntity
  8
0
100
AcDbLine
 62
7
  6
CONTINUOUS
 10
136.7550391549
 20
586.3858927451
 11
162.9178811318
 21
601.4909264383
  0
LINE
  5
249
100
AcDbEntity
  8
0
100
AcDbLine
 62
7
  6
CONTINUOUS
 10
132.7952606105
 20
581.2419757778
 11
132.8659709942
 21
581.2828001932
  0
LINE
  5
24A
100
AcDbEntity
  8
0
100
AcDbLine
 62
7
  6
CONTINUOUS
 10
190.9191930855
 20
606.8387379047
 11
182.2218158878
 21
601.817334812
  0
LINE
  5
24B
100
AcDbEntity
  8
0
100
AcDbLine
 62
7
  6
CONTINUOUS
 10
181.3732912831
 20
601.3274418274
 11
180.3126355273
 21
600.7150755966
  0
LINE
  5
24C
100
AcDbEntity
  8
0
100
AcDbLine
 62
7
  6
CONTINUOUS
 10
169.7060779691
 20
592.75428285
 11
171.8273894807
 21
593.9790153116
  0
LINE
  5
24D
100
AcDbEntity
  8
0
100
AcDbLine
 62
7
  6
CONTINUOUS
 10
175.6457719303
 20
596.1835462874
 11
181.3732912831
 21
599.4903113889
  0
LINE
  5
24E
100
AcDbEntity
  8
0
100
AcDbLine
 62
7
  6
CONTINUOUS
 10
183.8128402626
 20
600.8987772415
 11
190.9191930855
 21
605.0016074661
  0
LINE
  5
24F
100
AcDbEntity
  8
0
100
AcDbLine
 62
7
  6
CONTINUOUS
 10
151.8515750729
 20
616.1264672113
 11
151.8515750729
 21
616.942955519
  0
LINE
  5
250
100
AcDbEntity
  8
0
100
AcDbLine
 62
7
  6
CONTINUOUS
 10
153.9729042484
 20
614.9017449477
 11
153.9729042484
 21
615.7182332555
  0
LINE
  5
251
100
AcDbEntity
  8
0
100
AcDbLine
 62
7
  6
CONTINUOUS
 10
158.3570643258
 20
536.8035766984
 11
158.3570643258
 21
538.4365815326
  0
LINE
  5
252
100
AcDbEntity
  8
0
100
AcDbLine
 62
7
  6
CONTINUOUS
 10
158.3570643258
 20
600.4907652345
 11
158.3570643258
 21
602.1237700687
  0
LINE
  5
253
100
AcDbEntity
  8
0
100
AcDbLine
 62
7
  6
CONTINUOUS
 10
163.9785368876
 20
600.8785390434
 11
163.9785368876
 21
545.3563746786
  0
LINE
  5
254
100
AcDbEntity
  8
0
100
AcDbLine
 62
7
  6
CONTINUOUS
 10
165.463437282
 20
608.2678326867
 11
165.463437282
 21
609.0843209945
  0
LINE
  5
255
100
AcDbEntity
  8
0
100
AcDbLine
 62
7
  6
CONTINUOUS
 10
200.4653086199
 20
581.8543042693
 11
197.4954725036
 21
579.1598759225
  0
LINE
  5
256
100
AcDbEntity
  8
0
100
AcDbLine
 62
7
  6
CONTINUOUS
 10
199.4046687615
 20
578.0576258853
 11
202.3745048778
 21
580.7520542321
  0
LINE
  5
257
100
AcDbEntity
  8
0
100
AcDbLine
 62
7
  6
CONTINUOUS
 10
194.4548211983
 20
593.7749878688
 11
195.303345803
 21
594.2648808534
  0
LINE
  5
258
100
AcDbEntity
  8
0
100
AcDbLine
 62
7
  6
CONTINUOUS
 10
182.7876078843
 20
585.2018288914
 11
184.9089193959
 21
586.426561353
  0
LINE
  5
259
100
AcDbEntity
  8
0
100
AcDbLine
 62
7
  6
CONTINUOUS
 10
187.8787555122
 20
588.1411867992
 11
194.4548211983
 21
591.9378574302
  0
LINE
  5
25A
100
AcDbEntity
  8
0
100
AcDbLine
 62
7
  6
CONTINUOUS
 10
195.303345803
 20
592.4277504149
 11
204.0007230007
 21
597.4491535075
  0
LINE
  5
25B
100
AcDbEntity
  8
0
100
AcDbLine
 62
7
  6
CONTINUOUS
 10
196.3640174562
 20
592.6727378316
 11
197.2125420609
 21
593.1626308162
  0
LINE
  5
25C
100
AcDbEntity
  8
0
100
AcDbLine
 62
7
  6
CONTINUOUS
 10
205.9099192586
 20
596.3469034703
 11
198.8035664357
 21
592.2440732456
  0
LINE
  5
25D
100
AcDbEntity
  8
0
100
AcDbLine
 62
7
  6
CONTINUOUS
 10
196.3640174562
 20
590.835607393
 11
190.6364981034
 21
587.5288422916
  0
LINE
  5
25E
100
AcDbEntity
  8
0
100
AcDbLine
 62
7
  6
CONTINUOUS
 10
186.8181156538
 20
585.3243113158
 11
184.6968041422
 21
584.0995788541
  0
LINE
  5
25F
100
AcDbEntity
  8
0
100
AcDbLine
 62
7
  6
CONTINUOUS
 10
182.7876078843
 20
582.9564472442
 11
184.714498381
 21
584.0689313506
  0
LINE
  5
260
100
AcDbEntity
  8
0
100
AcDbLine
 62
7
  6
CONTINUOUS
 10
178.5449495334
 20
576.0161139744
 11
182.0804981592
 21
578.0573604337
  0
LINE
  5
261
100
AcDbEntity
  8
0
100
AcDbLine
 62
7
  6
CONTINUOUS
 10
207.0413743059
 20
586.5083024383
 11
207.8898989106
 21
586.998195423
  0
LINE
  5
262
100
AcDbEntity
  8
0
100
AcDbLine
 62
7
  6
CONTINUOUS
 10
195.3741609919
 20
577.9351434609
 11
197.4954725036
 21
579.1598759225
  0
LINE
  5
263
100
AcDbEntity
  8
0
100
AcDbLine
 62
7
  6
CONTINUOUS
 10
200.4653086199
 20
580.8745013688
 11
207.0413743059
 21
584.6711719998
  0
LINE
  5
264
100
AcDbEntity
  8
0
100
AcDbLine
 62
7
  6
CONTINUOUS
 10
207.8898989106
 20
585.1610649844
 11
216.5872761083
 21
590.182468077
  0
LINE
  5
265
100
AcDbEntity
  8
0
100
AcDbLine
 62
7
  6
CONTINUOUS
 10
208.9505705638
 20
585.4060524011
 11
209.7990951685
 21
585.8959453858
  0
LINE
  5
266
100
AcDbEntity
  8
0
100
AcDbLine
 62
7
  6
CONTINUOUS
 10
558.2628542736
 20
338.2153462811
 11
558.8494323584
 21
338.3604825056
  0
LINE
  5
267
100
AcDbEntity
  8
0
100
AcDbLine
 62
7
  6
CONTINUOUS
 10
573.7971777031
 20
318.4214484114
 11
573.8848169254
 21
318.4326023123
  0
LINE
  5
268
100
AcDbEntity
  8
0
100
AcDbLine
 62
7
  6
CONTINUOUS
 10
169.7060779691
 20
560.0941861648
 11
169.7060779691
 21
592.75428285
  0
LINE
  5
269
100
AcDbEntity
  8
0
100
AcDbLine
 62
7
  6
CONTINUOUS
 10
178.5449495334
 20
562.5438240917
 11
178.5449495334
 21
573.1583555144
  0
LINE
  5
26A
100
AcDbEntity
  8
0
100
AcDbLine
 62
7
  6
CONTINUOUS
 10
178.5449495334
 20
576.0161139744
 11
178.5449495334
 21
586.6306453971
  0
LINE
  5
26B
100
AcDbEntity
  8
0
100
AcDbLine
 62
7
  6
CONTINUOUS
 10
180.3126355273
 20
615.2079935006
 11
180.3126355273
 21
600.7150755966
  0
LINE
  5
26C
100
AcDbEntity
  8
0
100
AcDbLine
 62
7
  6
CONTINUOUS
 10
180.3126355273
 20
553.9706258368
 11
180.3126355273
 21
549.8878001303
  0
LINE
  5
26D
100
AcDbEntity
  8
0
100
AcDbLine
 62
7
  6
CONTINUOUS
 10
181.3732912831
 20
599.4903113889
 11
181.3732912831
 21
601.3274418274
  0
LINE
  5
26E
100
AcDbEntity
  8
0
100
AcDbLine
 62
7
  6
CONTINUOUS
 10
182.0804981592
 20
584.5894416245
 11
182.0804981592
 21
573.9749102018
  0
LINE
  5
26F
100
AcDbEntity
  8
0
100
AcDbLine
 62
7
  6
CONTINUOUS
 10
182.0804981592
 20
571.1171517418
 11
182.0804981592
 21
560.5026203191
  0
LINE
  5
270
100
AcDbEntity
  8
0
100
AcDbLine
 62
7
  6
CONTINUOUS
 10
182.7876078843
 20
582.9564472442
 11
182.7876078843
 21
585.2018288914
  0
LINE
  5
271
100
AcDbEntity
  8
0
100
AcDbLine
 62
7
  6
CONTINUOUS
 10
184.6968041422
 20
584.0995788541
 11
184.6968041422
 21
581.854197207
  0
LINE
  5
272
100
AcDbEntity
  8
0
100
AcDbLine
 62
7
  6
CONTINUOUS
 10
184.8382260872
 20
552.3784620395
 11
184.8382260872
 21
562.9929934622
  0
LINE
  5
273
100
AcDbEntity
  8
0
100
AcDbLine
 62
7
  6
CONTINUOUS
 10
184.8382260872
 20
565.8507519221
 11
184.8382260872
 21
576.4652833448
  0
LINE
  5
274
100
AcDbEntity
  8
0
100
AcDbLine
 62
7
  6
CONTINUOUS
 10
187.8787555122
 20
589.1209896998
 11
187.8787555122
 21
588.1411867992
  0
LINE
  5
275
100
AcDbEntity
  8
0
100
AcDbLine
 62
7
  6
CONTINUOUS
 10
188.373774713
 20
574.4240795722
 11
188.373774713
 21
563.8095481495
  0
LINE
  5
276
100
AcDbEntity
  8
0
100
AcDbLine
 62
7
  6
CONTINUOUS
 10
188.373774713
 20
560.9517896896
 11
188.373774713
 21
550.3372582669
  0
LINE
  5
277
100
AcDbEntity
  8
0
100
AcDbLine
 62
7
  6
CONTINUOUS
 10
213.0518617275
 20
574.5876188389
 11
210.0820256112
 21
571.893190492
  0
LINE
  5
278
100
AcDbEntity
  8
0
100
AcDbLine
 62
7
  6
CONTINUOUS
 10
211.9912218691
 20
570.7909404548
 11
214.9610579854
 21
573.4853688017
  0
LINE
  5
279
100
AcDbEntity
  8
0
100
AcDbLine
 62
7
  6
CONTINUOUS
 10
225.6384148351
 20
567.3209334084
 11
222.6685787188
 21
564.6265050616
  0
LINE
  5
27A
100
AcDbEntity
  8
0
100
AcDbLine
 62
7
  6
CONTINUOUS
 10
224.5777749767
 20
563.5242550244
 11
227.547611093
 21
566.2186833712
  0
LINE
  5
27B
100
AcDbEntity
  8
0
100
AcDbLine
 62
7
  6
CONTINUOUS
 10
218.4964723662
 20
589.0802180398
 11
211.3901195434
 21
584.9773878152
  0
LINE
  5
27C
100
AcDbEntity
  8
0
100
AcDbLine
 62
7
  6
CONTINUOUS
 10
208.9505705638
 20
583.5689219626
 11
203.223051211
 21
580.2621568611
  0
LINE
  5
27D
100
AcDbEntity
  8
0
100
AcDbLine
 62
7
  6
CONTINUOUS
 10
199.4046687615
 20
578.0576258853
 11
197.2833572498
 21
576.8328934237
  0
LINE
  5
27E
100
AcDbEntity
  8
0
100
AcDbLine
 62
7
  6
CONTINUOUS
 10
195.3741609919
 20
575.6897618138
 11
197.3010514886
 21
576.8022459201
  0
LINE
  5
27F
100
AcDbEntity
  8
0
100
AcDbLine
 62
7
  6
CONTINUOUS
 10
178.5449495334
 20
562.5438240917
 11
182.0804981592
 21
564.585070551
  0
LINE
  5
280
100
AcDbEntity
  8
0
100
AcDbLine
 62
7
  6
CONTINUOUS
 10
184.8382260872
 20
565.8507519221
 11
188.373774713
 21
567.8919983814
  0
LINE
  5
281
100
AcDbEntity
  8
0
100
AcDbLine
 62
7
  6
CONTINUOUS
 10
191.131502641
 20
568.7494285439
 11
194.6670512668
 21
570.7906750032
  0
LINE
  5
282
100
AcDbEntity
  8
0
100
AcDbLine
 62
7
  6
CONTINUOUS
 10
219.6279274136
 20
579.2416170078
 11
220.4764520182
 21
579.7315099925
  0
LINE
  5
283
100
AcDbEntity
  8
0
100
AcDbLine
 62
7
  6
CONTINUOUS
 10
132.7952606105
 20
528.1693186644
 11
132.8659709942
 21
528.2101430798
  0
LINE
  5
284
100
AcDbEntity
  8
0
100
AcDbLine
 62
7
  6
CONTINUOUS
 10
207.9607140995
 20
570.6684580304
 11
210.0820256112
 21
571.893190492
  0
LINE
  5
285
100
AcDbEntity
  8
0
100
AcDbLine
 62
7
  6
CONTINUOUS
 10
213.0518617275
 20
573.6078159383
 11
219.6279274136
 21
577.4044865693
  0
LINE
  5
286
100
AcDbEntity
  8
0
100
AcDbLine
 62
7
  6
CONTINUOUS
 10
220.4764520182
 20
577.894379554
 11
229.1738292159
 21
582.9157826466
  0
LINE
  5
287
100
AcDbEntity
  8
0
100
AcDbLine
 62
7
  6
CONTINUOUS
 10
221.5371236715
 20
578.1393669706
 11
222.3856482761
 21
578.6292599553
  0
LINE
  5
288
100
AcDbEntity
  8
0
100
AcDbLine
 62
7
  6
CONTINUOUS
 10
162.9178811318
 20
543.5192548221
 11
136.7550391549
 21
528.4142211289
  0
LINE
  5
289
100
AcDbEntity
  8
0
100
AcDbLine
 62
7
  6
CONTINUOUS
 10
231.0830254738
 20
581.8135326094
 11
223.976672651
 21
577.7107023847
  0
LINE
  5
28A
100
AcDbEntity
  8
0
100
AcDbLine
 62
7
  6
CONTINUOUS
 10
221.5371236715
 20
576.3022365321
 11
215.8096043186
 21
572.9954714307
  0
LINE
  5
28B
100
AcDbEntity
  8
0
100
AcDbLine
 62
7
  6
CONTINUOUS
 10
211.9912218691
 20
570.7909404548
 11
209.8699103574
 21
569.5662079932
  0
LINE
  5
28C
100
AcDbEntity
  8
0
100
AcDbLine
 62
7
  6
CONTINUOUS
 10
207.9607140995
 20
568.4230763833
 11
209.8876045962
 21
569.5355604897
  0
LINE
  5
28D
100
AcDbEntity
  8
0
100
AcDbLine
 62
7
  6
CONTINUOUS
 10
158.0035094632
 20
538.6407019099
 11
136.5630089327
 21
526.2620970474
  0
LINE
  5
28E
100
AcDbEntity
  8
0
100
AcDbLine
 62
7
  6
CONTINUOUS
 10
158.3570643258
 20
538.4365815326
 11
136.9165637953
 21
526.0579766701
  0
LINE
  5
28F
100
AcDbEntity
  8
0
100
AcDbLine
 62
7
  6
CONTINUOUS
 10
180.3126355273
 20
549.8878001303
 11
158.3570643258
 21
537.2118208523
  0
LINE
  5
290
100
AcDbEntity
  8
0
100
AcDbLine
 62
7
  6
CONTINUOUS
 10
184.8382260872
 20
552.3784620395
 11
188.373774713
 21
554.4197084988
  0
LINE
  5
291
100
AcDbEntity
  8
0
100
AcDbLine
 62
7
  6
CONTINUOUS
 10
158.3570643258
 20
536.8035766984
 11
136.3307797966
 21
524.0867713053
  0
LINE
  5
292
100
AcDbEntity
  8
0
100
AcDbLine
 62
7
  6
CONTINUOUS
 10
191.131502641
 20
555.2771386613
 11
194.6670512668
 21
557.3183851206
  0
LINE
  5
293
100
AcDbEntity
  8
0
100
AcDbLine
 62
7
  6
CONTINUOUS
 10
197.4247791948
 20
558.5840664916
 11
200.9603278206
 21
560.625312951
  0
LINE
  5
294
100
AcDbEntity
  8
0
100
AcDbLine
 62
7
  6
CONTINUOUS
 10
203.7180557487
 20
561.4827431135
 11
207.2536043744
 21
563.5239895728
  0
LINE
  5
295
100
AcDbEntity
  8
0
100
AcDbLine
 62
7
  6
CONTINUOUS
 10
554.1680341764
 20
338.1299937563
 11
553.7373720516
 21
338.0520384215
  0
LINE
  5
296
100
AcDbEntity
  8
0
100
AcDbLine
 62
7
  6
CONTINUOUS
 10
573.7971885113
 20
331.8937246101
 11
573.8848169254
 21
331.904892195
  0
LINE
  5
297
100
AcDbEntity
  8
0
100
AcDbLine
 62
7
  6
CONTINUOUS
 10
190.9191930855
 20
605.0016074661
 11
190.9191930855
 21
606.8387379047
  0
LINE
  5
298
100
AcDbEntity
  8
0
100
AcDbLine
 62
7
  6
CONTINUOUS
 10
191.131502641
 20
555.2771386613
 11
191.131502641
 21
565.891670084
  0
LINE
  5
299
100
AcDbEntity
  8
0
100
AcDbLine
 62
7
  6
CONTINUOUS
 10
191.131502641
 20
568.7494285439
 11
191.131502641
 21
579.3639599666
  0
LINE
  5
29A
100
AcDbEntity
  8
0
100
AcDbLine
 62
7
  6
CONTINUOUS
 10
194.4548211983
 20
591.9378574302
 11
194.4548211983
 21
593.7749878688
  0
LINE
  5
29B
100
AcDbEntity
  8
0
100
AcDbLine
 62
7
  6
CONTINUOUS
 10
194.6670512668
 20
577.322756194
 11
194.6670512668
 21
566.7082247713
  0
LINE
  5
29C
100
AcDbEntity
  8
0
100
AcDbLine
 62
7
  6
CONTINUOUS
 10
194.6670512668
 20
563.8504663114
 11
194.6670512668
 21
553.2359348887
  0
LINE
  5
29D
100
AcDbEntity
  8
0
100
AcDbLine
 62
7
  6
CONTINUOUS
 10
195.303345803
 20
594.2648808534
 11
195.303345803
 21
592.4277504149
  0
LINE
  5
29E
100
AcDbEntity
  8
0
100
AcDbLine
 62
7
  6
CONTINUOUS
 10
195.3741609919
 20
575.6897618138
 11
195.3741609919
 21
577.9351434609
  0
LINE
  5
29F
100
AcDbEntity
  8
0
100
AcDbLine
 62
7
  6
CONTINUOUS
 10
196.3640174562
 20
592.6727378316
 11
196.3640174562
 21
590.835607393
  0
LINE
  5
2A0
100
AcDbEntity
  8
0
100
AcDbLine
 62
7
  6
CONTINUOUS
 10
197.2833572498
 20
576.8328934237
 11
197.2833572498
 21
574.5875117766
  0
LINE
  5
2A1
100
AcDbEntity
  8
0
100
AcDbLine
 62
7
  6
CONTINUOUS
 10
197.4247791948
 20
545.111776609
 11
197.4247791948
 21
555.7263080317
  0
LINE
  5
2A2
100
AcDbEntity
  8
0
100
AcDbLine
 62
7
  6
CONTINUOUS
 10
197.4247791948
 20
558.5840664916
 11
197.4247791948
 21
569.1985979143
  0
LINE
  5
2A3
100
AcDbEntity
  8
0
100
AcDbLine
 62
7
  6
CONTINUOUS
 10
200.4653086199
 20
581.8543042693
 11
200.4653086199
 21
580.8745013688
  0
LINE
  5
2A4
100
AcDbEntity
  8
0
100
AcDbLine
 62
7
  6
CONTINUOUS
 10
200.9603278206
 20
567.1573941417
 11
200.9603278206
 21
556.542862719
  0
LINE
  5
2A5
100
AcDbEntity
  8
0
100
AcDbLine
 62
7
  6
CONTINUOUS
 10
200.9603278206
 20
553.6851042591
 11
200.9603278206
 21
543.0705728364
  0
LINE
  5
2A6
100
AcDbEntity
  8
0
100
AcDbLine
 62
7
  6
CONTINUOUS
 10
203.7180557487
 20
548.0104532308
 11
203.7180557487
 21
558.6249846535
  0
LINE
  5
2A7
100
AcDbEntity
  8
0
100
AcDbLine
 62
7
  6
CONTINUOUS
 10
203.7180557487
 20
561.4827431135
 11
203.7180557487
 21
572.0972745361
  0
LINE
  5
2A8
100
AcDbEntity
  8
0
100
AcDbLine
 62
7
  6
CONTINUOUS
 10
204.0007230007
 20
595.2037718604
 11
204.0007230007
 21
597.4491535075
  0
LINE
  5
2A9
100
AcDbEntity
  8
0
100
AcDbLine
 62
7
  6
CONTINUOUS
 10
207.0413743059
 20
584.6711719998
 11
207.0413743059
 21
586.5083024383
  0
LINE
  5
2AA
100
AcDbEntity
  8
0
100
AcDbLine
 62
7
  6
CONTINUOUS
 10
207.2536043744
 20
570.0560707635
 11
207.2536043744
 21
559.4415393409
  0
LINE
  5
2AB
100
AcDbEntity
  8
0
100
AcDbLine
 62
7
  6
CONTINUOUS
 10
207.2536043744
 20
556.5837808809
 11
207.2536043744
 21
545.9692494582
  0
LINE
  5
2AC
100
AcDbEntity
  8
0
100
AcDbLine
 62
7
  6
CONTINUOUS
 10
207.8898989106
 20
586.998195423
 11
207.8898989106
 21
585.1610649844
  0
LINE
  5
2AD
100
AcDbEntity
  8
0
100
AcDbLine
 62
7
  6
CONTINUOUS
 10
207.9607140995
 20
568.4230763833
 11
207.9607140995
 21
570.6684580304
  0
LINE
  5
2AE
100
AcDbEntity
  8
0
100
AcDbLine
 62
7
  6
CONTINUOUS
 10
208.9505705638
 20
585.4060524011
 11
208.9505705638
 21
583.5689219626
  0
LINE
  5
2AF
100
AcDbEntity
  8
0
100
AcDbLine
 62
7
  6
CONTINUOUS
 10
209.8699103574
 20
569.5662079932
 11
209.8699103574
 21
567.3208263461
  0
LINE
  5
2B0
100
AcDbEntity
  8
0
100
AcDbLine
 62
7
  6
CONTINUOUS
 10
210.0113323025
 20
537.8450911785
 11
210.0113323025
 21
548.4596226012
  0
LINE
  5
2B1
100
AcDbEntity
  8
0
100
AcDbLine
 62
7
  6
CONTINUOUS
 10
210.0113323025
 20
551.3173810612
 11
210.0113323025
 21
561.9319124839
  0
LINE
  5
2B2
100
AcDbEntity
  8
0
100
AcDbLine
 62
7
  6
CONTINUOUS
 10
238.2249679427
 20
560.0542479779
 11
235.2551318264
 21
557.3598196311
  0
LINE
  5
2B3
100
AcDbEntity
  8
0
100
AcDbLine
 62
7
  6
CONTINUOUS
 10
237.1643280843
 20
556.2575695939
 11
240.1341642006
 21
558.9519979407
  0
LINE
  5
2B4
100
AcDbEntity
  8
0
100
AcDbLine
 62
7
  6
CONTINUOUS
 10
232.2144805212
 20
571.9749315774
 11
233.0630051258
 21
572.464824562
  0
LINE
  5
2B5
100
AcDbEntity
  8
0
100
AcDbLine
 62
7
  6
CONTINUOUS
 10
220.5472672071
 20
563.4017726
 11
222.6685787188
 21
564.6265050616
  0
LINE
  5
2B6
100
AcDbEntity
  8
0
100
AcDbLine
 62
7
  6
CONTINUOUS
 10
225.6384148351
 20
566.3411305078
 11
232.2144805212
 21
570.1378011388
  0
LINE
  5
2B7
100
AcDbEntity
  8
0
100
AcDbLine
 62
7
  6
CONTINUOUS
 10
233.0630051258
 20
570.6276941235
 11
241.7603823236
 21
575.6490972161
  0
LINE
  5
2B8
100
AcDbEntity
  8
0
100
AcDbLine
 62
7
  6
CONTINUOUS
 10
234.1236767791
 20
570.8726815402
 11
234.9722013837
 21
571.3625745248
  0
LINE
  5
2B9
100
AcDbEntity
  8
0
100
AcDbLine
 62
7
  6
CONTINUOUS
 10
243.6695785815
 20
574.5468471789
 11
236.5632257586
 21
570.4440169543
  0
LINE
  5
2BA
100
AcDbEntity
  8
0
100
AcDbLine
 62
7
  6
CONTINUOUS
 10
234.1236767791
 20
569.0355511016
 11
228.3961574262
 21
565.7287860002
  0
LINE
  5
2BB
100
AcDbEntity
  8
0
100
AcDbLine
 62
7
  6
CONTINUOUS
 10
224.5777749767
 20
563.5242550244
 11
222.456463465
 21
562.2995225628
  0
LINE
  5
2BC
100
AcDbEntity
  8
0
100
AcDbLine
 62
7
  6
CONTINUOUS
 10
220.5472672071
 20
561.1563909529
 11
222.4741577039
 21
562.2688750592
  0
LINE
  5
2BD
100
AcDbEntity
  8
0
100
AcDbLine
 62
7
  6
CONTINUOUS
 10
197.4247791948
 20
545.111776609
 11
200.9603278206
 21
547.1530230683
  0
LINE
  5
2BE
100
AcDbEntity
  8
0
100
AcDbLine
 62
7
  6
CONTINUOUS
 10
203.7180557487
 20
548.0104532308
 11
207.2536043744
 21
550.0516996901
  0
LINE
  5
2BF
100
AcDbEntity
  8
0
100
AcDbLine
 62
7
  6
CONTINUOUS
 10
210.0113323025
 20
551.3173810612
 11
213.5468809282
 21
553.3586275205
  0
LINE
  5
2C0
100
AcDbEntity
  8
0
100
AcDbLine
 62
7
  6
CONTINUOUS
 10
216.3046088563
 20
554.216057683
 11
219.840157482
 21
556.2573041423
  0
LINE
  5
2C1
100
AcDbEntity
  8
0
100
AcDbLine
 62
7
  6
CONTINUOUS
 10
244.8010336288
 20
564.7082461469
 11
245.6495582335
 21
565.1981391316
  0
LINE
  5
2C2
100
AcDbEntity
  8
0
100
AcDbLine
 62
7
  6
CONTINUOUS
 10
233.1338203148
 20
556.1350871695
 11
235.2551318264
 21
557.3598196311
  0
LINE
  5
2C3
100
AcDbEntity
  8
0
100
AcDbLine
 62
7
  6
CONTINUOUS
 10
238.2249679427
 20
559.0744450774
 11
244.8010336288
 21
562.8711157084
  0
LINE
  5
2C4
100
AcDbEntity
  8
0
100
AcDbLine
 62
7
  6
CONTINUOUS
 10
245.6495582335
 20
563.361008693
 11
254.3469354312
 21
568.3824117857
  0
LINE
  5
2C5
100
AcDbEntity
  8
0
100
AcDbLine
 62
7
  6
CONTINUOUS
 10
246.7102298867
 20
563.6059961097
 11
247.5587544913
 21
564.0958890944
  0
LINE
  5
2C6
100
AcDbEntity
  8
0
100
AcDbLine
 62
7
  6
CONTINUOUS
 10
256.2561316891
 20
567.2801617484
 11
249.1497788662
 21
563.1773315238
  0
LINE
  5
2C7
100
AcDbEntity
  8
0
100
AcDbLine
 62
7
  6
CONTINUOUS
 10
246.7102298867
 20
561.7688656712
 11
240.9827105339
 21
558.4621005698
  0
LINE
  5
2C8
100
AcDbEntity
  8
0
100
AcDbLine
 62
7
  6
CONTINUOUS
 10
237.1643280843
 20
556.2575695939
 11
235.0430165727
 21
555.0328371323
  0
LINE
  5
2C9
100
AcDbEntity
  8
0
100
AcDbLine
 62
7
  6
CONTINUOUS
 10
233.1338203148
 20
553.8897055224
 11
235.0607108115
 21
555.0021896287
  0
LINE
  5
2CA
100
AcDbEntity
  8
0
100
AcDbLine
 62
7
  6
CONTINUOUS
 10
210.0113323025
 20
537.8450911785
 11
213.5468809282
 21
539.8863376379
  0
LINE
  5
2CB
100
AcDbEntity
  8
0
100
AcDbLine
 62
7
  6
CONTINUOUS
 10
216.3046088563
 20
540.7437678004
 11
219.840157482
 21
542.7850142597
  0
LINE
  5
2CC
100
AcDbEntity
  8
0
100
AcDbLine
 62
7
  6
CONTINUOUS
 10
222.5978854101
 20
544.0506956307
 11
226.1334340358
 21
546.09194209
  0
LINE
  5
2CD
100
AcDbEntity
  8
0
100
AcDbLine
 62
7
  6
CONTINUOUS
 10
556.6827065852
 20
329.8472265912
 11
562.5102224287
 21
329.5974537205
  0
LINE
  5
2CE
100
AcDbEntity
  8
0
100
AcDbLine
 62
7
  6
CONTINUOUS
 10
213.0518617275
 20
574.5876188389
 11
213.0518617275
 21
573.6078159383
  0
LINE
  5
2CF
100
AcDbEntity
  8
0
100
AcDbLine
 62
7
  6
CONTINUOUS
 10
213.5468809282
 20
559.8907087113
 11
213.5468809282
 21
549.2761772886
  0
LINE
  5
2D0
100
AcDbEntity
  8
0
100
AcDbLine
 62
7
  6
CONTINUOUS
 10
213.5468809282
 20
546.4184188286
 11
213.5468809282
 21
535.8038874059
  0
LINE
  5
2D1
100
AcDbEntity
  8
0
100
AcDbLine
 62
7
  6
CONTINUOUS
 10
216.3046088563
 20
540.7437678004
 11
216.3046088563
 21
551.358299223
  0
LINE
  5
2D2
100
AcDbEntity
  8
0
100
AcDbLine
 62
7
  6
CONTINUOUS
 10
216.3046088563
 20
554.216057683
 11
216.3046088563
 21
564.8305891057
  0
LINE
  5
2D3
100
AcDbEntity
  8
0
100
AcDbLine
 62
7
  6
CONTINUOUS
 10
216.5872761083
 20
587.9370864299
 11
216.5872761083
 21
590.182468077
  0
LINE
  5
2D4
100
AcDbEntity
  8
0
100
AcDbLine
 62
7
  6
CONTINUOUS
 10
219.6279274136
 20
577.4044865693
 11
219.6279274136
 21
579.2416170078
  0
LINE
  5
2D5
100
AcDbEntity
  8
0
100
AcDbLine
 62
7
  6
CONTINUOUS
 10
219.840157482
 20
562.7893853331
 11
219.840157482
 21
552.1748539104
  0
LINE
  5
2D6
100
AcDbEntity
  8
0
100
AcDbLine
 62
7
  6
CONTINUOUS
 10
219.840157482
 20
549.3170954504
 11
219.840157482
 21
538.7025640278
  0
LINE
  5
2D7
100
AcDbEntity
  8
0
100
AcDbLine
 62
7
  6
CONTINUOUS
 10
220.4764520182
 20
579.7315099925
 11
220.4764520182
 21
577.894379554
  0
LINE
  5
2D8
100
AcDbEntity
  8
0
100
AcDbLine
 62
7
  6
CONTINUOUS
 10
220.5472672071
 20
561.1563909529
 11
220.5472672071
 21
563.4017726
  0
LINE
  5
2D9
100
AcDbEntity
  8
0
100
AcDbLine
 62
7
  6
CONTINUOUS
 10
221.5371236715
 20
578.1393669706
 11
221.5371236715
 21
576.3022365321
  0
LINE
  5
2DA
100
AcDbEntity
  8
0
100
AcDbLine
 62
7
  6
CONTINUOUS
 10
222.456463465
 20
562.2995225628
 11
222.456463465
 21
560.0541409157
  0
LINE
  5
2DB
100
AcDbEntity
  8
0
100
AcDbLine
 62
7
  6
CONTINUOUS
 10
222.5978854101
 20
530.5784057481
 11
222.5978854101
 21
541.1929371708
  0
LINE
  5
2DC
100
AcDbEntity
  8
0
100
AcDbLine
 62
7
  6
CONTINUOUS
 10
222.5978854101
 20
544.0506956307
 11
222.5978854101
 21
554.6652270534
  0
LINE
  5
2DD
100
AcDbEntity
  8
0
100
AcDbLine
 62
7
  6
CONTINUOUS
 10
225.6384148351
 20
567.3209334084
 11
225.6384148351
 21
566.3411305078
  0
LINE
  5
2DE
100
AcDbEntity
  8
0
100
AcDbLine
 62
7
  6
CONTINUOUS
 10
226.1334340358
 20
552.6240232808
 11
226.1334340358
 21
542.0094918581
  0
LINE
  5
2DF
100
AcDbEntity
  8
0
100
AcDbLine
 62
7
  6
CONTINUOUS
 10
226.1334340358
 20
539.1517333982
 11
226.1334340358
 21
528.5372019755
  0
LINE
  5
2E0
100
AcDbEntity
  8
0
100
AcDbLine
 62
7
  6
CONTINUOUS
 10
228.8911619639
 20
533.4770823699
 11
228.8911619639
 21
544.0916137926
  0
LINE
  5
2E1
100
AcDbEntity
  8
0
100
AcDbLine
 62
7
  6
CONTINUOUS
 10
228.8911619639
 20
546.9493722525
 11
228.8911619639
 21
557.5639036752
  0
LINE
  5
2E2
100
AcDbEntity
  8
0
100
AcDbLine
 62
7
  6
CONTINUOUS
 10
229.1738292159
 20
580.6704009995
 11
229.1738292159
 21
582.9157826466
  0
LINE
  5
2E3
100
AcDbEntity
  8
0
100
AcDbLine
 62
7
  6
CONTINUOUS
 10
250.8115210503
 20
552.7875625475
 11
247.841684934
 21
550.0931342007
  0
LINE
  5
2E4
100
AcDbEntity
  8
0
100
AcDbLine
 62
7
  6
CONTINUOUS
 10
249.7508811919
 20
548.9908841635
 11
252.7207173082
 21
551.6853125103
  0
LINE
  5
2E5
100
AcDbEntity
  8
0
100
AcDbLine
 62
7
  6
CONTINUOUS
 10
263.3980741579
 20
545.520877117
 11
260.4282380416
 21
542.8264487702
  0
LINE
  5
2E6
100
AcDbEntity
  8
0
100
AcDbLine
 62
7
  6
CONTINUOUS
 10
262.3374342995
 20
541.724198733
 11
265.3072704158
 21
544.4186270798
  0
LINE
  5
2E7
100
AcDbEntity
  8
0
100
AcDbLine
 62
7
  6
CONTINUOUS
 10
228.8911619639
 20
546.9493722525
 11
232.4267105896
 21
548.9906187118
  0
LINE
  5
2E8
100
AcDbEntity
  8
0
100
AcDbLine
 62
7
  6
CONTINUOUS
 10
257.3875867364
 20
557.4415607165
 11
258.2361113411
 21
557.9314537011
  0
LINE
  5
2E9
100
AcDbEntity
  8
0
100
AcDbLine
 62
7
  6
CONTINUOUS
 10
245.7203734224
 20
548.868401739
 11
247.841684934
 21
550.0931342007
  0
LINE
  5
2EA
100
AcDbEntity
  8
0
100
AcDbLine
 62
7
  6
CONTINUOUS
 10
250.8115210503
 20
551.8077596469
 11
257.3875867364
 21
555.6044302779
  0
LINE
  5
2EB
100
AcDbEntity
  8
0
100
AcDbLine
 62
7
  6
CONTINUOUS
 10
258.2361113411
 20
556.0943232626
 11
266.9334885388
 21
561.1157263552
  0
LINE
  5
2EC
100
AcDbEntity
  8
0
100
AcDbLine
 62
7
  6
CONTINUOUS
 10
259.2967829943
 20
556.3393106793
 11
260.145307599
 21
556.8292036639
  0
LINE
  5
2ED
100
AcDbEntity
  8
0
100
AcDbLine
 62
7
  6
CONTINUOUS
 10
268.8426847967
 20
560.013476318
 11
261.7363319738
 21
555.9106460933
  0
LINE
  5
2EE
100
AcDbEntity
  8
0
100
AcDbLine
 62
7
  6
CONTINUOUS
 10
259.2967829943
 20
554.5021802407
 11
253.5692636415
 21
551.1954151393
  0
LINE
  5
2EF
100
AcDbEntity
  8
0
100
AcDbLine
 62
7
  6
CONTINUOUS
 10
249.7508811919
 20
548.9908841635
 11
247.6295696803
 21
547.7661517018
  0
LINE
  5
2F0
100
AcDbEntity
  8
0
100
AcDbLine
 62
7
  6
CONTINUOUS
 10
245.7203734224
 20
546.6230200919
 11
247.6472639191
 21
547.7355041983
  0
LINE
  5
2F1
100
AcDbEntity
  8
0
100
AcDbLine
 62
7
  6
CONTINUOUS
 10
222.5978854101
 20
530.5784057481
 11
226.1334340358
 21
532.6196522074
  0
LINE
  5
2F2
100
AcDbEntity
  8
0
100
AcDbLine
 62
7
  6
CONTINUOUS
 10
228.8911619639
 20
533.4770823699
 11
232.4267105896
 21
535.5183288292
  0
LINE
  5
2F3
100
AcDbEntity
  8
0
100
AcDbLine
 62
7
  6
CONTINUOUS
 10
235.1844385177
 20
536.7840102003
 11
238.7199871434
 21
538.8252566596
  0
LINE
  5
2F4
100
AcDbEntity
  8
0
100
AcDbLine
 62
7
  6
CONTINUOUS
 10
241.4777150715
 20
539.6826868221
 11
245.0132636972
 21
541.7239332814
  0
LINE
  5
2F5
100
AcDbEntity
  8
0
100
AcDbLine
 62
7
  6
CONTINUOUS
 10
269.974139844
 20
550.174875286
 11
270.8226644487
 21
550.6647682706
  0
LINE
  5
2F6
100
AcDbEntity
  8
0
100
AcDbLine
 62
7
  6
CONTINUOUS
 10
258.30692653
 20
541.6017163086
 11
260.4282380416
 21
542.8264487702
  0
LINE
  5
2F7
100
AcDbEntity
  8
0
100
AcDbLine
 62
7
  6
CONTINUOUS
 10
263.3980741579
 20
544.5410742165
 11
269.974139844
 21
548.3377448475
  0
LINE
  5
2F8
100
AcDbEntity
  8
0
100
AcDbLine
 62
7
  6
CONTINUOUS
 10
270.8226644487
 20
548.8276378321
 11
279.5200416464
 21
553.8490409247
  0
LINE
  5
2F9
100
AcDbEntity
  8
0
100
AcDbLine
 62
7
  6
CONTINUOUS
 10
271.8833361019
 20
549.0726252488
 11
272.7318607066
 21
549.5625182334
  0
LWPOLYLINE
  5
2FA
100
AcDbEntity
  8
0
100
AcDbPolyline
 62
7
  6
CONTINUOUS
 90
3
 70
0
 10
564.0091065035
 20
346.7804212997
 10
555.6256957422
 20
347.166952848
 10
551.8425410869
 20
344.2588819324
  0
LINE
  5
2FB
100
AcDbEntity
  8
0
100
AcDbLine
 62
7
  6
CONTINUOUS
 10
232.2144805212
 20
570.1378011388
 11
232.2144805212
 21
571.9749315774
  0
LINE
  5
2FC
100
AcDbEntity
  8
0
100
AcDbLine
 62
7
  6
CONTINUOUS
 10
232.4267105896
 20
555.5226999026
 11
232.4267105896
 21
544.9081684799
  0
LINE
  5
2FD
100
AcDbEntity
  8
0
100
AcDbLine
 62
7
  6
CONTINUOUS
 10
232.4267105896
 20
542.05041002
 11
232.4267105896
 21
531.4358785973
  0
LINE
  5
2FE
100
AcDbEntity
  8
0
100
AcDbLine
 62
7
  6
CONTINUOUS
 10
233.0630051258
 20
572.464824562
 11
233.0630051258
 21
570.6276941235
  0
LINE
  5
2FF
100
AcDbEntity
  8
0
100
AcDbLine
 62
7
  6
CONTINUOUS
 10
233.1338203148
 20
553.8897055224
 11
233.1338203148
 21
556.1350871695
  0
LINE
  5
300
100
AcDbEntity
  8
0
100
AcDbLine
 62
7
  6
CONTINUOUS
 10
234.1236767791
 20
570.8726815402
 11
234.1236767791
 21
569.0355511016
  0
LINE
  5
301
100
AcDbEntity
  8
0
100
AcDbLine
 62
7
  6
CONTINUOUS
 10
235.0430165727
 20
555.0328371323
 11
235.0430165727
 21
552.7874554852
  0
LINE
  5
302
100
AcDbEntity
  8
0
100
AcDbLine
 62
7
  6
CONTINUOUS
 10
235.1844385177
 20
523.3117203176
 11
235.1844385177
 21
533.9262517403
  0
LINE
  5
303
100
AcDbEntity
  8
0
100
AcDbLine
 62
7
  6
CONTINUOUS
 10
235.1844385177
 20
536.7840102003
 11
235.1844385177
 21
547.3985416229
  0
LINE
  5
304
100
AcDbEntity
  8
0
100
AcDbLine
 62
7
  6
CONTINUOUS
 10
238.2249679427
 20
560.0542479779
 11
238.2249679427
 21
559.0744450774
  0
LINE
  5
305
100
AcDbEntity
  8
0
100
AcDbLine
 62
7
  6
CONTINUOUS
 10
238.7199871434
 20
545.3573378503
 11
238.7199871434
 21
534.7428064277
  0
LINE
  5
306
100
AcDbEntity
  8
0
100
AcDbLine
 62
7
  6
CONTINUOUS
 10
238.7199871434
 20
531.8850479677
 11
238.7199871434
 21
521.270516545
  0
LINE
  5
307
100
AcDbEntity
  8
0
100
AcDbLine
 62
7
  6
CONTINUOUS
 10
241.4777150715
 20
526.2103969394
 11
241.4777150715
 21
536.8249283621
  0
LINE
  5
308
100
AcDbEntity
  8
0
100
AcDbLine
 62
7
  6
CONTINUOUS
 10
241.4777150715
 20
539.6826868221
 11
241.4777150715
 21
550.2972182448
  0
LINE
  5
309
100
AcDbEntity
  8
0
100
AcDbLine
 62
7
  6
CONTINUOUS
 10
241.7603823236
 20
573.403715569
 11
241.7603823236
 21
575.6490972161
  0
LINE
  5
30A
100
AcDbEntity
  8
0
100
AcDbLine
 62
7
  6
CONTINUOUS
 10
244.8010336288
 20
562.8711157084
 11
244.8010336288
 21
564.7082461469
  0
LINE
  5
30B
100
AcDbEntity
  8
0
100
AcDbLine
 62
7
  6
CONTINUOUS
 10
245.0132636972
 20
548.2560144722
 11
245.0132636972
 21
537.6414830495
  0
LINE
  5
30C
100
AcDbEntity
  8
0
100
AcDbLine
 62
7
  6
CONTINUOUS
 10
245.0132636972
 20
534.7837245895
 11
245.0132636972
 21
524.1691931668
  0
LINE
  5
30D
100
AcDbEntity
  8
0
100
AcDbLine
 62
7
  6
CONTINUOUS
 10
245.6495582335
 20
565.1981391316
 11
245.6495582335
 21
563.361008693
  0
LINE
  5
30E
100
AcDbEntity
  8
0
100
AcDbLine
 62
7
  6
CONTINUOUS
 10
245.7203734224
 20
546.6230200919
 11
245.7203734224
 21
548.868401739
  0
LINE
  5
30F
100
AcDbEntity
  8
0
100
AcDbLine
 62
7
  6
CONTINUOUS
 10
246.7102298867
 20
563.6059961097
 11
246.7102298867
 21
561.7688656712
  0
LINE
  5
310
100
AcDbEntity
  8
0
100
AcDbLine
 62
7
  6
CONTINUOUS
 10
247.6295696803
 20
547.7661517018
 11
247.6295696803
 21
545.5207700547
  0
LINE
  5
311
100
AcDbEntity
  8
0
100
AcDbLine
 62
7
  6
CONTINUOUS
 10
247.7709916253
 20
516.0450348872
 11
247.7709916253
 21
526.6595663098
  0
LINE
  5
312
100
AcDbEntity
  8
0
100
AcDbLine
 62
7
  6
CONTINUOUS
 10
247.7709916253
 20
529.5173247698
 11
247.7709916253
 21
540.1318561925
  0
LINE
  5
313
100
AcDbEntity
  8
0
100
AcDbLine
 62
7
  6
CONTINUOUS
 10
250.8115210503
 20
552.7875625475
 11
250.8115210503
 21
551.8077596469
  0
LINE
  5
314
100
AcDbEntity
  8
0
100
AcDbLine
 62
7
  6
CONTINUOUS
 10
251.306540251
 20
538.0906524199
 11
251.306540251
 21
527.4761209972
  0
LINE
  5
315
100
AcDbEntity
  8
0
100
AcDbLine
 62
7
  6
CONTINUOUS
 10
251.306540251
 20
524.6183625372
 11
251.306540251
 21
514.0038311146
  0
LINE
  5
316
100
AcDbEntity
  8
0
100
AcDbLine
 62
7
  6
CONTINUOUS
 10
275.9846272656
 20
538.2541916866
 11
273.0147911493
 21
535.5597633397
  0
LINE
  5
317
100
AcDbEntity
  8
0
100
AcDbLine
 62
7
  6
CONTINUOUS
 10
274.9239874072
 20
534.4575133025
 11
277.8938235235
 21
537.1519416493
  0
LINE
  5
318
100
AcDbEntity
  8
0
100
AcDbLine
 62
7
  6
CONTINUOUS
 10
281.4292379043
 20
552.7467908875
 11
274.3228850814
 21
548.6439606629
  0
LINE
  5
319
100
AcDbEntity
  8
0
100
AcDbLine
 62
7
  6
CONTINUOUS
 10
271.8833361019
 20
547.2354948103
 11
266.1558167491
 21
543.9287297088
  0
LINE
  5
31A
100
AcDbEntity
  8
0
100
AcDbLine
 62
7
  6
CONTINUOUS
 10
262.3374342995
 20
541.724198733
 11
260.2161227879
 21
540.4994662714
  0
LINE
  5
31B
100
AcDbEntity
  8
0
100
AcDbLine
 62
7
  6
CONTINUOUS
 10
258.30692653
 20
539.3563346615
 11
260.2338170267
 21
540.4688187678
  0
LINE
  5
31C
100
AcDbEntity
  8
0
100
AcDbLine
 62
7
  6
CONTINUOUS
 10
235.1844385177
 20
523.3117203176
 11
238.7199871434
 21
525.3529667769
  0
LINE
  5
31D
100
AcDbEntity
  8
0
100
AcDbLine
 62
7
  6
CONTINUOUS
 10
241.4777150715
 20
526.2103969394
 11
245.0132636972
 21
528.2516433987
  0
LINE
  5
31E
100
AcDbEntity
  8
0
100
AcDbLine
 62
7
  6
CONTINUOUS
 10
247.7709916253
 20
529.5173247698
 11
251.306540251
 21
531.5585712291
  0
LINE
  5
31F
100
AcDbEntity
  8
0
100
AcDbLine
 62
7
  6
CONTINUOUS
 10
254.0642681791
 20
532.4160013916
 11
257.5998168049
 21
534.4572478509
  0
LINE
  5
320
100
AcDbEntity
  8
0
100
AcDbLine
 62
7
  6
CONTINUOUS
 10
282.5606929516
 20
542.9081898555
 11
283.4092175563
 21
543.3980828402
  0
LINE
  5
321
100
AcDbEntity
  8
0
100
AcDbLine
 62
7
  6
CONTINUOUS
 10
270.8934796376
 20
534.3350308781
 11
273.0147911493
 21
535.5597633397
  0
LINE
  5
322
100
AcDbEntity
  8
0
100
AcDbLine
 62
7
  6
CONTINUOUS
 10
275.9846272656
 20
537.274388786
 11
282.5606929516
 21
541.071059417
  0
LINE
  5
323
100
AcDbEntity
  8
0
100
AcDbLine
 62
7
  6
CONTINUOUS
 10
283.4092175563
 20
541.5609524016
 11
292.106594754
 21
546.5823554943
  0
LINE
  5
324
100
AcDbEntity
  8
0
100
AcDbLine
 62
7
  6
CONTINUOUS
 10
284.4698892095
 20
541.8059398183
 11
285.3184138142
 21
542.295832803
  0
LINE
  5
325
100
AcDbEntity
  8
0
100
AcDbLine
 62
7
  6
CONTINUOUS
 10
294.0157910119
 20
545.4801054571
 11
286.9094381891
 21
541.3772752324
  0
LINE
  5
326
100
AcDbEntity
  8
0
100
AcDbLine
 62
7
  6
CONTINUOUS
 10
284.4698892095
 20
539.9688093798
 11
278.7423698567
 21
536.6620442784
  0
LINE
  5
327
100
AcDbEntity
  8
0
100
AcDbLine
 62
7
  6
CONTINUOUS
 10
274.9239874072
 20
534.4575133025
 11
272.8026758955
 21
533.2327808409
  0
LINE
  5
328
100
AcDbEntity
  8
0
100
AcDbLine
 62
7
  6
CONTINUOUS
 10
270.8934796376
 20
532.089649231
 11
272.8203701343
 21
533.2021333374
  0
LINE
  5
329
100
AcDbEntity
  8
0
100
AcDbLine
 62
7
  6
CONTINUOUS
 10
247.7709916253
 20
516.0450348872
 11
251.306540251
 21
518.0862813465
  0
LINE
  5
32A
100
AcDbEntity
  8
0
100
AcDbLine
 62
7
  6
CONTINUOUS
 10
254.0642681791
 20
518.943711509
 11
257.5998168049
 21
520.9849579683
  0
LINE
  5
32B
100
AcDbEntity
  8
0
100
AcDbLine
 62
7
  6
CONTINUOUS
 10
260.3575447329
 20
522.2506393393
 11
263.8930933587
 21
524.2918857986
  0
LINE
  5
32C
100
AcDbEntity
  8
0
100
AcDbLine
 62
7
  6
CONTINUOUS
 10
266.6508212867
 20
525.1493159611
 11
270.1863699125
 21
527.1905624205
  0
LWPOLYLINE
  5
32D
100
AcDbEntity
  8
0
100
AcDbPolyline
 62
7
  6
CONTINUOUS
 90
5
 70
0
 10
550.5343653577
 20
331.1038853743
 10
542.4430951066
 20
332.9251832064
 10
537.6127093836
 20
334.1024296094
 10
534.6581696224
 20
335.0045518757
 10
533.2134509542
 20
335.6934699489
  0
LWPOLYLINE
  5
32E
100
AcDbEntity
  8
0
100
AcDbPolyline
 62
7
  6
CONTINUOUS
 90
3
 70
0
 10
547.7824989237
 20
327.6366809934
 10
559.0923227581
 20
324.8201172382
 10
568.2698082938
 20
321.8441926898
  0
LINE
  5
32F
100
AcDbEntity
  8
0
100
AcDbLine
 62
7
  6
CONTINUOUS
 10
254.0642681791
 20
518.943711509
 11
254.0642681791
 21
529.5582429317
  0
LINE
  5
330
100
AcDbEntity
  8
0
100
AcDbLine
 62
7
  6
CONTINUOUS
 10
254.0642681791
 20
532.4160013916
 11
254.0642681791
 21
543.0305328143
  0
LINE
  5
331
100
AcDbEntity
  8
0
100
AcDbLine
 62
7
  6
CONTINUOUS
 10
254.3469354312
 20
566.1370301385
 11
254.3469354312
 21
568.3824117857
  0
LINE
  5
332
100
AcDbEntity
  8
0
100
AcDbLine
 62
7
  6
CONTINUOUS
 10
257.3875867364
 20
555.6044302779
 11
257.3875867364
 21
557.4415607165
  0
LINE
  5
333
100
AcDbEntity
  8
0
100
AcDbLine
 62
7
  6
CONTINUOUS
 10
257.5998168049
 20
540.9893290417
 11
257.5998168049
 21
530.374797619
  0
LINE
  5
334
100
AcDbEntity
  8
0
100
AcDbLine
 62
7
  6
CONTINUOUS
 10
257.5998168049
 20
527.5170391591
 11
257.5998168049
 21
516.9025077364
  0
LINE
  5
335
100
AcDbEntity
  8
0
100
AcDbLine
 62
7
  6
CONTINUOUS
 10
258.2361113411
 20
557.9314537011
 11
258.2361113411
 21
556.0943232626
  0
LINE
  5
336
100
AcDbEntity
  8
0
100
AcDbLine
 62
7
  6
CONTINUOUS
 10
258.30692653
 20
539.3563346615
 11
258.30692653
 21
541.6017163086
  0
LINE
  5
337
100
AcDbEntity
  8
0
100
AcDbLine
 62
7
  6
CONTINUOUS
 10
259.2967829943
 20
556.3393106793
 11
259.2967829943
 21
554.5021802407
  0
LINE
  5
338
100
AcDbEntity
  8
0
100
AcDbLine
 62
7
  6
CONTINUOUS
 10
260.2161227879
 20
540.4994662714
 11
260.2161227879
 21
538.2540846243
  0
LINE
  5
339
100
AcDbEntity
  8
0
100
AcDbLine
 62
7
  6
CONTINUOUS
 10
260.3575447329
 20
508.7783494567
 11
260.3575447329
 21
519.3928808794
  0
LINE
  5
33A
100
AcDbEntity
  8
0
100
AcDbLine
 62
7
  6
CONTINUOUS
 10
260.3575447329
 20
522.2506393393
 11
260.3575447329
 21
532.865170762
  0
LINE
  5
33B
100
AcDbEntity
  8
0
100
AcDbLine
 62
7
  6
CONTINUOUS
 10
263.3980741579
 20
545.520877117
 11
263.3980741579
 21
544.5410742165
  0
LINE
  5
33C
100
AcDbEntity
  8
0
100
AcDbLine
 62
7
  6
CONTINUOUS
 10
263.8930933587
 20
530.8239669894
 11
263.8930933587
 21
520.2094355667
  0
LINE
  5
33D
100
AcDbEntity
  8
0
100
AcDbLine
 62
7
  6
CONTINUOUS
 10
263.8930933587
 20
517.3516771068
 11
263.8930933587
 21
506.7371456841
  0
LINE
  5
33E
100
AcDbEntity
  8
0
100
AcDbLine
 62
7
  6
CONTINUOUS
 10
266.6508212867
 20
511.6770260785
 11
266.6508212867
 21
522.2915575012
  0
LINE
  5
33F
100
AcDbEntity
  8
0
100
AcDbLine
 62
7
  6
CONTINUOUS
 10
266.6508212867
 20
525.1493159611
 11
266.6508212867
 21
535.7638473838
  0
LINE
  5
340
100
AcDbEntity
  8
0
100
AcDbLine
 62
7
  6
CONTINUOUS
 10
266.9334885388
 20
558.8703447081
 11
266.9334885388
 21
561.1157263552
  0
LINE
  5
341
100
AcDbEntity
  8
0
100
AcDbLine
 62
7
  6
CONTINUOUS
 10
269.974139844
 20
548.3377448475
 11
269.974139844
 21
550.174875286
  0
LINE
  5
342
100
AcDbEntity
  8
0
100
AcDbLine
 62
7
  6
CONTINUOUS
 10
270.1863699125
 20
533.7226436112
 11
270.1863699125
 21
523.1081121885
  0
LINE
  5
343
100
AcDbEntity
  8
0
100
AcDbLine
 62
7
  6
CONTINUOUS
 10
270.1863699125
 20
520.2503537286
 11
270.1863699125
 21
509.6358223059
  0
LINE
  5
344
100
AcDbEntity
  8
0
100
AcDbLine
 62
7
  6
CONTINUOUS
 10
270.8226644487
 20
550.6647682706
 11
270.8226644487
 21
548.8276378321
  0
LINE
  5
345
100
AcDbEntity
  8
0
100
AcDbLine
 62
7
  6
CONTINUOUS
 10
270.8934796376
 20
532.089649231
 11
270.8934796376
 21
534.3350308781
  0
LINE
  5
346
100
AcDbEntity
  8
0
100
AcDbLine
 62
7
  6
CONTINUOUS
 10
271.8833361019
 20
549.0726252488
 11
271.8833361019
 21
547.2354948103
  0
LINE
  5
347
100
AcDbEntity
  8
0
100
AcDbLine
 62
7
  6
CONTINUOUS
 10
272.8026758955
 20
533.2327808409
 11
272.8026758955
 21
530.9873991938
  0
LINE
  5
348
100
AcDbEntity
  8
0
100
AcDbLine
 62
7
  6
CONTINUOUS
 10
272.9440978405
 20
501.5116640262
 11
272.9440978405
 21
512.1261954489
  0
LINE
  5
349
100
AcDbEntity
  8
0
100
AcDbLine
 62
7
  6
CONTINUOUS
 10
272.9440978405
 20
514.9839539089
 11
272.9440978405
 21
525.5984853316
  0
LINE
  5
34A
100
AcDbEntity
  8
0
100
AcDbLine
 62
7
  6
CONTINUOUS
 10
288.5711803732
 20
530.9875062561
 11
285.6013442569
 21
528.2930779093
  0
LINE
  5
34B
100
AcDbEntity
  8
0
100
AcDbLine
 62
7
  6
CONTINUOUS
 10
287.5105405148
 20
527.1908278721
 11
290.4803766311
 21
529.8852562189
  0
LINE
  5
34C
100
AcDbEntity
  8
0
100
AcDbLine
 62
7
  6
CONTINUOUS
 10
301.1577334808
 20
523.7208208256
 11
298.1878973645
 21
521.0263924788
  0
LINE
  5
34D
100
AcDbEntity
  8
0
100
AcDbLine
 62
7
  6
CONTINUOUS
 10
300.0970936224
 20
519.9241424416
 11
303.0669297387
 21
522.6185707884
  0
LINE
  5
34E
100
AcDbEntity
  8
0
100
AcDbLine
 62
7
  6
CONTINUOUS
 10
295.1472460593
 20
535.6415044251
 11
295.9957706639
 21
536.1313974097
  0
LINE
  5
34F
100
AcDbEntity
  8
0
100
AcDbLine
 62
7
  6
CONTINUOUS
 10
283.4800327452
 20
527.0683454477
 11
285.6013442569
 21
528.2930779093
  0
LINE
  5
350
100
AcDbEntity
  8
0
100
AcDbLine
 62
7
  6
CONTINUOUS
 10
288.5711803732
 20
530.0077033555
 11
295.1472460593
 21
533.8043739865
  0
LINE
  5
351
100
AcDbEntity
  8
0
100
AcDbLine
 62
7
  6
CONTINUOUS
 10
295.9957706639
 20
534.2942669712
 11
304.6931478616
 21
539.3156700638
  0
LINE
  5
352
100
AcDbEntity
  8
0
100
AcDbLine
 62
7
  6
CONTINUOUS
 10
297.0564423172
 20
534.5392543879
 11
297.9049669218
 21
535.0291473725
  0
LINE
  5
353
100
AcDbEntity
  8
0
100
AcDbLine
 62
7
  6
CONTINUOUS
 10
306.6023441195
 20
538.2134200266
 11
299.4959912967
 21
534.110589802
  0
LINE
  5
354
100
AcDbEntity
  8
0
100
AcDbLine
 62
7
  6
CONTINUOUS
 10
297.0564423172
 20
532.7021239493
 11
291.3289229643
 21
529.3953588479
  0
LINE
  5
355
100
AcDbEntity
  8
0
100
AcDbLine
 62
7
  6
CONTINUOUS
 10
287.5105405148
 20
527.1908278721
 11
285.3892290031
 21
525.9660954105
  0
LINE
  5
356
100
AcDbEntity
  8
0
100
AcDbLine
 62
7
  6
CONTINUOUS
 10
283.4800327452
 20
524.8229638006
 11
285.4069232419
 21
525.9354479069
  0
LINE
  5
357
100
AcDbEntity
  8
0
100
AcDbLine
 62
7
  6
CONTINUOUS
 10
260.3575447329
 20
508.7783494567
 11
263.8930933587
 21
510.819595916
  0
LINE
  5
358
100
AcDbEntity
  8
0
100
AcDbLine
 62
7
  6
CONTINUOUS
 10
266.6508212867
 20
511.6770260785
 11
270.1863699125
 21
513.7182725378
  0
LINE
  5
359
100
AcDbEntity
  8
0
100
AcDbLine
 62
7
  6
CONTINUOUS
 10
272.9440978405
 20
514.9839539089
 11
276.4796464663
 21
517.0252003682
  0
LINE
  5
35A
100
AcDbEntity
  8
0
100
AcDbLine
 62
7
  6
CONTINUOUS
 10
279.2373743943
 20
517.8826305307
 11
282.7729230201
 21
519.92387699
  0
LINE
  5
35B
100
AcDbEntity
  8
0
100
AcDbLine
 62
7
  6
CONTINUOUS
 10
307.7337991669
 20
528.3748189946
 11
308.5823237715
 21
528.8647119793
  0
LINE
  5
35C
100
AcDbEntity
  8
0
100
AcDbLine
 62
7
  6
CONTINUOUS
 10
296.0665858528
 20
519.8016600172
 11
298.1878973645
 21
521.0263924788
  0
LINE
  5
35D
100
AcDbEntity
  8
0
100
AcDbLine
 62
7
  6
CONTINUOUS
 10
301.1577334808
 20
522.7410179251
 11
307.7337991669
 21
526.5376885561
  0
LINE
  5
35E
100
AcDbEntity
  8
0
100
AcDbLine
 62
7
  6
CONTINUOUS
 10
308.5823237715
 20
527.0275815407
 11
317.2797009693
 21
532.0489846333
  0
LINE
  5
35F
100
AcDbEntity
  8
0
100
AcDbLine
 62
7
  6
CONTINUOUS
 10
309.6429954248
 20
527.2725689574
 11
310.4915200294
 21
527.7624619421
  0
LINE
  5
360
100
AcDbEntity
  8
0
100
AcDbLine
 62
7
  6
CONTINUOUS
 10
319.1888972272
 20
530.9467345961
 11
312.0825444043
 21
526.8439043715
  0
LINE
  5
361
100
AcDbEntity
  8
0
100
AcDbLine
 62
7
  6
CONTINUOUS
 10
309.6429954248
 20
525.4354385189
 11
303.9154760719
 21
522.1286734175
  0
LINE
  5
362
100
AcDbEntity
  8
0
100
AcDbLine
 62
7
  6
CONTINUOUS
 10
300.0970936224
 20
519.9241424416
 11
297.9757821107
 21
518.69940998
  0
LINE
  5
363
100
AcDbEntity
  8
0
100
AcDbLine
 62
7
  6
CONTINUOUS
 10
296.0665858528
 20
517.5562783701
 11
297.9934763496
 21
518.6687624764
  0
LINE
  5
364
100
AcDbEntity
  8
0
100
AcDbLine
 62
7
  6
CONTINUOUS
 10
272.9440978405
 20
501.5116640262
 11
276.4796464663
 21
503.5529104855
  0
LINE
  5
365
100
AcDbEntity
  8
0
100
AcDbLine
 62
7
  6
CONTINUOUS
 10
279.2373743943
 20
504.410340648
 11
282.7729230201
 21
506.4515871074
  0
LINE
  5
366
100
AcDbEntity
  8
0
100
AcDbLine
 62
7
  6
CONTINUOUS
 10
285.5306509482
 20
507.7172684784
 11
289.0661995739
 21
509.7585149377
  0
LWPOLYLINE
  5
367
100
AcDbEntity
  8
0
100
AcDbPolyline
 62
7
  6
CONTINUOUS
 90
3
 70
0
 10
563.772127436
 20
333.3917206238
 10
560.866129404
 20
334.0834925216
 10
553.7040785659
 20
332.9180074777
  0
LWPOLYLINE
  5
368
100
AcDbEntity
  8
0
100
AcDbPolyline
 62
7
  6
CONTINUOUS
 90
8
 70
0
 10
563.0362933594
 20
341.3103134182
 10
553.2033404128
 20
343.9459326059
 10
546.6853679912
 20
345.444900926
 10
541.9663669384
 20
346.5072766774
 10
538.3701652887
 20
347.3765460965
 10
535.6898278529
 20
348.1270286852
 10
533.8606793351
 20
348.8043710683
 10
533.2895197076
 20
349.111854269
  0
LINE
  5
369
100
AcDbEntity
  8
0
100
AcDbLine
 62
7
  6
CONTINUOUS
 10
566.054999481
 20
326.8776821738
 11
550.5343653577
 21
331.1038853743
  0
LINE
  5
36A
100
AcDbEntity
  8
0
100
AcDbLine
 62
7
  6
CONTINUOUS
 10
562.4797299456
 20
329.6080352783
 11
561.8672594265
 21
329.8028195639
  0
LINE
  5
36B
100
AcDbEntity
  8
0
100
AcDbLine
 62
7
  6
CONTINUOUS
 10
275.9846272656
 20
538.2541916866
 11
275.9846272656
 21
537.274388786
  0
LINE
  5
36C
100
AcDbEntity
  8
0
100
AcDbLine
 62
7
  6
CONTINUOUS
 10
276.4796464663
 20
523.557281559
 11
276.4796464663
 21
512.9427501363
  0
LINE
  5
36D
100
AcDbEntity
  8
0
100
AcDbLine
 62
7
  6
CONTINUOUS
 10
276.4796464663
 20
510.0849916763
 11
276.4796464663
 21
499.4704602536
  0
LINE
  5
36E
100
AcDbEntity
  8
0
100
AcDbLine
 62
7
  6
CONTINUOUS
 10
279.2373743943
 20
504.410340648
 11
279.2373743943
 21
515.0248720707
  0
LINE
  5
36F
100
AcDbEntity
  8
0
100
AcDbLine
 62
7
  6
CONTINUOUS
 10
279.2373743943
 20
517.8826305307
 11
279.2373743943
 21
528.4971619534
  0
LINE
  5
370
100
AcDbEntity
  8
0
100
AcDbLine
 62
7
  6
CONTINUOUS
 10
279.5200416464
 20
551.6036592776
 11
279.5200416464
 21
553.8490409247
  0
LINE
  5
371
100
AcDbEntity
  8
0
100
AcDbLine
 62
7
  6
CONTINUOUS
 10
282.5606929516
 20
541.071059417
 11
282.5606929516
 21
542.9081898555
  0
LINE
  5
372
100
AcDbEntity
  8
0
100
AcDbLine
 62
7
  6
CONTINUOUS
 10
282.7729230201
 20
526.4559581808
 11
282.7729230201
 21
515.8414267581
  0
LINE
  5
373
100
AcDbEntity
  8
0
100
AcDbLine
 62
7
  6
CONTINUOUS
 10
282.7729230201
 20
512.9836682981
 11
282.7729230201
 21
502.3691368754
  0
LINE
  5
374
100
AcDbEntity
  8
0
100
AcDbLine
 62
7
  6
CONTINUOUS
 10
283.4092175563
 20
543.3980828402
 11
283.4092175563
 21
541.5609524016
  0
LINE
  5
375
100
AcDbEntity
  8
0
100
AcDbLine
 62
7
  6
CONTINUOUS
 10
283.4800327452
 20
524.8229638006
 11
283.4800327452
 21
527.0683454477
  0
LINE
  5
376
100
AcDbEntity
  8
0
100
AcDbLine
 62
7
  6
CONTINUOUS
 10
284.4698892095
 20
541.8059398183
 11
284.4698892095
 21
539.9688093798
  0
LINE
  5
377
100
AcDbEntity
  8
0
100
AcDbLine
 62
7
  6
CONTINUOUS
 10
285.3892290031
 20
525.9660954105
 11
285.3892290031
 21
523.7207137633
  0
LINE
  5
378
100
AcDbEntity
  8
0
100
AcDbLine
 62
7
  6
CONTINUOUS
 10
285.5306509482
 20
494.2449785958
 11
285.5306509482
 21
504.8595100185
  0
LINE
  5
379
100
AcDbEntity
  8
0
100
AcDbLine
 62
7
  6
CONTINUOUS
 10
285.5306509482
 20
507.7172684784
 11
285.5306509482
 21
518.3317999011
  0
LINE
  5
37A
100
AcDbEntity
  8
0
100
AcDbLine
 62
7
  6
CONTINUOUS
 10
288.5711803732
 20
530.9875062561
 11
288.5711803732
 21
530.0077033555
  0
LINE
  5
37B
100
AcDbEntity
  8
0
100
AcDbLine
 62
7
  6
CONTINUOUS
 10
289.0661995739
 20
516.2905961285
 11
289.0661995739
 21
505.6760647058
  0
LINE
  5
37C
100
AcDbEntity
  8
0
100
AcDbLine
 62
7
  6
CONTINUOUS
 10
289.0661995739
 20
502.8183062459
 11
289.0661995739
 21
492.2037748232
  0
LINE
  5
37D
100
AcDbEntity
  8
0
100
AcDbLine
 62
7
  6
CONTINUOUS
 10
291.823927502
 20
497.1436552176
 11
291.823927502
 21
507.7581866403
  0
LINE
  5
37E
100
AcDbEntity
  8
0
100
AcDbLine
 62
7
  6
CONTINUOUS
 10
291.823927502
 20
510.6159451002
 11
291.823927502
 21
521.2304765229
  0
LINE
  5
37F
100
AcDbEntity
  8
0
100
AcDbLine
 62
7
  6
CONTINUOUS
 10
292.106594754
 20
544.3369738472
 11
292.106594754
 21
546.5823554943
  0
LINE
  5
380
100
AcDbEntity
  8
0
100
AcDbLine
 62
7
  6
CONTINUOUS
 10
313.7442865884
 20
516.4541353952
 11
310.7744504721
 21
513.7597070484
  0
LINE
  5
381
100
AcDbEntity
  8
0
100
AcDbLine
 62
7
  6
CONTINUOUS
 10
312.68364673
 20
512.6574570111
 11
315.6534828463
 21
515.351885358
  0
LINE
  5
382
100
AcDbEntity
  8
0
100
AcDbLine
 62
7
  6
CONTINUOUS
 10
291.823927502
 20
510.6159451002
 11
295.3594761277
 21
512.6571915595
  0
LINE
  5
383
100
AcDbEntity
  8
0
100
AcDbLine
 62
7
  6
CONTINUOUS
 10
320.3203522745
 20
521.1081335642
 11
321.1688768791
 21
521.5980265488
  0
LINE
  5
384
100
AcDbEntity
  8
0
100
AcDbLine
 62
7
  6
CONTINUOUS
 10
308.6531389605
 20
512.5349745867
 11
310.7744504721
 21
513.7597070484
  0
LINE
  5
385
100
AcDbEntity
  8
0
100
AcDbLine
 62
7
  6
CONTINUOUS
 10
313.7442865884
 20
515.4743324946
 11
320.3203522745
 21
519.2710031256
  0
LINE
  5
386
100
AcDbEntity
  8
0
100
AcDbLine
 62
7
  6
CONTINUOUS
 10
321.1688768791
 20
519.7608961103
 11
329.8662540769
 21
524.7822992029
  0
LINE
  5
387
100
AcDbEntity
  8
0
100
AcDbLine
 62
7
  6
CONTINUOUS
 10
322.2295485324
 20
520.005883527
 11
323.078073137
 21
520.4957765116
  0
LINE
  5
388
100
AcDbEntity
  8
0
100
AcDbLine
 62
7
  6
CONTINUOUS
 10
331.7754503348
 20
523.6800491657
 11
324.6690975119
 21
519.577218941
  0
LINE
  5
389
100
AcDbEntity
  8
0
100
AcDbLine
 62
7
  6
CONTINUOUS
 10
322.2295485324
 20
518.1687530884
 11
316.5020291796
 21
514.861987987
  0
LINE
  5
38A
100
AcDbEntity
  8
0
100
AcDbLine
 62
7
  6
CONTINUOUS
 10
312.68364673
 20
512.6574570111
 11
310.5623352184
 21
511.4327245495
  0
LINE
  5
38B
100
AcDbEntity
  8
0
100
AcDbLine
 62
7
  6
CONTINUOUS
 10
308.6531389605
 20
510.2895929396
 11
310.5800294572
 21
511.402077046
  0
LINE
  5
38C
100
AcDbEntity
  8
0
100
AcDbLine
 62
7
  6
CONTINUOUS
 10
285.5306509482
 20
494.2449785958
 11
289.0661995739
 21
496.2862250551
  0
LINE
  5
38D
100
AcDbEntity
  8
0
100
AcDbLine
 62
7
  6
CONTINUOUS
 10
291.823927502
 20
497.1436552176
 11
295.3594761277
 21
499.1849016769
  0
LINE
  5
38E
100
AcDbEntity
  8
0
100
AcDbLine
 62
7
  6
CONTINUOUS
 10
298.1172040558
 20
500.450583048
 11
301.6527526815
 21
502.4918295073
  0
LINE
  5
38F
100
AcDbEntity
  8
0
100
AcDbLine
 62
7
  6
CONTINUOUS
 10
304.4104806096
 20
503.3492596698
 11
307.9460292353
 21
505.3905061291
  0
LINE
  5
390
100
AcDbEntity
  8
0
100
AcDbLine
 62
7
  6
CONTINUOUS
 10
332.9069053821
 20
513.8414481337
 11
333.7554299868
 21
514.3313411183
  0
LINE
  5
391
100
AcDbEntity
  8
0
100
AcDbLine
 62
7
  6
CONTINUOUS
 10
321.2396920681
 20
505.2682891563
 11
323.3610035797
 21
506.4930216179
  0
LINE
  5
392
100
AcDbEntity
  8
0
100
AcDbLine
 62
7
  6
CONTINUOUS
 10
326.330839696
 20
508.2076470642
 11
332.9069053821
 21
512.0043176952
  0
LINE
  5
393
100
AcDbEntity
  8
0
100
AcDbLine
 62
7
  6
CONTINUOUS
 10
333.7554299868
 20
512.4942106798
 11
342.4528071845
 21
517.5156137724
  0
LINE
  5
394
100
AcDbEntity
  8
0
100
AcDbLine
 62
7
  6
CONTINUOUS
 10
334.81610164
 20
512.7391980965
 11
335.6646262447
 21
513.2290910811
  0
LINE
  5
395
100
AcDbEntity
  8
0
100
AcDbLine
 62
7
  6
CONTINUOUS
 10
562.4544210469
 20
343.0890441254
 11
562.4469345897
 21
343.0916121393
  0
LINE
  5
396
100
AcDbEntity
  8
0
100
AcDbLine
 62
7
  6
CONTINUOUS
 10
563.8192640117
 20
333.3754207739
 11
563.772127436
 21
333.3917206238
  0
LINE
  5
397
100
AcDbEntity
  8
0
100
AcDbLine
 62
7
  6
CONTINUOUS
 10
562.5102224287
 20
329.5974537205
 11
562.4797299456
 21
329.6080352783
  0
LINE
  5
398
100
AcDbEntity
  8
0
100
AcDbLine
 62
7
  6
CONTINUOUS
 10
136.3307797966
 20
524.0867713053
 11
76.2264825987
 21
558.7873229832
  0
LINE
  5
399
100
AcDbEntity
  8
0
100
AcDbLine
 62
7
  6
CONTINUOUS
 10
132.7952606105
 20
528.1693186644
 11
76.2264825987
 21
560.828579026
  0
LINE
  5
39A
100
AcDbEntity
  8
0
100
AcDbLine
 62
7
  6
CONTINUOUS
 10
132.8659709942
 20
528.2101430798
 11
76.2971929824
 21
560.8694034414
  0
LINE
  5
39B
100
AcDbEntity
  8
0
100
AcDbLine
 62
7
  6
CONTINUOUS
 10
136.9165637953
 20
526.0579766701
 11
134.2801786686
 21
527.5801378528
  0
LINE
  5
39C
100
AcDbEntity
  8
0
100
AcDbLine
 62
7
  6
CONTINUOUS
 10
132.8659709942
 20
529.843147914
 11
76.2971929824
 21
562.5024082757
  0
LINE
  5
39D
100
AcDbEntity
  8
0
100
AcDbLine
 62
7
  6
CONTINUOUS
 10
295.1472460593
 20
533.8043739865
 11
295.1472460593
 21
535.6415044251
  0
LINE
  5
39E
100
AcDbEntity
  8
0
100
AcDbLine
 62
7
  6
CONTINUOUS
 10
295.3594761277
 20
519.1892727503
 11
295.3594761277
 21
508.5747413276
  0
LINE
  5
39F
100
AcDbEntity
  8
0
100
AcDbLine
 62
7
  6
CONTINUOUS
 10
295.3594761277
 20
505.7169828677
 11
295.3594761277
 21
495.102451445
  0
LINE
  5
3A0
100
AcDbEntity
  8
0
100
AcDbLine
 62
7
  6
CONTINUOUS
 10
295.9957706639
 20
536.1313974097
 11
295.9957706639
 21
534.2942669712
  0
LINE
  5
3A1
100
AcDbEntity
  8
0
100
AcDbLine
 62
7
  6
CONTINUOUS
 10
296.0665858528
 20
517.5562783701
 11
296.0665858528
 21
519.8016600172
  0
LINE
  5
3A2
100
AcDbEntity
  8
0
100
AcDbLine
 62
7
  6
CONTINUOUS
 10
297.0564423172
 20
534.5392543879
 11
297.0564423172
 21
532.7021239493
  0
LINE
  5
3A3
100
AcDbEntity
  8
0
100
AcDbLine
 62
7
  6
CONTINUOUS
 10
297.9757821107
 20
518.69940998
 11
297.9757821107
 21
516.4540283329
  0
LINE
  5
3A4
100
AcDbEntity
  8
0
100
AcDbLine
 62
7
  6
CONTINUOUS
 10
298.1172040558
 20
486.9782931653
 11
298.1172040558
 21
497.592824588
  0
LINE
  5
3A5
100
AcDbEntity
  8
0
100
AcDbLine
 62
7
  6
CONTINUOUS
 10
298.1172040558
 20
500.450583048
 11
298.1172040558
 21
511.0651144706
  0
LINE
  5
3A6
100
AcDbEntity
  8
0
100
AcDbLine
 62
7
  6
CONTINUOUS
 10
301.1577334808
 20
523.7208208256
 11
301.1577334808
 21
522.7410179251
  0
LINE
  5
3A7
100
AcDbEntity
  8
0
100
AcDbLine
 62
7
  6
CONTINUOUS
 10
301.6527526815
 20
509.023910698
 11
301.6527526815
 21
498.4093792754
  0
LINE
  5
3A8
100
AcDbEntity
  8
0
100
AcDbLine
 62
7
  6
CONTINUOUS
 10
301.6527526815
 20
495.5516208154
 11
301.6527526815
 21
484.9370893927
  0
LINE
  5
3A9
100
AcDbEntity
  8
0
100
AcDbLine
 62
7
  6
CONTINUOUS
 10
304.4104806096
 20
489.8769697871
 11
304.4104806096
 21
500.4915012098
  0
LINE
  5
3AA
100
AcDbEntity
  8
0
100
AcDbLine
 62
7
  6
CONTINUOUS
 10
304.4104806096
 20
503.3492596698
 11
304.4104806096
 21
513.9637910924
  0
LINE
  5
3AB
100
AcDbEntity
  8
0
100
AcDbLine
 62
7
  6
CONTINUOUS
 10
304.6931478616
 20
537.0702884167
 11
304.6931478616
 21
539.3156700638
  0
LINE
  5
3AC
100
AcDbEntity
  8
0
100
AcDbLine
 62
7
  6
CONTINUOUS
 10
307.7337991669
 20
526.5376885561
 11
307.7337991669
 21
528.3748189946
  0
LINE
  5
3AD
100
AcDbEntity
  8
0
100
AcDbLine
 62
7
  6
CONTINUOUS
 10
307.9460292353
 20
511.9225873198
 11
307.9460292353
 21
501.3080558972
  0
LINE
  5
3AE
100
AcDbEntity
  8
0
100
AcDbLine
 62
7
  6
CONTINUOUS
 10
307.9460292353
 20
498.4502974372
 11
307.9460292353
 21
487.8357660145
  0
LINE
  5
3AF
100
AcDbEntity
  8
0
100
AcDbLine
 62
7
  6
CONTINUOUS
 10
308.5823237715
 20
528.8647119793
 11
308.5823237715
 21
527.0275815407
  0
LINE
  5
3B0
100
AcDbEntity
  8
0
100
AcDbLine
 62
7
  6
CONTINUOUS
 10
308.6531389605
 20
510.2895929396
 11
308.6531389605
 21
512.5349745867
  0
LINE
  5
3B1
100
AcDbEntity
  8
0
100
AcDbLine
 62
7
  6
CONTINUOUS
 10
309.6429954248
 20
527.2725689574
 11
309.6429954248
 21
525.4354385189
  0
LINE
  5
3B2
100
AcDbEntity
  8
0
100
AcDbLine
 62
7
  6
CONTINUOUS
 10
310.5623352184
 20
511.4327245495
 11
310.5623352184
 21
509.1873429024
  0
LINE
  5
3B3
100
AcDbEntity
  8
0
100
AcDbLine
 62
7
  6
CONTINUOUS
 10
310.7037571634
 20
479.7116077349
 11
310.7037571634
 21
490.3261391575
  0
LINE
  5
3B4
100
AcDbEntity
  8
0
100
AcDbLine
 62
7
  6
CONTINUOUS
 10
310.7037571634
 20
493.1838976175
 11
310.7037571634
 21
503.7984290402
  0
LINE
  5
3B5
100
AcDbEntity
  8
0
100
AcDbLine
 62
7
  6
CONTINUOUS
 10
313.7442865884
 20
516.4541353952
 11
313.7442865884
 21
515.4743324946
  0
LINE
  5
3B6
100
AcDbEntity
  8
0
100
AcDbLine
 62
7
  6
CONTINUOUS
 10
314.2393057891
 20
501.7572252676
 11
314.2393057891
 21
491.1426938449
  0
LINE
  5
3B7
100
AcDbEntity
  8
0
100
AcDbLine
 62
7
  6
CONTINUOUS
 10
314.2393057891
 20
488.2849353849
 11
314.2393057891
 21
477.6704039623
  0
LINE
  5
3B8
100
AcDbEntity
  8
0
100
AcDbLine
 62
7
  6
CONTINUOUS
 10
326.330839696
 20
509.1874499647
 11
323.3610035797
 21
506.4930216179
  0
LINE
  5
3B9
100
AcDbEntity
  8
0
100
AcDbLine
 62
7
  6
CONTINUOUS
 10
325.2701998376
 20
505.3907715807
 11
328.2400359539
 21
508.0851999275
  0
LINE
  5
3BA
100
AcDbEntity
  8
0
100
AcDbLine
 62
7
  6
CONTINUOUS
 10
338.9173928036
 20
501.9207645342
 11
335.9475566873
 21
499.2263361874
  0
LINE
  5
3BB
100
AcDbEntity
  8
0
100
AcDbLine
 62
7
  6
CONTINUOUS
 10
337.8567529452
 20
498.1240861502
 11
340.8265890615
 21
500.818514497
  0
LINE
  5
3BC
100
AcDbEntity
  8
0
100
AcDbLine
 62
7
  6
CONTINUOUS
 10
344.3620034424
 20
516.4133637352
 11
337.2556506195
 21
512.3105335106
  0
LINE
  5
3BD
100
AcDbEntity
  8
0
100
AcDbLine
 62
7
  6
CONTINUOUS
 10
334.81610164
 20
510.902067658
 11
329.0885822872
 21
507.5953025565
  0
LINE
  5
3BE
100
AcDbEntity
  8
0
100
AcDbLine
 62
7
  6
CONTINUOUS
 10
325.2701998376
 20
505.3907715807
 11
323.148888326
 21
504.1660391191
  0
LINE
  5
3BF
100
AcDbEntity
  8
0
100
AcDbLine
 62
7
  6
CONTINUOUS
 10
321.2396920681
 20
503.0229075092
 11
323.1665825648
 21
504.1353916155
  0
LINE
  5
3C0
100
AcDbEntity
  8
0
100
AcDbLine
 62
7
  6
CONTINUOUS
 10
298.1172040558
 20
486.9782931653
 11
301.6527526815
 21
489.0195396246
  0
LINE
  5
3C1
100
AcDbEntity
  8
0
100
AcDbLine
 62
7
  6
CONTINUOUS
 10
304.4104806096
 20
489.8769697871
 11
307.9460292353
 21
491.9182162464
  0
LINE
  5
3C2
100
AcDbEntity
  8
0
100
AcDbLine
 62
7
  6
CONTINUOUS
 10
310.7037571634
 20
493.1838976175
 11
314.2393057891
 21
495.2251440768
  0
LINE
  5
3C3
100
AcDbEntity
  8
0
100
AcDbLine
 62
7
  6
CONTINUOUS
 10
316.9970337172
 20
496.0825742393
 11
320.5325823429
 21
498.1238206986
  0
LINE
  5
3C4
100
AcDbEntity
  8
0
100
AcDbLine
 62
7
  6
CONTINUOUS
 10
345.4934584897
 20
506.5747627032
 11
346.3419830944
 21
507.0646556879
  0
LINE
  5
3C5
100
AcDbEntity
  8
0
100
AcDbLine
 62
7
  6
CONTINUOUS
 10
333.8262451757
 20
498.0016037258
 11
335.9475566873
 21
499.2263361874
  0
LINE
  5
3C6
100
AcDbEntity
  8
0
100
AcDbLine
 62
7
  6
CONTINUOUS
 10
338.9173928036
 20
500.9409616337
 11
345.4934584897
 21
504.7376322647
  0
LINE
  5
3C7
100
AcDbEntity
  8
0
100
AcDbLine
 62
7
  6
CONTINUOUS
 10
346.3419830944
 20
505.2275252493
 11
355.0393602921
 21
510.248928342
  0
LINE
  5
3C8
100
AcDbEntity
  8
0
100
AcDbLine
 62
7
  6
CONTINUOUS
 10
347.4026547476
 20
505.472512666
 11
348.2511793523
 21
505.9624056507
  0
LINE
  5
3C9
100
AcDbEntity
  8
0
100
AcDbLine
 62
7
  6
CONTINUOUS
 10
356.94855655
 20
509.1466783048
 11
349.8422037271
 21
505.0438480801
  0
LINE
  5
3CA
100
AcDbEntity
  8
0
100
AcDbLine
 62
7
  6
CONTINUOUS
 10
347.4026547476
 20
503.6353822275
 11
341.6751353948
 21
500.3286171261
  0
LINE
  5
3CB
100
AcDbEntity
  8
0
100
AcDbLine
 62
7
  6
CONTINUOUS
 10
337.8567529452
 20
498.1240861502
 11
335.7354414336
 21
496.8993536886
  0
LINE
  5
3CC
100
AcDbEntity
  8
0
100
AcDbLine
 62
7
  6
CONTINUOUS
 10
333.8262451757
 20
495.7562220787
 11
335.7531356724
 21
496.868706185
  0
LINE
  5
3CD
100
AcDbEntity
  8
0
100
AcDbLine
 62
7
  6
CONTINUOUS
 10
310.7037571634
 20
479.7116077349
 11
314.2393057891
 21
481.7528541942
  0
LINE
  5
3CE
100
AcDbEntity
  8
0
100
AcDbLine
 62
7
  6
CONTINUOUS
 10
316.9970337172
 20
482.6102843567
 11
320.5325823429
 21
484.651530816
  0
LINE
  5
3CF
100
AcDbEntity
  8
0
100
AcDbLine
 62
7
  6
CONTINUOUS
 10
323.290310271
 20
485.917212187
 11
326.8258588967
 21
487.9584586463
  0
LINE
  5
3D0
100
AcDbEntity
  8
0
100
AcDbLine
 62
7
  6
CONTINUOUS
 10
329.5835868248
 20
488.8158888088
 11
333.1191354505
 21
490.8571352681
  0
LINE
  5
3D1
100
AcDbEntity
  8
0
100
AcDbLine
 62
7
  6
CONTINUOUS
 10
563.8179066601
 20
346.8481824517
 11
563.7718968706
 21
346.8640898103
  0
LINE
  5
3D2
100
AcDbEntity
  8
0
100
AcDbLine
 62
7
  6
CONTINUOUS
 10
563.7718968706
 20
346.8640898103
 11
564.0091065035
 21
346.7804212997
  0
LINE
  5
3D3
100
AcDbEntity
  8
0
100
AcDbLine
 62
7
  6
CONTINUOUS
 10
565.783119897
 20
346.0220092362
 11
563.8179066601
 21
346.8481824517
  0
LINE
  5
3D4
100
AcDbEntity
  8
0
100
AcDbLine
 62
7
  6
CONTINUOUS
 10
578.3946330364
 20
321.5523998915
 11
566.054999481
 21
326.8776821738
  0
LWPOLYLINE
  5
3D5
100
AcDbEntity
  8
0
100
AcDbPolyline
 62
7
  6
CONTINUOUS
 90
3
 70
0
 10
568.2698082938
 20
321.8441926898
 10
576.0341828377
 20
318.2928804919
 10
582.3120177989
 20
313.7220070432
  0
LINE
  5
3D6
100
AcDbEntity
  8
0
100
AcDbLine
 62
7
  6
CONTINUOUS
 10
76.2971929824
 20
582.9149687039
 11
103.167362538
 21
567.4018200321
  0
LINE
  5
3D7
100
AcDbEntity
  8
0
100
AcDbLine
 62
7
  6
CONTINUOUS
 10
105.9958014386
 20
565.768857014
 11
132.8659709942
 21
550.2557083423
  0
LINE
  5
3D8
100
AcDbEntity
  8
0
100
AcDbLine
 62
7
  6
CONTINUOUS
 10
103.2027177299
 20
567.4222322398
 11
106.0311566305
 21
565.7892692217
  0
LINE
  5
3D9
100
AcDbEntity
  8
0
100
AcDbLine
 62
7
  6
CONTINUOUS
 10
158.3570643258
 20
538.4365815326
 11
158.0035094632
 21
538.6407019099
  0
LINE
  5
3DA
100
AcDbEntity
  8
0
100
AcDbLine
 62
7
  6
CONTINUOUS
 10
103.167362538
 20
577.1998490377
 11
105.9958014386
 21
575.5668860196
  0
LINE
  5
3DB
100
AcDbEntity
  8
0
100
AcDbLine
 62
7
  6
CONTINUOUS
 10
316.9970337172
 20
482.6102843567
 11
316.9970337172
 21
493.2248157793
  0
LINE
  5
3DC
100
AcDbEntity
  8
0
100
AcDbLine
 62
7
  6
CONTINUOUS
 10
316.9970337172
 20
496.0825742393
 11
316.9970337172
 21
506.697105662
  0
LINE
  5
3DD
100
AcDbEntity
  8
0
100
AcDbLine
 62
7
  6
CONTINUOUS
 10
317.2797009693
 20
529.8036029862
 11
317.2797009693
 21
532.0489846333
  0
LINE
  5
3DE
100
AcDbEntity
  8
0
100
AcDbLine
 62
7
  6
CONTINUOUS
 10
320.3203522745
 20
519.2710031256
 11
320.3203522745
 21
521.1081335642
  0
LINE
  5
3DF
100
AcDbEntity
  8
0
100
AcDbLine
 62
7
  6
CONTINUOUS
 10
320.5325823429
 20
504.6559018894
 11
320.5325823429
 21
494.0413704667
  0
LINE
  5
3E0
100
AcDbEntity
  8
0
100
AcDbLine
 62
7
  6
CONTINUOUS
 10
320.5325823429
 20
491.1836120067
 11
320.5325823429
 21
480.5690805841
  0
LINE
  5
3E1
100
AcDbEntity
  8
0
100
AcDbLine
 62
7
  6
CONTINUOUS
 10
321.1688768791
 20
521.5980265488
 11
321.1688768791
 21
519.7608961103
  0
LINE
  5
3E2
100
AcDbEntity
  8
0
100
AcDbLine
 62
7
  6
CONTINUOUS
 10
321.2396920681
 20
503.0229075092
 11
321.2396920681
 21
505.2682891563
  0
LINE
  5
3E3
100
AcDbEntity
  8
0
100
AcDbLine
 62
7
  6
CONTINUOUS
 10
322.2295485324
 20
520.005883527
 11
322.2295485324
 21
518.1687530884
  0
LINE
  5
3E4
100
AcDbEntity
  8
0
100
AcDbLine
 62
7
  6
CONTINUOUS
 10
323.148888326
 20
504.1660391191
 11
323.148888326
 21
501.920657472
  0
LINE
  5
3E5
100
AcDbEntity
  8
0
100
AcDbLine
 62
7
  6
CONTINUOUS
 10
323.290310271
 20
472.4449223044
 11
323.290310271
 21
483.0594537271
  0
LINE
  5
3E6
100
AcDbEntity
  8
0
100
AcDbLine
 62
7
  6
CONTINUOUS
 10
323.290310271
 20
485.917212187
 11
323.290310271
 21
496.5317436097
  0
LINE
  5
3E7
100
AcDbEntity
  8
0
100
AcDbLine
 62
7
  6
CONTINUOUS
 10
326.330839696
 20
509.1874499647
 11
326.330839696
 21
508.2076470642
  0
LINE
  5
3E8
100
AcDbEntity
  8
0
100
AcDbLine
 62
7
  6
CONTINUOUS
 10
326.8258588967
 20
494.4905398371
 11
326.8258588967
 21
483.8760084144
  0
LINE
  5
3E9
100
AcDbEntity
  8
0
100
AcDbLine
 62
7
  6
CONTINUOUS
 10
326.8258588967
 20
481.0182499545
 11
326.8258588967
 21
470.4037185318
  0
LINE
  5
3EA
100
AcDbEntity
  8
0
100
AcDbLine
 62
7
  6
CONTINUOUS
 10
329.5835868248
 20
475.3435989262
 11
329.5835868248
 21
485.9581303489
  0
LINE
  5
3EB
100
AcDbEntity
  8
0
100
AcDbLine
 62
7
  6
CONTINUOUS
 10
329.5835868248
 20
488.8158888088
 11
329.5835868248
 21
499.4304202315
  0
LINE
  5
3EC
100
AcDbEntity
  8
0
100
AcDbLine
 62
7
  6
CONTINUOUS
 10
329.8662540769
 20
522.5369175558
 11
329.8662540769
 21
524.7822992029
  0
LINE
  5
3ED
100
AcDbEntity
  8
0
100
AcDbLine
 62
7
  6
CONTINUOUS
 10
332.9069053821
 20
512.0043176952
 11
332.9069053821
 21
513.8414481337
  0
LINE
  5
3EE
100
AcDbEntity
  8
0
100
AcDbLine
 62
7
  6
CONTINUOUS
 10
333.1191354505
 20
497.3892164589
 11
333.1191354505
 21
486.7746850362
  0
LINE
  5
3EF
100
AcDbEntity
  8
0
100
AcDbLine
 62
7
  6
CONTINUOUS
 10
333.1191354505
 20
483.9169265763
 11
333.1191354505
 21
473.3023951536
  0
LINE
  5
3F0
100
AcDbEntity
  8
0
100
AcDbLine
 62
7
  6
CONTINUOUS
 10
333.7554299868
 20
514.3313411183
 11
333.7554299868
 21
512.4942106798
  0
LINE
  5
3F1
100
AcDbEntity
  8
0
100
AcDbLine
 62
7
  6
CONTINUOUS
 10
333.8262451757
 20
495.7562220787
 11
333.8262451757
 21
498.0016037258
  0
LINE
  5
3F2
100
AcDbEntity
  8
0
100
AcDbLine
 62
7
  6
CONTINUOUS
 10
334.81610164
 20
512.7391980965
 11
334.81610164
 21
510.902067658
  0
LINE
  5
3F3
100
AcDbEntity
  8
0
100
AcDbLine
 62
7
  6
CONTINUOUS
 10
335.7354414336
 20
496.8993536886
 11
335.7354414336
 21
494.6539720415
  0
LINE
  5
3F4
100
AcDbEntity
  8
0
100
AcDbLine
 62
7
  6
CONTINUOUS
 10
335.8768633786
 20
465.1782368739
 11
335.8768633786
 21
475.7927682966
  0
LINE
  5
3F5
100
AcDbEntity
  8
0
100
AcDbLine
 62
7
  6
CONTINUOUS
 10
335.8768633786
 20
478.6505267566
 11
335.8768633786
 21
489.2650581793
  0
LINE
  5
3F6
100
AcDbEntity
  8
0
100
AcDbLine
 62
7
  6
CONTINUOUS
 10
351.5039459113
 20
494.6540791038
 11
348.534109795
 21
491.959650757
  0
LINE
  5
3F7
100
AcDbEntity
  8
0
100
AcDbLine
 62
7
  6
CONTINUOUS
 10
350.4433060529
 20
490.8574007198
 11
353.4131421691
 21
493.5518290666
  0
LINE
  5
3F8
100
AcDbEntity
  8
0
100
AcDbLine
 62
7
  6
CONTINUOUS
 10
358.0800115973
 20
499.3080772728
 11
358.928536202
 21
499.7979702574
  0
LINE
  5
3F9
100
AcDbEntity
  8
0
100
AcDbLine
 62
7
  6
CONTINUOUS
 10
346.4127982833
 20
490.7349182954
 11
348.534109795
 21
491.959650757
  0
LINE
  5
3FA
100
AcDbEntity
  8
0
100
AcDbLine
 62
7
  6
CONTINUOUS
 10
351.5039459113
 20
493.6742762032
 11
358.0800115973
 21
497.4709468342
  0
LINE
  5
3FB
100
AcDbEntity
  8
0
100
AcDbLine
 62
7
  6
CONTINUOUS
 10
358.928536202
 20
497.9608398189
 11
367.6259133997
 21
502.9822429115
  0
LINE
  5
3FC
100
AcDbEntity
  8
0
100
AcDbLine
 62
7
  6
CONTINUOUS
 10
359.9892078552
 20
498.2058272356
 11
360.8377324599
 21
498.6957202202
  0
LINE
  5
3FD
100
AcDbEntity
  8
0
100
AcDbLine
 62
7
  6
CONTINUOUS
 10
369.5351096576
 20
501.8799928743
 11
362.4287568348
 21
497.7771626496
  0
LINE
  5
3FE
100
AcDbEntity
  8
0
100
AcDbLine
 62
7
  6
CONTINUOUS
 10
359.9892078552
 20
496.368696797
 11
354.2616885024
 21
493.0619316956
  0
LINE
  5
3FF
100
AcDbEntity
  8
0
100
AcDbLine
 62
7
  6
CONTINUOUS
 10
350.4433060529
 20
490.8574007198
 11
348.3219945412
 21
489.6326682581
  0
LINE
  5
400
100
AcDbEntity
  8
0
100
AcDbLine
 62
7
  6
CONTINUOUS
 10
346.4127982833
 20
488.4895366482
 11
348.33968878
 21
489.6020207546
  0
LINE
  5
401
100
AcDbEntity
  8
0
100
AcDbLine
 62
7
  6
CONTINUOUS
 10
323.290310271
 20
472.4449223044
 11
326.8258588967
 21
474.4861687637
  0
LINE
  5
402
100
AcDbEntity
  8
0
100
AcDbLine
 62
7
  6
CONTINUOUS
 10
329.5835868248
 20
475.3435989262
 11
333.1191354505
 21
477.3848453855
  0
LINE
  5
403
100
AcDbEntity
  8
0
100
AcDbLine
 62
7
  6
CONTINUOUS
 10
335.8768633786
 20
478.6505267566
 11
339.4124120044
 21
480.6917732159
  0
LINE
  5
404
100
AcDbEntity
  8
0
100
AcDbLine
 62
7
  6
CONTINUOUS
 10
342.1701399324
 20
481.5492033784
 11
345.7056885582
 21
483.5904498377
  0
LINE
  5
405
100
AcDbEntity
  8
0
100
AcDbLine
 62
7
  6
CONTINUOUS
 10
370.666564705
 20
492.0413918423
 11
371.5150893096
 21
492.531284827
  0
LINE
  5
406
100
AcDbEntity
  8
0
100
AcDbLine
 62
7
  6
CONTINUOUS
 10
358.9993513909
 20
483.4682328649
 11
361.1206629026
 21
484.6929653265
  0
LINE
  5
407
100
AcDbEntity
  8
0
100
AcDbLine
 62
7
  6
CONTINUOUS
 10
364.0904990189
 20
486.4075907728
 11
370.666564705
 21
490.2042614038
  0
LINE
  5
408
100
AcDbEntity
  8
0
100
AcDbLine
 62
7
  6
CONTINUOUS
 10
371.5150893096
 20
490.6941543884
 11
380.2124665073
 21
495.715557481
  0
LINE
  5
409
100
AcDbEntity
  8
0
100
AcDbLine
 62
7
  6
CONTINUOUS
 10
372.5757609629
 20
490.9391418051
 11
373.4242855675
 21
491.4290347898
  0
LINE
  5
40A
100
AcDbEntity
  8
0
100
AcDbLine
 62
7
  6
CONTINUOUS
 10
382.1216627652
 20
494.6133074438
 11
375.0153099424
 21
490.5104772192
  0
LINE
  5
40B
100
AcDbEntity
  8
0
100
AcDbLine
 62
7
  6
CONTINUOUS
 10
372.5757609629
 20
489.1020113666
 11
366.84824161
 21
485.7952462651
  0
LINE
  5
40C
100
AcDbEntity
  8
0
100
AcDbLine
 62
7
  6
CONTINUOUS
 10
363.0298591605
 20
483.5907152893
 11
360.9085476488
 21
482.3659828277
  0
LINE
  5
40D
100
AcDbEntity
  8
0
100
AcDbLine
 62
7
  6
CONTINUOUS
 10
358.9993513909
 20
481.2228512178
 11
360.9262418876
 21
482.3353353241
  0
LINE
  5
40E
100
AcDbEntity
  8
0
100
AcDbLine
 62
7
  6
CONTINUOUS
 10
335.8768633786
 20
465.1782368739
 11
339.4124120044
 21
467.2194833332
  0
LINE
  5
40F
100
AcDbEntity
  8
0
100
AcDbLine
 62
7
  6
CONTINUOUS
 10
342.1701399324
 20
468.0769134957
 11
345.7056885582
 21
470.118159955
  0
LINE
  5
410
100
AcDbEntity
  8
0
100
AcDbLine
 62
7
  6
CONTINUOUS
 10
348.4634164862
 20
471.3838413261
 11
351.998965112
 21
473.4250877854
  0
LWPOLYLINE
  5
411
100
AcDbEntity
  8
0
100
AcDbPolyline
 62
7
  6
CONTINUOUS
 90
5
 70
0
 10
570.3510583147
 20
334.490714617
 10
578.6553835862
 20
330.155576343
 10
584.0165899618
 20
325.2454394113
 10
586.5647347096
 20
319.7784629174
 10
586.913603636
 20
317.8451928402
  0
LWPOLYLINE
  5
412
100
AcDbEntity
  8
0
100
AcDbPolyline
 62
7
  6
CONTINUOUS
 90
3
 70
0
 10
562.4469345897
 20
343.0916121393
 10
566.4674331634
 20
340.9178045155
 10
568.2069143975
 20
339.3483487776
  0
LINE
  5
413
100
AcDbEntity
  8
0
100
AcDbLine
 62
7
  6
CONTINUOUS
 10
530.7256281128
 20
332.8851027691
 11
524.6752983593
 21
336.378183257
  0
LINE
  5
414
100
AcDbEntity
  8
0
100
AcDbLine
 62
7
  6
CONTINUOUS
 10
533.4838428019
 20
331.2926828012
 11
539.8781368422
 21
327.6009457542
  0
LINE
  5
415
100
AcDbEntity
  8
0
100
AcDbLine
 62
7
  6
CONTINUOUS
 10
132.8659709942
 20
573.934278439
 11
76.2971929824
 21
606.5935388007
  0
LINE
  5
416
100
AcDbEntity
  8
0
100
AcDbLine
 62
7
  6
CONTINUOUS
 10
552.606005912
 20
336.5823453581
 11
552.0403083565
 21
336.9089436054
  0
LINE
  5
417
100
AcDbEntity
  8
0
100
AcDbLine
 62
7
  6
CONTINUOUS
 10
76.2971929824
 20
613.1255581377
 11
132.8659709942
 21
580.4662977761
  0
LINE
  5
418
100
AcDbEntity
  8
0
100
AcDbLine
 62
7
  6
CONTINUOUS
 10
76.2264825987
 20
613.9012361394
 11
132.7952606105
 21
581.2419757778
  0
LINE
  5
419
100
AcDbEntity
  8
0
100
AcDbLine
 62
7
  6
CONTINUOUS
 10
556.1415427619
 20
336.9906138194
 11
553.7373720516
 21
338.3786310251
  0
LINE
  5
41A
100
AcDbEntity
  8
0
100
AcDbLine
 62
7
  6
CONTINUOUS
 10
524.6752983593
 20
355.1572475115
 11
169.7060779691
 21
560.0941861648
  0
LINE
  5
41B
100
AcDbEntity
  8
0
100
AcDbLine
 62
7
  6
CONTINUOUS
 10
515.624155511
 20
361.4034370749
 11
512.0886068853
 21
363.4446408475
  0
LINE
  5
41C
100
AcDbEntity
  8
0
100
AcDbLine
 62
7
  6
CONTINUOUS
 10
503.0376024034
 20
368.6701225053
 11
499.5020537776
 21
370.7113262779
  0
LINE
  5
41D
100
AcDbEntity
  8
0
100
AcDbLine
 62
7
  6
CONTINUOUS
 10
490.4510492958
 20
375.9368079358
 11
486.91550067
 21
377.9780117084
  0
LINE
  5
41E
100
AcDbEntity
  8
0
100
AcDbLine
 62
7
  6
CONTINUOUS
 10
477.8644961881
 20
383.2034933663
 11
474.3289475624
 21
385.2446971389
  0
LINE
  5
41F
100
AcDbEntity
  8
0
100
AcDbLine
 62
7
  6
CONTINUOUS
 10
465.2779430805
 20
390.4701787967
 11
461.7423944548
 21
392.5113825693
  0
LINE
  5
420
100
AcDbEntity
  8
0
100
AcDbLine
 62
7
  6
CONTINUOUS
 10
452.6913899729
 20
397.7368642272
 11
449.1558413472
 21
399.7780679998
  0
LINE
  5
421
100
AcDbEntity
  8
0
100
AcDbLine
 62
7
  6
CONTINUOUS
 10
440.1048368653
 20
405.0035496576
 11
436.5692882396
 21
407.0447534302
  0
LINE
  5
422
100
AcDbEntity
  8
0
100
AcDbLine
 62
7
  6
CONTINUOUS
 10
427.5182837577
 20
412.2702350881
 11
423.9827351319
 21
414.3114388607
  0
LINE
  5
423
100
AcDbEntity
  8
0
100
AcDbLine
 62
7
  6
CONTINUOUS
 10
414.9317306501
 20
419.5369205186
 11
411.3961820243
 21
421.5781242912
  0
LINE
  5
424
100
AcDbEntity
  8
0
100
AcDbLine
 62
7
  6
CONTINUOUS
 10
402.3451775424
 20
426.803605949
 11
398.8096289167
 21
428.8448097216
  0
LINE
  5
425
100
AcDbEntity
  8
0
100
AcDbLine
 62
7
  6
CONTINUOUS
 10
389.7586244348
 20
434.0702913795
 11
386.2230758091
 21
436.1114951521
  0
LINE
  5
426
100
AcDbEntity
  8
0
100
AcDbLine
 62
7
  6
CONTINUOUS
 10
377.1720713272
 20
441.3369768099
 11
373.6365227015
 21
443.3781805825
  0
LINE
  5
427
100
AcDbEntity
  8
0
100
AcDbLine
 62
7
  6
CONTINUOUS
 10
364.5855182196
 20
448.6036622404
 11
361.0499695939
 21
450.644866013
  0
LINE
  5
428
100
AcDbEntity
  8
0
100
AcDbLine
 62
7
  6
CONTINUOUS
 10
351.998965112
 20
455.8703476709
 11
348.4634164862
 21
457.9115514435
  0
LINE
  5
429
100
AcDbEntity
  8
0
100
AcDbLine
 62
7
  6
CONTINUOUS
 10
339.4124120044
 20
463.1370331013
 11
335.8768633786
 21
465.1782368739
  0
LINE
  5
42A
100
AcDbEntity
  8
0
100
AcDbLine
 62
7
  6
CONTINUOUS
 10
326.8258588967
 20
470.4037185318
 11
323.290310271
 21
472.4449223044
  0
LINE
  5
42B
100
AcDbEntity
  8
0
100
AcDbLine
 62
7
  6
CONTINUOUS
 10
314.2393057891
 20
477.6704039623
 11
310.7037571634
 21
479.7116077349
  0
LINE
  5
42C
100
AcDbEntity
  8
0
100
AcDbLine
 62
7
  6
CONTINUOUS
 10
301.6527526815
 20
484.9370893927
 11
298.1172040558
 21
486.9782931653
  0
LINE
  5
42D
100
AcDbEntity
  8
0
100
AcDbLine
 62
7
  6
CONTINUOUS
 10
289.0661995739
 20
492.2037748232
 11
285.5306509482
 21
494.2449785958
  0
LINE
  5
42E
100
AcDbEntity
  8
0
100
AcDbLine
 62
7
  6
CONTINUOUS
 10
276.4796464663
 20
499.4704602536
 11
272.9440978405
 21
501.5116640262
  0
LINE
  5
42F
100
AcDbEntity
  8
0
100
AcDbLine
 62
7
  6
CONTINUOUS
 10
263.8930933587
 20
506.7371456841
 11
260.3575447329
 21
508.7783494567
  0
LINE
  5
430
100
AcDbEntity
  8
0
100
AcDbLine
 62
7
  6
CONTINUOUS
 10
251.306540251
 20
514.0038311146
 11
247.7709916253
 21
516.0450348872
  0
LINE
  5
431
100
AcDbEntity
  8
0
100
AcDbLine
 62
7
  6
CONTINUOUS
 10
238.7199871434
 20
521.270516545
 11
235.1844385177
 21
523.3117203176
  0
LINE
  5
432
100
AcDbEntity
  8
0
100
AcDbLine
 62
7
  6
CONTINUOUS
 10
226.1334340358
 20
528.5372019755
 11
222.5978854101
 21
530.5784057481
  0
LINE
  5
433
100
AcDbEntity
  8
0
100
AcDbLine
 62
7
  6
CONTINUOUS
 10
213.5468809282
 20
535.8038874059
 11
210.0113323025
 21
537.8450911785
  0
LINE
  5
434
100
AcDbEntity
  8
0
100
AcDbLine
 62
7
  6
CONTINUOUS
 10
200.9603278206
 20
543.0705728364
 11
197.4247791948
 21
545.111776609
  0
LINE
  5
435
100
AcDbEntity
  8
0
100
AcDbLine
 62
7
  6
CONTINUOUS
 10
188.373774713
 20
550.3372582669
 11
184.8382260872
 21
552.3784620395
  0
LINE
  5
436
100
AcDbEntity
  8
0
100
AcDbLine
 62
7
  6
CONTINUOUS
 10
76.2264825987
 20
615.9424921823
 11
132.7952606105
 21
583.2832318206
  0
LWPOLYLINE
  5
437
100
AcDbEntity
  8
0
100
AcDbPolyline
 62
7
  6
CONTINUOUS
 90
3
 70
0
 10
562.4797299456
 20
329.6080352783
 10
567.3058841831
 20
326.7820826966
 10
568.1094136137
 20
325.9910808714
  0
LINE
  5
438
100
AcDbEntity
  8
0
100
AcDbLine
 62
7
  6
CONTINUOUS
 10
338.9173928036
 20
501.9207645342
 11
338.9173928036
 21
500.9409616337
  0
LINE
  5
439
100
AcDbEntity
  8
0
100
AcDbLine
 62
7
  6
CONTINUOUS
 10
339.4124120044
 20
487.2238544067
 11
339.4124120044
 21
476.609322984
  0
LINE
  5
43A
100
AcDbEntity
  8
0
100
AcDbLine
 62
7
  6
CONTINUOUS
 10
339.4124120044
 20
473.751564524
 11
339.4124120044
 21
463.1370331013
  0
LINE
  5
43B
100
AcDbEntity
  8
0
100
AcDbLine
 62
7
  6
CONTINUOUS
 10
342.1701399324
 20
468.0769134957
 11
342.1701399324
 21
478.6914449184
  0
LINE
  5
43C
100
AcDbEntity
  8
0
100
AcDbLine
 62
7
  6
CONTINUOUS
 10
342.1701399324
 20
481.5492033784
 11
342.1701399324
 21
492.1637348011
  0
LINE
  5
43D
100
AcDbEntity
  8
0
100
AcDbLine
 62
7
  6
CONTINUOUS
 10
342.4528071845
 20
515.2702321253
 11
342.4528071845
 21
517.5156137724
  0
LINE
  5
43E
100
AcDbEntity
  8
0
100
AcDbLine
 62
7
  6
CONTINUOUS
 10
345.4934584897
 20
504.7376322647
 11
345.4934584897
 21
506.5747627032
  0
LINE
  5
43F
100
AcDbEntity
  8
0
100
AcDbLine
 62
7
  6
CONTINUOUS
 10
345.7056885582
 20
490.1225310285
 11
345.7056885582
 21
479.5079996058
  0
LINE
  5
440
100
AcDbEntity
  8
0
100
AcDbLine
 62
7
  6
CONTINUOUS
 10
345.7056885582
 20
476.6502411458
 11
345.7056885582
 21
466.0357097231
  0
LINE
  5
441
100
AcDbEntity
  8
0
100
AcDbLine
 62
7
  6
CONTINUOUS
 10
346.3419830944
 20
507.0646556879
 11
346.3419830944
 21
505.2275252493
  0
LINE
  5
442
100
AcDbEntity
  8
0
100
AcDbLine
 62
7
  6
CONTINUOUS
 10
346.4127982833
 20
488.4895366482
 11
346.4127982833
 21
490.7349182954
  0
LINE
  5
443
100
AcDbEntity
  8
0
100
AcDbLine
 62
7
  6
CONTINUOUS
 10
347.4026547476
 20
505.472512666
 11
347.4026547476
 21
503.6353822275
  0
LINE
  5
444
100
AcDbEntity
  8
0
100
AcDbLine
 62
7
  6
CONTINUOUS
 10
348.3219945412
 20
489.6326682581
 11
348.3219945412
 21
487.387286611
  0
LINE
  5
445
100
AcDbEntity
  8
0
100
AcDbLine
 62
7
  6
CONTINUOUS
 10
348.4634164862
 20
457.9115514435
 11
348.4634164862
 21
468.5260828662
  0
LINE
  5
446
100
AcDbEntity
  8
0
100
AcDbLine
 62
7
  6
CONTINUOUS
 10
348.4634164862
 20
471.3838413261
 11
348.4634164862
 21
481.9983727488
  0
LINE
  5
447
100
AcDbEntity
  8
0
100
AcDbLine
 62
7
  6
CONTINUOUS
 10
351.5039459113
 20
494.6540791038
 11
351.5039459113
 21
493.6742762032
  0
LINE
  5
448
100
AcDbEntity
  8
0
100
AcDbLine
 62
7
  6
CONTINUOUS
 10
351.998965112
 20
479.9571689762
 11
351.998965112
 21
469.3426375535
  0
LINE
  5
449
100
AcDbEntity
  8
0
100
AcDbLine
 62
7
  6
CONTINUOUS
 10
351.998965112
 20
466.4848790936
 11
351.998965112
 21
455.8703476709
  0
LINE
  5
44A
100
AcDbEntity
  8
0
100
AcDbLine
 62
7
  6
CONTINUOUS
 10
354.75669304
 20
460.8102280653
 11
354.75669304
 21
471.424759488
  0
LINE
  5
44B
100
AcDbEntity
  8
0
100
AcDbLine
 62
7
  6
CONTINUOUS
 10
354.75669304
 20
474.2825179479
 11
354.75669304
 21
484.8970493706
  0
LINE
  5
44C
100
AcDbEntity
  8
0
100
AcDbLine
 62
7
  6
CONTINUOUS
 10
355.0393602921
 20
508.0035466949
 11
355.0393602921
 21
510.248928342
  0
LINE
  5
44D
100
AcDbEntity
  8
0
100
AcDbLine
 62
7
  6
CONTINUOUS
 10
364.0904990189
 20
487.3873936733
 11
361.1206629026
 21
484.6929653265
  0
LINE
  5
44E
100
AcDbEntity
  8
0
100
AcDbLine
 62
7
  6
CONTINUOUS
 10
363.0298591605
 20
483.5907152893
 11
365.9996952768
 21
486.2851436361
  0
LINE
  5
44F
100
AcDbEntity
  8
0
100
AcDbLine
 62
7
  6
CONTINUOUS
 10
376.6770521265
 20
480.1207082429
 11
373.7072160102
 21
477.426279896
  0
LINE
  5
450
100
AcDbEntity
  8
0
100
AcDbLine
 62
7
  6
CONTINUOUS
 10
375.6164122681
 20
476.3240298588
 11
378.5862483844
 21
479.0184582057
  0
LINE
  5
451
100
AcDbEntity
  8
0
100
AcDbLine
 62
7
  6
CONTINUOUS
 10
354.75669304
 20
474.2825179479
 11
358.2922416658
 21
476.3237644072
  0
LINE
  5
452
100
AcDbEntity
  8
0
100
AcDbLine
 62
7
  6
CONTINUOUS
 10
383.2531178126
 20
484.7747064119
 11
384.1016424172
 21
485.2645993965
  0
LINE
  5
453
100
AcDbEntity
  8
0
100
AcDbLine
 62
7
  6
CONTINUOUS
 10
371.5859044985
 20
476.2015474344
 11
373.7072160102
 21
477.426279896
  0
LINE
  5
454
100
AcDbEntity
  8
0
100
AcDbLine
 62
7
  6
CONTINUOUS
 10
376.6770521265
 20
479.1409053423
 11
383.2531178126
 21
482.9375759733
  0
LINE
  5
455
100
AcDbEntity
  8
0
100
AcDbLine
 62
7
  6
CONTINUOUS
 10
384.1016424172
 20
483.427468958
 11
392.799019615
 21
488.4488720506
  0
LINE
  5
456
100
AcDbEntity
  8
0
100
AcDbLine
 62
7
  6
CONTINUOUS
 10
385.1623140705
 20
483.6724563746
 11
386.0108386751
 21
484.1623493593
  0
LINE
  5
457
100
AcDbEntity
  8
0
100
AcDbLine
 62
7
  6
CONTINUOUS
 10
394.7082158729
 20
487.3466220134
 11
387.60186305
 21
483.2437917887
  0
LINE
  5
458
100
AcDbEntity
  8
0
100
AcDbLine
 62
7
  6
CONTINUOUS
 10
385.1623140705
 20
481.8353259361
 11
379.4347947176
 21
478.5285608347
  0
LINE
  5
459
100
AcDbEntity
  8
0
100
AcDbLine
 62
7
  6
CONTINUOUS
 10
375.6164122681
 20
476.3240298588
 11
373.4951007564
 21
475.0992973972
  0
LINE
  5
45A
100
AcDbEntity
  8
0
100
AcDbLine
 62
7
  6
CONTINUOUS
 10
371.5859044985
 20
473.9561657873
 11
373.5127949953
 21
475.0686498937
  0
LINE
  5
45B
100
AcDbEntity
  8
0
100
AcDbLine
 62
7
  6
CONTINUOUS
 10
348.4634164862
 20
457.9115514435
 11
351.998965112
 21
459.9527979028
  0
LINE
  5
45C
100
AcDbEntity
  8
0
100
AcDbLine
 62
7
  6
CONTINUOUS
 10
354.75669304
 20
460.8102280653
 11
358.2922416658
 21
462.8514745246
  0
LINE
  5
45D
100
AcDbEntity
  8
0
100
AcDbLine
 62
7
  6
CONTINUOUS
 10
361.0499695939
 20
464.1171558956
 11
364.5855182196
 21
466.158402355
  0
LINE
  5
45E
100
AcDbEntity
  8
0
100
AcDbLine
 62
7
  6
CONTINUOUS
 10
367.3432461477
 20
467.0158325175
 11
370.8787947734
 21
469.0570789768
  0
LINE
  5
45F
100
AcDbEntity
  8
0
100
AcDbLine
 62
7
  6
CONTINUOUS
 10
395.8396709202
 20
477.5080209814
 11
396.6881955248
 21
477.997913966
  0
LINE
  5
460
100
AcDbEntity
  8
0
100
AcDbLine
 62
7
  6
CONTINUOUS
 10
384.1724576062
 20
468.934862004
 11
386.2937691178
 21
470.1595944656
  0
LINE
  5
461
100
AcDbEntity
  8
0
100
AcDbLine
 62
7
  6
CONTINUOUS
 10
389.2636052341
 20
471.8742199118
 11
395.8396709202
 21
475.6708905428
  0
LINE
  5
462
100
AcDbEntity
  8
0
100
AcDbLine
 62
7
  6
CONTINUOUS
 10
396.6881955248
 20
476.1607835275
 11
405.3855727226
 21
481.1821866201
  0
LINE
  5
463
100
AcDbEntity
  8
0
100
AcDbLine
 62
7
  6
CONTINUOUS
 10
397.7488671781
 20
476.4057709442
 11
398.5973917827
 21
476.8956639288
  0
LINE
  5
464
100
AcDbEntity
  8
0
100
AcDbLine
 62
7
  6
CONTINUOUS
 10
521.9174320648
 20
364.3021136967
 11
518.3818834391
 21
366.3433174693
  0
LINE
  5
465
100
AcDbEntity
  8
0
100
AcDbLine
 62
7
  6
CONTINUOUS
 10
509.3308789572
 20
371.5687991271
 11
505.7953303314
 21
373.6100028997
  0
LINE
  5
466
100
AcDbEntity
  8
0
100
AcDbLine
 62
7
  6
CONTINUOUS
 10
496.7443258496
 20
378.8354845576
 11
493.2087772238
 21
380.8766883302
  0
LINE
  5
467
100
AcDbEntity
  8
0
100
AcDbLine
 62
7
  6
CONTINUOUS
 10
484.1577727419
 20
386.1021699881
 11
480.6222241162
 21
388.1433737607
  0
LINE
  5
468
100
AcDbEntity
  8
0
100
AcDbLine
 62
7
  6
CONTINUOUS
 10
471.5712196343
 20
393.3688554185
 11
468.0356710086
 21
395.4100591911
  0
LINE
  5
469
100
AcDbEntity
  8
0
100
AcDbLine
 62
7
  6
CONTINUOUS
 10
458.9846665267
 20
400.635540849
 11
455.449117901
 21
402.6767446216
  0
LINE
  5
46A
100
AcDbEntity
  8
0
100
AcDbLine
 62
7
  6
CONTINUOUS
 10
446.3981134191
 20
407.9022262794
 11
442.8625647934
 21
409.943430052
  0
LINE
  5
46B
100
AcDbEntity
  8
0
100
AcDbLine
 62
7
  6
CONTINUOUS
 10
433.8115603115
 20
415.1689117099
 11
430.2760116857
 21
417.2101154825
  0
LINE
  5
46C
100
AcDbEntity
  8
0
100
AcDbLine
 62
7
  6
CONTINUOUS
 10
421.2250072039
 20
422.4355971404
 11
417.6894585781
 21
424.476800913
  0
LINE
  5
46D
100
AcDbEntity
  8
0
100
AcDbLine
 62
7
  6
CONTINUOUS
 10
408.6384540962
 20
429.7022825708
 11
405.1029054705
 21
431.7434863434
  0
LINE
  5
46E
100
AcDbEntity
  8
0
100
AcDbLine
 62
7
  6
CONTINUOUS
 10
396.0519009886
 20
436.9689680013
 11
392.5163523629
 21
439.0101717739
  0
LINE
  5
46F
100
AcDbEntity
  8
0
100
AcDbLine
 62
7
  6
CONTINUOUS
 10
383.465347881
 20
444.2356534318
 11
379.9297992553
 21
446.2768572044
  0
LINE
  5
470
100
AcDbEntity
  8
0
100
AcDbLine
 62
7
  6
CONTINUOUS
 10
370.8787947734
 20
451.5023388622
 11
367.3432461477
 21
453.5435426348
  0
LINE
  5
471
100
AcDbEntity
  8
0
100
AcDbLine
 62
7
  6
CONTINUOUS
 10
358.2922416658
 20
458.7690242927
 11
354.75669304
 21
460.8102280653
  0
LINE
  5
472
100
AcDbEntity
  8
0
100
AcDbLine
 62
7
  6
CONTINUOUS
 10
345.7056885582
 20
466.0357097231
 11
342.1701399324
 21
468.0769134957
  0
LINE
  5
473
100
AcDbEntity
  8
0
100
AcDbLine
 62
7
  6
CONTINUOUS
 10
333.1191354505
 20
473.3023951536
 11
329.5835868248
 21
475.3435989262
  0
LINE
  5
474
100
AcDbEntity
  8
0
100
AcDbLine
 62
7
  6
CONTINUOUS
 10
320.5325823429
 20
480.5690805841
 11
316.9970337172
 21
482.6102843567
  0
LINE
  5
475
100
AcDbEntity
  8
0
100
AcDbLine
 62
7
  6
CONTINUOUS
 10
307.9460292353
 20
487.8357660145
 11
304.4104806096
 21
489.8769697871
  0
LINE
  5
476
100
AcDbEntity
  8
0
100
AcDbLine
 62
7
  6
CONTINUOUS
 10
295.3594761277
 20
495.102451445
 11
291.823927502
 21
497.1436552176
  0
LINE
  5
477
100
AcDbEntity
  8
0
100
AcDbLine
 62
7
  6
CONTINUOUS
 10
282.7729230201
 20
502.3691368754
 11
279.2373743943
 21
504.410340648
  0
LINE
  5
478
100
AcDbEntity
  8
0
100
AcDbLine
 62
7
  6
CONTINUOUS
 10
270.1863699125
 20
509.6358223059
 11
266.6508212867
 21
511.6770260785
  0
LINE
  5
479
100
AcDbEntity
  8
0
100
AcDbLine
 62
7
  6
CONTINUOUS
 10
257.5998168049
 20
516.9025077364
 11
254.0642681791
 21
518.943711509
  0
LINE
  5
47A
100
AcDbEntity
  8
0
100
AcDbLine
 62
7
  6
CONTINUOUS
 10
245.0132636972
 20
524.1691931668
 11
241.4777150715
 21
526.2103969394
  0
LINE
  5
47B
100
AcDbEntity
  8
0
100
AcDbLine
 62
7
  6
CONTINUOUS
 10
232.4267105896
 20
531.4358785973
 11
228.8911619639
 21
533.4770823699
  0
LINE
  5
47C
100
AcDbEntity
  8
0
100
AcDbLine
 62
7
  6
CONTINUOUS
 10
219.840157482
 20
538.7025640278
 11
216.3046088563
 21
540.7437678004
  0
LINE
  5
47D
100
AcDbEntity
  8
0
100
AcDbLine
 62
7
  6
CONTINUOUS
 10
207.2536043744
 20
545.9692494582
 11
203.7180557487
 21
548.0104532308
  0
LINE
  5
47E
100
AcDbEntity
  8
0
100
AcDbLine
 62
7
  6
CONTINUOUS
 10
194.6670512668
 20
553.2359348887
 11
191.131502641
 21
555.2771386613
  0
LINE
  5
47F
100
AcDbEntity
  8
0
100
AcDbLine
 62
7
  6
CONTINUOUS
 10
182.0804981592
 20
560.5026203191
 11
178.5449495334
 21
562.5438240917
  0
LINE
  5
480
100
AcDbEntity
  8
0
100
AcDbLine
 62
7
  6
CONTINUOUS
 10
136.3307797966
 20
589.4069646756
 11
79.7620017848
 21
622.0662250373
  0
LINE
  5
481
100
AcDbEntity
  8
0
100
AcDbLine
 62
7
  6
CONTINUOUS
 10
184.8382260872
 20
562.9929934622
 11
188.373774713
 21
560.9517896896
  0
LINE
  5
482
100
AcDbEntity
  8
0
100
AcDbLine
 62
7
  6
CONTINUOUS
 10
197.4247791948
 20
555.7263080317
 11
200.9603278206
 21
553.6851042591
  0
LINE
  5
483
100
AcDbEntity
  8
0
100
AcDbLine
 62
7
  6
CONTINUOUS
 10
210.0113323025
 20
548.4596226012
 11
213.5468809282
 21
546.4184188286
  0
LINE
  5
484
100
AcDbEntity
  8
0
100
AcDbLine
 62
7
  6
CONTINUOUS
 10
222.5978854101
 20
541.1929371708
 11
226.1334340358
 21
539.1517333982
  0
LINE
  5
485
100
AcDbEntity
  8
0
100
AcDbLine
 62
7
  6
CONTINUOUS
 10
235.1844385177
 20
533.9262517403
 11
238.7199871434
 21
531.8850479677
  0
LINE
  5
486
100
AcDbEntity
  8
0
100
AcDbLine
 62
7
  6
CONTINUOUS
 10
247.7709916253
 20
526.6595663098
 11
251.306540251
 21
524.6183625372
  0
LINE
  5
487
100
AcDbEntity
  8
0
100
AcDbLine
 62
7
  6
CONTINUOUS
 10
260.3575447329
 20
519.3928808794
 11
263.8930933587
 21
517.3516771068
  0
LINE
  5
488
100
AcDbEntity
  8
0
100
AcDbLine
 62
7
  6
CONTINUOUS
 10
272.9440978405
 20
512.1261954489
 11
276.4796464663
 21
510.0849916763
  0
LINE
  5
489
100
AcDbEntity
  8
0
100
AcDbLine
 62
7
  6
CONTINUOUS
 10
285.5306509482
 20
504.8595100185
 11
289.0661995739
 21
502.8183062459
  0
LINE
  5
48A
100
AcDbEntity
  8
0
100
AcDbLine
 62
7
  6
CONTINUOUS
 10
298.1172040558
 20
497.592824588
 11
301.6527526815
 21
495.5516208154
  0
LINE
  5
48B
100
AcDbEntity
  8
0
100
AcDbLine
 62
7
  6
CONTINUOUS
 10
310.7037571634
 20
490.3261391575
 11
314.2393057891
 21
488.2849353849
  0
LINE
  5
48C
100
AcDbEntity
  8
0
100
AcDbLine
 62
7
  6
CONTINUOUS
 10
323.290310271
 20
483.0594537271
 11
326.8258588967
 21
481.0182499545
  0
LINE
  5
48D
100
AcDbEntity
  8
0
100
AcDbLine
 62
7
  6
CONTINUOUS
 10
335.8768633786
 20
475.7927682966
 11
339.4124120044
 21
473.751564524
  0
LINE
  5
48E
100
AcDbEntity
  8
0
100
AcDbLine
 62
7
  6
CONTINUOUS
 10
348.4634164862
 20
468.5260828662
 11
351.998965112
 21
466.4848790936
  0
LINE
  5
48F
100
AcDbEntity
  8
0
100
AcDbLine
 62
7
  6
CONTINUOUS
 10
361.0499695939
 20
461.2593974357
 11
364.5855182196
 21
459.2181936631
  0
LINE
  5
490
100
AcDbEntity
  8
0
100
AcDbLine
 62
7
  6
CONTINUOUS
 10
373.6365227015
 20
453.9927120052
 11
377.1720713272
 21
451.9515082326
  0
LINE
  5
491
100
AcDbEntity
  8
0
100
AcDbLine
 62
7
  6
CONTINUOUS
 10
386.2230758091
 20
446.7260265748
 11
389.7586244348
 21
444.6848228022
  0
LINE
  5
492
100
AcDbEntity
  8
0
100
AcDbLine
 62
7
  6
CONTINUOUS
 10
398.8096289167
 20
439.4593411443
 11
402.3451775424
 21
437.4181373717
  0
LINE
  5
493
100
AcDbEntity
  8
0
100
AcDbLine
 62
7
  6
CONTINUOUS
 10
411.3961820243
 20
432.1926557139
 11
414.9317306501
 21
430.1514519412
  0
LINE
  5
494
100
AcDbEntity
  8
0
100
AcDbLine
 62
7
  6
CONTINUOUS
 10
423.9827351319
 20
424.9259702834
 11
427.5182837577
 21
422.8847665108
  0
LINE
  5
495
100
AcDbEntity
  8
0
100
AcDbLine
 62
7
  6
CONTINUOUS
 10
436.5692882396
 20
417.6592848529
 11
440.1048368653
 21
415.6180810803
  0
LINE
  5
496
100
AcDbEntity
  8
0
100
AcDbLine
 62
7
  6
CONTINUOUS
 10
449.1558413472
 20
410.3925994225
 11
452.6913899729
 21
408.3513956499
  0
LINE
  5
497
100
AcDbEntity
  8
0
100
AcDbLine
 62
7
  6
CONTINUOUS
 10
461.7423944548
 20
403.125913992
 11
465.2779430805
 21
401.0847102194
  0
LINE
  5
498
100
AcDbEntity
  8
0
100
AcDbLine
 62
7
  6
CONTINUOUS
 10
474.3289475624
 20
395.8592285615
 11
477.8644961881
 21
393.8180247889
  0
LINE
  5
499
100
AcDbEntity
  8
0
100
AcDbLine
 62
7
  6
CONTINUOUS
 10
486.91550067
 20
388.5925431311
 11
490.4510492958
 21
386.5513393585
  0
LINE
  5
49A
100
AcDbEntity
  8
0
100
AcDbLine
 62
7
  6
CONTINUOUS
 10
499.5020537776
 20
381.3258577006
 11
503.0376024034
 21
379.284653928
  0
LINE
  5
49B
100
AcDbEntity
  8
0
100
AcDbLine
 62
7
  6
CONTINUOUS
 10
512.0886068853
 20
374.0591722702
 11
515.624155511
 21
372.0179684976
  0
LINE
  5
49C
100
AcDbEntity
  8
0
100
AcDbLine
 62
7
  6
CONTINUOUS
 10
537.4032734119
 20
360.8734439436
 11
524.6752983593
 21
368.221777525
  0
LINE
  5
49D
100
AcDbEntity
  8
0
100
AcDbLine
 62
7
  6
CONTINUOUS
 10
528.7411763349
 20
366.6908868493
 11
534.0444992735
 21
363.6290811904
  0
LINE
  5
49E
100
AcDbEntity
  8
0
100
AcDbLine
 62
7
  6
CONTINUOUS
 10
525.2938014629
 20
369.2930805606
 11
524.6751599929
 21
369.6502452997
  0
LINE
  5
49F
100
AcDbEntity
  8
0
100
AcDbLine
 62
7
  6
CONTINUOUS
 10
515.624155511
 20
374.8757269575
 11
512.0886068853
 21
376.9169307301
  0
LINE
  5
4A0
100
AcDbEntity
  8
0
100
AcDbLine
 62
7
  6
CONTINUOUS
 10
503.0376024034
 20
382.142412388
 11
499.5020537776
 21
384.1836161606
  0
LINE
  5
4A1
100
AcDbEntity
  8
0
100
AcDbLine
 62
7
  6
CONTINUOUS
 10
490.4510492958
 20
389.4090978184
 11
486.91550067
 21
391.450301591
  0
LINE
  5
4A2
100
AcDbEntity
  8
0
100
AcDbLine
 62
7
  6
CONTINUOUS
 10
477.8644961881
 20
396.6757832489
 11
474.3289475624
 21
398.7169870215
  0
LINE
  5
4A3
100
AcDbEntity
  8
0
100
AcDbLine
 62
7
  6
CONTINUOUS
 10
465.2779430805
 20
403.9424686794
 11
461.7423944548
 21
405.983672452
  0
LINE
  5
4A4
100
AcDbEntity
  8
0
100
AcDbLine
 62
7
  6
CONTINUOUS
 10
452.6913899729
 20
411.2091541098
 11
449.1558413472
 21
413.2503578824
  0
LINE
  5
4A5
100
AcDbEntity
  8
0
100
AcDbLine
 62
7
  6
CONTINUOUS
 10
440.1048368653
 20
418.4758395403
 11
436.5692882396
 21
420.5170433129
  0
LINE
  5
4A6
100
AcDbEntity
  8
0
100
AcDbLine
 62
7
  6
CONTINUOUS
 10
427.5182837577
 20
425.7425249707
 11
423.9827351319
 21
427.7837287433
  0
LINE
  5
4A7
100
AcDbEntity
  8
0
100
AcDbLine
 62
7
  6
CONTINUOUS
 10
414.9317306501
 20
433.0092104012
 11
411.3961820243
 21
435.0504141738
  0
LINE
  5
4A8
100
AcDbEntity
  8
0
100
AcDbLine
 62
7
  6
CONTINUOUS
 10
402.3451775424
 20
440.2758958317
 11
398.8096289167
 21
442.3170996043
  0
LINE
  5
4A9
100
AcDbEntity
  8
0
100
AcDbLine
 62
7
  6
CONTINUOUS
 10
389.7586244348
 20
447.5425812621
 11
386.2230758091
 21
449.5837850347
  0
LINE
  5
4AA
100
AcDbEntity
  8
0
100
AcDbLine
 62
7
  6
CONTINUOUS
 10
377.1720713272
 20
454.8092666926
 11
373.6365227015
 21
456.8504704652
  0
LINE
  5
4AB
100
AcDbEntity
  8
0
100
AcDbLine
 62
7
  6
CONTINUOUS
 10
364.5855182196
 20
462.075952123
 11
361.0499695939
 21
464.1171558956
  0
LINE
  5
4AC
100
AcDbEntity
  8
0
100
AcDbLine
 62
7
  6
CONTINUOUS
 10
351.998965112
 20
469.3426375535
 11
348.4634164862
 21
471.3838413261
  0
LINE
  5
4AD
100
AcDbEntity
  8
0
100
AcDbLine
 62
7
  6
CONTINUOUS
 10
339.4124120044
 20
476.609322984
 11
335.8768633786
 21
478.6505267566
  0
LINE
  5
4AE
100
AcDbEntity
  8
0
100
AcDbLine
 62
7
  6
CONTINUOUS
 10
326.8258588967
 20
483.8760084144
 11
323.290310271
 21
485.917212187
  0
LINE
  5
4AF
100
AcDbEntity
  8
0
100
AcDbLine
 62
7
  6
CONTINUOUS
 10
314.2393057891
 20
491.1426938449
 11
310.7037571634
 21
493.1838976175
  0
LINE
  5
4B0
100
AcDbEntity
  8
0
100
AcDbLine
 62
7
  6
CONTINUOUS
 10
301.6527526815
 20
498.4093792754
 11
298.1172040558
 21
500.450583048
  0
LINE
  5
4B1
100
AcDbEntity
  8
0
100
AcDbLine
 62
7
  6
CONTINUOUS
 10
289.0661995739
 20
505.6760647058
 11
285.5306509482
 21
507.7172684784
  0
LINE
  5
4B2
100
AcDbEntity
  8
0
100
AcDbLine
 62
7
  6
CONTINUOUS
 10
276.4796464663
 20
512.9427501363
 11
272.9440978405
 21
514.9839539089
  0
LINE
  5
4B3
100
AcDbEntity
  8
0
100
AcDbLine
 62
7
  6
CONTINUOUS
 10
263.8930933587
 20
520.2094355667
 11
260.3575447329
 21
522.2506393393
  0
LINE
  5
4B4
100
AcDbEntity
  8
0
100
AcDbLine
 62
7
  6
CONTINUOUS
 10
251.306540251
 20
527.4761209972
 11
247.7709916253
 21
529.5173247698
  0
LINE
  5
4B5
100
AcDbEntity
  8
0
100
AcDbLine
 62
7
  6
CONTINUOUS
 10
238.7199871434
 20
534.7428064277
 11
235.1844385177
 21
536.7840102003
  0
LINE
  5
4B6
100
AcDbEntity
  8
0
100
AcDbLine
 62
7
  6
CONTINUOUS
 10
226.1334340358
 20
542.0094918581
 11
222.5978854101
 21
544.0506956307
  0
LINE
  5
4B7
100
AcDbEntity
  8
0
100
AcDbLine
 62
7
  6
CONTINUOUS
 10
213.5468809282
 20
549.2761772886
 11
210.0113323025
 21
551.3173810612
  0
LINE
  5
4B8
100
AcDbEntity
  8
0
100
AcDbLine
 62
7
  6
CONTINUOUS
 10
200.9603278206
 20
556.542862719
 11
197.4247791948
 21
558.5840664916
  0
LINE
  5
4B9
100
AcDbEntity
  8
0
100
AcDbLine
 62
7
  6
CONTINUOUS
 10
188.373774713
 20
563.8095481495
 11
184.8382260872
 21
565.8507519221
  0
LINE
  5
4BA
100
AcDbEntity
  8
0
100
AcDbLine
 62
7
  6
CONTINUOUS
 10
178.5449495334
 20
573.1583555144
 11
182.0804981592
 21
571.1171517418
  0
LINE
  5
4BB
100
AcDbEntity
  8
0
100
AcDbLine
 62
7
  6
CONTINUOUS
 10
191.131502641
 20
565.891670084
 11
194.6670512668
 21
563.8504663114
  0
LINE
  5
4BC
100
AcDbEntity
  8
0
100
AcDbLine
 62
7
  6
CONTINUOUS
 10
203.7180557487
 20
558.6249846535
 11
207.2536043744
 21
556.5837808809
  0
LINE
  5
4BD
100
AcDbEntity
  8
0
100
AcDbLine
 62
7
  6
CONTINUOUS
 10
216.3046088563
 20
551.358299223
 11
219.840157482
 21
549.3170954504
  0
LINE
  5
4BE
100
AcDbEntity
  8
0
100
AcDbLine
 62
7
  6
CONTINUOUS
 10
228.8911619639
 20
544.0916137926
 11
232.4267105896
 21
542.05041002
  0
LINE
  5
4BF
100
AcDbEntity
  8
0
100
AcDbLine
 62
7
  6
CONTINUOUS
 10
241.4777150715
 20
536.8249283621
 11
245.0132636972
 21
534.7837245895
  0
LINE
  5
4C0
100
AcDbEntity
  8
0
100
AcDbLine
 62
7
  6
CONTINUOUS
 10
254.0642681791
 20
529.5582429317
 11
257.5998168049
 21
527.5170391591
  0
LINE
  5
4C1
100
AcDbEntity
  8
0
100
AcDbLine
 62
7
  6
CONTINUOUS
 10
266.6508212867
 20
522.2915575012
 11
270.1863699125
 21
520.2503537286
  0
LINE
  5
4C2
100
AcDbEntity
  8
0
100
AcDbLine
 62
7
  6
CONTINUOUS
 10
279.2373743943
 20
515.0248720707
 11
282.7729230201
 21
512.9836682981
  0
LINE
  5
4C3
100
AcDbEntity
  8
0
100
AcDbLine
 62
7
  6
CONTINUOUS
 10
291.823927502
 20
507.7581866403
 11
295.3594761277
 21
505.7169828677
  0
LINE
  5
4C4
100
AcDbEntity
  8
0
100
AcDbLine
 62
7
  6
CONTINUOUS
 10
304.4104806096
 20
500.4915012098
 11
307.9460292353
 21
498.4502974372
  0
LINE
  5
4C5
100
AcDbEntity
  8
0
100
AcDbLine
 62
7
  6
CONTINUOUS
 10
316.9970337172
 20
493.2248157793
 11
320.5325823429
 21
491.1836120067
  0
LINE
  5
4C6
100
AcDbEntity
  8
0
100
AcDbLine
 62
7
  6
CONTINUOUS
 10
329.5835868248
 20
485.9581303489
 11
333.1191354505
 21
483.9169265763
  0
LINE
  5
4C7
100
AcDbEntity
  8
0
100
AcDbLine
 62
7
  6
CONTINUOUS
 10
342.1701399324
 20
478.6914449184
 11
345.7056885582
 21
476.6502411458
  0
LINE
  5
4C8
100
AcDbEntity
  8
0
100
AcDbLine
 62
7
  6
CONTINUOUS
 10
354.75669304
 20
471.424759488
 11
358.2922416658
 21
469.3835557154
  0
LINE
  5
4C9
100
AcDbEntity
  8
0
100
AcDbLine
 62
7
  6
CONTINUOUS
 10
367.3432461477
 20
464.1580740575
 11
370.8787947734
 21
462.1168702849
  0
LINE
  5
4CA
100
AcDbEntity
  8
0
100
AcDbLine
 62
7
  6
CONTINUOUS
 10
379.9297992553
 20
456.891388627
 11
383.465347881
 21
454.8501848544
  0
LINE
  5
4CB
100
AcDbEntity
  8
0
100
AcDbLine
 62
7
  6
CONTINUOUS
 10
392.5163523629
 20
449.6247031966
 11
396.0519009886
 21
447.583499424
  0
LINE
  5
4CC
100
AcDbEntity
  8
0
100
AcDbLine
 62
7
  6
CONTINUOUS
 10
405.1029054705
 20
442.3580177661
 11
408.6384540962
 21
440.3168139935
  0
LINE
  5
4CD
100
AcDbEntity
  8
0
100
AcDbLine
 62
7
  6
CONTINUOUS
 10
417.6894585781
 20
435.0913323357
 11
421.2250072039
 21
433.0501285631
  0
LINE
  5
4CE
100
AcDbEntity
  8
0
100
AcDbLine
 62
7
  6
CONTINUOUS
 10
430.2760116857
 20
427.8246469052
 11
433.8115603115
 21
425.7834431326
  0
LINE
  5
4CF
100
AcDbEntity
  8
0
100
AcDbLine
 62
7
  6
CONTINUOUS
 10
442.8625647934
 20
420.5579614747
 11
446.3981134191
 21
418.5167577021
  0
LINE
  5
4D0
100
AcDbEntity
  8
0
100
AcDbLine
 62
7
  6
CONTINUOUS
 10
455.449117901
 20
413.2912760443
 11
458.9846665267
 21
411.2500722717
  0
LINE
  5
4D1
100
AcDbEntity
  8
0
100
AcDbLine
 62
7
  6
CONTINUOUS
 10
468.0356710086
 20
406.0245906138
 11
471.5712196343
 21
403.9833868412
  0
LINE
  5
4D2
100
AcDbEntity
  8
0
100
AcDbLine
 62
7
  6
CONTINUOUS
 10
480.6222241162
 20
398.7579051833
 11
484.1577727419
 21
396.7167014107
  0
LINE
  5
4D3
100
AcDbEntity
  8
0
100
AcDbLine
 62
7
  6
CONTINUOUS
 10
493.2087772238
 20
391.4912197529
 11
496.7443258496
 21
389.4500159803
  0
LINE
  5
4D4
100
AcDbEntity
  8
0
100
AcDbLine
 62
7
  6
CONTINUOUS
 10
505.7953303314
 20
384.2245343224
 11
509.3308789572
 21
382.1833305498
  0
LINE
  5
4D5
100
AcDbEntity
  8
0
100
AcDbLine
 62
7
  6
CONTINUOUS
 10
518.3818834391
 20
376.957848892
 11
521.9174320648
 21
374.9166451194
  0
LINE
  5
4D6
100
AcDbEntity
  8
0
100
AcDbLine
 62
7
  6
CONTINUOUS
 10
539.8781368422
 20
365.1600569421
 11
536.1658107852
 21
367.3033209034
  0
LINE
  5
4D7
100
AcDbEntity
  8
0
100
AcDbLine
 62
7
  6
CONTINUOUS
 10
530.8624878466
 20
370.3651265623
 11
527.1501617895
 21
372.5083905235
  0
LINE
  5
4D8
100
AcDbEntity
  8
0
100
AcDbLine
 62
7
  6
CONTINUOUS
 10
521.9174320648
 20
377.7744035793
 11
518.3818834391
 21
379.8156073519
  0
LINE
  5
4D9
100
AcDbEntity
  8
0
100
AcDbLine
 62
7
  6
CONTINUOUS
 10
509.3308789572
 20
385.0410890098
 11
505.7953303314
 21
387.0822927824
  0
LINE
  5
4DA
100
AcDbEntity
  8
0
100
AcDbLine
 62
7
  6
CONTINUOUS
 10
496.7443258496
 20
392.3077744402
 11
493.2087772238
 21
394.3489782128
  0
LINE
  5
4DB
100
AcDbEntity
  8
0
100
AcDbLine
 62
7
  6
CONTINUOUS
 10
484.1577727419
 20
399.5744598707
 11
480.6222241162
 21
401.6156636433
  0
LINE
  5
4DC
100
AcDbEntity
  8
0
100
AcDbLine
 62
7
  6
CONTINUOUS
 10
471.5712196343
 20
406.8411453012
 11
468.0356710086
 21
408.8823490738
  0
LINE
  5
4DD
100
AcDbEntity
  8
0
100
AcDbLine
 62
7
  6
CONTINUOUS
 10
458.9846665267
 20
414.1078307316
 11
455.449117901
 21
416.1490345042
  0
LINE
  5
4DE
100
AcDbEntity
  8
0
100
AcDbLine
 62
7
  6
CONTINUOUS
 10
446.3981134191
 20
421.3745161621
 11
442.8625647934
 21
423.4157199347
  0
LINE
  5
4DF
100
AcDbEntity
  8
0
100
AcDbLine
 62
7
  6
CONTINUOUS
 10
433.8115603115
 20
428.6412015925
 11
430.2760116857
 21
430.6824053651
  0
LINE
  5
4E0
100
AcDbEntity
  8
0
100
AcDbLine
 62
7
  6
CONTINUOUS
 10
421.2250072039
 20
435.907887023
 11
417.6894585781
 21
437.9490907956
  0
LINE
  5
4E1
100
AcDbEntity
  8
0
100
AcDbLine
 62
7
  6
CONTINUOUS
 10
408.6384540962
 20
443.1745724535
 11
405.1029054705
 21
445.2157762261
  0
LINE
  5
4E2
100
AcDbEntity
  8
0
100
AcDbLine
 62
7
  6
CONTINUOUS
 10
396.0519009886
 20
450.4412578839
 11
392.5163523629
 21
452.4824616565
  0
LINE
  5
4E3
100
AcDbEntity
  8
0
100
AcDbLine
 62
7
  6
CONTINUOUS
 10
383.465347881
 20
457.7079433144
 11
379.9297992553
 21
459.749147087
  0
LINE
  5
4E4
100
AcDbEntity
  8
0
100
AcDbLine
 62
7
  6
CONTINUOUS
 10
370.8787947734
 20
464.9746287449
 11
367.3432461477
 21
467.0158325175
  0
LINE
  5
4E5
100
AcDbEntity
  8
0
100
AcDbLine
 62
7
  6
CONTINUOUS
 10
358.2922416658
 20
472.2413141753
 11
354.75669304
 21
474.2825179479
  0
LINE
  5
4E6
100
AcDbEntity
  8
0
100
AcDbLine
 62
7
  6
CONTINUOUS
 10
345.7056885582
 20
479.5079996058
 11
342.1701399324
 21
481.5492033784
  0
LINE
  5
4E7
100
AcDbEntity
  8
0
100
AcDbLine
 62
7
  6
CONTINUOUS
 10
333.1191354505
 20
486.7746850362
 11
329.5835868248
 21
488.8158888088
  0
LINE
  5
4E8
100
AcDbEntity
  8
0
100
AcDbLine
 62
7
  6
CONTINUOUS
 10
320.5325823429
 20
494.0413704667
 11
316.9970337172
 21
496.0825742393
  0
LINE
  5
4E9
100
AcDbEntity
  8
0
100
AcDbLine
 62
7
  6
CONTINUOUS
 10
307.9460292353
 20
501.3080558972
 11
304.4104806096
 21
503.3492596698
  0
LINE
  5
4EA
100
AcDbEntity
  8
0
100
AcDbLine
 62
7
  6
CONTINUOUS
 10
295.3594761277
 20
508.5747413276
 11
291.823927502
 21
510.6159451002
  0
LINE
  5
4EB
100
AcDbEntity
  8
0
100
AcDbLine
 62
7
  6
CONTINUOUS
 10
282.7729230201
 20
515.8414267581
 11
279.2373743943
 21
517.8826305307
  0
LINE
  5
4EC
100
AcDbEntity
  8
0
100
AcDbLine
 62
7
  6
CONTINUOUS
 10
270.1863699125
 20
523.1081121885
 11
266.6508212867
 21
525.1493159611
  0
LINE
  5
4ED
100
AcDbEntity
  8
0
100
AcDbLine
 62
7
  6
CONTINUOUS
 10
257.5998168049
 20
530.374797619
 11
254.0642681791
 21
532.4160013916
  0
LINE
  5
4EE
100
AcDbEntity
  8
0
100
AcDbLine
 62
7
  6
CONTINUOUS
 10
245.0132636972
 20
537.6414830495
 11
241.4777150715
 21
539.6826868221
  0
LINE
  5
4EF
100
AcDbEntity
  8
0
100
AcDbLine
 62
7
  6
CONTINUOUS
 10
232.4267105896
 20
544.9081684799
 11
228.8911619639
 21
546.9493722525
  0
LINE
  5
4F0
100
AcDbEntity
  8
0
100
AcDbLine
 62
7
  6
CONTINUOUS
 10
219.840157482
 20
552.1748539104
 11
216.3046088563
 21
554.216057683
  0
LINE
  5
4F1
100
AcDbEntity
  8
0
100
AcDbLine
 62
7
  6
CONTINUOUS
 10
207.2536043744
 20
559.4415393409
 11
203.7180557487
 21
561.4827431135
  0
LINE
  5
4F2
100
AcDbEntity
  8
0
100
AcDbLine
 62
7
  6
CONTINUOUS
 10
194.6670512668
 20
566.7082247713
 11
191.131502641
 21
568.7494285439
  0
LINE
  5
4F3
100
AcDbEntity
  8
0
100
AcDbLine
 62
7
  6
CONTINUOUS
 10
182.0804981592
 20
573.9749102018
 11
178.5449495334
 21
576.0161139744
  0
LINE
  5
4F4
100
AcDbEntity
  8
0
100
AcDbLine
 62
7
  6
CONTINUOUS
 10
184.8382260872
 20
576.4652833448
 11
188.373774713
 21
574.4240795722
  0
LINE
  5
4F5
100
AcDbEntity
  8
0
100
AcDbLine
 62
7
  6
CONTINUOUS
 10
197.4247791948
 20
569.1985979143
 11
200.9603278206
 21
567.1573941417
  0
LINE
  5
4F6
100
AcDbEntity
  8
0
100
AcDbLine
 62
7
  6
CONTINUOUS
 10
210.0113323025
 20
561.9319124839
 11
213.5468809282
 21
559.8907087113
  0
LINE
  5
4F7
100
AcDbEntity
  8
0
100
AcDbLine
 62
7
  6
CONTINUOUS
 10
222.5978854101
 20
554.6652270534
 11
226.1334340358
 21
552.6240232808
  0
LINE
  5
4F8
100
AcDbEntity
  8
0
100
AcDbLine
 62
7
  6
CONTINUOUS
 10
235.1844385177
 20
547.3985416229
 11
238.7199871434
 21
545.3573378503
  0
LINE
  5
4F9
100
AcDbEntity
  8
0
100
AcDbLine
 62
7
  6
CONTINUOUS
 10
247.7709916253
 20
540.1318561925
 11
251.306540251
 21
538.0906524199
  0
LINE
  5
4FA
100
AcDbEntity
  8
0
100
AcDbLine
 62
7
  6
CONTINUOUS
 10
260.3575447329
 20
532.865170762
 11
263.8930933587
 21
530.8239669894
  0
LINE
  5
4FB
100
AcDbEntity
  8
0
100
AcDbLine
 62
7
  6
CONTINUOUS
 10
272.9440978405
 20
525.5984853316
 11
276.4796464663
 21
523.557281559
  0
LINE
  5
4FC
100
AcDbEntity
  8
0
100
AcDbLine
 62
7
  6
CONTINUOUS
 10
285.5306509482
 20
518.3317999011
 11
289.0661995739
 21
516.2905961285
  0
LINE
  5
4FD
100
AcDbEntity
  8
0
100
AcDbLine
 62
7
  6
CONTINUOUS
 10
298.1172040558
 20
511.0651144706
 11
301.6527526815
 21
509.023910698
  0
LINE
  5
4FE
100
AcDbEntity
  8
0
100
AcDbLine
 62
7
  6
CONTINUOUS
 10
310.7037571634
 20
503.7984290402
 11
314.2393057891
 21
501.7572252676
  0
LINE
  5
4FF
100
AcDbEntity
  8
0
100
AcDbLine
 62
7
  6
CONTINUOUS
 10
323.290310271
 20
496.5317436097
 11
326.8258588967
 21
494.4905398371
  0
LINE
  5
500
100
AcDbEntity
  8
0
100
AcDbLine
 62
7
  6
CONTINUOUS
 10
335.8768633786
 20
489.2650581793
 11
339.4124120044
 21
487.2238544067
  0
LINE
  5
501
100
AcDbEntity
  8
0
100
AcDbLine
 62
7
  6
CONTINUOUS
 10
348.4634164862
 20
481.9983727488
 11
351.998965112
 21
479.9571689762
  0
LINE
  5
502
100
AcDbEntity
  8
0
100
AcDbLine
 62
7
  6
CONTINUOUS
 10
361.0499695939
 20
474.7316873183
 11
364.5855182196
 21
472.6904835457
  0
LINE
  5
503
100
AcDbEntity
  8
0
100
AcDbLine
 62
7
  6
CONTINUOUS
 10
373.6365227015
 20
467.4650018879
 11
377.1720713272
 21
465.4237981153
  0
LINE
  5
504
100
AcDbEntity
  8
0
100
AcDbLine
 62
7
  6
CONTINUOUS
 10
386.2230758091
 20
460.1983164574
 11
389.7586244348
 21
458.1571126848
  0
LINE
  5
505
100
AcDbEntity
  8
0
100
AcDbLine
 62
7
  6
CONTINUOUS
 10
398.8096289167
 20
452.9316310269
 11
402.3451775424
 21
450.8904272543
  0
LINE
  5
506
100
AcDbEntity
  8
0
100
AcDbLine
 62
7
  6
CONTINUOUS
 10
411.3961820243
 20
445.6649455965
 11
414.9317306501
 21
443.6237418239
  0
LINE
  5
507
100
AcDbEntity
  8
0
100
AcDbLine
 62
7
  6
CONTINUOUS
 10
423.9827351319
 20
438.398260166
 11
427.5182837577
 21
436.3570563934
  0
LINE
  5
508
100
AcDbEntity
  8
0
100
AcDbLine
 62
7
  6
CONTINUOUS
 10
436.5692882396
 20
431.1315747356
 11
440.1048368653
 21
429.090370963
  0
LINE
  5
509
100
AcDbEntity
  8
0
100
AcDbLine
 62
7
  6
CONTINUOUS
 10
449.1558413472
 20
423.8648893051
 11
452.6913899729
 21
421.8236855325
  0
LINE
  5
50A
100
AcDbEntity
  8
0
100
AcDbLine
 62
7
  6
CONTINUOUS
 10
461.7423944548
 20
416.5982038746
 11
465.2779430805
 21
414.557000102
  0
LINE
  5
50B
100
AcDbEntity
  8
0
100
AcDbLine
 62
7
  6
CONTINUOUS
 10
474.3289475624
 20
409.3315184442
 11
477.8644961881
 21
407.2903146716
  0
LINE
  5
50C
100
AcDbEntity
  8
0
100
AcDbLine
 62
7
  6
CONTINUOUS
 10
486.91550067
 20
402.0648330137
 11
490.4510492958
 21
400.0236292411
  0
LINE
  5
50D
100
AcDbEntity
  8
0
100
AcDbLine
 62
7
  6
CONTINUOUS
 10
499.5020537776
 20
394.7981475833
 11
503.0376024034
 21
392.7569438107
  0
LINE
  5
50E
100
AcDbEntity
  8
0
100
AcDbLine
 62
7
  6
CONTINUOUS
 10
512.0886068853
 20
387.5314621528
 11
515.624155511
 21
385.4902583802
  0
LINE
  5
50F
100
AcDbEntity
  8
0
100
AcDbLine
 62
7
  6
CONTINUOUS
 10
524.6751599929
 20
380.2647767223
 11
528.2107086186
 21
378.2235729497
  0
LINE
  5
510
100
AcDbEntity
  8
0
100
AcDbLine
 62
7
  6
CONTINUOUS
 10
577.3546578783
 20
350.2177413361
 11
575.2333463667
 21
351.4424534017
  0
LINE
  5
511
100
AcDbEntity
  8
0
100
AcDbLine
 62
7
  6
CONTINUOUS
 10
575.2333463667
 20
352.0957180596
 11
570.9906147004
 21
354.5452049145
  0
LWPOLYLINE
  5
512
100
AcDbEntity
  8
0
100
AcDbPolyline
 62
7
  6
CONTINUOUS
 90
3
 70
0
 10
583.7583807064
 20
331.2965704477
 10
575.28279366
 20
336.6634440413
 10
563.0362933594
 20
341.3103134182
  0
LINE
  5
513
100
AcDbEntity
  8
0
100
AcDbLine
 62
7
  6
CONTINUOUS
 10
358.0800115973
 20
497.4709468342
 11
358.0800115973
 21
499.3080772728
  0
LINE
  5
514
100
AcDbEntity
  8
0
100
AcDbLine
 62
7
  6
CONTINUOUS
 10
358.2922416658
 20
482.855845598
 11
358.2922416658
 21
472.2413141753
  0
LINE
  5
515
100
AcDbEntity
  8
0
100
AcDbLine
 62
7
  6
CONTINUOUS
 10
358.2922416658
 20
469.3835557154
 11
358.2922416658
 21
458.7690242927
  0
LINE
  5
516
100
AcDbEntity
  8
0
100
AcDbLine
 62
7
  6
CONTINUOUS
 10
358.928536202
 20
499.7979702574
 11
358.928536202
 21
497.9608398189
  0
LINE
  5
517
100
AcDbEntity
  8
0
100
AcDbLine
 62
7
  6
CONTINUOUS
 10
358.9993513909
 20
481.2228512178
 11
358.9993513909
 21
483.4682328649
  0
LINE
  5
518
100
AcDbEntity
  8
0
100
AcDbLine
 62
7
  6
CONTINUOUS
 10
359.9892078552
 20
498.2058272356
 11
359.9892078552
 21
496.368696797
  0
LINE
  5
519
100
AcDbEntity
  8
0
100
AcDbLine
 62
7
  6
CONTINUOUS
 10
360.9085476488
 20
482.3659828277
 11
360.9085476488
 21
480.1206011806
  0
LINE
  5
51A
100
AcDbEntity
  8
0
100
AcDbLine
 62
7
  6
CONTINUOUS
 10
361.0499695939
 20
450.644866013
 11
361.0499695939
 21
461.2593974357
  0
LINE
  5
51B
100
AcDbEntity
  8
0
100
AcDbLine
 62
7
  6
CONTINUOUS
 10
361.0499695939
 20
464.1171558956
 11
361.0499695939
 21
474.7316873183
  0
LINE
  5
51C
100
AcDbEntity
  8
0
100
AcDbLine
 62
7
  6
CONTINUOUS
 10
364.0904990189
 20
487.3873936733
 11
364.0904990189
 21
486.4075907728
  0
LINE
  5
51D
100
AcDbEntity
  8
0
100
AcDbLine
 62
7
  6
CONTINUOUS
 10
364.5855182196
 20
472.6904835457
 11
364.5855182196
 21
462.075952123
  0
LINE
  5
51E
100
AcDbEntity
  8
0
100
AcDbLine
 62
7
  6
CONTINUOUS
 10
364.5855182196
 20
459.2181936631
 11
364.5855182196
 21
448.6036622404
  0
LINE
  5
51F
100
AcDbEntity
  8
0
100
AcDbLine
 62
7
  6
CONTINUOUS
 10
367.3432461477
 20
453.5435426348
 11
367.3432461477
 21
464.1580740575
  0
LINE
  5
520
100
AcDbEntity
  8
0
100
AcDbLine
 62
7
  6
CONTINUOUS
 10
367.3432461477
 20
467.0158325175
 11
367.3432461477
 21
477.6303639401
  0
LINE
  5
521
100
AcDbEntity
  8
0
100
AcDbLine
 62
7
  6
CONTINUOUS
 10
367.6259133997
 20
500.7368612644
 11
367.6259133997
 21
502.9822429115
  0
LINE
  5
522
100
AcDbEntity
  8
0
100
AcDbLine
 62
7
  6
CONTINUOUS
 10
370.666564705
 20
490.2042614038
 11
370.666564705
 21
492.0413918423
  0
LINE
  5
523
100
AcDbEntity
  8
0
100
AcDbLine
 62
7
  6
CONTINUOUS
 10
370.8787947734
 20
475.5891601675
 11
370.8787947734
 21
464.9746287449
  0
LINE
  5
524
100
AcDbEntity
  8
0
100
AcDbLine
 62
7
  6
CONTINUOUS
 10
370.8787947734
 20
462.1168702849
 11
370.8787947734
 21
451.5023388622
  0
LINE
  5
525
100
AcDbEntity
  8
0
100
AcDbLine
 62
7
  6
CONTINUOUS
 10
371.5150893096
 20
492.531284827
 11
371.5150893096
 21
490.6941543884
  0
LINE
  5
526
100
AcDbEntity
  8
0
100
AcDbLine
 62
7
  6
CONTINUOUS
 10
371.5859044985
 20
473.9561657873
 11
371.5859044985
 21
476.2015474344
  0
LINE
  5
527
100
AcDbEntity
  8
0
100
AcDbLine
 62
7
  6
CONTINUOUS
 10
372.5757609629
 20
490.9391418051
 11
372.5757609629
 21
489.1020113666
  0
LINE
  5
528
100
AcDbEntity
  8
0
100
AcDbLine
 62
7
  6
CONTINUOUS
 10
373.4951007564
 20
475.0992973972
 11
373.4951007564
 21
472.8539157501
  0
LINE
  5
529
100
AcDbEntity
  8
0
100
AcDbLine
 62
7
  6
CONTINUOUS
 10
373.6365227015
 20
443.3781805825
 11
373.6365227015
 21
453.9927120052
  0
LINE
  5
52A
100
AcDbEntity
  8
0
100
AcDbLine
 62
7
  6
CONTINUOUS
 10
373.6365227015
 20
456.8504704652
 11
373.6365227015
 21
467.4650018879
  0
LINE
  5
52B
100
AcDbEntity
  8
0
100
AcDbLine
 62
7
  6
CONTINUOUS
 10
376.6770521265
 20
480.1207082429
 11
376.6770521265
 21
479.1409053423
  0
LINE
  5
52C
100
AcDbEntity
  8
0
100
AcDbLine
 62
7
  6
CONTINUOUS
 10
377.1720713272
 20
465.4237981153
 11
377.1720713272
 21
454.8092666926
  0
LINE
  5
52D
100
AcDbEntity
  8
0
100
AcDbLine
 62
7
  6
CONTINUOUS
 10
377.1720713272
 20
451.9515082326
 11
377.1720713272
 21
441.3369768099
  0
LINE
  5
52E
100
AcDbEntity
  8
0
100
AcDbLine
 62
7
  6
CONTINUOUS
 10
389.2636052341
 20
472.8540228124
 11
386.2937691178
 21
470.1595944656
  0
LINE
  5
52F
100
AcDbEntity
  8
0
100
AcDbLine
 62
7
  6
CONTINUOUS
 10
388.2029653757
 20
469.0573444284
 11
391.172801492
 21
471.7517727752
  0
LINE
  5
530
100
AcDbEntity
  8
0
100
AcDbLine
 62
7
  6
CONTINUOUS
 10
407.2947689805
 20
480.0799365829
 11
400.1884161576
 21
475.9771063583
  0
LINE
  5
531
100
AcDbEntity
  8
0
100
AcDbLine
 62
7
  6
CONTINUOUS
 10
397.7488671781
 20
474.5686405056
 11
392.0213478253
 21
471.2618754042
  0
LINE
  5
532
100
AcDbEntity
  8
0
100
AcDbLine
 62
7
  6
CONTINUOUS
 10
388.2029653757
 20
469.0573444284
 11
386.0816538641
 21
467.8326119668
  0
LINE
  5
533
100
AcDbEntity
  8
0
100
AcDbLine
 62
7
  6
CONTINUOUS
 10
384.1724576062
 20
466.6894803569
 11
386.0993481029
 21
467.8019644632
  0
LINE
  5
534
100
AcDbEntity
  8
0
100
AcDbLine
 62
7
  6
CONTINUOUS
 10
361.0499695939
 20
450.644866013
 11
364.5855182196
 21
452.6861124723
  0
LINE
  5
535
100
AcDbEntity
  8
0
100
AcDbLine
 62
7
  6
CONTINUOUS
 10
367.3432461477
 20
453.5435426348
 11
370.8787947734
 21
455.5847890941
  0
LINE
  5
536
100
AcDbEntity
  8
0
100
AcDbLine
 62
7
  6
CONTINUOUS
 10
373.6365227015
 20
456.8504704652
 11
377.1720713272
 21
458.8917169245
  0
LINE
  5
537
100
AcDbEntity
  8
0
100
AcDbLine
 62
7
  6
CONTINUOUS
 10
379.9297992553
 20
459.749147087
 11
383.465347881
 21
461.7903935463
  0
LINE
  5
538
100
AcDbEntity
  8
0
100
AcDbLine
 62
7
  6
CONTINUOUS
 10
408.4262240278
 20
470.2413355509
 11
409.2747486325
 21
470.7312285356
  0
LINE
  5
539
100
AcDbEntity
  8
0
100
AcDbLine
 62
7
  6
CONTINUOUS
 10
396.7590107138
 20
461.6681765735
 11
398.8803222254
 21
462.8929090351
  0
LINE
  5
53A
100
AcDbEntity
  8
0
100
AcDbLine
 62
7
  6
CONTINUOUS
 10
401.8501583417
 20
464.6075344814
 11
408.4262240278
 21
468.4042051124
  0
LINE
  5
53B
100
AcDbEntity
  8
0
100
AcDbLine
 62
7
  6
CONTINUOUS
 10
409.2747486325
 20
468.894098097
 11
417.9721258302
 21
473.9155011897
  0
LINE
  5
53C
100
AcDbEntity
  8
0
100
AcDbLine
 62
7
  6
CONTINUOUS
 10
410.3354202857
 20
469.1390855137
 11
411.1839448904
 21
469.6289784984
  0
LINE
  5
53D
100
AcDbEntity
  8
0
100
AcDbLine
 62
7
  6
CONTINUOUS
 10
419.8813220881
 20
472.8132511524
 11
412.7749692652
 21
468.7104209278
  0
LINE
  5
53E
100
AcDbEntity
  8
0
100
AcDbLine
 62
7
  6
CONTINUOUS
 10
410.3354202857
 20
467.3019550752
 11
404.6079009329
 21
463.9951899738
  0
LINE
  5
53F
100
AcDbEntity
  8
0
100
AcDbLine
 62
7
  6
CONTINUOUS
 10
400.7895184833
 20
461.7906589979
 11
398.6682069717
 21
460.5659265363
  0
LINE
  5
540
100
AcDbEntity
  8
0
100
AcDbLine
 62
7
  6
CONTINUOUS
 10
396.7590107138
 20
459.4227949264
 11
398.6859012105
 21
460.5352790327
  0
LINE
  5
541
100
AcDbEntity
  8
0
100
AcDbLine
 62
7
  6
CONTINUOUS
 10
373.6365227015
 20
443.3781805825
 11
377.1720713272
 21
445.4194270419
  0
LINE
  5
542
100
AcDbEntity
  8
0
100
AcDbLine
 62
7
  6
CONTINUOUS
 10
379.9297992553
 20
446.2768572044
 11
383.465347881
 21
448.3181036637
  0
LINE
  5
543
100
AcDbEntity
  8
0
100
AcDbLine
 62
7
  6
CONTINUOUS
 10
386.2230758091
 20
449.5837850347
 11
389.7586244348
 21
451.625031494
  0
LINE
  5
544
100
AcDbEntity
  8
0
100
AcDbLine
 62
7
  6
CONTINUOUS
 10
392.5163523629
 20
452.4824616565
 11
396.0519009886
 21
454.5237081158
  0
LINE
  5
545
100
AcDbEntity
  8
0
100
AcDbLine
 62
7
  6
CONTINUOUS
 10
537.1202911555
 20
378.3870051541
 11
535.2110948976
 21
379.4892551913
  0
LINE
  5
546
100
AcDbEntity
  8
0
100
AcDbLine
 62
7
  6
CONTINUOUS
 10
524.5337380478
 20
385.6536905846
 11
522.6245417899
 21
386.7559406218
  0
LINE
  5
547
100
AcDbEntity
  8
0
100
AcDbLine
 62
7
  6
CONTINUOUS
 10
511.9471849402
 20
392.920376015
 11
510.0379886823
 21
394.0226260522
  0
LINE
  5
548
100
AcDbEntity
  8
0
100
AcDbLine
 62
7
  6
CONTINUOUS
 10
499.3606318326
 20
400.1870614455
 11
497.4514355747
 21
401.2893114827
  0
LINE
  5
549
100
AcDbEntity
  8
0
100
AcDbLine
 62
7
  6
CONTINUOUS
 10
486.774078725
 20
407.453746876
 11
484.8648824671
 21
408.5559969132
  0
LINE
  5
54A
100
AcDbEntity
  8
0
100
AcDbLine
 62
7
  6
CONTINUOUS
 10
474.1875256174
 20
414.7204323064
 11
472.2783293595
 21
415.8226823436
  0
LINE
  5
54B
100
AcDbEntity
  8
0
100
AcDbLine
 62
7
  6
CONTINUOUS
 10
461.6009725098
 20
421.9871177369
 11
459.6917762519
 21
423.0893677741
  0
LINE
  5
54C
100
AcDbEntity
  8
0
100
AcDbLine
 62
7
  6
CONTINUOUS
 10
449.0144194021
 20
429.2538031674
 11
447.1052231442
 21
430.3560532046
  0
LINE
  5
54D
100
AcDbEntity
  8
0
100
AcDbLine
 62
7
  6
CONTINUOUS
 10
436.4278662945
 20
436.5204885978
 11
434.5186700366
 21
437.622738635
  0
LINE
  5
54E
100
AcDbEntity
  8
0
100
AcDbLine
 62
7
  6
CONTINUOUS
 10
423.8413131869
 20
443.7871740283
 11
421.932116929
 21
444.8894240655
  0
LINE
  5
54F
100
AcDbEntity
  8
0
100
AcDbLine
 62
7
  6
CONTINUOUS
 10
411.2547600793
 20
451.0538594587
 11
409.3455638214
 21
452.1561094959
  0
LINE
  5
550
100
AcDbEntity
  8
0
100
AcDbLine
 62
7
  6
CONTINUOUS
 10
398.6682069717
 20
458.3205448892
 11
396.7590107138
 21
459.4227949264
  0
LINE
  5
551
100
AcDbEntity
  8
0
100
AcDbLine
 62
7
  6
CONTINUOUS
 10
386.0816538641
 20
465.5872303197
 11
384.1724576062
 21
466.6894803569
  0
LINE
  5
552
100
AcDbEntity
  8
0
100
AcDbLine
 62
7
  6
CONTINUOUS
 10
373.4951007564
 20
472.8539157501
 11
371.5859044985
 21
473.9561657873
  0
LINE
  5
553
100
AcDbEntity
  8
0
100
AcDbLine
 62
7
  6
CONTINUOUS
 10
360.9085476488
 20
480.1206011806
 11
358.9993513909
 21
481.2228512178
  0
LINE
  5
554
100
AcDbEntity
  8
0
100
AcDbLine
 62
7
  6
CONTINUOUS
 10
348.3219945412
 20
487.387286611
 11
346.4127982833
 21
488.4895366482
  0
LINE
  5
555
100
AcDbEntity
  8
0
100
AcDbLine
 62
7
  6
CONTINUOUS
 10
335.7354414336
 20
494.6539720415
 11
333.8262451757
 21
495.7562220787
  0
LINE
  5
556
100
AcDbEntity
  8
0
100
AcDbLine
 62
7
  6
CONTINUOUS
 10
323.148888326
 20
501.920657472
 11
321.2396920681
 21
503.0229075092
  0
LINE
  5
557
100
AcDbEntity
  8
0
100
AcDbLine
 62
7
  6
CONTINUOUS
 10
310.5623352184
 20
509.1873429024
 11
308.6531389605
 21
510.2895929396
  0
LINE
  5
558
100
AcDbEntity
  8
0
100
AcDbLine
 62
7
  6
CONTINUOUS
 10
297.9757821107
 20
516.4540283329
 11
296.0665858528
 21
517.5562783701
  0
LINE
  5
559
100
AcDbEntity
  8
0
100
AcDbLine
 62
7
  6
CONTINUOUS
 10
285.3892290031
 20
523.7207137633
 11
283.4800327452
 21
524.8229638006
  0
LINE
  5
55A
100
AcDbEntity
  8
0
100
AcDbLine
 62
7
  6
CONTINUOUS
 10
272.8026758955
 20
530.9873991938
 11
270.8934796376
 21
532.089649231
  0
LINE
  5
55B
100
AcDbEntity
  8
0
100
AcDbLine
 62
7
  6
CONTINUOUS
 10
260.2161227879
 20
538.2540846243
 11
258.30692653
 21
539.3563346615
  0
LINE
  5
55C
100
AcDbEntity
  8
0
100
AcDbLine
 62
7
  6
CONTINUOUS
 10
247.6295696803
 20
545.5207700547
 11
245.7203734224
 21
546.6230200919
  0
LINE
  5
55D
100
AcDbEntity
  8
0
100
AcDbLine
 62
7
  6
CONTINUOUS
 10
235.0430165727
 20
552.7874554852
 11
233.1338203148
 21
553.8897055224
  0
LINE
  5
55E
100
AcDbEntity
  8
0
100
AcDbLine
 62
7
  6
CONTINUOUS
 10
222.456463465
 20
560.0541409157
 11
220.5472672071
 21
561.1563909529
  0
LINE
  5
55F
100
AcDbEntity
  8
0
100
AcDbLine
 62
7
  6
CONTINUOUS
 10
209.8699103574
 20
567.3208263461
 11
207.9607140995
 21
568.4230763833
  0
LINE
  5
560
100
AcDbEntity
  8
0
100
AcDbLine
 62
7
  6
CONTINUOUS
 10
197.2833572498
 20
574.5875117766
 11
195.3741609919
 21
575.6897618138
  0
LINE
  5
561
100
AcDbEntity
  8
0
100
AcDbLine
 62
7
  6
CONTINUOUS
 10
184.6968041422
 20
581.854197207
 11
182.7876078843
 21
582.9564472442
  0
LINE
  5
562
100
AcDbEntity
  8
0
100
AcDbLine
 62
7
  6
CONTINUOUS
 10
552.606005912
 20
370.2222449439
 11
552.0403083565
 21
370.5488431912
  0
LINE
  5
563
100
AcDbEntity
  8
0
100
AcDbLine
 62
7
  6
CONTINUOUS
 10
543.9799888058
 20
375.2023655768
 11
543.396973834
 21
375.5389618129
  0
LINE
  5
564
100
AcDbEntity
  8
0
100
AcDbLine
 62
7
  6
CONTINUOUS
 10
178.5449495334
 20
586.6306453971
 11
182.0804981592
 21
584.5894416245
  0
LINE
  5
565
100
AcDbEntity
  8
0
100
AcDbLine
 62
7
  6
CONTINUOUS
 10
191.131502641
 20
579.3639599666
 11
194.6670512668
 21
577.322756194
  0
LINE
  5
566
100
AcDbEntity
  8
0
100
AcDbLine
 62
7
  6
CONTINUOUS
 10
203.7180557487
 20
572.0972745361
 11
207.2536043744
 21
570.0560707635
  0
LINE
  5
567
100
AcDbEntity
  8
0
100
AcDbLine
 62
7
  6
CONTINUOUS
 10
216.3046088563
 20
564.8305891057
 11
219.840157482
 21
562.7893853331
  0
LINE
  5
568
100
AcDbEntity
  8
0
100
AcDbLine
 62
7
  6
CONTINUOUS
 10
228.8911619639
 20
557.5639036752
 11
232.4267105896
 21
555.5226999026
  0
LINE
  5
569
100
AcDbEntity
  8
0
100
AcDbLine
 62
7
  6
CONTINUOUS
 10
241.4777150715
 20
550.2972182448
 11
245.0132636972
 21
548.2560144722
  0
LINE
  5
56A
100
AcDbEntity
  8
0
100
AcDbLine
 62
7
  6
CONTINUOUS
 10
254.0642681791
 20
543.0305328143
 11
257.5998168049
 21
540.9893290417
  0
LINE
  5
56B
100
AcDbEntity
  8
0
100
AcDbLine
 62
7
  6
CONTINUOUS
 10
266.6508212867
 20
535.7638473838
 11
270.1863699125
 21
533.7226436112
  0
LINE
  5
56C
100
AcDbEntity
  8
0
100
AcDbLine
 62
7
  6
CONTINUOUS
 10
279.2373743943
 20
528.4971619534
 11
282.7729230201
 21
526.4559581808
  0
LINE
  5
56D
100
AcDbEntity
  8
0
100
AcDbLine
 62
7
  6
CONTINUOUS
 10
291.823927502
 20
521.2304765229
 11
295.3594761277
 21
519.1892727503
  0
LINE
  5
56E
100
AcDbEntity
  8
0
100
AcDbLine
 62
7
  6
CONTINUOUS
 10
304.4104806096
 20
513.9637910924
 11
307.9460292353
 21
511.9225873198
  0
LINE
  5
56F
100
AcDbEntity
  8
0
100
AcDbLine
 62
7
  6
CONTINUOUS
 10
316.9970337172
 20
506.697105662
 11
320.5325823429
 21
504.6559018894
  0
LINE
  5
570
100
AcDbEntity
  8
0
100
AcDbLine
 62
7
  6
CONTINUOUS
 10
329.5835868248
 20
499.4304202315
 11
333.1191354505
 21
497.3892164589
  0
LINE
  5
571
100
AcDbEntity
  8
0
100
AcDbLine
 62
7
  6
CONTINUOUS
 10
342.1701399324
 20
492.1637348011
 11
345.7056885582
 21
490.1225310285
  0
LINE
  5
572
100
AcDbEntity
  8
0
100
AcDbLine
 62
7
  6
CONTINUOUS
 10
354.75669304
 20
484.8970493706
 11
358.2922416658
 21
482.855845598
  0
LINE
  5
573
100
AcDbEntity
  8
0
100
AcDbLine
 62
7
  6
CONTINUOUS
 10
367.3432461477
 20
477.6303639401
 11
370.8787947734
 21
475.5891601675
  0
LINE
  5
574
100
AcDbEntity
  8
0
100
AcDbLine
 62
7
  6
CONTINUOUS
 10
379.9297992553
 20
470.3636785097
 11
383.465347881
 21
468.3224747371
  0
LINE
  5
575
100
AcDbEntity
  8
0
100
AcDbLine
 62
7
  6
CONTINUOUS
 10
392.5163523629
 20
463.0969930792
 11
396.0519009886
 21
461.0557893066
  0
LINE
  5
576
100
AcDbEntity
  8
0
100
AcDbLine
 62
7
  6
CONTINUOUS
 10
405.1029054705
 20
455.8303076488
 11
408.6384540962
 21
453.7891038762
  0
LINE
  5
577
100
AcDbEntity
  8
0
100
AcDbLine
 62
7
  6
CONTINUOUS
 10
417.6894585781
 20
448.5636222183
 11
421.2250072039
 21
446.5224184457
  0
LINE
  5
578
100
AcDbEntity
  8
0
100
AcDbLine
 62
7
  6
CONTINUOUS
 10
430.2760116857
 20
441.2969367878
 11
433.8115603115
 21
439.2557330152
  0
LINE
  5
579
100
AcDbEntity
  8
0
100
AcDbLine
 62
7
  6
CONTINUOUS
 10
442.8625647934
 20
434.0302513574
 11
446.3981134191
 21
431.9890475848
  0
LINE
  5
57A
100
AcDbEntity
  8
0
100
AcDbLine
 62
7
  6
CONTINUOUS
 10
455.449117901
 20
426.7635659269
 11
458.9846665267
 21
424.7223621543
  0
LINE
  5
57B
100
AcDbEntity
  8
0
100
AcDbLine
 62
7
  6
CONTINUOUS
 10
468.0356710086
 20
419.4968804964
 11
471.5712196343
 21
417.4556767238
  0
LINE
  5
57C
100
AcDbEntity
  8
0
100
AcDbLine
 62
7
  6
CONTINUOUS
 10
480.6222241162
 20
412.230195066
 11
484.1577727419
 21
410.1889912934
  0
LINE
  5
57D
100
AcDbEntity
  8
0
100
AcDbLine
 62
7
  6
CONTINUOUS
 10
493.2087772238
 20
404.9635096355
 11
496.7443258496
 21
402.9223058629
  0
LINE
  5
57E
100
AcDbEntity
  8
0
100
AcDbLine
 62
7
  6
CONTINUOUS
 10
505.7953303314
 20
397.6968242051
 11
509.3308789572
 21
395.6556204325
  0
LINE
  5
57F
100
AcDbEntity
  8
0
100
AcDbLine
 62
7
  6
CONTINUOUS
 10
518.3818834391
 20
390.4301387746
 11
521.9174320648
 21
388.388935002
  0
LINE
  5
580
100
AcDbEntity
  8
0
100
AcDbLine
 62
7
  6
CONTINUOUS
 10
530.9684365467
 20
383.1634533441
 11
534.5039851724
 21
381.1222495715
  0
LINE
  5
581
100
AcDbEntity
  8
0
100
AcDbLine
 62
7
  6
CONTINUOUS
 10
545.145988891
 20
375.6722602741
 11
547.5443546375
 21
374.2875944901
  0
LINE
  5
582
100
AcDbEntity
  8
0
100
AcDbLine
 62
7
  6
CONTINUOUS
 10
556.1415427619
 20
369.6507105046
 11
553.9479386481
 21
370.9171597793
  0
LINE
  5
583
100
AcDbEntity
  8
0
100
AcDbLine
 62
7
  6
CONTINUOUS
 10
547.8185376859
 20
374.455891018
 11
545.3630014575
 21
375.8735634485
  0
LINE
  5
584
100
AcDbEntity
  8
0
100
AcDbLine
 62
7
  6
CONTINUOUS
 10
539.1708727007
 20
379.448509777
 11
537.1202911555
 21
380.6323868012
  0
LINE
  5
585
100
AcDbEntity
  8
0
100
AcDbLine
 62
7
  6
CONTINUOUS
 10
535.2110948976
 20
381.7346368384
 11
524.5337380478
 21
387.8990722317
  0
LINE
  5
586
100
AcDbEntity
  8
0
100
AcDbLine
 62
7
  6
CONTINUOUS
 10
522.6245417899
 20
389.0013222689
 11
511.9471849402
 21
395.1657576621
  0
LINE
  5
587
100
AcDbEntity
  8
0
100
AcDbLine
 62
7
  6
CONTINUOUS
 10
510.0379886823
 20
396.2680076994
 11
499.3606318326
 21
402.4324430926
  0
LINE
  5
588
100
AcDbEntity
  8
0
100
AcDbLine
 62
7
  6
CONTINUOUS
 10
497.4514355747
 20
403.5346931298
 11
486.774078725
 21
409.6991285231
  0
LINE
  5
589
100
AcDbEntity
  8
0
100
AcDbLine
 62
7
  6
CONTINUOUS
 10
484.8648824671
 20
410.8013785603
 11
474.1875256174
 21
416.9658139535
  0
LINE
  5
58A
100
AcDbEntity
  8
0
100
AcDbLine
 62
7
  6
CONTINUOUS
 10
472.2783293595
 20
418.0680639907
 11
461.6009725098
 21
424.232499384
  0
LINE
  5
58B
100
AcDbEntity
  8
0
100
AcDbLine
 62
7
  6
CONTINUOUS
 10
459.6917762519
 20
425.3347494212
 11
449.0144194021
 21
431.4991848145
  0
LINE
  5
58C
100
AcDbEntity
  8
0
100
AcDbLine
 62
7
  6
CONTINUOUS
 10
447.1052231442
 20
432.6014348517
 11
436.4278662945
 21
438.7658702449
  0
LINE
  5
58D
100
AcDbEntity
  8
0
100
AcDbLine
 62
7
  6
CONTINUOUS
 10
434.5186700366
 20
439.8681202821
 11
423.8413131869
 21
446.0325556754
  0
LINE
  5
58E
100
AcDbEntity
  8
0
100
AcDbLine
 62
7
  6
CONTINUOUS
 10
421.932116929
 20
447.1348057126
 11
411.2547600793
 21
453.2992411058
  0
LINE
  5
58F
100
AcDbEntity
  8
0
100
AcDbLine
 62
7
  6
CONTINUOUS
 10
409.3455638214
 20
454.401491143
 11
398.6682069717
 21
460.5659265363
  0
LINE
  5
590
100
AcDbEntity
  8
0
100
AcDbLine
 62
7
  6
CONTINUOUS
 10
396.7590107138
 20
461.6681765735
 11
386.0816538641
 21
467.8326119668
  0
LINE
  5
591
100
AcDbEntity
  8
0
100
AcDbLine
 62
7
  6
CONTINUOUS
 10
384.1724576062
 20
468.934862004
 11
373.4951007564
 21
475.0992973972
  0
LINE
  5
592
100
AcDbEntity
  8
0
100
AcDbLine
 62
7
  6
CONTINUOUS
 10
371.5859044985
 20
476.2015474344
 11
360.9085476488
 21
482.3659828277
  0
LINE
  5
593
100
AcDbEntity
  8
0
100
AcDbLine
 62
7
  6
CONTINUOUS
 10
358.9993513909
 20
483.4682328649
 11
348.3219945412
 21
489.6326682581
  0
LINE
  5
594
100
AcDbEntity
  8
0
100
AcDbLine
 62
7
  6
CONTINUOUS
 10
346.4127982833
 20
490.7349182954
 11
335.7354414336
 21
496.8993536886
  0
LINE
  5
595
100
AcDbEntity
  8
0
100
AcDbLine
 62
7
  6
CONTINUOUS
 10
333.8262451757
 20
498.0016037258
 11
323.148888326
 21
504.1660391191
  0
LINE
  5
596
100
AcDbEntity
  8
0
100
AcDbLine
 62
7
  6
CONTINUOUS
 10
321.2396920681
 20
505.2682891563
 11
310.5623352184
 21
511.4327245495
  0
LINE
  5
597
100
AcDbEntity
  8
0
100
AcDbLine
 62
7
  6
CONTINUOUS
 10
308.6531389605
 20
512.5349745867
 11
297.9757821107
 21
518.69940998
  0
LINE
  5
598
100
AcDbEntity
  8
0
100
AcDbLine
 62
7
  6
CONTINUOUS
 10
296.0665858528
 20
519.8016600172
 11
285.3892290031
 21
525.9660954105
  0
LINE
  5
599
100
AcDbEntity
  8
0
100
AcDbLine
 62
7
  6
CONTINUOUS
 10
283.4800327452
 20
527.0683454477
 11
272.8026758955
 21
533.2327808409
  0
LINE
  5
59A
100
AcDbEntity
  8
0
100
AcDbLine
 62
7
  6
CONTINUOUS
 10
270.8934796376
 20
534.3350308781
 11
260.2161227879
 21
540.4994662714
  0
LINE
  5
59B
100
AcDbEntity
  8
0
100
AcDbLine
 62
7
  6
CONTINUOUS
 10
258.30692653
 20
541.6017163086
 11
247.6295696803
 21
547.7661517018
  0
LINE
  5
59C
100
AcDbEntity
  8
0
100
AcDbLine
 62
7
  6
CONTINUOUS
 10
245.7203734224
 20
548.868401739
 11
235.0430165727
 21
555.0328371323
  0
LINE
  5
59D
100
AcDbEntity
  8
0
100
AcDbLine
 62
7
  6
CONTINUOUS
 10
233.1338203148
 20
556.1350871695
 11
222.456463465
 21
562.2995225628
  0
LINE
  5
59E
100
AcDbEntity
  8
0
100
AcDbLine
 62
7
  6
CONTINUOUS
 10
220.5472672071
 20
563.4017726
 11
209.8699103574
 21
569.5662079932
  0
LINE
  5
59F
100
AcDbEntity
  8
0
100
AcDbLine
 62
7
  6
CONTINUOUS
 10
207.9607140995
 20
570.6684580304
 11
197.2833572498
 21
576.8328934237
  0
LINE
  5
5A0
100
AcDbEntity
  8
0
100
AcDbLine
 62
7
  6
CONTINUOUS
 10
195.3741609919
 20
577.9351434609
 11
184.6968041422
 21
584.0995788541
  0
LINE
  5
5A1
100
AcDbEntity
  8
0
100
AcDbLine
 62
7
  6
CONTINUOUS
 10
182.7876078843
 20
585.2018288914
 11
169.7060779691
 21
592.75428285
  0
LINE
  5
5A2
100
AcDbEntity
  8
0
100
AcDbLine
 62
7
  6
CONTINUOUS
 10
577.3546578783
 20
359.8524698583
 11
573.111926212
 21
362.3019567131
  0
LINE
  5
5A3
100
AcDbEntity
  8
0
100
AcDbLine
 62
7
  6
CONTINUOUS
 10
558.2628542736
 20
370.8754429662
 11
555.5271881221
 21
372.4548448243
  0
LINE
  5
5A4
100
AcDbEntity
  8
0
100
AcDbLine
 62
7
  6
CONTINUOUS
 10
547.6237390722
 20
377.017800033
 11
546.9905957057
 21
377.3833372565
  0
LINE
  5
5A5
100
AcDbEntity
  8
0
100
AcDbLine
 62
7
  6
CONTINUOUS
 10
541.2921842123
 20
380.6732422386
 11
539.2416026671
 21
381.8571192628
  0
LINE
  5
5A6
100
AcDbEntity
  8
0
100
AcDbLine
 62
7
  6
CONTINUOUS
 10
537.3324064092
 20
382.9593693
 11
526.6550495595
 21
389.1238046933
  0
LINE
  5
5A7
100
AcDbEntity
  8
0
100
AcDbLine
 62
7
  6
CONTINUOUS
 10
524.7458533016
 20
390.2260547305
 11
514.0684964519
 21
396.3904901238
  0
LINE
  5
5A8
100
AcDbEntity
  8
0
100
AcDbLine
 62
7
  6
CONTINUOUS
 10
512.159300194
 20
397.492740161
 11
501.4819433442
 21
403.6571755542
  0
LINE
  5
5A9
100
AcDbEntity
  8
0
100
AcDbLine
 62
7
  6
CONTINUOUS
 10
499.5727470864
 20
404.7594255914
 11
488.8953902366
 21
410.9238609847
  0
LINE
  5
5AA
100
AcDbEntity
  8
0
100
AcDbLine
 62
7
  6
CONTINUOUS
 10
486.9861939787
 20
412.0261110219
 11
476.308837129
 21
418.1905464151
  0
LINE
  5
5AB
100
AcDbEntity
  8
0
100
AcDbLine
 62
7
  6
CONTINUOUS
 10
474.3996408711
 20
419.2927964524
 11
463.7222840214
 21
425.4572318456
  0
LINE
  5
5AC
100
AcDbEntity
  8
0
100
AcDbLine
 62
7
  6
CONTINUOUS
 10
461.8130877635
 20
426.5594818828
 11
451.1357309138
 21
432.7239172761
  0
LINE
  5
5AD
100
AcDbEntity
  8
0
100
AcDbLine
 62
7
  6
CONTINUOUS
 10
449.2265346559
 20
433.8261673133
 11
438.5491778062
 21
439.9906027065
  0
LINE
  5
5AE
100
AcDbEntity
  8
0
100
AcDbLine
 62
7
  6
CONTINUOUS
 10
436.6399815483
 20
441.0928527437
 11
425.9626246985
 21
447.257288137
  0
LINE
  5
5AF
100
AcDbEntity
  8
0
100
AcDbLine
 62
7
  6
CONTINUOUS
 10
424.0534284407
 20
448.3595381742
 11
413.3760715909
 21
454.5239735675
  0
LINE
  5
5B0
100
AcDbEntity
  8
0
100
AcDbLine
 62
7
  6
CONTINUOUS
 10
411.466875333
 20
455.6262236047
 11
400.7895184833
 21
461.7906589979
  0
LINE
  5
5B1
100
AcDbEntity
  8
0
100
AcDbLine
 62
7
  6
CONTINUOUS
 10
398.8803222254
 20
462.8929090351
 11
388.2029653757
 21
469.0573444284
  0
LINE
  5
5B2
100
AcDbEntity
  8
0
100
AcDbLine
 62
7
  6
CONTINUOUS
 10
386.2937691178
 20
470.1595944656
 11
375.6164122681
 21
476.3240298588
  0
LINE
  5
5B3
100
AcDbEntity
  8
0
100
AcDbLine
 62
7
  6
CONTINUOUS
 10
373.7072160102
 20
477.426279896
 11
363.0298591605
 21
483.5907152893
  0
LINE
  5
5B4
100
AcDbEntity
  8
0
100
AcDbLine
 62
7
  6
CONTINUOUS
 10
361.1206629026
 20
484.6929653265
 11
350.4433060529
 21
490.8574007198
  0
LINE
  5
5B5
100
AcDbEntity
  8
0
100
AcDbLine
 62
7
  6
CONTINUOUS
 10
348.534109795
 20
491.959650757
 11
337.8567529452
 21
498.1240861502
  0
LINE
  5
5B6
100
AcDbEntity
  8
0
100
AcDbLine
 62
7
  6
CONTINUOUS
 10
335.9475566873
 20
499.2263361874
 11
325.2701998376
 21
505.3907715807
  0
LINE
  5
5B7
100
AcDbEntity
  8
0
100
AcDbLine
 62
7
  6
CONTINUOUS
 10
323.3610035797
 20
506.4930216179
 11
312.68364673
 21
512.6574570111
  0
LINE
  5
5B8
100
AcDbEntity
  8
0
100
AcDbLine
 62
7
  6
CONTINUOUS
 10
310.7744504721
 20
513.7597070484
 11
300.0970936224
 21
519.9241424416
  0
LINE
  5
5B9
100
AcDbEntity
  8
0
100
AcDbLine
 62
7
  6
CONTINUOUS
 10
298.1878973645
 20
521.0263924788
 11
287.5105405148
 21
527.1908278721
  0
LINE
  5
5BA
100
AcDbEntity
  8
0
100
AcDbLine
 62
7
  6
CONTINUOUS
 10
285.6013442569
 20
528.2930779093
 11
274.9239874072
 21
534.4575133025
  0
LINE
  5
5BB
100
AcDbEntity
  8
0
100
AcDbLine
 62
7
  6
CONTINUOUS
 10
273.0147911493
 20
535.5597633397
 11
262.3374342995
 21
541.724198733
  0
LINE
  5
5BC
100
AcDbEntity
  8
0
100
AcDbLine
 62
7
  6
CONTINUOUS
 10
260.4282380416
 20
542.8264487702
 11
249.7508811919
 21
548.9908841635
  0
LINE
  5
5BD
100
AcDbEntity
  8
0
100
AcDbLine
 62
7
  6
CONTINUOUS
 10
247.841684934
 20
550.0931342007
 11
237.1643280843
 21
556.2575695939
  0
LINE
  5
5BE
100
AcDbEntity
  8
0
100
AcDbLine
 62
7
  6
CONTINUOUS
 10
235.2551318264
 20
557.3598196311
 11
224.5777749767
 21
563.5242550244
  0
LINE
  5
5BF
100
AcDbEntity
  8
0
100
AcDbLine
 62
7
  6
CONTINUOUS
 10
222.6685787188
 20
564.6265050616
 11
211.9912218691
 21
570.7909404548
  0
LINE
  5
5C0
100
AcDbEntity
  8
0
100
AcDbLine
 62
7
  6
CONTINUOUS
 10
210.0820256112
 20
571.893190492
 11
199.4046687615
 21
578.0576258853
  0
LINE
  5
5C1
100
AcDbEntity
  8
0
100
AcDbLine
 62
7
  6
CONTINUOUS
 10
197.4954725036
 20
579.1598759225
 11
186.8181156538
 21
585.3243113158
  0
LINE
  5
5C2
100
AcDbEntity
  8
0
100
AcDbLine
 62
7
  6
CONTINUOUS
 10
184.9089193959
 20
586.426561353
 11
171.8273894807
 21
593.9790153116
  0
LINE
  5
5C3
100
AcDbEntity
  8
0
100
AcDbLine
 62
7
  6
CONTINUOUS
 10
101.788286314
 20
634.7830304304
 11
102.1418411766
 21
634.5789100531
  0
LINE
  5
5C4
100
AcDbEntity
  8
0
100
AcDbLine
 62
7
  6
CONTINUOUS
 10
103.5560606269
 20
633.7624285441
 11
104.263170352
 21
633.3541877895
  0
LINE
  5
5C5
100
AcDbEntity
  8
0
100
AcDbLine
 62
7
  6
CONTINUOUS
 10
158.3570643258
 20
602.1237700687
 11
158.0035094632
 21
602.327890446
  0
LINE
  5
5C6
100
AcDbEntity
  8
0
100
AcDbLine
 62
7
  6
CONTINUOUS
 10
115.0465936605
 20
627.1285162831
 11
115.7537033857
 21
626.7202755286
  0
LINE
  5
5C7
100
AcDbEntity
  8
0
100
AcDbLine
 62
7
  6
CONTINUOUS
 10
117.167922836
 20
625.9037940195
 11
117.8750325611
 21
625.495553265
  0
LINE
  5
5C8
100
AcDbEntity
  8
0
100
AcDbLine
 62
7
  6
CONTINUOUS
 10
128.6584558696
 20
619.2698817586
 11
129.3655655947
 21
618.8616410041
  0
LINE
  5
5C9
100
AcDbEntity
  8
0
100
AcDbLine
 62
7
  6
CONTINUOUS
 10
130.779785045
 20
618.045159495
 11
131.4868947702
 21
617.6369187405
  0
LINE
  5
5CA
100
AcDbEntity
  8
0
100
AcDbLine
 62
7
  6
CONTINUOUS
 10
142.2703180787
 20
611.4112472341
 11
142.9774278038
 21
611.0030064796
  0
LINE
  5
5CB
100
AcDbEntity
  8
0
100
AcDbLine
 62
7
  6
CONTINUOUS
 10
144.3916472541
 20
610.1865249705
 11
145.0987569793
 21
609.778284216
  0
LINE
  5
5CC
100
AcDbEntity
  8
0
100
AcDbLine
 62
7
  6
CONTINUOUS
 10
155.8821802878
 20
603.5526127096
 11
156.5892900129
 21
603.144371955
  0
LINE
  5
5CD
100
AcDbEntity
  8
0
100
AcDbLine
 62
7
  6
CONTINUOUS
 10
550.903096981
 20
376.3492269572
 11
548.7168641522
 21
377.6114205149
  0
LINE
  5
5CE
100
AcDbEntity
  8
0
100
AcDbLine
 62
7
  6
CONTINUOUS
 10
548.7168641522
 20
377.9613501222
 11
551.1968720556
 21
376.5295492832
  0
LINE
  5
5CF
100
AcDbEntity
  8
0
100
AcDbLine
 62
7
  6
CONTINUOUS
 10
548.7168641522
 20
378.5912234154
 11
551.7256671898
 21
376.85412947
  0
LINE
  5
5D0
100
AcDbEntity
  8
0
100
AcDbLine
 62
7
  6
CONTINUOUS
 10
552.959522503
 20
377.6114832391
 11
548.7168641522
 21
380.0609277662
  0
LINE
  5
5D1
100
AcDbEntity
  8
0
100
AcDbLine
 62
7
  6
CONTINUOUS
 10
561.2326903898
 20
373.5698713131
 11
559.1113612144
 21
374.7945935766
  0
LINE
  5
5D2
100
AcDbEntity
  8
0
100
AcDbLine
 62
7
  6
CONTINUOUS
 10
545.1105666619
 20
382.8777732144
 11
542.2114387834
 21
384.5515476097
  0
LINE
  5
5D3
100
AcDbEntity
  8
0
100
AcDbLine
 62
7
  6
CONTINUOUS
 10
540.3022425255
 20
385.6537976469
 11
529.6248856758
 21
391.8182330401
  0
LINE
  5
5D4
100
AcDbEntity
  8
0
100
AcDbLine
 62
7
  6
CONTINUOUS
 10
527.7156894179
 20
392.9204830773
 11
517.0383325682
 21
399.0849184706
  0
LINE
  5
5D5
100
AcDbEntity
  8
0
100
AcDbLine
 62
7
  6
CONTINUOUS
 10
515.1291363103
 20
400.1871685078
 11
504.4517794605
 21
406.351603901
  0
LINE
  5
5D6
100
AcDbEntity
  8
0
100
AcDbLine
 62
7
  6
CONTINUOUS
 10
502.5425832026
 20
407.4538539382
 11
491.8652263529
 21
413.6182893315
  0
LINE
  5
5D7
100
AcDbEntity
  8
0
100
AcDbLine
 62
7
  6
CONTINUOUS
 10
489.956030095
 20
414.7205393687
 11
479.2786732453
 21
420.884974762
  0
LINE
  5
5D8
100
AcDbEntity
  8
0
100
AcDbLine
 62
7
  6
CONTINUOUS
 10
477.3694769874
 20
421.9872247992
 11
466.6921201377
 21
428.1516601924
  0
LINE
  5
5D9
100
AcDbEntity
  8
0
100
AcDbLine
 62
7
  6
CONTINUOUS
 10
464.7829238798
 20
429.2539102296
 11
454.1055670301
 21
435.4183456229
  0
LINE
  5
5DA
100
AcDbEntity
  8
0
100
AcDbLine
 62
7
  6
CONTINUOUS
 10
452.1963707722
 20
436.5205956601
 11
441.5190139225
 21
442.6850310533
  0
LINE
  5
5DB
100
AcDbEntity
  8
0
100
AcDbLine
 62
7
  6
CONTINUOUS
 10
439.6098176646
 20
443.7872810906
 11
428.9324608148
 21
449.9517164838
  0
LINE
  5
5DC
100
AcDbEntity
  8
0
100
AcDbLine
 62
7
  6
CONTINUOUS
 10
427.023264557
 20
451.053966521
 11
416.3459077072
 21
457.2184019143
  0
LINE
  5
5DD
100
AcDbEntity
  8
0
100
AcDbLine
 62
7
  6
CONTINUOUS
 10
414.4367114493
 20
458.3206519515
 11
403.7593545996
 21
464.4850873447
  0
LINE
  5
5DE
100
AcDbEntity
  8
0
100
AcDbLine
 62
7
  6
CONTINUOUS
 10
401.8501583417
 20
465.5873373819
 11
391.172801492
 21
471.7517727752
  0
LINE
  5
5DF
100
AcDbEntity
  8
0
100
AcDbLine
 62
7
  6
CONTINUOUS
 10
389.2636052341
 20
472.8540228124
 11
378.5862483844
 21
479.0184582057
  0
LINE
  5
5E0
100
AcDbEntity
  8
0
100
AcDbLine
 62
7
  6
CONTINUOUS
 10
376.6770521265
 20
480.1207082429
 11
365.9996952768
 21
486.2851436361
  0
LINE
  5
5E1
100
AcDbEntity
  8
0
100
AcDbLine
 62
7
  6
CONTINUOUS
 10
364.0904990189
 20
487.3873936733
 11
353.4131421691
 21
493.5518290666
  0
LINE
  5
5E2
100
AcDbEntity
  8
0
100
AcDbLine
 62
7
  6
CONTINUOUS
 10
351.5039459113
 20
494.6540791038
 11
340.8265890615
 21
500.818514497
  0
LINE
  5
5E3
100
AcDbEntity
  8
0
100
AcDbLine
 62
7
  6
CONTINUOUS
 10
338.9173928036
 20
501.9207645342
 11
328.2400359539
 21
508.0851999275
  0
LINE
  5
5E4
100
AcDbEntity
  8
0
100
AcDbLine
 62
7
  6
CONTINUOUS
 10
326.330839696
 20
509.1874499647
 11
315.6534828463
 21
515.351885358
  0
LINE
  5
5E5
100
AcDbEntity
  8
0
100
AcDbLine
 62
7
  6
CONTINUOUS
 10
313.7442865884
 20
516.4541353952
 11
303.0669297387
 21
522.6185707884
  0
LINE
  5
5E6
100
AcDbEntity
  8
0
100
AcDbLine
 62
7
  6
CONTINUOUS
 10
301.1577334808
 20
523.7208208256
 11
290.4803766311
 21
529.8852562189
  0
LINE
  5
5E7
100
AcDbEntity
  8
0
100
AcDbLine
 62
7
  6
CONTINUOUS
 10
288.5711803732
 20
530.9875062561
 11
277.8938235235
 21
537.1519416493
  0
LINE
  5
5E8
100
AcDbEntity
  8
0
100
AcDbLine
 62
7
  6
CONTINUOUS
 10
275.9846272656
 20
538.2541916866
 11
265.3072704158
 21
544.4186270798
  0
LINE
  5
5E9
100
AcDbEntity
  8
0
100
AcDbLine
 62
7
  6
CONTINUOUS
 10
263.3980741579
 20
545.520877117
 11
252.7207173082
 21
551.6853125103
  0
LINE
  5
5EA
100
AcDbEntity
  8
0
100
AcDbLine
 62
7
  6
CONTINUOUS
 10
250.8115210503
 20
552.7875625475
 11
240.1341642006
 21
558.9519979407
  0
LINE
  5
5EB
100
AcDbEntity
  8
0
100
AcDbLine
 62
7
  6
CONTINUOUS
 10
238.2249679427
 20
560.0542479779
 11
227.547611093
 21
566.2186833712
  0
LINE
  5
5EC
100
AcDbEntity
  8
0
100
AcDbLine
 62
7
  6
CONTINUOUS
 10
225.6384148351
 20
567.3209334084
 11
214.9610579854
 21
573.4853688017
  0
LINE
  5
5ED
100
AcDbEntity
  8
0
100
AcDbLine
 62
7
  6
CONTINUOUS
 10
213.0518617275
 20
574.5876188389
 11
202.3745048778
 21
580.7520542321
  0
LINE
  5
5EE
100
AcDbEntity
  8
0
100
AcDbLine
 62
7
  6
CONTINUOUS
 10
200.4653086199
 20
581.8543042693
 11
189.7879517701
 21
588.0187396626
  0
LINE
  5
5EF
100
AcDbEntity
  8
0
100
AcDbLine
 62
7
  6
CONTINUOUS
 10
187.8787555122
 20
589.1209896998
 11
174.797225597
 21
596.6734436584
  0
LINE
  5
5F0
100
AcDbEntity
  8
0
100
AcDbLine
 62
7
  6
CONTINUOUS
 10
577.3546578783
 20
366.3844891953
 11
573.111926212
 21
368.8339760502
  0
LINE
  5
5F1
100
AcDbEntity
  8
0
100
AcDbLine
 62
7
  6
CONTINUOUS
 10
567.8087560759
 20
376.3867390435
 11
564.6267439839
 21
378.2238330208
  0
LINE
  5
5F2
100
AcDbEntity
  8
0
100
AcDbLine
 62
7
  6
CONTINUOUS
 10
550.8380860147
 20
386.1845383159
 11
548.7875044695
 21
387.3684153401
  0
LINE
  5
5F3
100
AcDbEntity
  8
0
100
AcDbLine
 62
7
  6
CONTINUOUS
 10
546.8783082116
 20
388.4706653773
 11
536.2009513619
 21
394.6351007706
  0
LINE
  5
5F4
100
AcDbEntity
  8
0
100
AcDbLine
 62
7
  6
CONTINUOUS
 10
534.291755104
 20
395.7373508078
 11
523.6143982543
 21
401.901786201
  0
LINE
  5
5F5
100
AcDbEntity
  8
0
100
AcDbLine
 62
7
  6
CONTINUOUS
 10
521.7052019964
 20
403.0040362382
 11
511.0278451466
 21
409.1684716315
  0
LINE
  5
5F6
100
AcDbEntity
  8
0
100
AcDbLine
 62
7
  6
CONTINUOUS
 10
509.1186488887
 20
410.2707216687
 11
498.441292039
 21
416.435157062
  0
LINE
  5
5F7
100
AcDbEntity
  8
0
100
AcDbLine
 62
7
  6
CONTINUOUS
 10
496.5320957811
 20
417.5374070992
 11
485.8547389314
 21
423.7018424924
  0
LINE
  5
5F8
100
AcDbEntity
  8
0
100
AcDbLine
 62
7
  6
CONTINUOUS
 10
483.9455426735
 20
424.8040925296
 11
473.2681858238
 21
430.9685279229
  0
LINE
  5
5F9
100
AcDbEntity
  8
0
100
AcDbLine
 62
7
  6
CONTINUOUS
 10
471.3589895659
 20
432.0707779601
 11
460.6816327162
 21
438.2352133533
  0
LINE
  5
5FA
100
AcDbEntity
  8
0
100
AcDbLine
 62
7
  6
CONTINUOUS
 10
458.7724364583
 20
439.3374633905
 11
448.0950796086
 21
445.5018987838
  0
LINE
  5
5FB
100
AcDbEntity
  8
0
100
AcDbLine
 62
7
  6
CONTINUOUS
 10
446.1858833507
 20
446.604148821
 11
435.5085265009
 21
452.7685842143
  0
LINE
  5
5FC
100
AcDbEntity
  8
0
100
AcDbLine
 62
7
  6
CONTINUOUS
 10
433.599330243
 20
453.8708342515
 11
422.9219733933
 21
460.0352696447
  0
LINE
  5
5FD
100
AcDbEntity
  8
0
100
AcDbLine
 62
7
  6
CONTINUOUS
 10
421.0127771354
 20
461.1375196819
 11
410.3354202857
 21
467.3019550752
  0
LINE
  5
5FE
100
AcDbEntity
  8
0
100
AcDbLine
 62
7
  6
CONTINUOUS
 10
408.4262240278
 20
468.4042051124
 11
397.7488671781
 21
474.5686405056
  0
LINE
  5
5FF
100
AcDbEntity
  8
0
100
AcDbLine
 62
7
  6
CONTINUOUS
 10
395.8396709202
 20
475.6708905428
 11
385.1623140705
 21
481.8353259361
  0
LINE
  5
600
100
AcDbEntity
  8
0
100
AcDbLine
 62
7
  6
CONTINUOUS
 10
383.2531178126
 20
482.9375759733
 11
372.5757609629
 21
489.1020113666
  0
LINE
  5
601
100
AcDbEntity
  8
0
100
AcDbLine
 62
7
  6
CONTINUOUS
 10
370.666564705
 20
490.2042614038
 11
359.9892078552
 21
496.368696797
  0
LINE
  5
602
100
AcDbEntity
  8
0
100
AcDbLine
 62
7
  6
CONTINUOUS
 10
358.0800115973
 20
497.4709468342
 11
347.4026547476
 21
503.6353822275
  0
LINE
  5
603
100
AcDbEntity
  8
0
100
AcDbLine
 62
7
  6
CONTINUOUS
 10
345.4934584897
 20
504.7376322647
 11
334.81610164
 21
510.902067658
  0
LINE
  5
604
100
AcDbEntity
  8
0
100
AcDbLine
 62
7
  6
CONTINUOUS
 10
332.9069053821
 20
512.0043176952
 11
322.2295485324
 21
518.1687530884
  0
LINE
  5
605
100
AcDbEntity
  8
0
100
AcDbLine
 62
7
  6
CONTINUOUS
 10
320.3203522745
 20
519.2710031256
 11
309.6429954248
 21
525.4354385189
  0
LINE
  5
606
100
AcDbEntity
  8
0
100
AcDbLine
 62
7
  6
CONTINUOUS
 10
307.7337991669
 20
526.5376885561
 11
297.0564423172
 21
532.7021239493
  0
LINE
  5
607
100
AcDbEntity
  8
0
100
AcDbLine
 62
7
  6
CONTINUOUS
 10
295.1472460593
 20
533.8043739865
 11
284.4698892095
 21
539.9688093798
  0
LINE
  5
608
100
AcDbEntity
  8
0
100
AcDbLine
 62
7
  6
CONTINUOUS
 10
282.5606929516
 20
541.071059417
 11
271.8833361019
 21
547.2354948103
  0
LINE
  5
609
100
AcDbEntity
  8
0
100
AcDbLine
 62
7
  6
CONTINUOUS
 10
269.974139844
 20
548.3377448475
 11
259.2967829943
 21
554.5021802407
  0
LINE
  5
60A
100
AcDbEntity
  8
0
100
AcDbLine
 62
7
  6
CONTINUOUS
 10
257.3875867364
 20
555.6044302779
 11
246.7102298867
 21
561.7688656712
  0
LINE
  5
60B
100
AcDbEntity
  8
0
100
AcDbLine
 62
7
  6
CONTINUOUS
 10
244.8010336288
 20
562.8711157084
 11
234.1236767791
 21
569.0355511016
  0
LINE
  5
60C
100
AcDbEntity
  8
0
100
AcDbLine
 62
7
  6
CONTINUOUS
 10
232.2144805212
 20
570.1378011388
 11
221.5371236715
 21
576.3022365321
  0
LINE
  5
60D
100
AcDbEntity
  8
0
100
AcDbLine
 62
7
  6
CONTINUOUS
 10
219.6279274136
 20
577.4044865693
 11
208.9505705638
 21
583.5689219626
  0
LINE
  5
60E
100
AcDbEntity
  8
0
100
AcDbLine
 62
7
  6
CONTINUOUS
 10
207.0413743059
 20
584.6711719998
 11
196.3640174562
 21
590.835607393
  0
LINE
  5
60F
100
AcDbEntity
  8
0
100
AcDbLine
 62
7
  6
CONTINUOUS
 10
194.4548211983
 20
591.9378574302
 11
181.3732912831
 21
599.4903113889
  0
LINE
  5
610
100
AcDbEntity
  8
0
100
AcDbLine
 62
7
  6
CONTINUOUS
 10
113.8444273463
 20
638.8858960745
 11
124.6278506548
 21
632.6602245681
  0
LINE
  5
611
100
AcDbEntity
  8
0
100
AcDbLine
 62
7
  6
CONTINUOUS
 10
125.3349603799
 20
632.2519838135
 11
126.7491798302
 21
631.4355023045
  0
LINE
  5
612
100
AcDbEntity
  8
0
100
AcDbLine
 62
7
  6
CONTINUOUS
 10
127.4562895553
 20
631.02726155
 11
138.2397128638
 21
624.8015900435
  0
LINE
  5
613
100
AcDbEntity
  8
0
100
AcDbLine
 62
7
  6
CONTINUOUS
 10
138.946822589
 20
624.393349289
 11
140.3610420393
 21
623.57686778
  0
LINE
  5
614
100
AcDbEntity
  8
0
100
AcDbLine
 62
7
  6
CONTINUOUS
 10
141.0681517644
 20
623.1686270255
 11
151.8515750729
 21
616.942955519
  0
LINE
  5
615
100
AcDbEntity
  8
0
100
AcDbLine
 62
7
  6
CONTINUOUS
 10
152.5586847981
 20
616.5347147645
 11
153.9729042484
 21
615.7182332555
  0
LINE
  5
616
100
AcDbEntity
  8
0
100
AcDbLine
 62
7
  6
CONTINUOUS
 10
154.6800139735
 20
615.3099925009
 11
165.463437282
 21
609.0843209945
  0
LINE
  5
617
100
AcDbEntity
  8
0
100
AcDbLine
 62
7
  6
CONTINUOUS
 10
564.9803230633
 20
379.6527244046
 11
552.2523480106
 21
387.001057986
  0
LINE
  5
618
100
AcDbEntity
  8
0
100
AcDbLine
 62
7
  6
CONTINUOUS
 10
567.8087560759
 20
378.2238694821
 11
548.7875044695
 21
389.2055457786
  0
LINE
  5
619
100
AcDbEntity
  8
0
100
AcDbLine
 62
7
  6
CONTINUOUS
 10
546.8783082116
 20
390.3077958159
 11
536.2009513619
 21
396.4722312091
  0
LINE
  5
61A
100
AcDbEntity
  8
0
100
AcDbLine
 62
7
  6
CONTINUOUS
 10
534.291755104
 20
397.5744812463
 11
523.6143982543
 21
403.7389166396
  0
LINE
  5
61B
100
AcDbEntity
  8
0
100
AcDbLine
 62
7
  6
CONTINUOUS
 10
521.7052019964
 20
404.8411666768
 11
511.0278451466
 21
411.00560207
  0
LINE
  5
61C
100
AcDbEntity
  8
0
100
AcDbLine
 62
7
  6
CONTINUOUS
 10
509.1186488887
 20
412.1078521072
 11
498.441292039
 21
418.2722875005
  0
LINE
  5
61D
100
AcDbEntity
  8
0
100
AcDbLine
 62
7
  6
CONTINUOUS
 10
496.5320957811
 20
419.3745375377
 11
485.8547389314
 21
425.538972931
  0
LINE
  5
61E
100
AcDbEntity
  8
0
100
AcDbLine
 62
7
  6
CONTINUOUS
 10
483.9455426735
 20
426.6412229682
 11
473.2681858238
 21
432.8056583614
  0
LINE
  5
61F
100
AcDbEntity
  8
0
100
AcDbLine
 62
7
  6
CONTINUOUS
 10
471.3589895659
 20
433.9079083986
 11
460.6816327162
 21
440.0723437919
  0
LINE
  5
620
100
AcDbEntity
  8
0
100
AcDbLine
 62
7
  6
CONTINUOUS
 10
458.7724364583
 20
441.1745938291
 11
448.0950796086
 21
447.3390292223
  0
LINE
  5
621
100
AcDbEntity
  8
0
100
AcDbLine
 62
7
  6
CONTINUOUS
 10
446.1858833507
 20
448.4412792595
 11
435.5085265009
 21
454.6057146528
  0
LINE
  5
622
100
AcDbEntity
  8
0
100
AcDbLine
 62
7
  6
CONTINUOUS
 10
433.599330243
 20
455.70796469
 11
422.9219733933
 21
461.8724000833
  0
LINE
  5
623
100
AcDbEntity
  8
0
100
AcDbLine
 62
7
  6
CONTINUOUS
 10
421.0127771354
 20
462.9746501205
 11
410.3354202857
 21
469.1390855137
  0
LINE
  5
624
100
AcDbEntity
  8
0
100
AcDbLine
 62
7
  6
CONTINUOUS
 10
408.4262240278
 20
470.2413355509
 11
397.7488671781
 21
476.4057709442
  0
LINE
  5
625
100
AcDbEntity
  8
0
100
AcDbLine
 62
7
  6
CONTINUOUS
 10
395.8396709202
 20
477.5080209814
 11
385.1623140705
 21
483.6724563746
  0
LINE
  5
626
100
AcDbEntity
  8
0
100
AcDbLine
 62
7
  6
CONTINUOUS
 10
383.2531178126
 20
484.7747064119
 11
372.5757609629
 21
490.9391418051
  0
LINE
  5
627
100
AcDbEntity
  8
0
100
AcDbLine
 62
7
  6
CONTINUOUS
 10
370.666564705
 20
492.0413918423
 11
359.9892078552
 21
498.2058272356
  0
LINE
  5
628
100
AcDbEntity
  8
0
100
AcDbLine
 62
7
  6
CONTINUOUS
 10
358.0800115973
 20
499.3080772728
 11
347.4026547476
 21
505.472512666
  0
LINE
  5
629
100
AcDbEntity
  8
0
100
AcDbLine
 62
7
  6
CONTINUOUS
 10
345.4934584897
 20
506.5747627032
 11
334.81610164
 21
512.7391980965
  0
LINE
  5
62A
100
AcDbEntity
  8
0
100
AcDbLine
 62
7
  6
CONTINUOUS
 10
332.9069053821
 20
513.8414481337
 11
322.2295485324
 21
520.005883527
  0
LINE
  5
62B
100
AcDbEntity
  8
0
100
AcDbLine
 62
7
  6
CONTINUOUS
 10
320.3203522745
 20
521.1081335642
 11
309.6429954248
 21
527.2725689574
  0
LINE
  5
62C
100
AcDbEntity
  8
0
100
AcDbLine
 62
7
  6
CONTINUOUS
 10
307.7337991669
 20
528.3748189946
 11
297.0564423172
 21
534.5392543879
  0
LINE
  5
62D
100
AcDbEntity
  8
0
100
AcDbLine
 62
7
  6
CONTINUOUS
 10
295.1472460593
 20
535.6415044251
 11
284.4698892095
 21
541.8059398183
  0
LINE
  5
62E
100
AcDbEntity
  8
0
100
AcDbLine
 62
7
  6
CONTINUOUS
 10
282.5606929516
 20
542.9081898555
 11
271.8833361019
 21
549.0726252488
  0
LINE
  5
62F
100
AcDbEntity
  8
0
100
AcDbLine
 62
7
  6
CONTINUOUS
 10
269.974139844
 20
550.174875286
 11
259.2967829943
 21
556.3393106793
  0
LINE
  5
630
100
AcDbEntity
  8
0
100
AcDbLine
 62
7
  6
CONTINUOUS
 10
257.3875867364
 20
557.4415607165
 11
246.7102298867
 21
563.6059961097
  0
LINE
  5
631
100
AcDbEntity
  8
0
100
AcDbLine
 62
7
  6
CONTINUOUS
 10
244.8010336288
 20
564.7082461469
 11
234.1236767791
 21
570.8726815402
  0
LINE
  5
632
100
AcDbEntity
  8
0
100
AcDbLine
 62
7
  6
CONTINUOUS
 10
232.2144805212
 20
571.9749315774
 11
221.5371236715
 21
578.1393669706
  0
LINE
  5
633
100
AcDbEntity
  8
0
100
AcDbLine
 62
7
  6
CONTINUOUS
 10
219.6279274136
 20
579.2416170078
 11
208.9505705638
 21
585.4060524011
  0
LINE
  5
634
100
AcDbEntity
  8
0
100
AcDbLine
 62
7
  6
CONTINUOUS
 10
207.0413743059
 20
586.5083024383
 11
196.3640174562
 21
592.6727378316
  0
LINE
  5
635
100
AcDbEntity
  8
0
100
AcDbLine
 62
7
  6
CONTINUOUS
 10
194.4548211983
 20
593.7749878688
 11
181.3732912831
 21
601.3274418274
  0
LINE
  5
636
100
AcDbEntity
  8
0
100
AcDbLine
 62
7
  6
CONTINUOUS
 10
577.3546578783
 20
372.9165085323
 11
573.111926212
 21
375.3659953872
  0
LINE
  5
637
100
AcDbEntity
  8
0
100
AcDbLine
 62
7
  6
CONTINUOUS
 10
568.6572806806
 20
378.7137624667
 11
549.6360290741
 21
389.6954387633
  0
LINE
  5
638
100
AcDbEntity
  8
0
100
AcDbLine
 62
7
  6
CONTINUOUS
 10
547.7268328162
 20
390.7976888005
 11
537.0494759665
 21
396.9621241938
  0
LINE
  5
639
100
AcDbEntity
  8
0
100
AcDbLine
 62
7
  6
CONTINUOUS
 10
535.1402797086
 20
398.064374231
 11
524.4629228589
 21
404.2288096242
  0
LINE
  5
63A
100
AcDbEntity
  8
0
100
AcDbLine
 62
7
  6
CONTINUOUS
 10
522.553726601
 20
405.3310596614
 11
511.8763697513
 21
411.4954950547
  0
LINE
  5
63B
100
AcDbEntity
  8
0
100
AcDbLine
 62
7
  6
CONTINUOUS
 10
509.9671734934
 20
412.5977450919
 11
499.2898166437
 21
418.7621804851
  0
LINE
  5
63C
100
AcDbEntity
  8
0
100
AcDbLine
 62
7
  6
CONTINUOUS
 10
497.3806203858
 20
419.8644305223
 11
486.7032635361
 21
426.0288659156
  0
LINE
  5
63D
100
AcDbEntity
  8
0
100
AcDbLine
 62
7
  6
CONTINUOUS
 10
484.7940672782
 20
427.1311159528
 11
474.1167104284
 21
433.2955513461
  0
LINE
  5
63E
100
AcDbEntity
  8
0
100
AcDbLine
 62
7
  6
CONTINUOUS
 10
472.2075141705
 20
434.3978013833
 11
461.5301573208
 21
440.5622367765
  0
LINE
  5
63F
100
AcDbEntity
  8
0
100
AcDbLine
 62
7
  6
CONTINUOUS
 10
459.6209610629
 20
441.6644868137
 11
448.9436042132
 21
447.828922207
  0
LINE
  5
640
100
AcDbEntity
  8
0
100
AcDbLine
 62
7
  6
CONTINUOUS
 10
447.0344079553
 20
448.9311722442
 11
436.3570511056
 21
455.0956076374
  0
LINE
  5
641
100
AcDbEntity
  8
0
100
AcDbLine
 62
7
  6
CONTINUOUS
 10
434.4478548477
 20
456.1978576747
 11
423.770497998
 21
462.3622930679
  0
LINE
  5
642
100
AcDbEntity
  8
0
100
AcDbLine
 62
7
  6
CONTINUOUS
 10
421.8613017401
 20
463.4645431051
 11
411.1839448904
 21
469.6289784984
  0
LINE
  5
643
100
AcDbEntity
  8
0
100
AcDbLine
 62
7
  6
CONTINUOUS
 10
409.2747486325
 20
470.7312285356
 11
398.5973917827
 21
476.8956639288
  0
LINE
  5
644
100
AcDbEntity
  8
0
100
AcDbLine
 62
7
  6
CONTINUOUS
 10
396.6881955248
 20
477.997913966
 11
386.0108386751
 21
484.1623493593
  0
LINE
  5
645
100
AcDbEntity
  8
0
100
AcDbLine
 62
7
  6
CONTINUOUS
 10
384.1016424172
 20
485.2645993965
 11
373.4242855675
 21
491.4290347898
  0
LINE
  5
646
100
AcDbEntity
  8
0
100
AcDbLine
 62
7
  6
CONTINUOUS
 10
371.5150893096
 20
492.531284827
 11
360.8377324599
 21
498.6957202202
  0
LINE
  5
647
100
AcDbEntity
  8
0
100
AcDbLine
 62
7
  6
CONTINUOUS
 10
358.928536202
 20
499.7979702574
 11
348.2511793523
 21
505.9624056507
  0
LINE
  5
648
100
AcDbEntity
  8
0
100
AcDbLine
 62
7
  6
CONTINUOUS
 10
346.3419830944
 20
507.0646556879
 11
335.6646262447
 21
513.2290910811
  0
LINE
  5
649
100
AcDbEntity
  8
0
100
AcDbLine
 62
7
  6
CONTINUOUS
 10
333.7554299868
 20
514.3313411183
 11
323.078073137
 21
520.4957765116
  0
LINE
  5
64A
100
AcDbEntity
  8
0
100
AcDbLine
 62
7
  6
CONTINUOUS
 10
321.1688768791
 20
521.5980265488
 11
310.4915200294
 21
527.7624619421
  0
LINE
  5
64B
100
AcDbEntity
  8
0
100
AcDbLine
 62
7
  6
CONTINUOUS
 10
308.5823237715
 20
528.8647119793
 11
297.9049669218
 21
535.0291473725
  0
LINE
  5
64C
100
AcDbEntity
  8
0
100
AcDbLine
 62
7
  6
CONTINUOUS
 10
295.9957706639
 20
536.1313974097
 11
285.3184138142
 21
542.295832803
  0
LINE
  5
64D
100
AcDbEntity
  8
0
100
AcDbLine
 62
7
  6
CONTINUOUS
 10
283.4092175563
 20
543.3980828402
 11
272.7318607066
 21
549.5625182334
  0
LINE
  5
64E
100
AcDbEntity
  8
0
100
AcDbLine
 62
7
  6
CONTINUOUS
 10
270.8226644487
 20
550.6647682706
 11
260.145307599
 21
556.8292036639
  0
LINE
  5
64F
100
AcDbEntity
  8
0
100
AcDbLine
 62
7
  6
CONTINUOUS
 10
258.2361113411
 20
557.9314537011
 11
247.5587544913
 21
564.0958890944
  0
LINE
  5
650
100
AcDbEntity
  8
0
100
AcDbLine
 62
7
  6
CONTINUOUS
 10
245.6495582335
 20
565.1981391316
 11
234.9722013837
 21
571.3625745248
  0
LINE
  5
651
100
AcDbEntity
  8
0
100
AcDbLine
 62
7
  6
CONTINUOUS
 10
233.0630051258
 20
572.464824562
 11
222.3856482761
 21
578.6292599553
  0
LINE
  5
652
100
AcDbEntity
  8
0
100
AcDbLine
 62
7
  6
CONTINUOUS
 10
220.4764520182
 20
579.7315099925
 11
209.7990951685
 21
585.8959453858
  0
LINE
  5
653
100
AcDbEntity
  8
0
100
AcDbLine
 62
7
  6
CONTINUOUS
 10
207.8898989106
 20
586.998195423
 11
197.2125420609
 21
593.1626308162
  0
LINE
  5
654
100
AcDbEntity
  8
0
100
AcDbLine
 62
7
  6
CONTINUOUS
 10
195.303345803
 20
594.2648808534
 11
182.2218158878
 21
601.817334812
  0
LINE
  5
655
100
AcDbEntity
  8
0
100
AcDbLine
 62
7
  6
CONTINUOUS
 10
169.7060661932
 20
610.7173010094
 11
116.6728368072
 21
641.3353575984
  0
LINE
  5
656
100
AcDbEntity
  8
0
100
AcDbLine
 62
7
  6
CONTINUOUS
 10
586.1315336059
 20
315.5023280886
 11
578.3946330364
 21
321.5523998915
  0
LINE
  5
657
100
AcDbEntity
  8
0
100
AcDbLine
 62
7
  6
CONTINUOUS
 10
379.9297992553
 20
446.2768572044
 11
379.9297992553
 21
456.891388627
  0
LINE
  5
658
100
AcDbEntity
  8
0
100
AcDbLine
 62
7
  6
CONTINUOUS
 10
379.9297992553
 20
459.749147087
 11
379.9297992553
 21
470.3636785097
  0
LINE
  5
659
100
AcDbEntity
  8
0
100
AcDbLine
 62
7
  6
CONTINUOUS
 10
380.2124665073
 20
493.4701758339
 11
380.2124665073
 21
495.715557481
  0
LINE
  5
65A
100
AcDbEntity
  8
0
100
AcDbLine
 62
7
  6
CONTINUOUS
 10
383.2531178126
 20
482.9375759733
 11
383.2531178126
 21
484.7747064119
  0
LINE
  5
65B
100
AcDbEntity
  8
0
100
AcDbLine
 62
7
  6
CONTINUOUS
 10
383.465347881
 20
468.3224747371
 11
383.465347881
 21
457.7079433144
  0
LINE
  5
65C
100
AcDbEntity
  8
0
100
AcDbLine
 62
7
  6
CONTINUOUS
 10
383.465347881
 20
454.8501848544
 11
383.465347881
 21
444.2356534318
  0
LINE
  5
65D
100
AcDbEntity
  8
0
100
AcDbLine
 62
7
  6
CONTINUOUS
 10
384.1016424172
 20
485.2645993965
 11
384.1016424172
 21
483.427468958
  0
LINE
  5
65E
100
AcDbEntity
  8
0
100
AcDbLine
 62
7
  6
CONTINUOUS
 10
384.1724576062
 20
466.6894803569
 11
384.1724576062
 21
468.934862004
  0
LINE
  5
65F
100
AcDbEntity
  8
0
100
AcDbLine
 62
7
  6
CONTINUOUS
 10
385.1623140705
 20
483.6724563746
 11
385.1623140705
 21
481.8353259361
  0
LINE
  5
660
100
AcDbEntity
  8
0
100
AcDbLine
 62
7
  6
CONTINUOUS
 10
386.0816538641
 20
467.8326119668
 11
386.0816538641
 21
465.5872303197
  0
LINE
  5
661
100
AcDbEntity
  8
0
100
AcDbLine
 62
7
  6
CONTINUOUS
 10
386.2230758091
 20
436.1114951521
 11
386.2230758091
 21
446.7260265748
  0
LINE
  5
662
100
AcDbEntity
  8
0
100
AcDbLine
 62
7
  6
CONTINUOUS
 10
386.2230758091
 20
449.5837850347
 11
386.2230758091
 21
460.1983164574
  0
LINE
  5
663
100
AcDbEntity
  8
0
100
AcDbLine
 62
7
  6
CONTINUOUS
 10
389.2636052341
 20
472.8540228124
 11
389.2636052341
 21
471.8742199118
  0
LINE
  5
664
100
AcDbEntity
  8
0
100
AcDbLine
 62
7
  6
CONTINUOUS
 10
389.7586244348
 20
458.1571126848
 11
389.7586244348
 21
447.5425812621
  0
LINE
  5
665
100
AcDbEntity
  8
0
100
AcDbLine
 62
7
  6
CONTINUOUS
 10
389.7586244348
 20
444.6848228022
 11
389.7586244348
 21
434.0702913795
  0
LINE
  5
666
100
AcDbEntity
  8
0
100
AcDbLine
 62
7
  6
CONTINUOUS
 10
392.5163523629
 20
439.0101717739
 11
392.5163523629
 21
449.6247031966
  0
LINE
  5
667
100
AcDbEntity
  8
0
100
AcDbLine
 62
7
  6
CONTINUOUS
 10
392.5163523629
 20
452.4824616565
 11
392.5163523629
 21
463.0969930792
  0
LINE
  5
668
100
AcDbEntity
  8
0
100
AcDbLine
 62
7
  6
CONTINUOUS
 10
392.799019615
 20
486.2034904035
 11
392.799019615
 21
488.4488720506
  0
LINE
  5
669
100
AcDbEntity
  8
0
100
AcDbLine
 62
7
  6
CONTINUOUS
 10
395.8396709202
 20
475.6708905428
 11
395.8396709202
 21
477.5080209814
  0
LINE
  5
66A
100
AcDbEntity
  8
0
100
AcDbLine
 62
7
  6
CONTINUOUS
 10
396.0519009886
 20
461.0557893066
 11
396.0519009886
 21
450.4412578839
  0
LINE
  5
66B
100
AcDbEntity
  8
0
100
AcDbLine
 62
7
  6
CONTINUOUS
 10
396.0519009886
 20
447.583499424
 11
396.0519009886
 21
436.9689680013
  0
LINE
  5
66C
100
AcDbEntity
  8
0
100
AcDbLine
 62
7
  6
CONTINUOUS
 10
396.6881955248
 20
477.997913966
 11
396.6881955248
 21
476.1607835275
  0
LINE
  5
66D
100
AcDbEntity
  8
0
100
AcDbLine
 62
7
  6
CONTINUOUS
 10
396.7590107138
 20
459.4227949264
 11
396.7590107138
 21
461.6681765735
  0
LINE
  5
66E
100
AcDbEntity
  8
0
100
AcDbLine
 62
7
  6
CONTINUOUS
 10
397.7488671781
 20
476.4057709442
 11
397.7488671781
 21
474.5686405056
  0
LINE
  5
66F
100
AcDbEntity
  8
0
100
AcDbLine
 62
7
  6
CONTINUOUS
 10
398.6682069717
 20
460.5659265363
 11
398.6682069717
 21
458.3205448892
  0
LINE
  5
670
100
AcDbEntity
  8
0
100
AcDbLine
 62
7
  6
CONTINUOUS
 10
398.8096289167
 20
428.8448097216
 11
398.8096289167
 21
439.4593411443
  0
LINE
  5
671
100
AcDbEntity
  8
0
100
AcDbLine
 62
7
  6
CONTINUOUS
 10
398.8096289167
 20
442.3170996043
 11
398.8096289167
 21
452.9316310269
  0
LINE
  5
672
100
AcDbEntity
  8
0
100
AcDbLine
 62
7
  6
CONTINUOUS
 10
401.8501583417
 20
465.5873373819
 11
398.8803222254
 21
462.8929090351
  0
LINE
  5
673
100
AcDbEntity
  8
0
100
AcDbLine
 62
7
  6
CONTINUOUS
 10
400.7895184833
 20
461.7906589979
 11
403.7593545996
 21
464.4850873447
  0
LINE
  5
674
100
AcDbEntity
  8
0
100
AcDbLine
 62
7
  6
CONTINUOUS
 10
414.4367114493
 20
458.3206519515
 11
411.466875333
 21
455.6262236047
  0
LINE
  5
675
100
AcDbEntity
  8
0
100
AcDbLine
 62
7
  6
CONTINUOUS
 10
413.3760715909
 20
454.5239735675
 11
416.3459077072
 21
457.2184019143
  0
LINE
  5
676
100
AcDbEntity
  8
0
100
AcDbLine
 62
7
  6
CONTINUOUS
 10
421.0127771354
 20
462.9746501205
 11
421.8613017401
 21
463.4645431051
  0
LINE
  5
677
100
AcDbEntity
  8
0
100
AcDbLine
 62
7
  6
CONTINUOUS
 10
409.3455638214
 20
454.401491143
 11
411.466875333
 21
455.6262236047
  0
LINE
  5
678
100
AcDbEntity
  8
0
100
AcDbLine
 62
7
  6
CONTINUOUS
 10
414.4367114493
 20
457.3408490509
 11
421.0127771354
 21
461.1375196819
  0
LINE
  5
679
100
AcDbEntity
  8
0
100
AcDbLine
 62
7
  6
CONTINUOUS
 10
421.8613017401
 20
461.6274126666
 11
430.5586789378
 21
466.6488157592
  0
LINE
  5
67A
100
AcDbEntity
  8
0
100
AcDbLine
 62
7
  6
CONTINUOUS
 10
422.9219733933
 20
461.8724000833
 11
423.770497998
 21
462.3622930679
  0
LINE
  5
67B
100
AcDbEntity
  8
0
100
AcDbLine
 62
7
  6
CONTINUOUS
 10
432.4678751957
 20
465.546565722
 11
425.3615223728
 21
461.4437354973
  0
LINE
  5
67C
100
AcDbEntity
  8
0
100
AcDbLine
 62
7
  6
CONTINUOUS
 10
422.9219733933
 20
460.0352696447
 11
417.1944540405
 21
456.7285045433
  0
LINE
  5
67D
100
AcDbEntity
  8
0
100
AcDbLine
 62
7
  6
CONTINUOUS
 10
413.3760715909
 20
454.5239735675
 11
411.2547600793
 21
453.2992411058
  0
LINE
  5
67E
100
AcDbEntity
  8
0
100
AcDbLine
 62
7
  6
CONTINUOUS
 10
409.3455638214
 20
452.1561094959
 11
411.2724543181
 21
453.2685936023
  0
LINE
  5
67F
100
AcDbEntity
  8
0
100
AcDbLine
 62
7
  6
CONTINUOUS
 10
386.2230758091
 20
436.1114951521
 11
389.7586244348
 21
438.1527416114
  0
LINE
  5
680
100
AcDbEntity
  8
0
100
AcDbLine
 62
7
  6
CONTINUOUS
 10
392.5163523629
 20
439.0101717739
 11
396.0519009886
 21
441.0514182332
  0
LINE
  5
681
100
AcDbEntity
  8
0
100
AcDbLine
 62
7
  6
CONTINUOUS
 10
398.8096289167
 20
442.3170996043
 11
402.3451775424
 21
444.3583460636
  0
LINE
  5
682
100
AcDbEntity
  8
0
100
AcDbLine
 62
7
  6
CONTINUOUS
 10
405.1029054705
 20
445.2157762261
 11
408.6384540962
 21
447.2570226854
  0
LINE
  5
683
100
AcDbEntity
  8
0
100
AcDbLine
 62
7
  6
CONTINUOUS
 10
433.599330243
 20
455.70796469
 11
434.4478548477
 21
456.1978576747
  0
LINE
  5
684
100
AcDbEntity
  8
0
100
AcDbLine
 62
7
  6
CONTINUOUS
 10
421.932116929
 20
447.1348057126
 11
424.0534284407
 21
448.3595381742
  0
LINE
  5
685
100
AcDbEntity
  8
0
100
AcDbLine
 62
7
  6
CONTINUOUS
 10
427.023264557
 20
450.0741636205
 11
433.599330243
 21
453.8708342515
  0
LINE
  5
686
100
AcDbEntity
  8
0
100
AcDbLine
 62
7
  6
CONTINUOUS
 10
434.4478548477
 20
454.3607272361
 11
443.1452320454
 21
459.3821303287
  0
LINE
  5
687
100
AcDbEntity
  8
0
100
AcDbLine
 62
7
  6
CONTINUOUS
 10
435.5085265009
 20
454.6057146528
 11
436.3570511056
 21
455.0956076374
  0
LINE
  5
688
100
AcDbEntity
  8
0
100
AcDbLine
 62
7
  6
CONTINUOUS
 10
445.0544283033
 20
458.2798802915
 11
437.9480754805
 21
454.1770500669
  0
LINE
  5
689
100
AcDbEntity
  8
0
100
AcDbLine
 62
7
  6
CONTINUOUS
 10
435.5085265009
 20
452.7685842143
 11
429.7810071481
 21
449.4618191128
  0
LINE
  5
68A
100
AcDbEntity
  8
0
100
AcDbLine
 62
7
  6
CONTINUOUS
 10
425.9626246985
 20
447.257288137
 11
423.8413131869
 21
446.0325556754
  0
LINE
  5
68B
100
AcDbEntity
  8
0
100
AcDbLine
 62
7
  6
CONTINUOUS
 10
421.932116929
 20
444.8894240655
 11
423.8590074257
 21
446.0019081718
  0
LINE
  5
68C
100
AcDbEntity
  8
0
100
AcDbLine
 62
7
  6
CONTINUOUS
 10
398.8096289167
 20
428.8448097216
 11
402.3451775424
 21
430.8860561809
  0
LINE
  5
68D
100
AcDbEntity
  8
0
100
AcDbLine
 62
7
  6
CONTINUOUS
 10
405.1029054705
 20
431.7434863434
 11
408.6384540962
 21
433.7847328027
  0
LINE
  5
68E
100
AcDbEntity
  8
0
100
AcDbLine
 62
7
  6
CONTINUOUS
 10
411.3961820243
 20
435.0504141738
 11
414.9317306501
 21
437.0916606331
  0
LINE
  5
68F
100
AcDbEntity
  8
0
100
AcDbLine
 62
7
  6
CONTINUOUS
 10
577.3546578783
 20
381.8980351208
 11
558.3334062719
 21
392.8797114174
  0
LINE
  5
690
100
AcDbEntity
  8
0
100
AcDbLine
 62
7
  6
CONTINUOUS
 10
556.424210014
 20
393.9819614546
 11
545.7468531643
 21
400.1463968478
  0
LINE
  5
691
100
AcDbEntity
  8
0
100
AcDbLine
 62
7
  6
CONTINUOUS
 10
543.8376569064
 20
401.248646885
 11
533.1603000566
 21
407.4130822783
  0
LINE
  5
692
100
AcDbEntity
  8
0
100
AcDbLine
 62
7
  6
CONTINUOUS
 10
531.2511037987
 20
408.5153323155
 11
520.573746949
 21
414.6797677088
  0
LINE
  5
693
100
AcDbEntity
  8
0
100
AcDbLine
 62
7
  6
CONTINUOUS
 10
518.6645506911
 20
415.782017746
 11
507.9871938414
 21
421.9464531392
  0
LINE
  5
694
100
AcDbEntity
  8
0
100
AcDbLine
 62
7
  6
CONTINUOUS
 10
506.0779975835
 20
423.0487031764
 11
495.4006407338
 21
429.2131385697
  0
LINE
  5
695
100
AcDbEntity
  8
0
100
AcDbLine
 62
7
  6
CONTINUOUS
 10
493.4914444759
 20
430.3153886069
 11
482.8140876262
 21
436.4798240001
  0
LINE
  5
696
100
AcDbEntity
  8
0
100
AcDbLine
 62
7
  6
CONTINUOUS
 10
480.9048913683
 20
437.5820740373
 11
470.2275345186
 21
443.7465094306
  0
LINE
  5
697
100
AcDbEntity
  8
0
100
AcDbLine
 62
7
  6
CONTINUOUS
 10
468.3183382607
 20
444.8487594678
 11
457.6409814109
 21
451.0131948611
  0
LINE
  5
698
100
AcDbEntity
  8
0
100
AcDbLine
 62
7
  6
CONTINUOUS
 10
455.731785153
 20
452.1154448983
 11
445.0544283033
 21
458.2798802915
  0
LINE
  5
699
100
AcDbEntity
  8
0
100
AcDbLine
 62
7
  6
CONTINUOUS
 10
443.1452320454
 20
459.3821303287
 11
432.4678751957
 21
465.546565722
  0
LINE
  5
69A
100
AcDbEntity
  8
0
100
AcDbLine
 62
7
  6
CONTINUOUS
 10
430.5586789378
 20
466.6488157592
 11
419.8813220881
 21
472.8132511524
  0
LINE
  5
69B
100
AcDbEntity
  8
0
100
AcDbLine
 62
7
  6
CONTINUOUS
 10
417.9721258302
 20
473.9155011897
 11
407.2947689805
 21
480.0799365829
  0
LINE
  5
69C
100
AcDbEntity
  8
0
100
AcDbLine
 62
7
  6
CONTINUOUS
 10
405.3855727226
 20
481.1821866201
 11
394.7082158729
 21
487.3466220134
  0
LINE
  5
69D
100
AcDbEntity
  8
0
100
AcDbLine
 62
7
  6
CONTINUOUS
 10
392.799019615
 20
488.4488720506
 11
382.1216627652
 21
494.6133074438
  0
LINE
  5
69E
100
AcDbEntity
  8
0
100
AcDbLine
 62
7
  6
CONTINUOUS
 10
380.2124665073
 20
495.715557481
 11
369.5351096576
 21
501.8799928743
  0
LINE
  5
69F
100
AcDbEntity
  8
0
100
AcDbLine
 62
7
  6
CONTINUOUS
 10
367.6259133997
 20
502.9822429115
 11
356.94855655
 21
509.1466783048
  0
LINE
  5
6A0
100
AcDbEntity
  8
0
100
AcDbLine
 62
7
  6
CONTINUOUS
 10
355.0393602921
 20
510.248928342
 11
344.3620034424
 21
516.4133637352
  0
LINE
  5
6A1
100
AcDbEntity
  8
0
100
AcDbLine
 62
7
  6
CONTINUOUS
 10
342.4528071845
 20
517.5156137724
 11
331.7754503348
 21
523.6800491657
  0
LINE
  5
6A2
100
AcDbEntity
  8
0
100
AcDbLine
 62
7
  6
CONTINUOUS
 10
329.8662540769
 20
524.7822992029
 11
319.1888972272
 21
530.9467345961
  0
LINE
  5
6A3
100
AcDbEntity
  8
0
100
AcDbLine
 62
7
  6
CONTINUOUS
 10
317.2797009693
 20
532.0489846333
 11
306.6023441195
 21
538.2134200266
  0
LINE
  5
6A4
100
AcDbEntity
  8
0
100
AcDbLine
 62
7
  6
CONTINUOUS
 10
304.6931478616
 20
539.3156700638
 11
294.0157910119
 21
545.4801054571
  0
LINE
  5
6A5
100
AcDbEntity
  8
0
100
AcDbLine
 62
7
  6
CONTINUOUS
 10
292.106594754
 20
546.5823554943
 11
281.4292379043
 21
552.7467908875
  0
LINE
  5
6A6
100
AcDbEntity
  8
0
100
AcDbLine
 62
7
  6
CONTINUOUS
 10
279.5200416464
 20
553.8490409247
 11
268.8426847967
 21
560.013476318
  0
LINE
  5
6A7
100
AcDbEntity
  8
0
100
AcDbLine
 62
7
  6
CONTINUOUS
 10
266.9334885388
 20
561.1157263552
 11
256.2561316891
 21
567.2801617484
  0
LINE
  5
6A8
100
AcDbEntity
  8
0
100
AcDbLine
 62
7
  6
CONTINUOUS
 10
254.3469354312
 20
568.3824117857
 11
243.6695785815
 21
574.5468471789
  0
LINE
  5
6A9
100
AcDbEntity
  8
0
100
AcDbLine
 62
7
  6
CONTINUOUS
 10
241.7603823236
 20
575.6490972161
 11
231.0830254738
 21
581.8135326094
  0
LINE
  5
6AA
100
AcDbEntity
  8
0
100
AcDbLine
 62
7
  6
CONTINUOUS
 10
229.1738292159
 20
582.9157826466
 11
218.4964723662
 21
589.0802180398
  0
LINE
  5
6AB
100
AcDbEntity
  8
0
100
AcDbLine
 62
7
  6
CONTINUOUS
 10
216.5872761083
 20
590.182468077
 11
205.9099192586
 21
596.3469034703
  0
LINE
  5
6AC
100
AcDbEntity
  8
0
100
AcDbLine
 62
7
  6
CONTINUOUS
 10
204.0007230007
 20
597.4491535075
 11
190.9191930855
 21
605.0016074661
  0
LINE
  5
6AD
100
AcDbEntity
  8
0
100
AcDbLine
 62
7
  6
CONTINUOUS
 10
180.3126355273
 20
612.9622982326
 11
190.9191930855
 21
606.8387379047
  0
LINE
  5
6AE
100
AcDbEntity
  8
0
100
AcDbLine
 62
7
  6
CONTINUOUS
 10
124.4509672407
 20
647.4590131077
 11
180.3126355273
 21
615.2079935006
  0
LINE
  5
6AF
100
AcDbEntity
  8
0
100
AcDbLine
 62
7
  6
CONTINUOUS
 10
401.8501583417
 20
465.5873373819
 11
401.8501583417
 21
464.6075344814
  0
LINE
  5
6B0
100
AcDbEntity
  8
0
100
AcDbLine
 62
7
  6
CONTINUOUS
 10
402.3451775424
 20
450.8904272543
 11
402.3451775424
 21
440.2758958317
  0
LINE
  5
6B1
100
AcDbEntity
  8
0
100
AcDbLine
 62
7
  6
CONTINUOUS
 10
402.3451775424
 20
437.4181373717
 11
402.3451775424
 21
426.803605949
  0
LINE
  5
6B2
100
AcDbEntity
  8
0
100
AcDbLine
 62
7
  6
CONTINUOUS
 10
405.1029054705
 20
431.7434863434
 11
405.1029054705
 21
442.3580177661
  0
LINE
  5
6B3
100
AcDbEntity
  8
0
100
AcDbLine
 62
7
  6
CONTINUOUS
 10
405.1029054705
 20
445.2157762261
 11
405.1029054705
 21
455.8303076488
  0
LINE
  5
6B4
100
AcDbEntity
  8
0
100
AcDbLine
 62
7
  6
CONTINUOUS
 10
405.3855727226
 20
478.936804973
 11
405.3855727226
 21
481.1821866201
  0
LINE
  5
6B5
100
AcDbEntity
  8
0
100
AcDbLine
 62
7
  6
CONTINUOUS
 10
408.4262240278
 20
468.4042051124
 11
408.4262240278
 21
470.2413355509
  0
LINE
  5
6B6
100
AcDbEntity
  8
0
100
AcDbLine
 62
7
  6
CONTINUOUS
 10
408.6384540962
 20
453.7891038762
 11
408.6384540962
 21
443.1745724535
  0
LINE
  5
6B7
100
AcDbEntity
  8
0
100
AcDbLine
 62
7
  6
CONTINUOUS
 10
408.6384540962
 20
440.3168139935
 11
408.6384540962
 21
429.7022825708
  0
LINE
  5
6B8
100
AcDbEntity
  8
0
100
AcDbLine
 62
7
  6
CONTINUOUS
 10
409.2747486325
 20
470.7312285356
 11
409.2747486325
 21
468.894098097
  0
LINE
  5
6B9
100
AcDbEntity
  8
0
100
AcDbLine
 62
7
  6
CONTINUOUS
 10
409.3455638214
 20
452.1561094959
 11
409.3455638214
 21
454.401491143
  0
LINE
  5
6BA
100
AcDbEntity
  8
0
100
AcDbLine
 62
7
  6
CONTINUOUS
 10
410.3354202857
 20
469.1390855137
 11
410.3354202857
 21
467.3019550752
  0
LINE
  5
6BB
100
AcDbEntity
  8
0
100
AcDbLine
 62
7
  6
CONTINUOUS
 10
411.2547600793
 20
453.2992411058
 11
411.2547600793
 21
451.0538594587
  0
LINE
  5
6BC
100
AcDbEntity
  8
0
100
AcDbLine
 62
7
  6
CONTINUOUS
 10
411.3961820243
 20
421.5781242912
 11
411.3961820243
 21
432.1926557139
  0
LINE
  5
6BD
100
AcDbEntity
  8
0
100
AcDbLine
 62
7
  6
CONTINUOUS
 10
411.3961820243
 20
435.0504141738
 11
411.3961820243
 21
445.6649455965
  0
LINE
  5
6BE
100
AcDbEntity
  8
0
100
AcDbLine
 62
7
  6
CONTINUOUS
 10
414.4367114493
 20
458.3206519515
 11
414.4367114493
 21
457.3408490509
  0
LINE
  5
6BF
100
AcDbEntity
  8
0
100
AcDbLine
 62
7
  6
CONTINUOUS
 10
414.9317306501
 20
443.6237418239
 11
414.9317306501
 21
433.0092104012
  0
LINE
  5
6C0
100
AcDbEntity
  8
0
100
AcDbLine
 62
7
  6
CONTINUOUS
 10
414.9317306501
 20
430.1514519412
 11
414.9317306501
 21
419.5369205186
  0
LINE
  5
6C1
100
AcDbEntity
  8
0
100
AcDbLine
 62
7
  6
CONTINUOUS
 10
417.6894585781
 20
424.476800913
 11
417.6894585781
 21
435.0913323357
  0
LINE
  5
6C2
100
AcDbEntity
  8
0
100
AcDbLine
 62
7
  6
CONTINUOUS
 10
417.6894585781
 20
437.9490907956
 11
417.6894585781
 21
448.5636222183
  0
LINE
  5
6C3
100
AcDbEntity
  8
0
100
AcDbLine
 62
7
  6
CONTINUOUS
 10
417.9721258302
 20
471.6701195425
 11
417.9721258302
 21
473.9155011897
  0
LINE
  5
6C4
100
AcDbEntity
  8
0
100
AcDbLine
 62
7
  6
CONTINUOUS
 10
427.023264557
 20
451.053966521
 11
424.0534284407
 21
448.3595381742
  0
LINE
  5
6C5
100
AcDbEntity
  8
0
100
AcDbLine
 62
7
  6
CONTINUOUS
 10
425.9626246985
 20
447.257288137
 11
428.9324608148
 21
449.9517164838
  0
LINE
  5
6C6
100
AcDbEntity
  8
0
100
AcDbLine
 62
7
  6
CONTINUOUS
 10
417.6894585781
 20
437.9490907956
 11
421.2250072039
 21
439.9903372549
  0
LINE
  5
6C7
100
AcDbEntity
  8
0
100
AcDbLine
 62
7
  6
CONTINUOUS
 10
446.1858833507
 20
448.4412792595
 11
447.0344079553
 21
448.9311722442
  0
LINE
  5
6C8
100
AcDbEntity
  8
0
100
AcDbLine
 62
7
  6
CONTINUOUS
 10
434.5186700366
 20
439.8681202821
 11
436.6399815483
 21
441.0928527437
  0
LINE
  5
6C9
100
AcDbEntity
  8
0
100
AcDbLine
 62
7
  6
CONTINUOUS
 10
439.6098176646
 20
442.80747819
 11
446.1858833507
 21
446.604148821
  0
LINE
  5
6CA
100
AcDbEntity
  8
0
100
AcDbLine
 62
7
  6
CONTINUOUS
 10
447.0344079553
 20
447.0940418056
 11
455.731785153
 21
452.1154448983
  0
LINE
  5
6CB
100
AcDbEntity
  8
0
100
AcDbLine
 62
7
  6
CONTINUOUS
 10
448.0950796086
 20
447.3390292223
 11
448.9436042132
 21
447.828922207
  0
LINE
  5
6CC
100
AcDbEntity
  8
0
100
AcDbLine
 62
7
  6
CONTINUOUS
 10
457.6409814109
 20
451.0131948611
 11
450.5346285881
 21
446.9103646364
  0
LINE
  5
6CD
100
AcDbEntity
  8
0
100
AcDbLine
 62
7
  6
CONTINUOUS
 10
448.0950796086
 20
445.5018987838
 11
442.3675602557
 21
442.1951336824
  0
LINE
  5
6CE
100
AcDbEntity
  8
0
100
AcDbLine
 62
7
  6
CONTINUOUS
 10
438.5491778062
 20
439.9906027065
 11
436.4278662945
 21
438.7658702449
  0
LINE
  5
6CF
100
AcDbEntity
  8
0
100
AcDbLine
 62
7
  6
CONTINUOUS
 10
434.5186700366
 20
437.622738635
 11
436.4455605333
 21
438.7352227414
  0
LINE
  5
6D0
100
AcDbEntity
  8
0
100
AcDbLine
 62
7
  6
CONTINUOUS
 10
411.3961820243
 20
421.5781242912
 11
414.9317306501
 21
423.6193707505
  0
LINE
  5
6D1
100
AcDbEntity
  8
0
100
AcDbLine
 62
7
  6
CONTINUOUS
 10
417.6894585781
 20
424.476800913
 11
421.2250072039
 21
426.5180473723
  0
LINE
  5
6D2
100
AcDbEntity
  8
0
100
AcDbLine
 62
7
  6
CONTINUOUS
 10
423.9827351319
 20
427.7837287433
 11
427.5182837577
 21
429.8249752026
  0
LINE
  5
6D3
100
AcDbEntity
  8
0
100
AcDbLine
 62
7
  6
CONTINUOUS
 10
430.2760116857
 20
430.6824053651
 11
433.8115603115
 21
432.7236518245
  0
LINE
  5
6D4
100
AcDbEntity
  8
0
100
AcDbLine
 62
7
  6
CONTINUOUS
 10
458.7724364583
 20
441.1745938291
 11
459.6209610629
 21
441.6644868137
  0
LINE
  5
6D5
100
AcDbEntity
  8
0
100
AcDbLine
 62
7
  6
CONTINUOUS
 10
447.1052231442
 20
432.6014348517
 11
449.2265346559
 21
433.8261673133
  0
LINE
  5
6D6
100
AcDbEntity
  8
0
100
AcDbLine
 62
7
  6
CONTINUOUS
 10
452.1963707722
 20
435.5407927595
 11
458.7724364583
 21
439.3374633905
  0
LINE
  5
6D7
100
AcDbEntity
  8
0
100
AcDbLine
 62
7
  6
CONTINUOUS
 10
459.6209610629
 20
439.8273563752
 11
468.3183382607
 21
444.8487594678
  0
LINE
  5
6D8
100
AcDbEntity
  8
0
100
AcDbLine
 62
7
  6
CONTINUOUS
 10
460.6816327162
 20
440.0723437919
 11
461.5301573208
 21
440.5622367765
  0
LINE
  5
6D9
100
AcDbEntity
  8
0
100
AcDbLine
 62
7
  6
CONTINUOUS
 10
421.0127771354
 20
461.1375196819
 11
421.0127771354
 21
462.9746501205
  0
LINE
  5
6DA
100
AcDbEntity
  8
0
100
AcDbLine
 62
7
  6
CONTINUOUS
 10
421.2250072039
 20
446.5224184457
 11
421.2250072039
 21
435.907887023
  0
LINE
  5
6DB
100
AcDbEntity
  8
0
100
AcDbLine
 62
7
  6
CONTINUOUS
 10
421.2250072039
 20
433.0501285631
 11
421.2250072039
 21
422.4355971404
  0
LINE
  5
6DC
100
AcDbEntity
  8
0
100
AcDbLine
 62
7
  6
CONTINUOUS
 10
421.8613017401
 20
463.4645431051
 11
421.8613017401
 21
461.6274126666
  0
LINE
  5
6DD
100
AcDbEntity
  8
0
100
AcDbLine
 62
7
  6
CONTINUOUS
 10
421.932116929
 20
444.8894240655
 11
421.932116929
 21
447.1348057126
  0
LINE
  5
6DE
100
AcDbEntity
  8
0
100
AcDbLine
 62
7
  6
CONTINUOUS
 10
422.9219733933
 20
461.8724000833
 11
422.9219733933
 21
460.0352696447
  0
LINE
  5
6DF
100
AcDbEntity
  8
0
100
AcDbLine
 62
7
  6
CONTINUOUS
 10
423.8413131869
 20
446.0325556754
 11
423.8413131869
 21
443.7871740283
  0
LINE
  5
6E0
100
AcDbEntity
  8
0
100
AcDbLine
 62
7
  6
CONTINUOUS
 10
423.9827351319
 20
414.3114388607
 11
423.9827351319
 21
424.9259702834
  0
LINE
  5
6E1
100
AcDbEntity
  8
0
100
AcDbLine
 62
7
  6
CONTINUOUS
 10
423.9827351319
 20
427.7837287433
 11
423.9827351319
 21
438.398260166
  0
LINE
  5
6E2
100
AcDbEntity
  8
0
100
AcDbLine
 62
7
  6
CONTINUOUS
 10
427.023264557
 20
451.053966521
 11
427.023264557
 21
450.0741636205
  0
LINE
  5
6E3
100
AcDbEntity
  8
0
100
AcDbLine
 62
7
  6
CONTINUOUS
 10
427.5182837577
 20
436.3570563934
 11
427.5182837577
 21
425.7425249707
  0
LINE
  5
6E4
100
AcDbEntity
  8
0
100
AcDbLine
 62
7
  6
CONTINUOUS
 10
427.5182837577
 20
422.8847665108
 11
427.5182837577
 21
412.2702350881
  0
LINE
  5
6E5
100
AcDbEntity
  8
0
100
AcDbLine
 62
7
  6
CONTINUOUS
 10
430.2760116857
 20
417.2101154825
 11
430.2760116857
 21
427.8246469052
  0
LINE
  5
6E6
100
AcDbEntity
  8
0
100
AcDbLine
 62
7
  6
CONTINUOUS
 10
430.2760116857
 20
430.6824053651
 11
430.2760116857
 21
441.2969367878
  0
LINE
  5
6E7
100
AcDbEntity
  8
0
100
AcDbLine
 62
7
  6
CONTINUOUS
 10
430.5586789378
 20
464.4034341121
 11
430.5586789378
 21
466.6488157592
  0
LINE
  5
6E8
100
AcDbEntity
  8
0
100
AcDbLine
 62
7
  6
CONTINUOUS
 10
433.599330243
 20
453.8708342515
 11
433.599330243
 21
455.70796469
  0
LINE
  5
6E9
100
AcDbEntity
  8
0
100
AcDbLine
 62
7
  6
CONTINUOUS
 10
433.8115603115
 20
439.2557330152
 11
433.8115603115
 21
428.6412015925
  0
LINE
  5
6EA
100
AcDbEntity
  8
0
100
AcDbLine
 62
7
  6
CONTINUOUS
 10
433.8115603115
 20
425.7834431326
 11
433.8115603115
 21
415.1689117099
  0
LINE
  5
6EB
100
AcDbEntity
  8
0
100
AcDbLine
 62
7
  6
CONTINUOUS
 10
434.4478548477
 20
456.1978576747
 11
434.4478548477
 21
454.3607272361
  0
LINE
  5
6EC
100
AcDbEntity
  8
0
100
AcDbLine
 62
7
  6
CONTINUOUS
 10
434.5186700366
 20
437.622738635
 11
434.5186700366
 21
439.8681202821
  0
LINE
  5
6ED
100
AcDbEntity
  8
0
100
AcDbLine
 62
7
  6
CONTINUOUS
 10
435.5085265009
 20
454.6057146528
 11
435.5085265009
 21
452.7685842143
  0
LINE
  5
6EE
100
AcDbEntity
  8
0
100
AcDbLine
 62
7
  6
CONTINUOUS
 10
436.4278662945
 20
438.7658702449
 11
436.4278662945
 21
436.5204885978
  0
LINE
  5
6EF
100
AcDbEntity
  8
0
100
AcDbLine
 62
7
  6
CONTINUOUS
 10
436.5692882396
 20
407.0447534302
 11
436.5692882396
 21
417.6592848529
  0
LINE
  5
6F0
100
AcDbEntity
  8
0
100
AcDbLine
 62
7
  6
CONTINUOUS
 10
436.5692882396
 20
420.5170433129
 11
436.5692882396
 21
431.1315747356
  0
LINE
  5
6F1
100
AcDbEntity
  8
0
100
AcDbLine
 62
7
  6
CONTINUOUS
 10
439.6098176646
 20
443.7872810906
 11
439.6098176646
 21
442.80747819
  0
LINE
  5
6F2
100
AcDbEntity
  8
0
100
AcDbLine
 62
7
  6
CONTINUOUS
 10
440.1048368653
 20
429.090370963
 11
440.1048368653
 21
418.4758395403
  0
LINE
  5
6F3
100
AcDbEntity
  8
0
100
AcDbLine
 62
7
  6
CONTINUOUS
 10
440.1048368653
 20
415.6180810803
 11
440.1048368653
 21
405.0035496576
  0
LINE
  5
6F4
100
AcDbEntity
  8
0
100
AcDbLine
 62
7
  6
CONTINUOUS
 10
439.6098176646
 20
443.7872810906
 11
436.6399815483
 21
441.0928527437
  0
LINE
  5
6F5
100
AcDbEntity
  8
0
100
AcDbLine
 62
7
  6
CONTINUOUS
 10
438.5491778062
 20
439.9906027065
 11
441.5190139225
 21
442.6850310533
  0
LINE
  5
6F6
100
AcDbEntity
  8
0
100
AcDbLine
 62
7
  6
CONTINUOUS
 10
452.1963707722
 20
436.5205956601
 11
449.2265346559
 21
433.8261673133
  0
LINE
  5
6F7
100
AcDbEntity
  8
0
100
AcDbLine
 62
7
  6
CONTINUOUS
 10
451.1357309138
 20
432.7239172761
 11
454.1055670301
 21
435.4183456229
  0
LINE
  5
6F8
100
AcDbEntity
  8
0
100
AcDbLine
 62
7
  6
CONTINUOUS
 10
470.2275345186
 20
443.7465094306
 11
463.1211816957
 21
439.643679206
  0
LINE
  5
6F9
100
AcDbEntity
  8
0
100
AcDbLine
 62
7
  6
CONTINUOUS
 10
460.6816327162
 20
438.2352133533
 11
454.9541133633
 21
434.9284482519
  0
LINE
  5
6FA
100
AcDbEntity
  8
0
100
AcDbLine
 62
7
  6
CONTINUOUS
 10
451.1357309138
 20
432.7239172761
 11
449.0144194021
 21
431.4991848145
  0
LINE
  5
6FB
100
AcDbEntity
  8
0
100
AcDbLine
 62
7
  6
CONTINUOUS
 10
447.1052231442
 20
430.3560532046
 11
449.032113641
 21
431.4685373109
  0
LINE
  5
6FC
100
AcDbEntity
  8
0
100
AcDbLine
 62
7
  6
CONTINUOUS
 10
423.9827351319
 20
414.3114388607
 11
427.5182837577
 21
416.35268532
  0
LINE
  5
6FD
100
AcDbEntity
  8
0
100
AcDbLine
 62
7
  6
CONTINUOUS
 10
430.2760116857
 20
417.2101154825
 11
433.8115603115
 21
419.2513619418
  0
LINE
  5
6FE
100
AcDbEntity
  8
0
100
AcDbLine
 62
7
  6
CONTINUOUS
 10
436.5692882396
 20
420.5170433129
 11
440.1048368653
 21
422.5582897722
  0
LINE
  5
6FF
100
AcDbEntity
  8
0
100
AcDbLine
 62
7
  6
CONTINUOUS
 10
442.8625647934
 20
423.4157199347
 11
446.3981134191
 21
425.456966394
  0
LINE
  5
700
100
AcDbEntity
  8
0
100
AcDbLine
 62
7
  6
CONTINUOUS
 10
471.3589895659
 20
433.9079083986
 11
472.2075141705
 21
434.3978013833
  0
LINE
  5
701
100
AcDbEntity
  8
0
100
AcDbLine
 62
7
  6
CONTINUOUS
 10
459.6917762519
 20
425.3347494212
 11
461.8130877635
 21
426.5594818828
  0
LINE
  5
702
100
AcDbEntity
  8
0
100
AcDbLine
 62
7
  6
CONTINUOUS
 10
464.7829238798
 20
428.2741073291
 11
471.3589895659
 21
432.0707779601
  0
LINE
  5
703
100
AcDbEntity
  8
0
100
AcDbLine
 62
7
  6
CONTINUOUS
 10
472.2075141705
 20
432.5606709447
 11
480.9048913683
 21
437.5820740373
  0
LINE
  5
704
100
AcDbEntity
  8
0
100
AcDbLine
 62
7
  6
CONTINUOUS
 10
473.2681858238
 20
432.8056583614
 11
474.1167104284
 21
433.2955513461
  0
LINE
  5
705
100
AcDbEntity
  8
0
100
AcDbLine
 62
7
  6
CONTINUOUS
 10
482.8140876262
 20
436.4798240001
 11
475.7077348033
 21
432.3769937755
  0
LINE
  5
706
100
AcDbEntity
  8
0
100
AcDbLine
 62
7
  6
CONTINUOUS
 10
473.2681858238
 20
430.9685279229
 11
467.540666471
 21
427.6617628215
  0
LINE
  5
707
100
AcDbEntity
  8
0
100
AcDbLine
 62
7
  6
CONTINUOUS
 10
463.7222840214
 20
425.4572318456
 11
461.6009725098
 21
424.232499384
  0
LINE
  5
708
100
AcDbEntity
  8
0
100
AcDbLine
 62
7
  6
CONTINUOUS
 10
459.6917762519
 20
423.0893677741
 11
461.6186667486
 21
424.2018518804
  0
LINE
  5
709
100
AcDbEntity
  8
0
100
AcDbLine
 62
7
  6
CONTINUOUS
 10
436.5692882396
 20
407.0447534302
 11
440.1048368653
 21
409.0859998895
  0
LINE
  5
70A
100
AcDbEntity
  8
0
100
AcDbLine
 62
7
  6
CONTINUOUS
 10
442.8625647934
 20
409.943430052
 11
446.3981134191
 21
411.9846765114
  0
LINE
  5
70B
100
AcDbEntity
  8
0
100
AcDbLine
 62
7
  6
CONTINUOUS
 10
449.1558413472
 20
413.2503578824
 11
452.6913899729
 21
415.2916043417
  0
LINE
  5
70C
100
AcDbEntity
  8
0
100
AcDbLine
 62
7
  6
CONTINUOUS
 10
455.449117901
 20
416.1490345042
 11
458.9846665267
 21
418.1902809635
  0
LINE
  5
70D
100
AcDbEntity
  8
0
100
AcDbLine
 62
7
  6
CONTINUOUS
 10
442.8625647934
 20
409.943430052
 11
442.8625647934
 21
420.5579614747
  0
LINE
  5
70E
100
AcDbEntity
  8
0
100
AcDbLine
 62
7
  6
CONTINUOUS
 10
442.8625647934
 20
423.4157199347
 11
442.8625647934
 21
434.0302513574
  0
LINE
  5
70F
100
AcDbEntity
  8
0
100
AcDbLine
 62
7
  6
CONTINUOUS
 10
443.1452320454
 20
457.1367486816
 11
443.1452320454
 21
459.3821303287
  0
LINE
  5
710
100
AcDbEntity
  8
0
100
AcDbLine
 62
7
  6
CONTINUOUS
 10
446.1858833507
 20
446.604148821
 11
446.1858833507
 21
448.4412792595
  0
LINE
  5
711
100
AcDbEntity
  8
0
100
AcDbLine
 62
7
  6
CONTINUOUS
 10
446.3981134191
 20
431.9890475848
 11
446.3981134191
 21
421.3745161621
  0
LINE
  5
712
100
AcDbEntity
  8
0
100
AcDbLine
 62
7
  6
CONTINUOUS
 10
446.3981134191
 20
418.5167577021
 11
446.3981134191
 21
407.9022262794
  0
LINE
  5
713
100
AcDbEntity
  8
0
100
AcDbLine
 62
7
  6
CONTINUOUS
 10
447.0344079553
 20
448.9311722442
 11
447.0344079553
 21
447.0940418056
  0
LINE
  5
714
100
AcDbEntity
  8
0
100
AcDbLine
 62
7
  6
CONTINUOUS
 10
447.1052231442
 20
430.3560532046
 11
447.1052231442
 21
432.6014348517
  0
LINE
  5
715
100
AcDbEntity
  8
0
100
AcDbLine
 62
7
  6
CONTINUOUS
 10
448.0950796086
 20
447.3390292223
 11
448.0950796086
 21
445.5018987838
  0
LINE
  5
716
100
AcDbEntity
  8
0
100
AcDbLine
 62
7
  6
CONTINUOUS
 10
449.0144194021
 20
431.4991848145
 11
449.0144194021
 21
429.2538031674
  0
LINE
  5
717
100
AcDbEntity
  8
0
100
AcDbLine
 62
7
  6
CONTINUOUS
 10
449.1558413472
 20
399.7780679998
 11
449.1558413472
 21
410.3925994225
  0
LINE
  5
718
100
AcDbEntity
  8
0
100
AcDbLine
 62
7
  6
CONTINUOUS
 10
449.1558413472
 20
413.2503578824
 11
449.1558413472
 21
423.8648893051
  0
LINE
  5
719
100
AcDbEntity
  8
0
100
AcDbLine
 62
7
  6
CONTINUOUS
 10
452.1963707722
 20
436.5205956601
 11
452.1963707722
 21
435.5407927595
  0
LINE
  5
71A
100
AcDbEntity
  8
0
100
AcDbLine
 62
7
  6
CONTINUOUS
 10
452.6913899729
 20
421.8236855325
 11
452.6913899729
 21
411.2091541098
  0
LINE
  5
71B
100
AcDbEntity
  8
0
100
AcDbLine
 62
7
  6
CONTINUOUS
 10
452.6913899729
 20
408.3513956499
 11
452.6913899729
 21
397.7368642272
  0
LINE
  5
71C
100
AcDbEntity
  8
0
100
AcDbLine
 62
7
  6
CONTINUOUS
 10
455.449117901
 20
402.6767446216
 11
455.449117901
 21
413.2912760443
  0
LINE
  5
71D
100
AcDbEntity
  8
0
100
AcDbLine
 62
7
  6
CONTINUOUS
 10
455.449117901
 20
416.1490345042
 11
455.449117901
 21
426.7635659269
  0
LINE
  5
71E
100
AcDbEntity
  8
0
100
AcDbLine
 62
7
  6
CONTINUOUS
 10
455.731785153
 20
449.8700632512
 11
455.731785153
 21
452.1154448983
  0
LINE
  5
71F
100
AcDbEntity
  8
0
100
AcDbLine
 62
7
  6
CONTINUOUS
 10
458.7724364583
 20
439.3374633905
 11
458.7724364583
 21
441.1745938291
  0
LINE
  5
720
100
AcDbEntity
  8
0
100
AcDbLine
 62
7
  6
CONTINUOUS
 10
458.9846665267
 20
424.7223621543
 11
458.9846665267
 21
414.1078307316
  0
LINE
  5
721
100
AcDbEntity
  8
0
100
AcDbLine
 62
7
  6
CONTINUOUS
 10
458.9846665267
 20
411.2500722717
 11
458.9846665267
 21
400.635540849
  0
LINE
  5
722
100
AcDbEntity
  8
0
100
AcDbLine
 62
7
  6
CONTINUOUS
 10
459.6209610629
 20
441.6644868137
 11
459.6209610629
 21
439.8273563752
  0
LINE
  5
723
100
AcDbEntity
  8
0
100
AcDbLine
 62
7
  6
CONTINUOUS
 10
459.6917762519
 20
423.0893677741
 11
459.6917762519
 21
425.3347494212
  0
LINE
  5
724
100
AcDbEntity
  8
0
100
AcDbLine
 62
7
  6
CONTINUOUS
 10
460.6816327162
 20
440.0723437919
 11
460.6816327162
 21
438.2352133533
  0
LINE
  5
725
100
AcDbEntity
  8
0
100
AcDbLine
 62
7
  6
CONTINUOUS
 10
461.6009725098
 20
424.232499384
 11
461.6009725098
 21
421.9871177369
  0
LINE
  5
726
100
AcDbEntity
  8
0
100
AcDbLine
 62
7
  6
CONTINUOUS
 10
461.7423944548
 20
392.5113825693
 11
461.7423944548
 21
403.125913992
  0
LINE
  5
727
100
AcDbEntity
  8
0
100
AcDbLine
 62
7
  6
CONTINUOUS
 10
461.7423944548
 20
405.983672452
 11
461.7423944548
 21
416.5982038746
  0
LINE
  5
728
100
AcDbEntity
  8
0
100
AcDbLine
 62
7
  6
CONTINUOUS
 10
464.7829238798
 20
429.2539102296
 11
461.8130877635
 21
426.5594818828
  0
LINE
  5
729
100
AcDbEntity
  8
0
100
AcDbLine
 62
7
  6
CONTINUOUS
 10
463.7222840214
 20
425.4572318456
 11
466.6921201377
 21
428.1516601924
  0
LINE
  5
72A
100
AcDbEntity
  8
0
100
AcDbLine
 62
7
  6
CONTINUOUS
 10
483.9455426735
 20
426.6412229682
 11
484.7940672782
 21
427.1311159528
  0
LINE
  5
72B
100
AcDbEntity
  8
0
100
AcDbLine
 62
7
  6
CONTINUOUS
 10
472.2783293595
 20
418.0680639907
 11
474.3996408711
 21
419.2927964524
  0
LINE
  5
72C
100
AcDbEntity
  8
0
100
AcDbLine
 62
7
  6
CONTINUOUS
 10
477.3694769874
 20
421.0074218986
 11
483.9455426735
 21
424.8040925296
  0
LINE
  5
72D
100
AcDbEntity
  8
0
100
AcDbLine
 62
7
  6
CONTINUOUS
 10
484.7940672782
 20
425.2939855143
 11
493.4914444759
 21
430.3153886069
  0
LINE
  5
72E
100
AcDbEntity
  8
0
100
AcDbLine
 62
7
  6
CONTINUOUS
 10
485.8547389314
 20
425.538972931
 11
486.7032635361
 21
426.0288659156
  0
LINE
  5
72F
100
AcDbEntity
  8
0
100
AcDbLine
 62
7
  6
CONTINUOUS
 10
495.4006407338
 20
429.2131385697
 11
488.2942879109
 21
425.110308345
  0
LINE
  5
730
100
AcDbEntity
  8
0
100
AcDbLine
 62
7
  6
CONTINUOUS
 10
485.8547389314
 20
423.7018424924
 11
480.1272195786
 21
420.395077391
  0
LINE
  5
731
100
AcDbEntity
  8
0
100
AcDbLine
 62
7
  6
CONTINUOUS
 10
476.308837129
 20
418.1905464151
 11
474.1875256174
 21
416.9658139535
  0
LINE
  5
732
100
AcDbEntity
  8
0
100
AcDbLine
 62
7
  6
CONTINUOUS
 10
472.2783293595
 20
415.8226823436
 11
474.2052198562
 21
416.93516645
  0
LINE
  5
733
100
AcDbEntity
  8
0
100
AcDbLine
 62
7
  6
CONTINUOUS
 10
449.1558413472
 20
399.7780679998
 11
452.6913899729
 21
401.8193144591
  0
LINE
  5
734
100
AcDbEntity
  8
0
100
AcDbLine
 62
7
  6
CONTINUOUS
 10
455.449117901
 20
402.6767446216
 11
458.9846665267
 21
404.7179910809
  0
LINE
  5
735
100
AcDbEntity
  8
0
100
AcDbLine
 62
7
  6
CONTINUOUS
 10
461.7423944548
 20
405.983672452
 11
465.2779430805
 21
408.0249189113
  0
LINE
  5
736
100
AcDbEntity
  8
0
100
AcDbLine
 62
7
  6
CONTINUOUS
 10
468.0356710086
 20
408.8823490738
 11
471.5712196343
 21
410.9235955331
  0
LINE
  5
737
100
AcDbEntity
  8
0
100
AcDbLine
 62
7
  6
CONTINUOUS
 10
496.5320957811
 20
419.3745375377
 11
497.3806203858
 21
419.8644305223
  0
LINE
  5
738
100
AcDbEntity
  8
0
100
AcDbLine
 62
7
  6
CONTINUOUS
 10
484.8648824671
 20
410.8013785603
 11
486.9861939787
 21
412.0261110219
  0
LINE
  5
739
100
AcDbEntity
  8
0
100
AcDbLine
 62
7
  6
CONTINUOUS
 10
489.956030095
 20
413.7407364682
 11
496.5320957811
 21
417.5374070992
  0
LINE
  5
73A
100
AcDbEntity
  8
0
100
AcDbLine
 62
7
  6
CONTINUOUS
 10
497.3806203858
 20
418.0273000838
 11
506.0779975835
 21
423.0487031764
  0
LINE
  5
73B
100
AcDbEntity
  8
0
100
AcDbLine
 62
7
  6
CONTINUOUS
 10
498.441292039
 20
418.2722875005
 11
499.2898166437
 21
418.7621804851
  0
LINE
  5
73C
100
AcDbEntity
  8
0
100
AcDbLine
 62
7
  6
CONTINUOUS
 10
507.9871938414
 20
421.9464531392
 11
500.8808410185
 21
417.8436229146
  0
LINE
  5
73D
100
AcDbEntity
  8
0
100
AcDbLine
 62
7
  6
CONTINUOUS
 10
498.441292039
 20
416.435157062
 11
492.7137726862
 21
413.1283919605
  0
LINE
  5
73E
100
AcDbEntity
  8
0
100
AcDbLine
 62
7
  6
CONTINUOUS
 10
488.8953902366
 20
410.9238609847
 11
486.774078725
 21
409.6991285231
  0
LINE
  5
73F
100
AcDbEntity
  8
0
100
AcDbLine
 62
7
  6
CONTINUOUS
 10
484.8648824671
 20
408.5559969132
 11
486.7917729638
 21
409.6684810195
  0
LINE
  5
740
100
AcDbEntity
  8
0
100
AcDbLine
 62
7
  6
CONTINUOUS
 10
461.7423944548
 20
392.5113825693
 11
465.2779430805
 21
394.5526290286
  0
LINE
  5
741
100
AcDbEntity
  8
0
100
AcDbLine
 62
7
  6
CONTINUOUS
 10
468.0356710086
 20
395.4100591911
 11
471.5712196343
 21
397.4513056504
  0
LINE
  5
742
100
AcDbEntity
  8
0
100
AcDbLine
 62
7
  6
CONTINUOUS
 10
474.3289475624
 20
398.7169870215
 11
477.8644961881
 21
400.7582334808
  0
LINE
  5
743
100
AcDbEntity
  8
0
100
AcDbLine
 62
7
  6
CONTINUOUS
 10
586.8983305413
 20
314.5061736826
 11
586.1315336059
 21
315.5023280886
  0
LINE
  5
744
100
AcDbEntity
  8
0
100
AcDbLine
 62
7
  6
CONTINUOUS
 10
572.9132155783
 20
333.1531819874
 11
573.7948997669
 21
331.8925113583
  0
LWPOLYLINE
  5
745
100
AcDbEntity
  8
0
100
AcDbPolyline
 62
7
  6
CONTINUOUS
 90
4
 70
0
 10
575.6242166442
 20
322.7479985502
 10
572.3329199632
 20
327.4870495871
 10
565.7687219037
 20
332.5568294411
 10
563.8192640117
 20
333.3754207739
  0
LWPOLYLINE
  5
746
100
AcDbEntity
  8
0
100
AcDbPolyline
 62
7
  6
CONTINUOUS
 90
3
 70
0
 10
575.3440057007
 20
336.6246836248
 10
572.3396350441
 20
340.9519892719
 10
565.783119897
 20
346.0220092362
  0
LINE
  5
747
100
AcDbEntity
  8
0
100
AcDbLine
 62
7
  6
CONTINUOUS
 10
572.9112939049
 20
319.7212445535
 11
573.7948882144
 21
318.4202347898
  0
LWPOLYLINE
  5
748
100
AcDbEntity
  8
0
100
AcDbPolyline
 62
7
  6
CONTINUOUS
 90
3
 70
0
 10
582.3120177989
 20
313.7220070432
 10
585.8940920824
 20
308.4161509411
 10
586.1448235996
 20
307.7408062617
  0
LINE
  5
749
100
AcDbEntity
  8
0
100
AcDbLine
 62
7
  6
CONTINUOUS
 10
464.7829238798
 20
429.2539102296
 11
464.7829238798
 21
428.2741073291
  0
LINE
  5
74A
100
AcDbEntity
  8
0
100
AcDbLine
 62
7
  6
CONTINUOUS
 10
465.2779430805
 20
414.557000102
 11
465.2779430805
 21
403.9424686794
  0
LINE
  5
74B
100
AcDbEntity
  8
0
100
AcDbLine
 62
7
  6
CONTINUOUS
 10
465.2779430805
 20
401.0847102194
 11
465.2779430805
 21
390.4701787967
  0
LINE
  5
74C
100
AcDbEntity
  8
0
100
AcDbLine
 62
7
  6
CONTINUOUS
 10
468.0356710086
 20
395.4100591911
 11
468.0356710086
 21
406.0245906138
  0
LINE
  5
74D
100
AcDbEntity
  8
0
100
AcDbLine
 62
7
  6
CONTINUOUS
 10
468.0356710086
 20
408.8823490738
 11
468.0356710086
 21
419.4968804964
  0
LINE
  5
74E
100
AcDbEntity
  8
0
100
AcDbLine
 62
7
  6
CONTINUOUS
 10
468.3183382607
 20
442.6033778207
 11
468.3183382607
 21
444.8487594678
  0
LINE
  5
74F
100
AcDbEntity
  8
0
100
AcDbLine
 62
7
  6
CONTINUOUS
 10
471.3589895659
 20
432.0707779601
 11
471.3589895659
 21
433.9079083986
  0
LINE
  5
750
100
AcDbEntity
  8
0
100
AcDbLine
 62
7
  6
CONTINUOUS
 10
471.5712196343
 20
417.4556767238
 11
471.5712196343
 21
406.8411453012
  0
LINE
  5
751
100
AcDbEntity
  8
0
100
AcDbLine
 62
7
  6
CONTINUOUS
 10
471.5712196343
 20
403.9833868412
 11
471.5712196343
 21
393.3688554185
  0
LINE
  5
752
100
AcDbEntity
  8
0
100
AcDbLine
 62
7
  6
CONTINUOUS
 10
472.2075141705
 20
434.3978013833
 11
472.2075141705
 21
432.5606709447
  0
LINE
  5
753
100
AcDbEntity
  8
0
100
AcDbLine
 62
7
  6
CONTINUOUS
 10
472.2783293595
 20
415.8226823436
 11
472.2783293595
 21
418.0680639907
  0
LINE
  5
754
100
AcDbEntity
  8
0
100
AcDbLine
 62
7
  6
CONTINUOUS
 10
473.2681858238
 20
432.8056583614
 11
473.2681858238
 21
430.9685279229
  0
LINE
  5
755
100
AcDbEntity
  8
0
100
AcDbLine
 62
7
  6
CONTINUOUS
 10
474.1875256174
 20
416.9658139535
 11
474.1875256174
 21
414.7204323064
  0
LINE
  5
756
100
AcDbEntity
  8
0
100
AcDbLine
 62
7
  6
CONTINUOUS
 10
474.3289475624
 20
385.2446971389
 11
474.3289475624
 21
395.8592285615
  0
LINE
  5
757
100
AcDbEntity
  8
0
100
AcDbLine
 62
7
  6
CONTINUOUS
 10
474.3289475624
 20
398.7169870215
 11
474.3289475624
 21
409.3315184442
  0
LINE
  5
758
100
AcDbEntity
  8
0
100
AcDbLine
 62
7
  6
CONTINUOUS
 10
477.3694769874
 20
421.9872247992
 11
477.3694769874
 21
421.0074218986
  0
LINE
  5
759
100
AcDbEntity
  8
0
100
AcDbLine
 62
7
  6
CONTINUOUS
 10
477.8644961881
 20
407.2903146716
 11
477.8644961881
 21
396.6757832489
  0
LINE
  5
75A
100
AcDbEntity
  8
0
100
AcDbLine
 62
7
  6
CONTINUOUS
 10
477.8644961881
 20
393.8180247889
 11
477.8644961881
 21
383.2034933663
  0
LINE
  5
75B
100
AcDbEntity
  8
0
100
AcDbLine
 62
7
  6
CONTINUOUS
 10
480.6222241162
 20
388.1433737607
 11
480.6222241162
 21
398.7579051833
  0
LINE
  5
75C
100
AcDbEntity
  8
0
100
AcDbLine
 62
7
  6
CONTINUOUS
 10
480.6222241162
 20
401.6156636433
 11
480.6222241162
 21
412.230195066
  0
LINE
  5
75D
100
AcDbEntity
  8
0
100
AcDbLine
 62
7
  6
CONTINUOUS
 10
480.9048913683
 20
435.3366923902
 11
480.9048913683
 21
437.5820740373
  0
LINE
  5
75E
100
AcDbEntity
  8
0
100
AcDbLine
 62
7
  6
CONTINUOUS
 10
477.3694769874
 20
421.9872247992
 11
474.3996408711
 21
419.2927964524
  0
LINE
  5
75F
100
AcDbEntity
  8
0
100
AcDbLine
 62
7
  6
CONTINUOUS
 10
476.308837129
 20
418.1905464151
 11
479.2786732453
 21
420.884974762
  0
LINE
  5
760
100
AcDbEntity
  8
0
100
AcDbLine
 62
7
  6
CONTINUOUS
 10
489.956030095
 20
414.7205393687
 11
486.9861939787
 21
412.0261110219
  0
LINE
  5
761
100
AcDbEntity
  8
0
100
AcDbLine
 62
7
  6
CONTINUOUS
 10
488.8953902366
 20
410.9238609847
 11
491.8652263529
 21
413.6182893315
  0
LINE
  5
762
100
AcDbEntity
  8
0
100
AcDbLine
 62
7
  6
CONTINUOUS
 10
480.6222241162
 20
401.6156636433
 11
484.1577727419
 21
403.6569101026
  0
LINE
  5
763
100
AcDbEntity
  8
0
100
AcDbLine
 62
7
  6
CONTINUOUS
 10
509.1186488887
 20
412.1078521072
 11
509.9671734934
 21
412.5977450919
  0
LINE
  5
764
100
AcDbEntity
  8
0
100
AcDbLine
 62
7
  6
CONTINUOUS
 10
497.4514355747
 20
403.5346931298
 11
499.5727470864
 21
404.7594255914
  0
LINE
  5
765
100
AcDbEntity
  8
0
100
AcDbLine
 62
7
  6
CONTINUOUS
 10
502.5425832026
 20
406.4740510377
 11
509.1186488887
 21
410.2707216687
  0
LINE
  5
766
100
AcDbEntity
  8
0
100
AcDbLine
 62
7
  6
CONTINUOUS
 10
509.9671734934
 20
410.7606146533
 11
518.6645506911
 21
415.782017746
  0
LINE
  5
767
100
AcDbEntity
  8
0
100
AcDbLine
 62
7
  6
CONTINUOUS
 10
511.0278451466
 20
411.00560207
 11
511.8763697513
 21
411.4954950547
  0
LINE
  5
768
100
AcDbEntity
  8
0
100
AcDbLine
 62
7
  6
CONTINUOUS
 10
520.573746949
 20
414.6797677088
 11
513.4673941262
 21
410.5769374841
  0
LINE
  5
769
100
AcDbEntity
  8
0
100
AcDbLine
 62
7
  6
CONTINUOUS
 10
511.0278451466
 20
409.1684716315
 11
505.3003257938
 21
405.8617065301
  0
LINE
  5
76A
100
AcDbEntity
  8
0
100
AcDbLine
 62
7
  6
CONTINUOUS
 10
501.4819433442
 20
403.6571755542
 11
499.3606318326
 21
402.4324430926
  0
LINE
  5
76B
100
AcDbEntity
  8
0
100
AcDbLine
 62
7
  6
CONTINUOUS
 10
497.4514355747
 20
401.2893114827
 11
499.3783260714
 21
402.401795589
  0
LINE
  5
76C
100
AcDbEntity
  8
0
100
AcDbLine
 62
7
  6
CONTINUOUS
 10
474.3289475624
 20
385.2446971389
 11
477.8644961881
 21
387.2859435982
  0
LINE
  5
76D
100
AcDbEntity
  8
0
100
AcDbLine
 62
7
  6
CONTINUOUS
 10
480.6222241162
 20
388.1433737607
 11
484.1577727419
 21
390.18462022
  0
LINE
  5
76E
100
AcDbEntity
  8
0
100
AcDbLine
 62
7
  6
CONTINUOUS
 10
486.91550067
 20
391.450301591
 11
490.4510492958
 21
393.4915480503
  0
LINE
  5
76F
100
AcDbEntity
  8
0
100
AcDbLine
 62
7
  6
CONTINUOUS
 10
493.2087772238
 20
394.3489782128
 11
496.7443258496
 21
396.3902246721
  0
LINE
  5
770
100
AcDbEntity
  8
0
100
AcDbLine
 62
7
  6
CONTINUOUS
 10
521.7052019964
 20
404.8411666768
 11
522.553726601
 21
405.3310596614
  0
LINE
  5
771
100
AcDbEntity
  8
0
100
AcDbLine
 62
7
  6
CONTINUOUS
 10
510.0379886823
 20
396.2680076994
 11
512.159300194
 21
397.492740161
  0
LINE
  5
772
100
AcDbEntity
  8
0
100
AcDbLine
 62
7
  6
CONTINUOUS
 10
515.1291363103
 20
399.2073656072
 11
521.7052019964
 21
403.0040362382
  0
LINE
  5
773
100
AcDbEntity
  8
0
100
AcDbLine
 62
7
  6
CONTINUOUS
 10
522.553726601
 20
403.4939292229
 11
531.2511037987
 21
408.5153323155
  0
LINE
  5
774
100
AcDbEntity
  8
0
100
AcDbLine
 62
7
  6
CONTINUOUS
 10
523.6143982543
 20
403.7389166396
 11
524.4629228589
 21
404.2288096242
  0
LWPOLYLINE
  5
775
100
AcDbEntity
  8
0
100
AcDbPolyline
 62
7
  6
CONTINUOUS
 90
5
 70
0
 10
549.5325678883
 20
324.6225385528
 10
552.7251772915
 20
318.041194059
 10
562.5592543438
 20
305.2059851355
 10
572.4710603876
 20
298.4366167027
 10
580.3014396369
 20
298.0427821824
  0
LINE
  5
776
100
AcDbEntity
  8
0
100
AcDbLine
 62
7
  6
CONTINUOUS
 10
554.5188461715
 20
323.1596083577
 11
552.9469138111
 21
326.881626268
  0
LINE
  5
777
100
AcDbEntity
  8
0
100
AcDbLine
 62
7
  6
CONTINUOUS
 10
483.9455426735
 20
424.8040925296
 11
483.9455426735
 21
426.6412229682
  0
LINE
  5
778
100
AcDbEntity
  8
0
100
AcDbLine
 62
7
  6
CONTINUOUS
 10
484.1577727419
 20
410.1889912934
 11
484.1577727419
 21
399.5744598707
  0
LINE
  5
779
100
AcDbEntity
  8
0
100
AcDbLine
 62
7
  6
CONTINUOUS
 10
484.1577727419
 20
396.7167014107
 11
484.1577727419
 21
386.1021699881
  0
LINE
  5
77A
100
AcDbEntity
  8
0
100
AcDbLine
 62
7
  6
CONTINUOUS
 10
484.7940672782
 20
427.1311159528
 11
484.7940672782
 21
425.2939855143
  0
LINE
  5
77B
100
AcDbEntity
  8
0
100
AcDbLine
 62
7
  6
CONTINUOUS
 10
484.8648824671
 20
408.5559969132
 11
484.8648824671
 21
410.8013785603
  0
LINE
  5
77C
100
AcDbEntity
  8
0
100
AcDbLine
 62
7
  6
CONTINUOUS
 10
485.8547389314
 20
425.538972931
 11
485.8547389314
 21
423.7018424924
  0
LINE
  5
77D
100
AcDbEntity
  8
0
100
AcDbLine
 62
7
  6
CONTINUOUS
 10
486.774078725
 20
409.6991285231
 11
486.774078725
 21
407.453746876
  0
LINE
  5
77E
100
AcDbEntity
  8
0
100
AcDbLine
 62
7
  6
CONTINUOUS
 10
486.91550067
 20
377.9780117084
 11
486.91550067
 21
388.5925431311
  0
LINE
  5
77F
100
AcDbEntity
  8
0
100
AcDbLine
 62
7
  6
CONTINUOUS
 10
486.91550067
 20
391.450301591
 11
486.91550067
 21
402.0648330137
  0
LINE
  5
780
100
AcDbEntity
  8
0
100
AcDbLine
 62
7
  6
CONTINUOUS
 10
489.956030095
 20
414.7205393687
 11
489.956030095
 21
413.7407364682
  0
LINE
  5
781
100
AcDbEntity
  8
0
100
AcDbLine
 62
7
  6
CONTINUOUS
 10
490.4510492958
 20
400.0236292411
 11
490.4510492958
 21
389.4090978184
  0
LINE
  5
782
100
AcDbEntity
  8
0
100
AcDbLine
 62
7
  6
CONTINUOUS
 10
490.4510492958
 20
386.5513393585
 11
490.4510492958
 21
375.9368079358
  0
LINE
  5
783
100
AcDbEntity
  8
0
100
AcDbLine
 62
7
  6
CONTINUOUS
 10
493.2087772238
 20
380.8766883302
 11
493.2087772238
 21
391.4912197529
  0
LINE
  5
784
100
AcDbEntity
  8
0
100
AcDbLine
 62
7
  6
CONTINUOUS
 10
493.2087772238
 20
394.3489782128
 11
493.2087772238
 21
404.9635096355
  0
LINE
  5
785
100
AcDbEntity
  8
0
100
AcDbLine
 62
7
  6
CONTINUOUS
 10
493.4914444759
 20
428.0700069598
 11
493.4914444759
 21
430.3153886069
  0
LINE
  5
786
100
AcDbEntity
  8
0
100
AcDbLine
 62
7
  6
CONTINUOUS
 10
496.5320957811
 20
417.5374070992
 11
496.5320957811
 21
419.3745375377
  0
LINE
  5
787
100
AcDbEntity
  8
0
100
AcDbLine
 62
7
  6
CONTINUOUS
 10
496.7443258496
 20
402.9223058629
 11
496.7443258496
 21
392.3077744402
  0
LINE
  5
788
100
AcDbEntity
  8
0
100
AcDbLine
 62
7
  6
CONTINUOUS
 10
496.7443258496
 20
389.4500159803
 11
496.7443258496
 21
378.8354845576
  0
LINE
  5
789
100
AcDbEntity
  8
0
100
AcDbLine
 62
7
  6
CONTINUOUS
 10
497.3806203858
 20
419.8644305223
 11
497.3806203858
 21
418.0273000838
  0
LINE
  5
78A
100
AcDbEntity
  8
0
100
AcDbLine
 62
7
  6
CONTINUOUS
 10
497.4514355747
 20
401.2893114827
 11
497.4514355747
 21
403.5346931298
  0
LINE
  5
78B
100
AcDbEntity
  8
0
100
AcDbLine
 62
7
  6
CONTINUOUS
 10
498.441292039
 20
418.2722875005
 11
498.441292039
 21
416.435157062
  0
LINE
  5
78C
100
AcDbEntity
  8
0
100
AcDbLine
 62
7
  6
CONTINUOUS
 10
499.3606318326
 20
402.4324430926
 11
499.3606318326
 21
400.1870614455
  0
LINE
  5
78D
100
AcDbEntity
  8
0
100
AcDbLine
 62
7
  6
CONTINUOUS
 10
499.5020537776
 20
370.7113262779
 11
499.5020537776
 21
381.3258577006
  0
LINE
  5
78E
100
AcDbEntity
  8
0
100
AcDbLine
 62
7
  6
CONTINUOUS
 10
499.5020537776
 20
384.1836161606
 11
499.5020537776
 21
394.7981475833
  0
LINE
  5
78F
100
AcDbEntity
  8
0
100
AcDbLine
 62
7
  6
CONTINUOUS
 10
502.5425832026
 20
407.4538539382
 11
502.5425832026
 21
406.4740510377
  0
LINE
  5
790
100
AcDbEntity
  8
0
100
AcDbLine
 62
7
  6
CONTINUOUS
 10
503.0376024034
 20
392.7569438107
 11
503.0376024034
 21
382.142412388
  0
LINE
  5
791
100
AcDbEntity
  8
0
100
AcDbLine
 62
7
  6
CONTINUOUS
 10
503.0376024034
 20
379.284653928
 11
503.0376024034
 21
368.6701225053
  0
LINE
  5
792
100
AcDbEntity
  8
0
100
AcDbLine
 62
7
  6
CONTINUOUS
 10
502.5425832026
 20
407.4538539382
 11
499.5727470864
 21
404.7594255914
  0
LINE
  5
793
100
AcDbEntity
  8
0
100
AcDbLine
 62
7
  6
CONTINUOUS
 10
501.4819433442
 20
403.6571755542
 11
504.4517794605
 21
406.351603901
  0
LINE
  5
794
100
AcDbEntity
  8
0
100
AcDbLine
 62
7
  6
CONTINUOUS
 10
515.1291363103
 20
400.1871685078
 11
512.159300194
 21
397.492740161
  0
LINE
  5
795
100
AcDbEntity
  8
0
100
AcDbLine
 62
7
  6
CONTINUOUS
 10
533.1603000566
 20
407.4130822783
 11
526.0539472338
 21
403.3102520536
  0
LINE
  5
796
100
AcDbEntity
  8
0
100
AcDbLine
 62
7
  6
CONTINUOUS
 10
523.6143982543
 20
401.901786201
 11
517.8868789014
 21
398.5950210996
  0
LINE
  5
797
100
AcDbEntity
  8
0
100
AcDbLine
 62
7
  6
CONTINUOUS
 10
514.0684964519
 20
396.3904901238
 11
511.9471849402
 21
395.1657576621
  0
LINE
  5
798
100
AcDbEntity
  8
0
100
AcDbLine
 62
7
  6
CONTINUOUS
 10
510.0379886823
 20
394.0226260522
 11
511.964879179
 21
395.1351101586
  0
LINE
  5
799
100
AcDbEntity
  8
0
100
AcDbLine
 62
7
  6
CONTINUOUS
 10
486.91550067
 20
377.9780117084
 11
490.4510492958
 21
380.0192581677
  0
LINE
  5
79A
100
AcDbEntity
  8
0
100
AcDbLine
 62
7
  6
CONTINUOUS
 10
493.2087772238
 20
380.8766883302
 11
496.7443258496
 21
382.9179347895
  0
LINE
  5
79B
100
AcDbEntity
  8
0
100
AcDbLine
 62
7
  6
CONTINUOUS
 10
499.5020537776
 20
384.1836161606
 11
503.0376024034
 21
386.2248626199
  0
LINE
  5
79C
100
AcDbEntity
  8
0
100
AcDbLine
 62
7
  6
CONTINUOUS
 10
505.7953303314
 20
387.0822927824
 11
509.3308789572
 21
389.1235392417
  0
LINE
  5
79D
100
AcDbEntity
  8
0
100
AcDbLine
 62
7
  6
CONTINUOUS
 10
534.291755104
 20
397.5744812463
 11
535.1402797086
 21
398.064374231
  0
LINE
  5
79E
100
AcDbEntity
  8
0
100
AcDbLine
 62
7
  6
CONTINUOUS
 10
522.6245417899
 20
389.0013222689
 11
524.7458533016
 21
390.2260547305
  0
LINE
  5
79F
100
AcDbEntity
  8
0
100
AcDbLine
 62
7
  6
CONTINUOUS
 10
527.7156894179
 20
391.9406801768
 11
534.291755104
 21
395.7373508078
  0
LINE
  5
7A0
100
AcDbEntity
  8
0
100
AcDbLine
 62
7
  6
CONTINUOUS
 10
535.1402797086
 20
396.2272437924
 11
543.8376569064
 21
401.248646885
  0
LINE
  5
7A1
100
AcDbEntity
  8
0
100
AcDbLine
 62
7
  6
CONTINUOUS
 10
536.2009513619
 20
396.4722312091
 11
537.0494759665
 21
396.9621241938
  0
LINE
  5
7A2
100
AcDbEntity
  8
0
100
AcDbLine
 62
7
  6
CONTINUOUS
 10
545.7468531643
 20
400.1463968478
 11
538.6405003414
 21
396.0435666232
  0
LINE
  5
7A3
100
AcDbEntity
  8
0
100
AcDbLine
 62
7
  6
CONTINUOUS
 10
536.2009513619
 20
394.6351007706
 11
530.473432009
 21
391.3283356691
  0
LINE
  5
7A4
100
AcDbEntity
  8
0
100
AcDbLine
 62
7
  6
CONTINUOUS
 10
526.6550495595
 20
389.1238046933
 11
524.5337380478
 21
387.8990722317
  0
LINE
  5
7A5
100
AcDbEntity
  8
0
100
AcDbLine
 62
7
  6
CONTINUOUS
 10
522.6245417899
 20
386.7559406218
 11
524.5514322867
 21
387.8684247281
  0
LINE
  5
7A6
100
AcDbEntity
  8
0
100
AcDbLine
 62
7
  6
CONTINUOUS
 10
499.5020537776
 20
370.7113262779
 11
503.0376024034
 21
372.7525727372
  0
LINE
  5
7A7
100
AcDbEntity
  8
0
100
AcDbLine
 62
7
  6
CONTINUOUS
 10
505.7953303314
 20
373.6100028997
 11
509.3308789572
 21
375.651249359
  0
LINE
  5
7A8
100
AcDbEntity
  8
0
100
AcDbLine
 62
7
  6
CONTINUOUS
 10
512.0886068853
 20
376.9169307301
 11
515.624155511
 21
378.9581771894
  0
LINE
  5
7A9
100
AcDbEntity
  8
0
100
AcDbLine
 62
7
  6
CONTINUOUS
 10
518.3818834391
 20
379.8156073519
 11
521.9174320648
 21
381.8568538112
  0
LINE
  5
7AA
100
AcDbEntity
  8
0
100
AcDbLine
 62
7
  6
CONTINUOUS
 10
505.7953303314
 20
373.6100028997
 11
505.7953303314
 21
384.2245343224
  0
LINE
  5
7AB
100
AcDbEntity
  8
0
100
AcDbLine
 62
7
  6
CONTINUOUS
 10
505.7953303314
 20
387.0822927824
 11
505.7953303314
 21
397.6968242051
  0
LINE
  5
7AC
100
AcDbEntity
  8
0
100
AcDbLine
 62
7
  6
CONTINUOUS
 10
506.0779975835
 20
420.8033215293
 11
506.0779975835
 21
423.0487031764
  0
LINE
  5
7AD
100
AcDbEntity
  8
0
100
AcDbLine
 62
7
  6
CONTINUOUS
 10
509.1186488887
 20
410.2707216687
 11
509.1186488887
 21
412.1078521072
  0
LINE
  5
7AE
100
AcDbEntity
  8
0
100
AcDbLine
 62
7
  6
CONTINUOUS
 10
509.3308789572
 20
395.6556204325
 11
509.3308789572
 21
385.0410890098
  0
LINE
  5
7AF
100
AcDbEntity
  8
0
100
AcDbLine
 62
7
  6
CONTINUOUS
 10
509.3308789572
 20
382.1833305498
 11
509.3308789572
 21
371.5687991271
  0
LINE
  5
7B0
100
AcDbEntity
  8
0
100
AcDbLine
 62
7
  6
CONTINUOUS
 10
509.9671734934
 20
412.5977450919
 11
509.9671734934
 21
410.7606146533
  0
LINE
  5
7B1
100
AcDbEntity
  8
0
100
AcDbLine
 62
7
  6
CONTINUOUS
 10
510.0379886823
 20
394.0226260522
 11
510.0379886823
 21
396.2680076994
  0
LINE
  5
7B2
100
AcDbEntity
  8
0
100
AcDbLine
 62
7
  6
CONTINUOUS
 10
511.0278451466
 20
411.00560207
 11
511.0278451466
 21
409.1684716315
  0
LINE
  5
7B3
100
AcDbEntity
  8
0
100
AcDbLine
 62
7
  6
CONTINUOUS
 10
511.9471849402
 20
395.1657576621
 11
511.9471849402
 21
392.920376015
  0
LINE
  5
7B4
100
AcDbEntity
  8
0
100
AcDbLine
 62
7
  6
CONTINUOUS
 10
512.0886068853
 20
363.4446408475
 11
512.0886068853
 21
374.0591722702
  0
LINE
  5
7B5
100
AcDbEntity
  8
0
100
AcDbLine
 62
7
  6
CONTINUOUS
 10
512.0886068853
 20
376.9169307301
 11
512.0886068853
 21
387.5314621528
  0
LINE
  5
7B6
100
AcDbEntity
  8
0
100
AcDbLine
 62
7
  6
CONTINUOUS
 10
515.1291363103
 20
400.1871685078
 11
515.1291363103
 21
399.2073656072
  0
LINE
  5
7B7
100
AcDbEntity
  8
0
100
AcDbLine
 62
7
  6
CONTINUOUS
 10
515.624155511
 20
385.4902583802
 11
515.624155511
 21
374.8757269575
  0
LINE
  5
7B8
100
AcDbEntity
  8
0
100
AcDbLine
 62
7
  6
CONTINUOUS
 10
515.624155511
 20
372.0179684976
 11
515.624155511
 21
361.4034370749
  0
LINE
  5
7B9
100
AcDbEntity
  8
0
100
AcDbLine
 62
7
  6
CONTINUOUS
 10
518.3818834391
 20
366.3433174693
 11
518.3818834391
 21
376.957848892
  0
LINE
  5
7BA
100
AcDbEntity
  8
0
100
AcDbLine
 62
7
  6
CONTINUOUS
 10
518.3818834391
 20
379.8156073519
 11
518.3818834391
 21
390.4301387746
  0
LINE
  5
7BB
100
AcDbEntity
  8
0
100
AcDbLine
 62
7
  6
CONTINUOUS
 10
518.6645506911
 20
413.5366360989
 11
518.6645506911
 21
415.782017746
  0
LINE
  5
7BC
100
AcDbEntity
  8
0
100
AcDbLine
 62
7
  6
CONTINUOUS
 10
521.7052019964
 20
403.0040362382
 11
521.7052019964
 21
404.8411666768
  0
LINE
  5
7BD
100
AcDbEntity
  8
0
100
AcDbLine
 62
7
  6
CONTINUOUS
 10
521.9174320648
 20
388.388935002
 11
521.9174320648
 21
377.7744035793
  0
LINE
  5
7BE
100
AcDbEntity
  8
0
100
AcDbLine
 62
7
  6
CONTINUOUS
 10
521.9174320648
 20
374.9166451194
 11
521.9174320648
 21
364.3021136967
  0
LINE
  5
7BF
100
AcDbEntity
  8
0
100
AcDbLine
 62
7
  6
CONTINUOUS
 10
522.553726601
 20
405.3310596614
 11
522.553726601
 21
403.4939292229
  0
LINE
  5
7C0
100
AcDbEntity
  8
0
100
AcDbLine
 62
7
  6
CONTINUOUS
 10
522.6245417899
 20
386.7559406218
 11
522.6245417899
 21
389.0013222689
  0
LINE
  5
7C1
100
AcDbEntity
  8
0
100
AcDbLine
 62
7
  6
CONTINUOUS
 10
523.6143982543
 20
403.7389166396
 11
523.6143982543
 21
401.901786201
  0
LINE
  5
7C2
100
AcDbEntity
  8
0
100
AcDbLine
 62
7
  6
CONTINUOUS
 10
524.5337380478
 20
387.8990722317
 11
524.5337380478
 21
385.6536905846
  0
LINE
  5
7C3
100
AcDbEntity
  8
0
100
AcDbLine
 62
7
  6
CONTINUOUS
 10
524.6751599929
 20
369.6502452997
 11
524.6751599929
 21
380.2647767223
  0
LINE
  5
7C4
100
AcDbEntity
  8
0
100
AcDbLine
 62
7
  6
CONTINUOUS
 10
524.6752983593
 20
336.378183257
 11
524.6752983593
 21
368.221777525
  0
LINE
  5
7C5
100
AcDbEntity
  8
0
100
AcDbLine
 62
7
  6
CONTINUOUS
 10
514.0684964519
 20
396.3904901238
 11
517.0383325682
 21
399.0849184706
  0
LINE
  5
7C6
100
AcDbEntity
  8
0
100
AcDbLine
 62
7
  6
CONTINUOUS
 10
527.7156894179
 20
392.9204830773
 11
524.7458533016
 21
390.2260547305
  0
LINE
  5
7C7
100
AcDbEntity
  8
0
100
AcDbLine
 62
7
  6
CONTINUOUS
 10
526.6550495595
 20
389.1238046933
 11
529.6248856758
 21
391.8182330401
  0
LINE
  5
7C8
100
AcDbEntity
  8
0
100
AcDbLine
 62
7
  6
CONTINUOUS
 10
552.959522503
 20
377.6114832391
 11
536.1658107852
 21
367.3033209034
  0
LINE
  5
7C9
100
AcDbEntity
  8
0
100
AcDbLine
 62
7
  6
CONTINUOUS
 10
546.8783082116
 20
390.3077958159
 11
547.7268328162
 21
390.7976888005
  0
LINE
  5
7CA
100
AcDbEntity
  8
0
100
AcDbLine
 62
7
  6
CONTINUOUS
 10
535.2110948976
 20
381.7346368384
 11
537.3324064092
 21
382.9593693
  0
LINE
  5
7CB
100
AcDbEntity
  8
0
100
AcDbLine
 62
7
  6
CONTINUOUS
 10
540.3022425255
 20
384.6739947463
 11
546.8783082116
 21
388.4706653773
  0
LINE
  5
7CC
100
AcDbEntity
  8
0
100
AcDbLine
 62
7
  6
CONTINUOUS
 10
547.7268328162
 20
388.960558362
 11
556.424210014
 21
393.9819614546
  0
LINE
  5
7CD
100
AcDbEntity
  8
0
100
AcDbLine
 62
7
  6
CONTINUOUS
 10
548.7875044695
 20
389.2055457786
 11
549.6360290741
 21
389.6954387633
  0
LINE
  5
7CE
100
AcDbEntity
  8
0
100
AcDbLine
 62
7
  6
CONTINUOUS
 10
558.3334062719
 20
392.8797114174
 11
551.227053449
 21
388.7768811927
  0
LINE
  5
7CF
100
AcDbEntity
  8
0
100
AcDbLine
 62
7
  6
CONTINUOUS
 10
548.7875044695
 20
387.3684153401
 11
543.0599851167
 21
384.0616502387
  0
LINE
  5
7D0
100
AcDbEntity
  8
0
100
AcDbLine
 62
7
  6
CONTINUOUS
 10
539.2416026671
 20
381.8571192628
 11
537.1202911555
 21
380.6323868012
  0
LINE
  5
7D1
100
AcDbEntity
  8
0
100
AcDbLine
 62
7
  6
CONTINUOUS
 10
535.2110948976
 20
379.4892551913
 11
537.1379853943
 21
380.6017392977
  0
LINE
  5
7D2
100
AcDbEntity
  8
0
100
AcDbLine
 62
7
  6
CONTINUOUS
 10
527.1501617895
 20
372.5083905235
 11
552.2523480106
 21
387.001057986
  0
LINE
  5
7D3
100
AcDbEntity
  8
0
100
AcDbLine
 62
7
  6
CONTINUOUS
 10
512.0886068853
 20
363.4446408475
 11
515.624155511
 21
365.4858873068
  0
LINE
  5
7D4
100
AcDbEntity
  8
0
100
AcDbLine
 62
7
  6
CONTINUOUS
 10
518.3818834391
 20
366.3433174693
 11
521.9174320648
 21
368.3845639286
  0
LINE
  5
7D5
100
AcDbEntity
  8
0
100
AcDbLine
 62
7
  6
CONTINUOUS
 10
524.6751599929
 20
369.6502452997
 11
525.9124455643
 21
370.3645912355
  0
LINE
  5
7D6
100
AcDbEntity
  8
0
100
AcDbLine
 62
7
  6
CONTINUOUS
 10
530.8624878466
 20
367.9156193109
 11
528.7411763349
 21
366.6908868493
  0
LINE
  5
7D7
100
AcDbEntity
  8
0
100
AcDbLine
 62
7
  6
CONTINUOUS
 10
539.8781368422
 20
365.1600569422
 11
564.9803230633
 21
379.6527244046
  0
LINE
  5
7D8
100
AcDbEntity
  8
0
100
AcDbLine
 62
7
  6
CONTINUOUS
 10
564.9803230633
 20
378.4279707789
 11
561.4448038772
 21
376.3867500095
  0
LINE
  5
7D9
100
AcDbEntity
  8
0
100
AcDbLine
 62
7
  6
CONTINUOUS
 10
559.1113612144
 20
374.7945935766
 11
556.2095362273
 21
373.1192341397
  0
LINE
  5
7DA
100
AcDbEntity
  8
0
100
AcDbLine
 62
7
  6
CONTINUOUS
 10
539.8781368422
 20
363.5270521079
 11
552.606005912
 21
370.8754468776
  0
LINE
  5
7DB
100
AcDbEntity
  8
0
100
AcDbLine
 62
7
  6
CONTINUOUS
 10
530.8624878466
 20
370.3651265623
 11
548.7168641522
 21
380.0609277662
  0
LINE
  5
7DC
100
AcDbEntity
  8
0
100
AcDbLine
 62
7
  6
CONTINUOUS
 10
547.6938321921
 20
378.0356669322
 11
548.7168641522
 21
378.5912234154
  0
LINE
  5
7DD
100
AcDbEntity
  8
0
100
AcDbLine
 62
7
  6
CONTINUOUS
 10
543.9799888058
 20
375.8555675105
 11
530.8624878466
 21
368.732121728
  0
LINE
  5
7DE
100
AcDbEntity
  8
0
100
AcDbLine
 62
7
  6
CONTINUOUS
 10
530.8624878466
 20
368.0789197943
 11
543.9799888058
 21
375.2023655768
  0
LINE
  5
7DF
100
AcDbEntity
  8
0
100
AcDbLine
 62
7
  6
CONTINUOUS
 10
548.7168641522
 20
377.6114205149
 11
547.6237390722
 21
377.017800033
  0
LINE
  5
7E0
100
AcDbEntity
  8
0
100
AcDbLine
 62
7
  6
CONTINUOUS
 10
545.145988891
 20
375.6722602741
 11
530.8624878466
 21
367.9156193109
  0
LINE
  5
7E1
100
AcDbEntity
  8
0
100
AcDbLine
 62
7
  6
CONTINUOUS
 10
548.5932843375
 20
327.4347654867
 11
548.670684334
 21
327.0113033994
  0
LINE
  5
7E2
100
AcDbEntity
  8
0
100
AcDbLine
 62
7
  6
CONTINUOUS
 10
527.7156894179
 20
392.9204830773
 11
527.7156894179
 21
391.9406801768
  0
LINE
  5
7E3
100
AcDbEntity
  8
0
100
AcDbLine
 62
7
  6
CONTINUOUS
 10
528.2107086186
 20
378.2235729497
 11
528.2107086186
 21
373.1206938658
  0
LINE
  5
7E4
100
AcDbEntity
  8
0
100
AcDbLine
 62
7
  6
CONTINUOUS
 10
530.8624878466
 20
370.3651265623
 11
530.8624878466
 21
367.9156193109
  0
LINE
  5
7E5
100
AcDbEntity
  8
0
100
AcDbLine
 62
7
  6
CONTINUOUS
 10
530.9684365467
 20
374.7128593235
 11
530.9684365467
 21
383.1634533441
  0
LINE
  5
7E6
100
AcDbEntity
  8
0
100
AcDbLine
 62
7
  6
CONTINUOUS
 10
531.2511037987
 20
406.2699506684
 11
531.2511037987
 21
408.5153323155
  0
LINE
  5
7E7
100
AcDbEntity
  8
0
100
AcDbLine
 62
7
  6
CONTINUOUS
 10
534.291755104
 20
395.7373508078
 11
534.291755104
 21
397.5744812463
  0
LINE
  5
7E8
100
AcDbEntity
  8
0
100
AcDbLine
 62
7
  6
CONTINUOUS
 10
534.5039851724
 20
381.1222495715
 11
534.5039851724
 21
376.7540970897
  0
LINE
  5
7E9
100
AcDbEntity
  8
0
100
AcDbLine
 62
7
  6
CONTINUOUS
 10
535.1402797086
 20
398.064374231
 11
535.1402797086
 21
396.2272437924
  0
LINE
  5
7EA
100
AcDbEntity
  8
0
100
AcDbLine
 62
7
  6
CONTINUOUS
 10
535.2110948976
 20
379.4892551913
 11
535.2110948976
 21
381.7346368384
  0
LINE
  5
7EB
100
AcDbEntity
  8
0
100
AcDbLine
 62
7
  6
CONTINUOUS
 10
536.2009513619
 20
396.4722312091
 11
536.2009513619
 21
394.6351007706
  0
LINE
  5
7EC
100
AcDbEntity
  8
0
100
AcDbLine
 62
7
  6
CONTINUOUS
 10
537.1202911555
 20
380.6323868012
 11
537.1202911555
 21
378.3870051541
  0
LINE
  5
7ED
100
AcDbEntity
  8
0
100
AcDbLine
 62
7
  6
CONTINUOUS
 10
537.4032734119
 20
329.0298496756
 11
537.4032734119
 21
330.0794701388
  0
LINE
  5
7EE
100
AcDbEntity
  8
0
100
AcDbLine
 62
7
  6
CONTINUOUS
 10
537.4032734119
 20
334.1663775907
 11
537.4032734119
 21
343.5144837303
  0
LINE
  5
7EF
100
AcDbEntity
  8
0
100
AcDbLine
 62
7
  6
CONTINUOUS
 10
537.4032734119
 20
347.6472715317
 11
537.4032734119
 21
360.8734439436
  0
LINE
  5
7F0
100
AcDbEntity
  8
0
100
AcDbLine
 62
7
  6
CONTINUOUS
 10
539.8781368422
 20
329.2339505884
 11
539.8781368422
 21
329.4373767385
  0
LINE
  5
7F1
100
AcDbEntity
  8
0
100
AcDbLine
 62
7
  6
CONTINUOUS
 10
539.8781368422
 20
362.8738501742
 11
539.8781368422
 21
363.5270521079
  0
LINE
  5
7F2
100
AcDbEntity
  8
0
100
AcDbLine
 62
7
  6
CONTINUOUS
 10
540.3022425255
 20
385.6537976469
 11
540.3022425255
 21
384.6739947463
  0
LINE
  5
7F3
100
AcDbEntity
  8
0
100
AcDbLine
 62
7
  6
CONTINUOUS
 10
543.8376569064
 20
399.0032652379
 11
543.8376569064
 21
401.248646885
  0
LINE
  5
7F4
100
AcDbEntity
  8
0
100
AcDbLine
 62
7
  6
CONTINUOUS
 10
543.9799888058
 20
375.2023655768
 11
543.9799888058
 21
375.8555675105
  0
LWPOLYLINE
  5
7F5
100
AcDbEntity
  8
0
100
AcDbPolyline
 62
7
  6
CONTINUOUS
 90
6
 70
0
 10
529.7658224905
 20
336.3122362982
 10
529.6098071963
 20
334.0650755298
 10
531.4790664337
 20
332.0883470511
 10
534.9123536103
 20
330.7257293002
 10
540.0705699332
 20
329.3874507442
 10
547.7824989237
 20
327.6366809934
  0
LINE
  5
7F6
100
AcDbEntity
  8
0
100
AcDbLine
 62
7
  6
CONTINUOUS
 10
545.145988891
 20
375.6722602741
 11
547.6938321921
 21
378.0356669322
  0
LINE
  5
7F7
100
AcDbEntity
  8
0
100
AcDbLine
 62
7
  6
CONTINUOUS
 10
540.3022425255
 20
385.6537976469
 11
537.3324064092
 21
382.9593693
  0
LINE
  5
7F8
100
AcDbEntity
  8
0
100
AcDbLine
 62
7
  6
CONTINUOUS
 10
539.2416026671
 20
381.8571192628
 11
542.2114387834
 21
384.5515476097
  0
LINE
  5
7F9
100
AcDbEntity
  8
0
100
AcDbLine
 62
7
  6
CONTINUOUS
 10
548.7168641522
 20
377.9613501222
 11
547.6237390722
 21
377.017800033
  0
LWPOLYLINE
  5
7FA
100
AcDbEntity
  8
0
100
AcDbPolyline
 62
7
  6
CONTINUOUS
 90
3
 70
0
 10
534.0942196541
 20
353.1271111794
 10
530.782417205
 20
350.9984755597
 10
529.747175054
 20
349.7478465162
  0
LWPOLYLINE
  5
7FB
100
AcDbEntity
  8
0
100
AcDbPolyline
 62
7
  6
CONTINUOUS
 90
3
 70
0
 10
534.3573013742
 20
348.6204695687
 10
535.7229809713
 20
349.4272733814
 10
535.7526165203
 20
349.4444507511
  0
LINE
  5
7FC
100
AcDbEntity
  8
0
100
AcDbLine
 62
7
  6
CONTINUOUS
 10
552.606005912
 20
370.2222449439
 11
539.8781368422
 21
362.8738501742
  0
LINE
  5
7FD
100
AcDbEntity
  8
0
100
AcDbLine
 62
7
  6
CONTINUOUS
 10
568.6572806806
 20
378.7137624667
 11
567.8087560759
 21
378.2238694821
  0
LINE
  5
7FE
100
AcDbEntity
  8
0
100
AcDbLine
 62
7
  6
CONTINUOUS
 10
577.3546578783
 20
381.8980351208
 11
568.6572806806
 21
376.8766320282
  0
LINE
  5
7FF
100
AcDbEntity
  8
0
100
AcDbLine
 62
7
  6
CONTINUOUS
 10
567.8087560759
 20
376.3867390435
 11
561.2326903898
 21
372.5900684125
  0
LINE
  5
800
100
AcDbEntity
  8
0
100
AcDbLine
 62
7
  6
CONTINUOUS
 10
558.2628542736
 20
370.8754429662
 11
556.1415427619
 21
369.6507105046
  0
LINE
  5
801
100
AcDbEntity
  8
0
100
AcDbLine
 62
7
  6
CONTINUOUS
 10
575.2333463667
 20
379.6934997586
 11
577.3546578783
 21
380.9182322202
  0
LINE
  5
802
100
AcDbEntity
  8
0
100
AcDbLine
 62
7
  6
CONTINUOUS
 10
557.0607777503
 20
366.098915819
 11
575.2333463667
 21
376.5907905735
  0
LINE
  5
803
100
AcDbEntity
  8
0
100
AcDbLine
 62
7
  6
CONTINUOUS
 10
577.3546578783
 20
372.9165085323
 11
557.0607777503
 21
361.1999013162
  0
LINE
  5
804
100
AcDbEntity
  8
0
100
AcDbLine
 62
7
  6
CONTINUOUS
 10
557.0607777503
 20
359.566896482
 11
577.3546578783
 21
371.2835036981
  0
LINE
  5
805
100
AcDbEntity
  8
0
100
AcDbLine
 62
7
  6
CONTINUOUS
 10
577.3546578783
 20
366.3844891953
 11
557.0607777503
 21
354.6678819792
  0
LINE
  5
806
100
AcDbEntity
  8
0
100
AcDbLine
 62
7
  6
CONTINUOUS
 10
557.0607777503
 20
353.0348771449
 11
577.3546578783
 21
364.7514843611
  0
LINE
  5
807
100
AcDbEntity
  8
0
100
AcDbLine
 62
7
  6
CONTINUOUS
 10
534.9781083479
 20
335.5309289631
 11
535.4715876492
 21
335.8119454955
  0
LWPOLYLINE
  5
808
100
AcDbEntity
  8
0
100
AcDbPolyline
 62
7
  6
CONTINUOUS
 90
3
 70
0
 10
557.3795557629
 20
342.826542188
 10
559.3217657816
 20
343.6751000095
 10
562.4544210469
 20
343.0890441254
  0
LWPOLYLINE
  5
809
100
AcDbEntity
  8
0
100
AcDbPolyline
 62
7
  6
CONTINUOUS
 90
3
 70
0
 10
590.8837802331
 20
318.3182658874
 10
589.0330675077
 20
324.671598709
 10
583.7583807064
 20
331.2965704477
  0
LWPOLYLINE
  5
80A
100
AcDbEntity
  8
0
100
AcDbPolyline
 62
7
  6
CONTINUOUS
 90
3
 70
0
 10
551.7284806717
 20
331.4233888199
 10
551.2774184153
 20
335.1935319406
 10
552.8643442275
 20
339.817602459
  0
LINE
  5
80B
100
AcDbEntity
  8
0
100
AcDbLine
 62
7
  6
CONTINUOUS
 10
546.8783082116
 20
388.4706653773
 11
546.8783082116
 21
390.3077958159
  0
LINE
  5
80C
100
AcDbEntity
  8
0
100
AcDbLine
 62
7
  6
CONTINUOUS
 10
547.7268328162
 20
390.7976888005
 11
547.7268328162
 21
388.960558362
  0
LINE
  5
80D
100
AcDbEntity
  8
0
100
AcDbLine
 62
7
  6
CONTINUOUS
 10
548.7168641522
 20
380.0609277662
 11
548.7168641522
 21
378.5912234154
  0
LINE
  5
80E
100
AcDbEntity
  8
0
100
AcDbLine
 62
7
  6
CONTINUOUS
 10
548.7168641522
 20
377.9613501222
 11
548.7168641522
 21
377.6114205149
  0
LINE
  5
80F
100
AcDbEntity
  8
0
100
AcDbLine
 62
7
  6
CONTINUOUS
 10
548.7875044695
 20
389.2055457786
 11
548.7875044695
 21
387.3684153401
  0
LINE
  5
810
100
AcDbEntity
  8
0
100
AcDbLine
 62
7
  6
CONTINUOUS
 10
552.606005912
 20
370.8754468776
 11
552.606005912
 21
370.2222449439
  0
LINE
  5
811
100
AcDbEntity
  8
0
100
AcDbLine
 62
7
  6
CONTINUOUS
 10
552.606005912
 20
337.2355472918
 11
552.606005912
 21
336.5823453581
  0
LINE
  5
812
100
AcDbEntity
  8
0
100
AcDbLine
 62
7
  6
CONTINUOUS
 10
553.7373720516
 20
370.7121351066
 11
553.7373720516
 21
345.7154184266
  0
LINE
  5
813
100
AcDbEntity
  8
0
100
AcDbLine
 62
7
  6
CONTINUOUS
 10
553.7373720516
 20
339.6050565057
 11
553.7373720516
 21
338.0520384215
  0
LINE
  5
814
100
AcDbEntity
  8
0
100
AcDbLine
 62
7
  6
CONTINUOUS
 10
556.1415427619
 20
369.6507105046
 11
556.1415427619
 21
347.1431688354
  0
LINE
  5
815
100
AcDbEntity
  8
0
100
AcDbLine
 62
7
  6
CONTINUOUS
 10
556.1415427619
 20
339.0197409621
 11
556.1415427619
 21
336.9906138194
  0
LINE
  5
816
100
AcDbEntity
  8
0
100
AcDbLine
 62
7
  6
CONTINUOUS
 10
556.424210014
 20
391.7365798075
 11
556.424210014
 21
393.9819614546
  0
LINE
  5
817
100
AcDbEntity
  8
0
100
AcDbLine
 62
7
  6
CONTINUOUS
 10
557.0607777503
 20
348.1358626422
 11
557.0607777503
 21
353.0348771449
  0
LINE
  5
818
100
AcDbEntity
  8
0
100
AcDbLine
 62
7
  6
CONTINUOUS
 10
557.0607777503
 20
354.6678819792
 11
557.0607777503
 21
359.566896482
  0
LINE
  5
819
100
AcDbEntity
  8
0
100
AcDbLine
 62
7
  6
CONTINUOUS
 10
557.0607777503
 20
361.1999013162
 11
557.0607777503
 21
366.098915819
  0
LINE
  5
81A
100
AcDbEntity
  8
0
100
AcDbLine
 62
7
  6
CONTINUOUS
 10
561.2326903898
 20
372.5900684125
 11
561.2326903898
 21
373.5698713131
  0
LINE
  5
81B
100
AcDbEntity
  8
0
100
AcDbLine
 62
7
  6
CONTINUOUS
 10
564.9803230633
 20
379.6527244046
 11
564.9803230633
 21
378.4279707789
  0
LWPOLYLINE
  5
81C
100
AcDbEntity
  8
0
100
AcDbPolyline
 62
7
  6
CONTINUOUS
 90
8
 70
0
 10
529.7529912244
 20
349.7595798816
 10
529.4565051563
 20
348.7890703113
 10
530.2481256093
 20
346.5098976479
 10
532.7749327703
 20
344.9427225048
 10
537.1003437514
 20
343.5853610881
 10
544.4927128439
 20
341.8557464036
 10
558.8495351621
 20
338.3604574772
 10
570.3510583147
 20
334.490714617
  0
LINE
  5
81D
100
AcDbEntity
  8
0
100
AcDbLine
 62
7
  6
CONTINUOUS
 10
526.4430726722
 20
361.0774075102
 11
526.9608720807
 21
362.2218386281
  0
LINE
  5
81E
100
AcDbEntity
  8
0
100
AcDbLine
 62
7
  6
CONTINUOUS
 10
529.9786212979
 20
359.0362037376
 11
529.4608218894
 21
357.8917726198
  0
LINE
  5
81F
100
AcDbEntity
  8
0
100
AcDbLine
 62
7
  6
CONTINUOUS
 10
526.4430726722
 20
347.6051176276
 11
526.9608720807
 21
348.7495487454
  0
LINE
  5
820
100
AcDbEntity
  8
0
100
AcDbLine
 62
7
  6
CONTINUOUS
 10
529.9786212979
 20
345.563913855
 11
529.4608218894
 21
344.4194827372
  0
LINE
  5
821
100
AcDbEntity
  8
0
100
AcDbLine
 62
7
  6
CONTINUOUS
 10
529.747175054
 20
349.7478465162
 11
529.7529912244
 21
349.7595798816
  0
LINE
  5
822
100
AcDbEntity
  8
0
100
AcDbLine
 62
7
  6
CONTINUOUS
 10
529.7468210866
 20
336.2748332893
 11
529.7658224905
 21
336.3122362982
  0
LINE
  5
823
100
AcDbEntity
  8
0
100
AcDbLine
 62
7
  6
CONTINUOUS
 10
524.6752983593
 20
368.221777525
 11
527.1501617895
 21
372.5083905235
  0
LINE
  5
824
100
AcDbEntity
  8
0
100
AcDbLine
 62
7
  6
CONTINUOUS
 10
530.8624878466
 20
370.3651265623
 11
528.7411763349
 21
366.6908868493
  0
LINE
  5
825
100
AcDbEntity
  8
0
100
AcDbLine
 62
7
  6
CONTINUOUS
 10
534.0444992735
 20
363.6290811904
 11
536.1658107852
 21
367.3033209034
  0
LINE
  5
826
100
AcDbEntity
  8
0
100
AcDbLine
 62
7
  6
CONTINUOUS
 10
539.8781368422
 20
365.1600569421
 11
537.4032734119
 21
360.8734439436
  0
LINE
  5
827
100
AcDbEntity
  8
0
100
AcDbLine
 62
7
  6
CONTINUOUS
 10
559.6947321502
 20
374.4577918293
 11
561.4448038772
 21
376.3867500095
  0
LINE
  5
828
100
AcDbEntity
  8
0
100
AcDbLine
 62
7
  6
CONTINUOUS
 10
553.7373720516
 20
370.7121351066
 11
556.2095362273
 21
373.1192341397
  0
LINE
  5
829
100
AcDbEntity
  8
0
100
AcDbLine
 62
7
  6
CONTINUOUS
 10
561.2326903898
 20
373.5698713131
 11
558.2628542736
 21
370.8754429662
  0
LWPOLYLINE
  5
82A
100
AcDbEntity
  8
0
100
AcDbPolyline
 62
7
  6
CONTINUOUS
 90
3
 70
0
 10
533.5053866276
 20
339.2742674336
 10
530.7997505429
 20
337.540880327
 10
529.7468210866
 20
336.2748332893
  0
LINE
  5
82B
100
AcDbEntity
  8
0
100
AcDbLine
 62
7
  6
CONTINUOUS
 10
534.3615171558
 20
335.1460114209
 11
534.9781083479
 21
335.5309289631
  0
LINE
  5
82C
100
AcDbEntity
  8
0
100
AcDbLine
 62
7
  6
CONTINUOUS
 10
577.3546578783
 20
359.8524698583
 11
557.0607777503
 21
348.1358626422
  0
LINE
  5
82D
100
AcDbEntity
  8
0
100
AcDbLine
 62
7
  6
CONTINUOUS
 10
558.019835774
 20
347.0565669109
 11
577.3546578783
 21
358.219465024
  0
LINE
  5
82E
100
AcDbEntity
  8
0
100
AcDbLine
 62
7
  6
CONTINUOUS
 10
575.2333463667
 20
352.0957180596
 11
565.1640737156
 21
346.2822554856
  0
LINE
  5
82F
100
AcDbEntity
  8
0
100
AcDbLine
 62
7
  6
CONTINUOUS
 10
560.3236705145
 20
343.487664076
 11
558.6081697792
 21
342.4972251768
  0
LINE
  5
830
100
AcDbEntity
  8
0
100
AcDbLine
 62
7
  6
CONTINUOUS
 10
544.3836242873
 20
332.4883813842
 11
547.3559309331
 21
334.2044331828
  0
LINE
  5
831
100
AcDbEntity
  8
0
100
AcDbLine
 62
7
  6
CONTINUOUS
 10
551.8230873773
 20
336.7835317632
 11
552.606005912
 21
337.2355472918
  0
LINE
  5
832
100
AcDbEntity
  8
0
100
AcDbLine
 62
7
  6
CONTINUOUS
 10
552.606005912
 20
336.5823453581
 11
551.5435239884
 21
335.9689247951
  0
LINE
  5
833
100
AcDbEntity
  8
0
100
AcDbLine
 62
7
  6
CONTINUOUS
 10
547.463926158
 20
333.6135819491
 11
545.1976429284
 21
332.3051505267
  0
LINE
  5
834
100
AcDbEntity
  8
0
100
AcDbLine
 62
7
  6
CONTINUOUS
 10
540.1232815427
 20
329.3754841024
 11
539.8781368422
 21
329.2339505884
  0
LINE
  5
835
100
AcDbEntity
  8
0
100
AcDbLine
 62
7
  6
CONTINUOUS
 10
577.3546578783
 20
350.2177413361
 11
575.2333463667
 21
348.9930088745
  0
LINE
  5
836
100
AcDbEntity
  8
0
100
AcDbLine
 62
7
  6
CONTINUOUS
 10
563.390641455
 20
341.1758579188
 11
564.6477744013
 21
341.9016596312
  0
LINE
  5
837
100
AcDbEntity
  8
0
100
AcDbLine
 62
7
  6
CONTINUOUS
 10
568.6572806806
 20
344.216535343
 11
577.3546578783
 21
349.2379384356
  0
LINE
  5
838
100
AcDbEntity
  8
0
100
AcDbLine
 62
7
  6
CONTINUOUS
 10
558.2628542736
 20
338.2153462811
 11
551.3905875921
 21
334.2476226183
  0
LINE
  5
839
100
AcDbEntity
  8
0
100
AcDbLine
 62
7
  6
CONTINUOUS
 10
547.7339142203
 20
332.1364538648
 11
547.2326895311
 21
331.847073383
  0
LINE
  5
83A
100
AcDbEntity
  8
0
100
AcDbLine
 62
7
  6
CONTINUOUS
 10
542.1534533235
 20
328.9145924958
 11
539.8781368422
 21
327.6009457542
  0
LINE
  5
83B
100
AcDbEntity
  8
0
100
AcDbLine
 62
7
  6
CONTINUOUS
 10
590.8875656856
 20
304.8143573224
 11
589.9764973585
 21
308.895956901
  0
LINE
  5
83C
100
AcDbEntity
  8
0
100
AcDbLine
 62
7
  6
CONTINUOUS
 10
586.6696452185
 20
305.8442435262
 11
586.7215202416
 21
305.5896474218
  0
LINE
  5
83D
100
AcDbEntity
  8
0
100
AcDbLine
 62
7
  6
CONTINUOUS
 10
586.9098363787
 20
304.4038061892
 11
586.7161847476
 21
305.621741816
  0
LINE
  5
83E
100
AcDbEntity
  8
0
100
AcDbLine
 62
7
  6
CONTINUOUS
 10
586.913603636
 20
317.8451928402
 11
586.9118590201
 21
317.8595606846
  0
LINE
  5
83F
100
AcDbEntity
  8
0
100
AcDbLine
 62
7
  6
CONTINUOUS
 10
586.9182103367
 20
304.3344800183
 11
586.9098363787
 21
304.4038061892
  0
LWPOLYLINE
  5
840
100
AcDbEntity
  8
0
100
AcDbPolyline
 62
7
  6
CONTINUOUS
 90
3
 70
0
 10
586.9118590201
 20
317.8595606846
 10
587.0065008635
 20
316.828500979
 10
586.8225563774
 20
312.879365096
  0
LINE
  5
841
100
AcDbEntity
  8
0
100
AcDbLine
 62
7
  6
CONTINUOUS
 10
567.8087560759
 20
378.2238694821
 11
567.8087560759
 21
376.3867390435
  0
LINE
  5
842
100
AcDbEntity
  8
0
100
AcDbLine
 62
7
  6
CONTINUOUS
 10
568.6572806806
 20
343.7994790923
 11
568.6572806806
 21
344.216535343
  0
LINE
  5
843
100
AcDbEntity
  8
0
100
AcDbLine
 62
7
  6
CONTINUOUS
 10
568.6572806806
 20
376.8766320282
 11
568.6572806806
 21
378.7137624667
  0
LINE
  5
844
100
AcDbEntity
  8
0
100
AcDbLine
 62
7
  6
CONTINUOUS
 10
575.2333463667
 20
348.9930088745
 11
575.2333463667
 21
352.0957180596
  0
LINE
  5
845
100
AcDbEntity
  8
0
100
AcDbLine
 62
7
  6
CONTINUOUS
 10
575.2333463667
 20
376.5907905735
 11
575.2333463667
 21
379.6934997586
  0
LINE
  5
846
100
AcDbEntity
  8
0
100
AcDbLine
 62
7
  6
CONTINUOUS
 10
577.3546578783
 20
381.8980351208
 11
577.3546578783
 21
380.9182322202
  0
LINE
  5
847
100
AcDbEntity
  8
0
100
AcDbLine
 62
7
  6
CONTINUOUS
 10
577.3546578783
 20
372.9165085323
 11
577.3546578783
 21
371.2835036981
  0
LINE
  5
848
100
AcDbEntity
  8
0
100
AcDbLine
 62
7
  6
CONTINUOUS
 10
577.3546578783
 20
366.3844891953
 11
577.3546578783
 21
364.7514843611
  0
LINE
  5
849
100
AcDbEntity
  8
0
100
AcDbLine
 62
7
  6
CONTINUOUS
 10
577.3546578783
 20
359.8524698583
 11
577.3546578783
 21
358.219465024
  0
LINE
  5
84A
100
AcDbEntity
  8
0
100
AcDbLine
 62
7
  6
CONTINUOUS
 10
577.3546578783
 20
350.2177413361
 11
577.3546578783
 21
349.2379384356
  0
LWPOLYLINE
  5
84B
100
AcDbEntity
  8
0
100
AcDbPolyline
 62
7
  6
CONTINUOUS
 90
9
 70
0
 10
548.6161252673
 20
327.3098007807
 10
547.29916345
 20
320.8264433239
 10
549.7286761838
 20
310.6635313162
 10
556.6534671028
 20
298.549437527
 10
566.8536408293
 20
288.0812199958
 10
571.5729803452
 20
285.3255055147
 10
579.4443828485
 20
284.3421954342
 10
586.7064747014
 20
289.1533247799
 10
590.8700962596
 20
299.5031381799
  0
LWPOLYLINE
  5
84C
100
AcDbEntity
  8
0
100
AcDbPolyline
 62
7
  6
CONTINUOUS
 90
3
 70
0
 10
548.9158433193
 20
340.7788981549
 10
547.2950682319
 20
334.5374182948
 10
547.8105828857
 20
331.7169929529
  0
LINE
  5
84D
100
AcDbEntity
  8
0
100
AcDbLine
 62
7
  6
CONTINUOUS
 10
551.7573250018
 20
324.6832039247
 11
551.7549175141
 21
324.675443496
  0
LINE
  5
84E
100
AcDbEntity
  8
0
100
AcDbLine
 62
7
  6
CONTINUOUS
 10
556.2830244361
 20
329.5385497571
 11
556.6827065852
 21
329.8472265912
  0
LINE
  5
84F
100
AcDbEntity
  8
0
100
AcDbLine
 62
7
  6
CONTINUOUS
 10
553.7040785659
 20
332.9180074777
 11
551.1018927606
 21
330.9493500566
  0
LINE
  5
850
100
AcDbEntity
  8
0
100
AcDbLine
 62
7
  6
CONTINUOUS
 10
590.8837802331
 20
318.3182658874
 11
590.8829958859
 21
318.3247667224
  0
LINE
  5
851
100
AcDbEntity
  8
0
100
AcDbLine
 62
7
  6
CONTINUOUS
 10
590.8875656856
 20
304.8143573224
 11
590.8809795897
 21
304.8691103593
  0
LINE
  5
852
100
AcDbEntity
  8
0
100
AcDbLine
 62
7
  6
CONTINUOUS
 10
590.8700962596
 20
299.5031381799
 11
590.8809795897
 21
304.8691103593
  0
LWPOLYLINE
  5
853
100
AcDbEntity
  8
0
100
AcDbPolyline
 62
7
  6
CONTINUOUS
 90
9
 70
0
 10
586.9098363787
 20
304.4038061892
 10
586.3189918366
 20
297.1159121071
 10
581.4220676116
 20
289.5396955281
 10
575.5567122771
 20
288.2037489173
 10
568.6952877806
 20
291.6661182807
 10
559.6433722575
 20
301.1965009337
 10
553.623032902
 20
311.6575515662
 10
551.3531753834
 20
319.6902301741
 10
551.4349800558
 20
320.7008468385
  0
LINE
  5
854
100
AcDbEntity
  8
0
100
AcDbLine
 62
7
  6
CONTINUOUS
 10
586.7901529848
 20
312.5713107281
 11
586.8155168765
 21
312.8813794448
  0
LINE
  5
855
100
AcDbEntity
  8
0
100
AcDbLine
 62
7
  6
CONTINUOUS
 10
589.9755148924
 20
308.8796992559
 11
590.8829958859
 21
318.3247667224
  0
LWPOLYLINE
  5
856
100
AcDbEntity
  8
0
100
AcDbPolyline
 62
7
  6
CONTINUOUS
 90
6
 70
0
 10
585.5403071898
 20
308.9401857831
 10
580.1971506579
 20
302.2736496596
 10
577.1624560513
 20
301.5281582072
 10
570.783748235
 20
303.6967800258
 10
562.1845150845
 20
311.4376711654
 10
554.5188461715
 20
323.1596083577
  0
LWPOLYLINE
  5
857
100
AcDbEntity
  8
0
100
AcDbPolyline
 62
7
  6
CONTINUOUS
 90
3
 70
0
 10
580.3014396369
 20
298.0427821824
 10
587.5364281557
 20
303.7637155196
 10
588.1407738682
 20
304.7387840955
  0
ARC
  5
858
100
AcDbEntity
  8
0
100
AcDbCircle
 62
7
  6
CONTINUOUS
 10
523.1977529635
 20
183.7024850613
 40
149.5194300834
100
AcDbArc
 50
78.9512990885
 51
79.4219505762
  0
ARC
  5
859
100
AcDbEntity
  8
0
100
AcDbCircle
 62
7
  6
CONTINUOUS
 10
524.0462569628
 20
188.037972014
 40
145.1016928349
100
AcDbArc
 50
78.3627265648
 51
78.9520531428
  0
ARC
  5
85A
100
AcDbEntity
  8
0
100
AcDbCircle
 62
7
  6
CONTINUOUS
 10
531.9850851519
 20
221.7862334343
 40
110.4259146839
100
AcDbArc
 50
74.1874154377
 51
74.9322436648
  0
ARC
  5
85B
100
AcDbEntity
  8
0
100
AcDbCircle
 62
7
  6
CONTINUOUS
 10
533.2138309648
 20
226.1167341875
 40
105.9244651513
100
AcDbArc
 50
73.2912969844
 51
74.1886177806
  0
ARC
  5
85C
100
AcDbEntity
  8
0
100
AcDbCircle
 62
7
  6
CONTINUOUS
 10
534.5779873183
 20
244.2263954884
 40
101.0908982819
100
AcDbArc
 50
71.5285053804
 51
74.2427895206
  0
ARC
  5
85D
100
AcDbEntity
  8
0
100
AcDbCircle
 62
7
  6
CONTINUOUS
 10
536.8255190478
 20
237.7860506836
 40
93.7095167106
100
AcDbArc
 50
70.1774226529
 51
73.3550067495
  0
ARC
  5
85E
100
AcDbEntity
  8
0
100
AcDbCircle
 62
7
  6
CONTINUOUS
 10
497.7513183161
 20
397.2967537721
 40
60.6809763344
100
AcDbArc
 50
307.2514678144
 51
307.4839493666
  0
ARC
  5
85F
100
AcDbEntity
  8
0
100
AcDbCircle
 62
7
  6
CONTINUOUS
 10
553.5716393749
 20
278.1293531247
 40
49.991367782
100
AcDbArc
 50
60.717506681
 51
63.8153566595
  0
ARC
  5
860
100
AcDbEntity
  8
0
100
AcDbCircle
 62
7
  6
CONTINUOUS
 10
556.2668489752
 20
296.4717788606
 40
44.42528168
100
AcDbArc
 50
59.7316016126
 51
60.6237151391
  0
ARC
  5
861
100
AcDbEntity
  8
0
100
AcDbCircle
 62
7
  6
CONTINUOUS
 10
557.344616193
 20
284.870225042
 40
42.2664300666
100
AcDbArc
 50
57.7904015233
 51
60.7090926557
  0
ARC
  5
862
100
AcDbEntity
  8
0
100
AcDbCircle
 62
7
  6
CONTINUOUS
 10
586.1800790208
 20
338.8530459823
 40
37.4091842491
100
AcDbArc
 50
199.7719137358
 51
202.2953586951
  0
ARC
  5
863
100
AcDbEntity
  8
0
100
AcDbCircle
 62
7
  6
CONTINUOUS
 10
539.4328537548
 20
370.4391030443
 40
24.0894232811
100
AcDbArc
 50
254.4934235262
 51
255.0230321133
  0
ARC
  5
864
100
AcDbEntity
  8
0
100
AcDbCircle
 62
7
  6
CONTINUOUS
 10
538.5187031399
 20
367.1704410622
 40
20.6953452864
100
AcDbArc
 50
253.1837483101
 51
254.51280846
  0
ARC
  5
865
100
AcDbEntity
  8
0
100
AcDbCircle
 62
7
  6
CONTINUOUS
 10
570.5355762084
 20
302.4011091491
 40
20.4945472924
100
AcDbArc
 50
6.9164772669
 51
13.1338913075
  0
ARC
  5
866
100
AcDbEntity
  8
0
100
AcDbCircle
 62
7
  6
CONTINUOUS
 10
538.4063540866
 20
353.310049391
 40
20.2913193309
100
AcDbArc
 50
253.0097802876
 51
254.4397344314
  0
ARC
  5
867
100
AcDbEntity
  8
0
100
AcDbCircle
 62
7
  6
CONTINUOUS
 10
571.2584774418
 20
302.5676567109
 40
19.7527118463
100
AcDbArc
 50
13.1399014456
 51
18.6360690694
  0
ARC
  5
868
100
AcDbEntity
  8
0
100
AcDbCircle
 62
7
  6
CONTINUOUS
 10
567.7968387524
 20
315.6946578829
 40
19.2484192613
100
AcDbArc
 50
350.6616278571
 51
351.5251055133
  0
ARC
  5
869
100
AcDbEntity
  8
0
100
AcDbCircle
 62
7
  6
CONTINUOUS
 10
567.8635938472
 20
302.2106275906
 40
19.1806603076
100
AcDbArc
 50
344.329838316
 51
358.9766829858
  0
ARC
  5
86A
100
AcDbEntity
  8
0
100
AcDbCircle
 62
7
  6
CONTINUOUS
 10
568.7692731753
 20
302.1932335039
 40
18.2748148205
100
AcDbArc
 50
358.9804970337
 51
6.7287604706
  0
ARC
  5
86B
100
AcDbEntity
  8
0
100
AcDbCircle
 62
7
  6
CONTINUOUS
 10
569.0991044346
 20
315.2660980401
 40
17.875574936
100
AcDbArc
 50
336.6451584617
 51
338.4826775368
  0
ARC
  5
86C
100
AcDbEntity
  8
0
100
AcDbCircle
 62
7
  6
CONTINUOUS
 10
558.7988052758
 20
332.406400609
 40
15.2890955095
100
AcDbArc
 50
70.3043288781
 51
70.8355997641
  0
ARC
  5
86D
100
AcDbEntity
  8
0
100
AcDbCircle
 62
7
  6
CONTINUOUS
 10
568.0957321017
 20
345.6389691004
 40
14.9138849989
100
AcDbArc
 50
294.5913084801
 51
295.7520615255
  0
ARC
  5
86E
100
AcDbEntity
  8
0
100
AcDbCircle
 62
7
  6
CONTINUOUS
 10
558.8151422173
 20
321.2769646329
 40
9.1312315973
100
AcDbArc
 50
142.3188959097
 51
147.4430593177
  0
ARC
  5
86F
100
AcDbEntity
  8
0
100
AcDbCircle
 62
7
  6
CONTINUOUS
 10
83.2308736368
 20
613.943504339
 40
6.9336808047
100
AcDbArc
 50
180.0119305664
 51
180.7016296059
  0
ARC
  5
870
100
AcDbEntity
  8
0
100
AcDbCircle
 62
7
  6
CONTINUOUS
 10
530.9362169777
 20
335.6931015209
 40
1.3240371733
100
AcDbArc
 50
153.9368115593
 51
155.4698756407
  0
SPLINE
  5
871
100
AcDbEntity
  8
0
100
AcDbSpline
 62
7
  6
CONTINUOUS
 70
0
 71
3
 72
12
 73
8
 74
0
 42
0.0000001
 43
0.0000001
 44
0.0000000001
 40
0.0
 40
0.0
 40
0.0
 40
0.0
 40
0.1832755849
 40
0.3014564547
 40
0.4361795015
 40
0.7288632917
 40
1.0
 40
1.0
 40
1.0
 40
1.0
 10
526.960871832
 20
362.221839059
 30
0.0
 10
527.2224312751
 20
362.3726502722
 30
0.0
 10
527.7948559954
 20
362.3433775316
 30
0.0
 10
528.4174497049
 20
361.990710401
 30
0.0
 10
529.0992065789
 20
361.3920222046
 30
0.0
 10
529.7323218368
 20
360.4084351276
 30
0.0
 10
529.9786212979
 20
359.4828663329
 30
0.0
 10
529.9786212979
 20
359.0362037376
 30
0.0
  0
SPLINE
  5
872
100
AcDbEntity
  8
0
100
AcDbSpline
 62
7
  6
CONTINUOUS
 70
0
 71
3
 72
12
 73
8
 74
0
 42
0.0000001
 43
0.0000001
 44
0.0000000001
 40
0.0
 40
0.0
 40
0.0
 40
0.0
 40
0.1832755849
 40
0.3014564547
 40
0.4361795015
 40
0.7288632917
 40
1.0
 40
1.0
 40
1.0
 40
1.0
 10
526.960871832
 20
348.7495491763
 30
0.0
 10
527.2224312751
 20
348.9003603896
 30
0.0
 10
527.7948559954
 20
348.871087649
 30
0.0
 10
528.4174497049
 20
348.5184205184
 30
0.0
 10
529.0992065789
 20
347.9197323219
 30
0.0
 10
529.7323218368
 20
346.9361452449
 30
0.0
 10
529.9786212979
 20
346.0105764503
 30
0.0
 10
529.9786212979
 20
345.563913855
 30
0.0
  0
SPLINE
  5
873
100
AcDbEntity
  8
0
100
AcDbSpline
 62
7
  6
CONTINUOUS
 70
0
 71
3
 72
9
 73
5
 74
0
 42
0.0000001
 43
0.0000001
 44
0.0000000001
 40
0.0
 40
0.0
 40
0.0
 40
0.0
 40
0.2325552033
 40
1.0
 40
1.0
 40
1.0
 40
1.0
 10
532.6177496332
 20
352.8321448943
 30
0.0
 10
532.6766983119
 20
352.8661338096
 30
0.0
 10
532.948978301
 20
352.9813880528
 30
0.0
 10
533.2646656002
 20
352.9506074928
 30
0.0
 10
533.4787191247
 20
352.8827432865
 30
0.0
  0
SPLINE
  5
874
100
AcDbEntity
  8
0
100
AcDbSpline
 62
7
  6
CONTINUOUS
 70
0
 71
3
 72
9
 73
5
 74
0
 42
0.0000001
 43
0.0000001
 44
0.0000000001
 40
0.0
 40
0.0
 40
0.0
 40
0.0
 40
0.4834838227
 40
1.0
 40
1.0
 40
1.0
 40
1.0
 10
533.4787191247
 20
352.8827432865
 30
0.0
 10
534.0991608855
 20
352.6860364687
 30
0.0
 10
535.1267674678
 20
351.6568976667
 30
0.0
 10
535.6354990991
 20
350.341856045
 30
0.0
 10
535.6354990991
 20
349.646509573
 30
0.0
  0
SPLINE
  5
875
100
AcDbEntity
  8
0
100
AcDbSpline
 62
7
  6
CONTINUOUS
 70
0
 71
3
 72
9
 73
5
 74
0
 42
0.0000001
 43
0.0000001
 44
0.0000000001
 40
0.0
 40
0.0
 40
0.0
 40
0.0
 40
0.2324626593
 40
1.0
 40
1.0
 40
1.0
 40
1.0
 10
532.6177496332
 20
339.3598550117
 30
0.0
 10
532.6768896104
 20
339.3939542268
 30
0.0
 10
532.9502326824
 20
339.5095256051
 30
0.0
 10
533.2671232844
 20
339.4780043947
 30
0.0
 10
533.4818471971
 20
339.4094582501
 30
0.0
  0
SPLINE
  5
876
100
AcDbEntity
  8
0
100
AcDbSpline
 62
7
  6
CONTINUOUS
 70
0
 71
3
 72
9
 73
5
 74
0
 42
0.0000001
 43
0.0000001
 44
0.0000000001
 40
0.0
 40
0.0
 40
0.0
 40
0.0
 40
0.4836342604
 40
1.0
 40
1.0
 40
1.0
 40
1.0
 10
533.4818471971
 20
339.4094582501
 30
0.0
 10
534.1016228256
 20
339.2116077672
 30
0.0
 10
535.127491836
 20
338.1830324522
 30
0.0
 10
535.6354990991
 20
336.8688398493
 30
0.0
 10
535.6354990991
 20
336.1742196904
 30
0.0
  0
SPLINE
  5
877
100
AcDbEntity
  8
0
100
AcDbSpline
 62
7
  6
CONTINUOUS
 70
0
 71
3
 72
8
 73
4
 74
0
 42
0.0000001
 43
0.0000001
 44
0.0000000001
 40
0.0
 40
0.0
 40
0.0
 40
0.0
 40
1.0
 40
1.0
 40
1.0
 40
1.0
 10
535.6354990991
 20
336.1742196904
 30
0.0
 10
535.6354990991
 20
336.0202620082
 30
0.0
 10
535.6201886434
 20
335.8648455438
 30
0.0
 10
535.5838059524
 20
335.7152485261
 30
0.0
  0
SPLINE
  5
878
100
AcDbEntity
  8
0
100
AcDbSpline
 62
7
  6
CONTINUOUS
 70
0
 71
3
 72
9
 73
5
 74
0
 42
0.0000001
 43
0.0000001
 44
0.0000000001
 40
0.0
 40
0.0
 40
0.0
 40
0.0
 40
0.2780458436
 40
1.0
 40
1.0
 40
1.0
 40
1.0
 10
535.5838059524
 20
335.7152485261
 30
0.0
 10
535.56537684
 20
335.6394723756
 30
0.0
 10
535.4816043087
 20
335.3725867381
 30
0.0
 10
535.2931197772
 20
335.1309325633
 30
0.0
 10
535.1176999392
 20
335.0297881416
 30
0.0
  0
SPLINE
  5
879
100
AcDbEntity
  8
0
100
AcDbSpline
 62
7
  6
CONTINUOUS
 70
0
 71
3
 72
8
 73
4
 74
0
 42
0.0000001
 43
0.0000001
 44
0.0000000001
 40
0.0
 40
0.0
 40
0.0
 40
0.0
 40
1.0
 40
1.0
 40
1.0
 40
1.0
 10
535.6354990991
 20
349.646509573
 30
0.0
 10
535.6354990991
 20
349.4894294587
 30
0.0
 10
535.6195688656
 20
349.3307768786
 30
0.0
 10
535.581546966
 20
349.1783678977
 30
0.0
  0
SPLINE
  5
87A
100
AcDbEntity
  8
0
100
AcDbSpline
 62
7
  6
CONTINUOUS
 70
0
 71
3
 72
9
 73
5
 74
0
 42
0.0000001
 43
0.0000001
 44
0.0000000001
 40
0.0
 40
0.0
 40
0.0
 40
0.0
 40
0.2776381934
 40
1.0
 40
1.0
 40
1.0
 40
1.0
 10
535.581546966
 20
349.1783678977
 30
0.0
 10
535.5629030148
 20
349.1036345036
 30
0.0
 10
535.4784740973
 20
348.8401111474
 30
0.0
 10
535.2913102228
 20
348.6021790842
 30
0.0
 10
535.1176999392
 20
348.5020780243
 30
0.0
  0
SPLINE
  5
87B
100
AcDbEntity
  8
0
100
AcDbSpline
 62
7
  6
CONTINUOUS
 70
0
 71
3
 72
8
 73
4
 74
0
 42
0.0000001
 43
0.0000001
 44
0.0000000001
 40
0.0
 40
0.0
 40
0.0
 40
0.0
 40
1.0
 40
1.0
 40
1.0
 40
1.0
 10
76.3148705784
 20
613.1357642415
 30
0.0
 10
76.3148705784
 20
613.376776818
 30
0.0
 10
76.3006138569
 20
613.6176032471
 30
0.0
 10
76.2977127072
 20
613.8585983619
 30
0.0
  0
SPLINE
  5
87C
100
AcDbEntity
  8
0
100
AcDbSpline
 62
7
  6
CONTINUOUS
 70
0
 71
3
 72
9
 73
5
 74
0
 42
0.0000001
 43
0.0000001
 44
0.0000000001
 40
0.0
 40
0.0
 40
0.0
 40
0.0
 40
0.1482333231
 40
1.0
 40
1.0
 40
1.0
 40
1.0
 10
573.8848169254
 20
331.904892195
 30
0.0
 10
573.906078371
 20
331.9116894792
 30
0.0
 10
574.0479142805
 20
331.962449857
 30
0.0
 10
574.1853849377
 20
332.0244639166
 30
0.0
 10
574.3020388636
 20
332.0777847075
 30
0.0
  0
SPLINE
  5
87D
100
AcDbEntity
  8
0
100
AcDbSpline
 62
7
  6
CONTINUOUS
 70
0
 71
3
 72
9
 73
5
 74
0
 42
0.0000001
 43
0.0000001
 44
0.0000000001
 40
0.0
 40
0.0
 40
0.0
 40
0.0
 40
0.148228199
 40
1.0
 40
1.0
 40
1.0
 40
1.0
 10
573.8848169254
 20
318.4326023123
 30
0.0
 10
573.9060776235
 20
318.4393993613
 30
0.0
 10
574.0479131438
 20
318.4901606206
 30
0.0
 10
574.1853836657
 20
318.5521745936
 30
0.0
 10
574.3020386719
 20
318.6054947109
 30
0.0
  0
SPLINE
  5
87E
100
AcDbEntity
  8
0
100
AcDbSpline
 62
7
  6
CONTINUOUS
 70
0
 71
3
 72
9
 73
5
 74
0
 42
0.0000001
 43
0.0000001
 44
0.0000000001
 40
0.0
 40
0.0
 40
0.0
 40
0.0
 40
0.2128705114
 40
1.0
 40
1.0
 40
1.0
 40
1.0
 10
574.3020386719
 20
318.6054947109
 30
0.0
 10
574.3325368873
 20
318.6194346907
 30
0.0
 10
574.4755262124
 20
318.6855369704
 30
0.0
 10
574.6174703476
 20
318.7538850052
 30
0.0
 10
574.7287986444
 20
318.8084809949
 30
0.0
  0
SPLINE
  5
87F
100
AcDbEntity
  8
0
100
AcDbSpline
 62
7
  6
CONTINUOUS
 70
0
 71
3
 72
12
 73
8
 74
0
 42
0.0000001
 43
0.0000001
 44
0.0000000001
 40
0.0
 40
0.0
 40
0.0
 40
0.0
 40
0.1832755849
 40
0.3014564547
 40
0.4361795015
 40
0.7288632917
 40
1.0
 40
1.0
 40
1.0
 40
1.0
 10
529.460822138
 20
357.8917721889
 30
0.0
 10
529.1992626949
 20
357.7409609757
 30
0.0
 10
528.6268379746
 20
357.7702337163
 30
0.0
 10
528.0042442651
 20
358.1229008468
 30
0.0
 10
527.3224873912
 20
358.7215890433
 30
0.0
 10
526.6893721332
 20
359.7051761203
 30
0.0
 10
526.4430726722
 20
360.630744915
 30
0.0
 10
526.4430726722
 20
361.0774075102
 30
0.0
  0
SPLINE
  5
880
100
AcDbEntity
  8
0
100
AcDbSpline
 62
7
  6
CONTINUOUS
 70
0
 71
3
 72
12
 73
8
 74
0
 42
0.0000001
 43
0.0000001
 44
0.0000000001
 40
0.0
 40
0.0
 40
0.0
 40
0.0
 40
0.1832755849
 40
0.3014564547
 40
0.4361795015
 40
0.7288632917
 40
1.0
 40
1.0
 40
1.0
 40
1.0
 10
529.460822138
 20
344.4194823063
 30
0.0
 10
529.1992626949
 20
344.268671093
 30
0.0
 10
528.6268379746
 20
344.2979438336
 30
0.0
 10
528.0042442651
 20
344.6506109642
 30
0.0
 10
527.3224873912
 20
345.2492991607
 30
0.0
 10
526.6893721332
 20
346.2328862377
 30
0.0
 10
526.4430726722
 20
347.1584550323
 30
0.0
 10
526.4430726722
 20
347.6051176276
 30
0.0
  0
SPLINE
  5
881
100
AcDbEntity
  8
0
100
AcDbSpline
 62
7
  6
CONTINUOUS
 70
0
 71
3
 72
9
 73
5
 74
0
 42
0.0000001
 43
0.0000001
 44
0.0000000001
 40
0.0
 40
0.0
 40
0.0
 40
0.0
 40
0.5195025537
 40
1.0
 40
1.0
 40
1.0
 40
1.0
 10
561.8672594265
 20
329.8028195639
 30
0.0
 10
560.8460994465
 20
330.0994116046
 30
0.0
 10
558.7940048361
 20
330.4227501372
 30
0.0
 10
556.7308443648
 20
330.1183532097
 30
0.0
 10
555.7948950681
 20
329.8161730133
 30
0.0
  0
SPLINE
  5
882
100
AcDbEntity
  8
0
100
AcDbSpline
 62
7
  6
CONTINUOUS
 70
0
 71
3
 72
9
 73
5
 74
0
 42
0.0000001
 43
0.0000001
 44
0.0000000001
 40
0.0
 40
0.0
 40
0.0
 40
0.0
 40
0.521776213
 40
1.0
 40
1.0
 40
1.0
 40
1.0
 10
562.4469345897
 20
343.0916121393
 30
0.0
 10
561.3574611304
 20
343.4649564782
 30
0.0
 10
559.1582167415
 20
343.9085663042
 30
0.0
 10
556.9205054678
 20
343.635843014
 30
0.0
 10
555.9116852094
 20
343.3252899959
 30
0.0
  0
SPLINE
  5
883
100
AcDbEntity
  8
0
100
AcDbSpline
 62
7
  6
CONTINUOUS
 70
0
 71
3
 72
9
 73
5
 74
0
 42
0.0000001
 43
0.0000001
 44
0.0000000001
 40
0.0
 40
0.0
 40
0.0
 40
0.0
 40
0.46117869
 40
1.0
 40
1.0
 40
1.0
 40
1.0
 10
551.5357373731
 20
340.2619625505
 30
0.0
 10
550.670036373
 20
339.1191109686
 30
0.0
 10
549.3939778611
 20
336.1583427889
 30
0.0
 10
549.410098873
 20
332.9751313807
 30
0.0
 10
549.6482624464
 20
331.3170541696
 30
0.0
  0
SPLINE
  5
884
100
AcDbEntity
  8
0
100
AcDbSpline
 62
7
  6
CONTINUOUS
 70
0
 71
3
 72
9
 73
5
 74
0
 42
0.0000001
 43
0.0000001
 44
0.0000000001
 40
0.0
 40
0.0
 40
0.0
 40
0.0
 40
0.2273231143
 40
1.0
 40
1.0
 40
1.0
 40
1.0
 10
549.5325028023
 20
324.6225366443
 30
0.0
 10
549.4767536506
 20
324.7626524193
 30
0.0
 10
549.2589723183
 20
325.389205669
 30
0.0
 10
549.1166661166
 20
326.0452960564
 30
0.0
 10
548.8967880434
 20
326.5083099303
 30
0.0
  0
SPLINE
  5
885
100
AcDbEntity
  8
0
100
AcDbSpline
 62
7
  6
CONTINUOUS
 70
0
 71
3
 72
9
 73
5
 74
0
 42
0.0000001
 43
0.0000001
 44
0.0000000001
 40
0.0
 40
0.0
 40
0.0
 40
0.0
 40
0.2760468768
 40
1.0
 40
1.0
 40
1.0
 40
1.0
 10
548.8967880434
 20
326.5083099303
 30
0.0
 10
548.874980168
 20
326.5542324212
 30
0.0
 10
548.7942081869
 20
326.719557247
 30
0.0
 10
548.712474357
 20
326.885748491
 30
0.0
 10
548.6710647742
 20
327.0124799712
 30
0.0
  0
SPLINE
  5
886
100
AcDbEntity
  8
0
100
AcDbSpline
 62
7
  6
CONTINUOUS
 70
0
 71
3
 72
9
 73
5
 74
0
 42
0.0000001
 43
0.0000001
 44
0.0000000001
 40
0.0
 40
0.0
 40
0.0
 40
0.0
 40
0.2444086802
 40
1.0
 40
1.0
 40
1.0
 40
1.0
 10
590.8829958859
 20
318.3247667224
 30
0.0
 10
590.8115884738
 20
318.9158280352
 30
0.0
 10
590.4174089678
 20
321.3202006238
 30
0.0
 10
589.5791921999
 20
323.6561953388
 30
0.0
 10
588.7063288878
 20
325.2766153367
 30
0.0
  0
SPLINE
  5
887
100
AcDbEntity
  8
0
100
AcDbSpline
 62
7
  6
CONTINUOUS
 70
0
 71
3
 72
9
 73
5
 74
0
 42
0.0000001
 43
0.0000001
 44
0.0000000001
 40
0.0
 40
0.0
 40
0.0
 40
0.0
 40
0.2470445948
 40
1.0
 40
1.0
 40
1.0
 40
1.0
 10
588.7063288878
 20
325.2766153367
 30
0.0
 10
588.5451927872
 20
325.5757551404
 30
0.0
 10
587.8606207635
 20
326.769121687
 30
0.0
 10
587.0393852124
 20
327.8826111239
 30
0.0
 10
586.364736804
 20
328.6682994317
 30
0.0
  0
SPLINE
  5
888
100
AcDbEntity
  8
0
100
AcDbSpline
 62
7
  6
CONTINUOUS
 70
0
 71
3
 72
9
 73
5
 74
0
 42
0.0000001
 43
0.0000001
 44
0.0000000001
 40
0.0
 40
0.0
 40
0.0
 40
0.0
 40
0.2470164628
 40
1.0
 40
1.0
 40
1.0
 40
1.0
 10
586.364736804
 20
328.6682994317
 30
0.0
 10
586.1150858123
 20
328.9590403017
 30
0.0
 10
585.0729485753
 20
330.1089514382
 30
0.0
 10
583.9169213447
 20
331.1532248241
 30
0.0
 10
583.0055068004
 20
331.8839365266
 30
0.0
  0
SPLINE
  5
889
100
AcDbEntity
  8
0
100
AcDbSpline
 62
7
  6
CONTINUOUS
 70
0
 71
3
 72
9
 73
5
 74
0
 42
0.0000001
 43
0.0000001
 44
0.0000000001
 40
0.0
 40
0.0
 40
0.0
 40
0.0
 40
0.245736497
 40
1.0
 40
1.0
 40
1.0
 40
1.0
 10
583.0055068004
 20
331.8839365266
 30
0.0
 10
582.6693928475
 20
332.1534103904
 30
0.0
 10
581.2777509958
 20
333.2202038559
 30
0.0
 10
579.8014623437
 20
334.1741460697
 30
0.0
 10
578.6594717089
 20
334.8407259331
 30
0.0
  0
SPLINE
  5
88A
100
AcDbEntity
  8
0
100
AcDbSpline
 62
7
  6
CONTINUOUS
 70
0
 71
3
 72
9
 73
5
 74
0
 42
0.0000001
 43
0.0000001
 44
0.0000000001
 40
0.0
 40
0.0
 40
0.0
 40
0.0
 40
0.2469542064
 40
1.0
 40
1.0
 40
1.0
 40
1.0
 10
578.0593648067
 20
335.1847212195
 30
0.0
 10
577.7791647757
 20
335.342476855
 30
0.0
 10
576.6377925741
 20
335.9692675006
 30
0.0
 10
575.4715266195
 20
336.5503410766
 30
0.0
 10
574.5832347156
 20
336.9655344703
 30
0.0
  0
SPLINE
  5
88B
100
AcDbEntity
  8
0
100
AcDbSpline
 62
7
  6
CONTINUOUS
 70
0
 71
3
 72
9
 73
5
 74
0
 42
0.0000001
 43
0.0000001
 44
0.0000000001
 40
0.0
 40
0.0
 40
0.0
 40
0.0
 40
0.2452858129
 40
1.0
 40
1.0
 40
1.0
 40
1.0
 10
574.5832347156
 20
336.9655344703
 30
0.0
 10
573.9479884393
 20
337.2624526975
 30
0.0
 10
571.336363052
 20
338.4262681697
 30
0.0
 10
568.6528911817
 20
339.4244582223
 30
0.0
 10
566.606901096
 20
340.1092323137
 30
0.0
  0
SPLINE
  5
88C
100
AcDbEntity
  8
0
100
AcDbSpline
 62
7
  6
CONTINUOUS
 70
0
 71
3
 72
11
 73
7
 74
0
 42
0.0000001
 43
0.0000001
 44
0.0000000001
 40
0.0
 40
0.0
 40
0.0
 40
0.0
 40
0.296144206
 40
0.5754488305
 40
0.8165233419
 40
1.0
 40
1.0
 40
1.0
 40
1.0
 10
562.0303903118
 20
341.5184058763
 30
0.0
 10
559.2388841739
 20
342.3078097184
 30
0.0
 10
553.7528388026
 20
343.628021313
 30
0.0
 10
545.8711711801
 20
345.0142677175
 30
0.0
 10
539.0475503724
 20
345.9766658126
 30
0.0
 10
534.9436238165
 20
346.7034010562
 30
0.0
 10
533.2074063824
 20
347.1680025326
 30
0.0
  0
SPLINE
  5
88D
100
AcDbEntity
  8
0
100
AcDbSpline
 62
7
  6
CONTINUOUS
 70
0
 71
3
 72
12
 73
8
 74
0
 42
0.0000001
 43
0.0000001
 44
0.0000000001
 40
0.0
 40
0.0
 40
0.0
 40
0.0
 40
0.3524694978
 40
0.6221093107
 40
0.8174429917
 40
0.9034106615
 40
1.0
 40
1.0
 40
1.0
 40
1.0
 10
532.5314709431
 20
347.3600809658
 30
0.0
 10
532.0687122527
 20
347.5001462634
 30
0.0
 10
531.2576300314
 20
347.7800939133
 30
0.0
 10
530.2607378748
 20
348.284043966
 30
0.0
 10
529.6922046141
 20
348.8525451526
 30
0.0
 10
529.6080877129
 20
349.3830705433
 30
0.0
 10
529.6889027816
 20
349.6288548571
 30
0.0
 10
529.747175054
 20
349.7478465162
 30
0.0
  0
SPLINE
  5
88E
100
AcDbEntity
  8
0
100
AcDbSpline
 62
7
  6
CONTINUOUS
 70
0
 71
3
 72
14
 73
10
 74
0
 42
0.0000001
 43
0.0000001
 44
0.0000000001
 40
0.0
 40
0.0
 40
0.0
 40
0.0
 40
0.0160774735
 40
0.0458758696
 40
0.1415655534
 40
0.2705903378
 40
0.4124931446
 40
0.7002420242
 40
1.0
 40
1.0
 40
1.0
 40
1.0
 10
589.9755010154
 20
308.8797433838
 30
0.0
 10
589.9654955513
 20
308.8488043423
 30
0.0
 10
589.8890916673
 20
308.7843182343
 30
0.0
 10
589.6413720339
 20
308.6493070214
 30
0.0
 10
589.1152485558
 20
308.565118641
 30
0.0
 10
588.3696764277
 20
308.6640122847
 30
0.0
 10
587.3696430864
 20
309.2955360238
 30
0.0
 10
586.8823706063
 20
310.7919537927
 30
0.0
 10
586.7525658624
 20
311.9662169529
 30
0.0
 10
586.7901529848
 20
312.5713107281
 30
0.0
  0
SPLINE
  5
88F
100
AcDbEntity
  8
0
100
AcDbSpline
 62
7
  6
CONTINUOUS
 70
0
 71
3
 72
9
 73
5
 74
0
 42
0.0000001
 43
0.0000001
 44
0.0000000001
 40
0.0
 40
0.0
 40
0.0
 40
0.0
 40
0.2285878384
 40
1.0
 40
1.0
 40
1.0
 40
1.0
 10
534.0640424108
 20
348.6823760046
 30
0.0
 10
534.0959044511
 20
348.7062547655
 30
0.0
 10
534.2355774803
 20
348.8103327658
 30
0.0
 10
534.3753728384
 20
348.9142549291
 30
0.0
 10
534.4823858824
 20
348.995516062
 30
0.0
  0
SPLINE
  5
890
100
AcDbEntity
  8
0
100
AcDbSpline
 62
7
  6
CONTINUOUS
 70
0
 71
3
 72
9
 73
5
 74
0
 42
0.0000001
 43
0.0000001
 44
0.0000000001
 40
0.0
 40
0.0
 40
0.0
 40
0.0
 40
0.2346619024
 40
1.0
 40
1.0
 40
1.0
 40
1.0
 10
534.6780685598
 20
349.144952089
 30
0.0
 10
534.7457231193
 20
349.1967602147
 30
0.0
 10
535.0339758857
 20
349.4175836111
 30
0.0
 10
535.3255048574
 20
349.6343342357
 30
0.0
 10
535.5533930587
 20
349.7934096689
 30
0.0
  0
SPLINE
  5
891
100
AcDbEntity
  8
0
100
AcDbSpline
 62
7
  6
CONTINUOUS
 70
0
 71
3
 72
9
 73
5
 74
0
 42
0.0000001
 43
0.0000001
 44
0.0000000001
 40
0.0
 40
0.0
 40
0.0
 40
0.0
 40
0.282673116
 40
1.0
 40
1.0
 40
1.0
 40
1.0
 10
586.1445545093
 20
307.7407967757
 30
0.0
 10
586.2051421369
 20
307.5653564597
 30
0.0
 10
586.4180735926
 20
306.944035063
 30
0.0
 10
586.5722636933
 20
306.3041591483
 30
0.0
 10
586.6698503063
 20
305.8433713884
 30
0.0
  0
SPLINE
  5
892
100
AcDbEntity
  8
0
100
AcDbSpline
 62
7
  6
CONTINUOUS
 70
0
 71
3
 72
9
 73
5
 74
0
 42
0.0000001
 43
0.0000001
 44
0.0000000001
 40
0.0
 40
0.0
 40
0.0
 40
0.0
 40
0.2289583402
 40
1.0
 40
1.0
 40
1.0
 40
1.0
 10
533.7495472078
 20
334.9638483417
 30
0.0
 10
533.773393398
 20
334.9839979872
 30
0.0
 10
533.8787534464
 20
335.0705763061
 30
0.0
 10
533.9875689546
 20
335.1528253404
 30
0.0
 10
534.0717251042
 20
335.2158413538
 30
0.0
  0
SPLINE
  5
893
100
AcDbEntity
  8
0
100
AcDbSpline
 62
7
  6
CONTINUOUS
 70
0
 71
3
 72
9
 73
5
 74
0
 42
0.0000001
 43
0.0000001
 44
0.0000000001
 40
0.0
 40
0.0
 40
0.0
 40
0.0
 40
0.2034341484
 40
1.0
 40
1.0
 40
1.0
 40
1.0
 10
534.0717251042
 20
335.2158413538
 30
0.0
 10
534.1704777141
 20
335.2897871774
 30
0.0
 10
534.6580596217
 20
335.6503444972
 30
0.0
 10
535.133831807
 20
336.0271796137
 30
0.0
 10
535.52945096
 20
336.3043759247
 30
0.0
  0
SPLINE
  5
894
100
AcDbEntity
  8
0
100
AcDbSpline
 62
7
  6
CONTINUOUS
 70
0
 71
3
 72
9
 73
5
 74
0
 42
0.0000001
 43
0.0000001
 44
0.0000000001
 40
0.0
 40
0.0
 40
0.0
 40
0.0
 40
0.2852632199
 40
1.0
 40
1.0
 40
1.0
 40
1.0
 10
532.1187675288
 20
338.4998996874
 30
0.0
 10
532.1318822582
 20
338.5953109855
 30
0.0
 10
532.1993551955
 20
338.9242181589
 30
0.0
 10
532.4087049446
 20
339.2393230105
 30
0.0
 10
532.6177496332
 20
339.3598550117
 30
0.0
  0
SPLINE
  5
895
100
AcDbEntity
  8
0
100
AcDbSpline
 62
7
  6
CONTINUOUS
 70
0
 71
3
 72
9
 73
5
 74
0
 42
0.0000001
 43
0.0000001
 44
0.0000000001
 40
0.0
 40
0.0
 40
0.0
 40
0.0
 40
0.2853069144
 40
1.0
 40
1.0
 40
1.0
 40
1.0
 10
532.1186116929
 20
351.971053282
 30
0.0
 10
532.1316845976
 20
352.06659106
 30
0.0
 10
532.199029952
 20
352.3958904305
 30
0.0
 10
532.4084901398
 20
352.7114890399
 30
0.0
 10
532.6177496332
 20
352.8321448943
 30
0.0
  0
SPLINE
  5
896
100
AcDbEntity
  8
0
100
AcDbSpline
 62
7
  6
CONTINUOUS
 70
0
 71
3
 72
11
 73
7
 74
0
 42
0.0000001
 43
0.0000001
 44
0.0000000001
 40
0.0
 40
0.0
 40
0.0
 40
0.0
 40
0.2753940628
 40
0.499996963
 40
0.7246019087
 40
1.0
 40
1.0
 40
1.0
 40
1.0
 10
136.7550391549
 20
528.4142211289
 30
0.0
 10
136.629760523
 20
528.3447551322
 30
0.0
 10
136.3833669145
 20
528.2389008263
 30
0.0
 10
135.9822171509
 20
528.3004041236
 30
0.0
 10
135.7283862428
 20
528.6170661976
 30
0.0
 10
135.6968629992
 20
528.883378945
 30
0.0
 10
135.6943833991
 20
529.0266085238
 30
0.0
  0
SPLINE
  5
897
100
AcDbEntity
  8
0
100
AcDbSpline
 62
7
  6
CONTINUOUS
 70
0
 71
3
 72
9
 73
5
 74
0
 42
0.0000001
 43
0.0000001
 44
0.0000000001
 40
0.0
 40
0.0
 40
0.0
 40
0.0
 40
0.2407273455
 40
1.0
 40
1.0
 40
1.0
 40
1.0
 10
163.9785368876
 20
545.3563746786
 30
0.0
 10
163.9755859761
 20
545.1825132552
 30
0.0
 10
163.8558104657
 20
544.4672273581
 30
0.0
 10
163.3881324398
 20
543.8015004405
 30
0.0
 10
162.9178811318
 20
543.5192548221
 30
0.0
  0
SPLINE
  5
898
100
AcDbEntity
  8
0
100
AcDbSpline
 62
7
  6
CONTINUOUS
 70
0
 71
3
 72
9
 73
5
 74
0
 42
0.0000001
 43
0.0000001
 44
0.0000000001
 40
0.0
 40
0.0
 40
0.0
 40
0.0
 40
0.2407273455
 40
1.0
 40
1.0
 40
1.0
 40
1.0
 10
135.6943833991
 20
584.5487728886
 30
0.0
 10
135.6973343106
 20
584.722634312
 30
0.0
 10
135.817109821
 20
585.4379202091
 30
0.0
 10
136.284787847
 20
586.1036471267
 30
0.0
 10
136.7550391549
 20
586.3858927451
 30
0.0
  0
SPLINE
  5
899
100
AcDbEntity
  8
0
100
AcDbSpline
 62
7
  6
CONTINUOUS
 70
0
 71
3
 72
11
 73
7
 74
0
 42
0.0000001
 43
0.0000001
 44
0.0000000001
 40
0.0
 40
0.0
 40
0.0
 40
0.0
 40
0.2753980913
 40
0.500003037
 40
0.7246059372
 40
1.0
 40
1.0
 40
1.0
 40
1.0
 10
163.9431814014
 20
600.8989510812
 30
0.0
 10
163.9407018013
 20
601.04218066
 30
0.0
 10
163.9091785577
 20
601.3084934074
 30
0.0
 10
163.6553476495
 20
601.6251554813
 30
0.0
 10
163.254197886
 20
601.6866587786
 30
0.0
 10
163.0078042775
 20
601.5808044727
 30
0.0
 10
162.8825256456
 20
601.511338476
 30
0.0
  0
SPLINE
  5
89A
100
AcDbEntity
  8
0
100
AcDbSpline
 62
7
  6
CONTINUOUS
 70
0
 71
3
 72
11
 73
7
 74
0
 42
0.0000001
 43
0.0000001
 44
0.0000000001
 40
0.0
 40
0.0
 40
0.0
 40
0.0
 40
0.4704765238
 40
0.7807748142
 40
0.9462411213
 40
1.0
 40
1.0
 40
1.0
 40
1.0
 10
574.3977861902
 20
332.3061961606
 30
0.0
 10
574.2983469347
 20
332.2477736803
 30
0.0
 10
574.1390278969
 20
332.1514568847
 30
0.0
 10
573.9307402511
 20
332.0191823034
 30
0.0
 10
573.8467414066
 20
331.9515580575
 30
0.0
 10
573.7884924434
 20
331.904028617
 30
0.0
 10
573.7948991607
 20
331.8925124476
 30
0.0
  0
SPLINE
  5
89B
100
AcDbEntity
  8
0
100
AcDbSpline
 62
7
  6
CONTINUOUS
 70
0
 71
3
 72
11
 73
7
 74
0
 42
0.0000001
 43
0.0000001
 44
0.0000000001
 40
0.0
 40
0.0
 40
0.0
 40
0.0
 40
0.4673681384
 40
0.781319952
 40
0.947859146
 40
1.0
 40
1.0
 40
1.0
 40
1.0
 10
574.5800612904
 20
318.9397734637
 30
0.0
 10
574.4522395564
 20
318.8664444217
 30
0.0
 10
574.2467736283
 20
318.7443793614
 30
0.0
 10
573.9733327949
 20
318.5784341096
 30
0.0
 10
573.8669968928
 20
318.4920681143
 30
0.0
 10
573.7868814579
 20
318.4345947588
 30
0.0
 10
573.7948876212
 20
318.4202358534
 30
0.0
  0
SPLINE
  5
89C
100
AcDbEntity
  8
0
100
AcDbSpline
 62
7
  6
CONTINUOUS
 70
0
 71
3
 72
11
 73
7
 74
0
 42
0.0000001
 43
0.0000001
 44
0.0000000001
 40
0.0
 40
0.0
 40
0.0
 40
0.0
 40
0.2439785948
 40
0.495132843
 40
0.7465215161
 40
1.0
 40
1.0
 40
1.0
 40
1.0
 10
549.5426523939
 20
327.1953863616
 30
0.0
 10
549.5667117519
 20
327.0433019334
 30
0.0
 10
549.6664019224
 20
326.731575683
 30
0.0
 10
550.0478296694
 20
326.4216989935
 30
0.0
 10
550.5004256043
 20
326.2612031969
 30
0.0
 10
550.8168385717
 20
326.2107437872
 30
0.0
 10
550.9763318296
 20
326.1983879069
 30
0.0
  0
SPLINE
  5
89D
100
AcDbEntity
  8
0
100
AcDbSpline
 62
7
  6
CONTINUOUS
 70
0
 71
3
 72
8
 73
4
 74
0
 42
0.0000001
 43
0.0000001
 44
0.0000000001
 40
0.0
 40
0.0
 40
0.0
 40
0.0
 40
1.0
 40
1.0
 40
1.0
 40
1.0
 10
550.9763318296
 20
326.1983879069
 30
0.0
 10
551.023595231
 20
326.1947264296
 30
0.0
 10
551.0710379066
 20
326.1911514357
 30
0.0
 10
551.1184242248
 20
326.1924827405
 30
0.0
  0
SPLINE
  5
89E
100
AcDbEntity
  8
0
100
AcDbSpline
 62
7
  6
CONTINUOUS
 70
0
 71
3
 72
9
 73
5
 74
0
 42
0.0000001
 43
0.0000001
 44
0.0000000001
 40
0.0
 40
0.0
 40
0.0
 40
0.0
 40
0.2977481999
 40
1.0
 40
1.0
 40
1.0
 40
1.0
 10
575.6321157056
 20
323.0258937952
 30
0.0
 10
574.7843203422
 20
324.3521504032
 30
0.0
 10
571.6832521125
 20
328.6088788054
 30
0.0
 10
567.3259355881
 20
332.1563684077
 30
0.0
 10
563.8192640117
 20
333.3754207739
 30
0.0
  0
SPLINE
  5
89F
100
AcDbEntity
  8
0
100
AcDbSpline
 62
7
  6
CONTINUOUS
 70
0
 71
3
 72
9
 73
5
 74
0
 42
0.0000001
 43
0.0000001
 44
0.0000000001
 40
0.0
 40
0.0
 40
0.0
 40
0.0
 40
0.2568961428
 40
1.0
 40
1.0
 40
1.0
 40
1.0
 10
577.240015678
 20
333.7518886033
 30
0.0
 10
577.1052611068
 20
334.0025802277
 30
0.0
 10
576.5718448629
 20
334.9736148576
 30
0.0
 10
576.001980553
 20
335.9247910348
 30
0.0
 10
575.5559806586
 20
336.6167994435
 30
0.0
  0
SPLINE
  5
8A0
100
AcDbEntity
  8
0
100
AcDbSpline
 62
7
  6
CONTINUOUS
 70
0
 71
3
 72
9
 73
5
 74
0
 42
0.0000001
 43
0.0000001
 44
0.0000000001
 40
0.0
 40
0.0
 40
0.0
 40
0.0
 40
0.2968315999
 40
1.0
 40
1.0
 40
1.0
 40
1.0
 10
575.5559806586
 20
336.6167994435
 30
0.0
 10
574.720560168
 20
337.9130284595
 30
0.0
 10
571.6597370583
 20
342.0880013242
 30
0.0
 10
567.3910355213
 20
345.5698476964
 30
0.0
 10
563.9515993329
 20
346.8010230391
 30
0.0
  0
SPLINE
  5
8A1
100
AcDbEntity
  8
0
100
AcDbSpline
 62
7
  6
CONTINUOUS
 70
0
 71
3
 72
9
 73
5
 74
0
 42
0.0000001
 43
0.0000001
 44
0.0000000001
 40
0.0
 40
0.0
 40
0.0
 40
0.0
 40
0.2471760874
 40
1.0
 40
1.0
 40
1.0
 40
1.0
 10
587.0462580117
 20
314.3595334015
 30
0.0
 10
586.8202181138
 20
314.6525020189
 30
0.0
 10
585.8725778467
 20
315.8120997954
 30
0.0
 10
584.8051077822
 20
316.8714200212
 30
0.0
 10
583.9574649511
 20
317.6141535868
 30
0.0
  0
SPLINE
  5
8A2
100
AcDbEntity
  8
0
100
AcDbSpline
 62
7
  6
CONTINUOUS
 70
0
 71
3
 72
9
 73
5
 74
0
 42
0.0000001
 43
0.0000001
 44
0.0000000001
 40
0.0
 40
0.0
 40
0.0
 40
0.0
 40
0.2460106449
 40
1.0
 40
1.0
 40
1.0
 40
1.0
 10
583.9574649511
 20
317.6141535868
 30
0.0
 10
583.6440773606
 20
317.8887544847
 30
0.0
 10
582.3445402578
 20
318.9756388114
 30
0.0
 10
580.9534572911
 20
319.95061864
 30
0.0
 10
579.8733853605
 20
320.6320156902
 30
0.0
  0
SPLINE
  5
8A3
100
AcDbEntity
  8
0
100
AcDbSpline
 62
7
  6
CONTINUOUS
 70
0
 71
3
 72
9
 73
5
 74
0
 42
0.0000001
 43
0.0000001
 44
0.0000000001
 40
0.0
 40
0.0
 40
0.0
 40
0.0
 40
0.245304529
 40
1.0
 40
1.0
 40
1.0
 40
1.0
 10
575.631097772
 20
322.9904403601
 30
0.0
 10
575.0717959258
 20
323.2660084509
 30
0.0
 10
572.7724762186
 20
324.3502205189
 30
0.0
 10
570.4075327979
 20
325.2917444853
 30
0.0
 10
568.6032264802
 20
325.943017694
 30
0.0
  0
SPLINE
  5
8A4
100
AcDbEntity
  8
0
100
AcDbSpline
 62
7
  6
CONTINUOUS
 70
0
 71
3
 72
9
 73
5
 74
0
 42
0.0000001
 43
0.0000001
 44
0.0000000001
 40
0.0
 40
0.0
 40
0.0
 40
0.0
 40
0.2518145504
 40
1.0
 40
1.0
 40
1.0
 40
1.0
 10
560.6915318037
 20
328.415603471
 30
0.0
 10
560.0772021451
 20
328.5810176465
 30
0.0
 10
557.6319929877
 20
329.2170591998
 30
0.0
 10
555.1668878982
 20
329.7756317214
 30
0.0
 10
553.3154645967
 20
330.1569881521
 30
0.0
  0
SPLINE
  5
8A5
100
AcDbEntity
  8
0
100
AcDbSpline
 62
7
  6
CONTINUOUS
 70
0
 71
3
 72
10
 73
6
 74
0
 42
0.0000001
 43
0.0000001
 44
0.0000000001
 40
0.0
 40
0.0
 40
0.0
 40
0.0
 40
0.5778333011
 40
0.8126604341
 40
1.0
 40
1.0
 40
1.0
 40
1.0
 10
550.6457471936
 20
330.6809446573
 30
0.0
 10
547.2463748892
 20
331.3158319376
 30
0.0
 10
542.4286135433
 20
331.9995187038
 30
0.0
 10
536.5195594507
 20
332.9411794424
 30
0.0
 10
534.043106674
 20
333.461169232
 30
0.0
 10
532.9631710303
 20
333.762430651
 30
0.0
  0
SPLINE
  5
8A6
100
AcDbEntity
  8
0
100
AcDbSpline
 62
7
  6
CONTINUOUS
 70
0
 71
3
 72
12
 73
8
 74
0
 42
0.0000001
 43
0.0000001
 44
0.0000000001
 40
0.0
 40
0.0
 40
0.0
 40
0.0
 40
0.35148753
 40
0.6214725312
 40
0.8182170555
 40
0.9043590347
 40
1.0
 40
1.0
 40
1.0
 40
1.0
 10
532.4770588944
 20
333.9043518072
 30
0.0
 10
532.0263250824
 20
334.0423021801
 30
0.0
 10
531.2352023294
 20
334.3179090559
 30
0.0
 10
530.2605247027
 20
334.8146188748
 30
0.0
 10
529.7031319122
 20
335.3682338399
 30
0.0
 10
529.6072939911
 20
335.8844626916
 30
0.0
 10
529.6784438488
 20
336.1261136953
 30
0.0
 10
529.731683279
 20
336.2428041724
 30
0.0
  0
SPLINE
  5
8A7
100
AcDbEntity
  8
0
100
AcDbSpline
 62
7
  6
CONTINUOUS
 70
0
 71
3
 72
9
 73
5
 74
0
 42
0.0000001
 43
0.0000001
 44
0.0000000001
 40
0.0
 40
0.0
 40
0.0
 40
0.0
 40
0.273747487
 40
1.0
 40
1.0
 40
1.0
 40
1.0
 10
551.118819201
 20
326.1908228433
 30
0.0
 10
551.2385462303
 20
326.1872994167
 30
0.0
 10
551.6746812809
 20
326.2011145249
 30
0.0
 10
552.1194713568
 20
326.3124438908
 30
0.0
 10
552.3903355891
 20
326.4786142033
 30
0.0
  0
SPLINE
  5
8A8
100
AcDbEntity
  8
0
100
AcDbSpline
 62
7
  6
CONTINUOUS
 70
0
 71
3
 72
9
 73
5
 74
0
 42
0.0000001
 43
0.0000001
 44
0.0000000001
 40
0.0
 40
0.0
 40
0.0
 40
0.0
 40
0.2764302137
 40
1.0
 40
1.0
 40
1.0
 40
1.0
 10
552.3903355891
 20
326.4786142033
 30
0.0
 10
552.4256521356
 20
326.5002802665
 30
0.0
 10
552.5496865565
 20
326.5841609735
 30
0.0
 10
552.6586740229
 20
326.6931708402
 30
0.0
 10
552.7170385302
 20
326.7845793076
 30
0.0
  0
SPLINE
  5
8A9
100
AcDbEntity
  8
0
100
AcDbSpline
 62
7
  6
CONTINUOUS
 70
0
 71
3
 72
22
 73
18
 74
0
 42
0.0000001
 43
0.0000001
 44
0.0000000001
 40
0.0
 40
0.0
 40
0.0
 40
0.0
 40
0.0499063553
 40
0.1067459636
 40
0.1726946706
 40
0.2463818448
 40
0.4060386622
 40
0.4860876735
 40
0.5622280869
 40
0.6318294376
 40
0.6930374643
 40
0.7456509832
 40
0.793073737
 40
0.8404703573
 40
0.890511105
 40
0.9438664723
 40
1.0
 40
1.0
 40
1.0
 40
1.0
 10
549.9770004712
 20
323.6746833368
 30
0.0
 10
549.6718250053
 20
322.6566525646
 30
0.0
 10
549.3351327803
 20
320.3755946655
 30
0.0
 10
549.7296870813
 20
316.6921461754
 30
0.0
 10
550.9014380811
 20
312.6599195702
 30
0.0
 10
553.4312542314
 20
306.7983878917
 30
0.0
 10
556.9892681446
 20
301.0971774508
 30
0.0
 10
561.256827955
 20
295.8904853473
 30
0.0
 10
564.6620312879
 20
292.4822379271
 30
0.0
 10
568.1353353756
 20
289.746827178
 30
0.0
 10
571.5677462712
 20
287.8396530509
 30
0.0
 10
574.9261786253
 20
286.8987975743
 30
0.0
 10
578.1280668584
 20
287.1879280246
 30
0.0
 10
580.9476590851
 20
288.577431152
 30
0.0
 10
583.3086460985
 20
290.8094991557
 30
0.0
 10
585.1646308895
 20
293.6864560601
 30
0.0
 10
586.0082578238
 20
295.8790420817
 30
0.0
 10
586.3313576978
 20
297.0299492384
 30
0.0
  0
SPLINE
  5
8AA
100
AcDbEntity
  8
0
100
AcDbSpline
 62
7
  6
CONTINUOUS
 70
0
 71
3
 72
8
 73
4
 74
0
 42
0.0000001
 43
0.0000001
 44
0.0000000001
 40
0.0
 40
0.0
 40
0.0
 40
0.0
 40
1.0
 40
1.0
 40
1.0
 40
1.0
 10
586.8350755662
 20
312.857902152
 30
0.0
 10
587.0801088096
 20
314.5023832742
 30
0.0
 10
587.113339231
 20
316.1945974495
 30
0.0
 10
586.913603636
 20
317.8451928402
 30
0.0
  0
SPLINE
  5
8AB
100
AcDbEntity
  8
0
100
AcDbSpline
 62
7
  6
CONTINUOUS
 70
0
 71
3
 72
17
 73
13
 74
0
 42
0.0000001
 43
0.0000001
 44
0.0000000001
 40
0.0
 40
0.0
 40
0.0
 40
0.0
 40
0.1511634613
 40
0.3096724801
 40
0.4621917866
 40
0.5966932036
 40
0.6547775581
 40
0.7066004721
 40
0.7539370914
 40
0.799957529
 40
0.8952675291
 40
1.0
 40
1.0
 40
1.0
 40
1.0
 10
551.5675884175
 20
324.6607043707
 30
0.0
 10
552.4954646804
 20
322.3948146996
 30
0.0
 10
554.8093288604
 20
317.9192078593
 30
0.0
 10
559.103313016
 20
311.7617940785
 30
0.0
 10
563.9931221556
 20
306.4287936052
 30
0.0
 10
568.4331175033
 20
302.9475157849
 30
0.0
 10
572.0044253393
 20
301.2042654684
 30
0.0
 10
574.4793896359
 20
300.518586165
 30
0.0
 10
576.8601612512
 20
300.4880062174
 30
0.0
 10
579.8463406608
 20
301.2930681251
 30
0.0
 10
583.1269182875
 20
303.8000364031
 30
0.0
 10
584.8374857431
 20
306.6223838313
 30
0.0
 10
585.5100862925
 20
308.1797835006
 30
0.0
  0
ENDSEC
  0
SECTION
  2
OBJECTS
  0
DICTIONARY
  5
C
100
AcDbDictionary
280
0
281
1
  3
ACAD_GROUP
350
D
  3
ACAD_MLINESTYLE
350
17
  3
ACAD_LAYOUT
350
1A
  3
ACAD_PLOTSETTINGS
350
19
  3
ACAD_PLOTSTYLENAME
350
E
  0
DICTIONARY
  5
D
102
{ACAD_REACTORS
330
C
102
}
100
AcDbDictionary
280
0
281
1
  0
ACDBDICTIONARYWDFLT
  5
E
102
{ACAD_REACTORS
330
C
102
}
100
AcDbDictionary
281
1
  3
Normal
350
F
100
AcDbDictionaryWithDefault
340
F
  0
DICTIONARY
  5
17
102
{ACAD_REACTORS
330
C
102
}
100
AcDbDictionary
280
0
281
1
  3
Standard
350
18
  0
DICTIONARY
  5
19
102
{ACAD_REACTORS
330
C
102
}
100
AcDbDictionary
281
1
  0
DICTIONARY
  5
1A
102
{ACAD_REACTORS
330
C
102
}
100
AcDbDictionary
281
1
  3
Model
350
8AC
  3
Layout1
350
8AD
  0
ACDBPLACEHOLDER
  5
F
102
{ACAD_REACTORS
330
E
102
}
  0
MLINESTYLE
  5
18
102
{ACAD_REACTORS
330
17
102
}
100
AcDbMlineStyle
  2
STANDARD
 70
0
  3

 62
256
 51
90.0
 52
90.0
 71
2
 49
0.5
 62
256
  6
BYLAYER
 49
-0.5
 62
256
  6
BYLAYER
  0
LAYOUT
  5
8AC
102
{ACAD_REACTORS
330
1A
102
}
100
AcDbPlotSettings
  1

  2
none_device
  4

  6

 40
0.0
 41
0.0
 42
0.0
 43
0.0
 44
210.0
 45
297.0
 46
0.0
 47
0.0
 48
0.0
 49
0.0
140
0.0
141
0.0
142
1.0
143
1.0
 70
1024
 72
1
 73
0
 74
0
  7

 75
0
147
1.0
148
0.0
149
0.0
100
AcDbLayout
  1
Model
 70
0
 71
0
 10
0.0
 20
0.0
 11
210.0
 21
297.0
 12
0.0
 22
0.0
 32
0.0
 14
0.0
 24
0.0
 34
0.0
 15
0.0
 25
0.0
 35
0.0
146
0.0
 13
0.0
 23
0.0
 33
0.0
 16
1.0
 26
0.0
 36
0.0
 17
0.0
 27
1.0
 37
0.0
 76
0
330
212
345
0
346
0
  0
LAYOUT
  5
8AD
102
{ACAD_REACTORS
330
1A
102
}
100
AcDbPlotSettings
  1

  2
none_device
  4

  6

 40
0.0
 41
0.0
 42
0.0
 43
0.0
 44
210.0
 45
297.0
 46
0.0
 47
0.0
 48
0.0
 49
0.0
140
0.0
141
0.0
142
1.0
143
1.0
 70
0
 72
1
 73
0
 74
0
  7

 75
0
147
1.0
148
0.0
149
0.0
100
AcDbLayout
  1
Layout1
 70
0
 71
1
 10
0.0
 20
0.0
 11
210.0
 21
297.0
 12
0.0
 22
0.0
 32
0.0
 14
0.0
 24
0.0
 34
0.0
 15
0.0
 25
0.0
 35
0.0
146
0.0
 13
0.0
 23
0.0
 33
0.0
 16
1.0
 26
0.0
 36
0.0
 17
0.0
 27
1.0
 37
0.0
 76
0
330
213
345
0
346
0
  0
ENDSEC
  0
EOF
