999
DXF file: C:\Users\sesa63760\Dev\_Creo\CAD\MCADUE0003030_3D-CAD\drw0001_3.dxf
999
Pro/ENGINEER 2019471 by Parametric Technology Corporation
  0
SECTION
  2
HEADER
  9
$ACADVER
  1
AC1024
  9
$DWGCODEPAGE
  3
ANSI_1252
  9
$EXTMAX
 10
379.2188847144
 20
536.323851239
 30
0.0
  9
$EXTMIN
 10
0.0
 20
0.0
 30
0.0
  9
$LIMMIN
 10
0.0
 20
0.0
  9
$LIMMAX
 10
379.2188847144
 20
536.323851239
  9
$VIEWCTR
 10
189.6094423572
 20
268.1619256195
  9
$VIEWSIZE
 40
536.323851239
  9
$CLAYER
  8
0
  9
$LTSCALE
 40
34.9603695622
  9
$CELTYPE
  6
BYLAYER
  9
$DIMSCALE
 40
1.0
  9
$DIMASZ
 40
4.5145105323
  9
$DIMEXO
 40
1.0
  9
$DIMDLI
 40
24.1544371521
  9
$DIMEXE
 40
1.0
  9
$DIMCEN
 40
5.7207877465
  9
$DIMLFAC
 40
1.0
  9
$DIMBLK
  1
_FILLED
  9
$DIMALT
 70
0
  9
$DIMALTF
 40
0.0393700787
  9
$DIMTXT
 40
6.3203147452
  9
$DIMTOL
 70
1
  9
$DIMLIM
 70
0
  9
$DIMTFAC
 40
1.0
  9
$DIMTP
 40
0.01
  9
$DIMTM
 40
0.01
  9
$DIMGAP
 40
0.625
  9
$DIMDSEP
 70
46
  9
$AUNITS
 70
0
  9
$PDMODE
 70
3
  9
$PDSIZE
 40
0.3125
  9
$HANDSEED
  5
346
  9
$TILEMODE
 70
1
  9
$MEASUREMENT
 70
1
  9
$INSUNITS
 70
4
  0
ENDSEC
  0
SECTION
  2
CLASSES
  0
CLASS
  1
ACDBDICTIONARYWDFLT
  2
AcDbDictionaryWithDefault
  3
AutoCAD 2000
 90
0
 91
1
280
0
281
0
  0
CLASS
  1
ACDBPLACEHOLDER
  2
AcDbPlaceHolder
  3
AutoCAD 2000
 90
0
 91
1
280
0
281
0
  0
CLASS
  1
LAYOUT
  2
AcDbLayout
  3
AutoCAD 2000
 90
0
 91
0
280
0
281
0
  0
ENDSEC
  0
SECTION
  2
TABLES
  0
TABLE
  2
VPORT
  5
8
100
AcDbSymbolTable
 70
2
  0
VPORT
  5
1F4
100
AcDbSymbolTableRecord
100
AcDbViewportTableRecord
  2
*ACTIVE
 70
0
 10
0.0
 20
0.0
 11
1.0
 21
1.0
 12
189.6094423572
 22
268.1619256195
 13
0.0
 23
0.0
 14
1.0
 24
1.0
 15
0.0
 25
0.0
 16
0.0
 26
0.0
 36
1.0
 17
0.0
 27
0.0
 37
0.0
 40
536.323851239
 41
0.7070707071
 42
50.0
 43
0.0
 44
0.0
 50
0.0
 51
0.0
 71
0
 72
100
 73
1
 74
1
 75
0
 76
0
 77
0
 78
0
  0
ENDTAB
  0
TABLE
  2
LTYPE
  5
5
100
AcDbSymbolTable
 70
6
  0
LTYPE
  5
14
100
AcDbSymbolTableRecord
100
AcDbLinetypeTableRecord
  2
BYBLOCK
 70
0
  3

 72
65
 73
0
 40
0.0
  0
LTYPE
  5
15
100
AcDbSymbolTableRecord
100
AcDbLinetypeTableRecord
  2
BYLAYER
 70
0
  3

 72
65
 73
0
 40
0.0
  0
LTYPE
  5
16
100
AcDbSymbolTableRecord
100
AcDbLinetypeTableRecord
  2
CONTINUOUS
 70
64
  3
Solid line
 72
65
 73
0
 40
0.0
  0
LTYPE
  5
1F5
100
AcDbSymbolTableRecord
100
AcDbLinetypeTableRecord
  2
CENTER
 70
64
  3
____ _ ____ _ ____ _ ____ _ ____ _ ____ _ ____
 72
65
 73
4
 40
0.6
 49
0.375
 74
0
 49
-0.075
 74
0
 49
0.075
 74
0
 49
-0.075
 74
0
  0
LTYPE
  5
1F6
100
AcDbSymbolTableRecord
100
AcDbLinetypeTableRecord
  2
HIDDEN
 70
64
  3
- - - - - - - - - - - - - - - - - - - -
 72
65
 73
2
 40
0.2
 49
0.1
 74
0
 49
-0.1
 74
0
  0
LTYPE
  5
1F7
100
AcDbSymbolTableRecord
100
AcDbLinetypeTableRecord
  2
PHANTOM
 70
64
  3
_____ _ _ _____ _ _ _____ _ _ _____
 72
65
 73
6
 40
0.8
 49
0.45
 74
0
 49
-0.05
 74
0
 49
0.1
 74
0
 49
-0.05
 74
0
 49
0.1
 74
0
 49
-0.05
 74
0
  0
LTYPE
  5
1F8
100
AcDbSymbolTableRecord
100
AcDbLinetypeTableRecord
  2
DOT
 70
64
  3
. . . . . . . . . . . . . . . . . . . .
 72
65
 73
2
 40
0.2
 49
0.1
 74
0
 49
-0.1
 74
0
  0
LTYPE
  5
1F9
100
AcDbSymbolTableRecord
100
AcDbLinetypeTableRecord
  2
DASHED
 70
64
  3
- - - - - - - - - - - - - - - - - - - -
 72
65
 73
2
 40
0.2
 49
0.1
 74
0
 49
-0.1
 74
0
  0
ENDTAB
  0
TABLE
  2
LAYER
  5
2
100
AcDbSymbolTable
 70
36
  0
LAYER
  5
10
100
AcDbSymbolTableRecord
100
AcDbLayerTableRecord
  2
0
 70
0
 62
7
  6
CONTINUOUS
370
-3
390
F
  0
LAYER
  5
1FA
100
AcDbSymbolTableRecord
100
AcDbLayerTableRecord
  2
DEFAULT_1
 70
0
 62
7
  6
CENTER
370
-3
390
F
  0
LAYER
  5
1FB
100
AcDbSymbolTableRecord
100
AcDbLayerTableRecord
  2
DEFAULT_2
 70
0
 62
8
  6
HIDDEN
370
-3
390
F
  0
LAYER
  5
1FC
100
AcDbSymbolTableRecord
100
AcDbLayerTableRecord
  2
DEFAULT_3
 70
0
 62
7
  6
PHANTOM
370
-3
390
F
  0
LAYER
  5
1FD
100
AcDbSymbolTableRecord
100
AcDbLayerTableRecord
  2
00_COMPONENTS
 70
0
 62
7
  6
CONTINUOUS
370
-3
390
F
  0
LAYER
  5
1FE
100
AcDbSymbolTableRecord
100
AcDbLayerTableRecord
  2
01_1_DEFAULT_DATUMS
 70
0
 62
7
  6
CONTINUOUS
370
-3
390
F
  0
LAYER
  5
1FF
100
AcDbSymbolTableRecord
100
AcDbLayerTableRecord
  2
01_PLANES
 70
0
 62
7
  6
CONTINUOUS
370
-3
390
F
  0
LAYER
  5
200
100
AcDbSymbolTableRecord
100
AcDbLayerTableRecord
  2
02_COORD_SYS
 70
0
 62
7
  6
CONTINUOUS
370
-3
390
F
  0
LAYER
  5
201
100
AcDbSymbolTableRecord
100
AcDbLayerTableRecord
  2
03_AXES
 70
0
 62
7
  6
CONTINUOUS
370
-3
390
F
  0
LAYER
  5
202
100
AcDbSymbolTableRecord
100
AcDbLayerTableRecord
  2
04_POINTS
 70
0
 62
7
  6
CONTINUOUS
370
-3
390
F
  0
LAYER
  5
203
100
AcDbSymbolTableRecord
100
AcDbLayerTableRecord
  2
05_CURVES
 70
0
 62
7
  6
CONTINUOUS
370
-3
390
F
  0
LAYER
  5
204
100
AcDbSymbolTableRecord
100
AcDbLayerTableRecord
  2
06_SURFS
 70
0
 62
7
  6
CONTINUOUS
370
-3
390
F
  0
LAYER
  5
205
100
AcDbSymbolTableRecord
100
AcDbLayerTableRecord
  2
07_COSMETICS
 70
0
 62
7
  6
CONTINUOUS
370
-3
390
F
  0
LAYER
  5
206
100
AcDbSymbolTableRecord
100
AcDbLayerTableRecord
  2
10_NOTES
 70
0
 62
7
  6
CONTINUOUS
370
-3
390
F
  0
LAYER
  5
207
100
AcDbSymbolTableRecord
100
AcDbLayerTableRecord
  2
11_NOTES_PUB
 70
0
 62
7
  6
CONTINUOUS
370
-3
390
F
  0
LAYER
  5
208
100
AcDbSymbolTableRecord
100
AcDbLayerTableRecord
  2
13_REF_GTOL
 70
0
 62
7
  6
CONTINUOUS
370
-3
390
F
  0
LAYER
  5
209
100
AcDbSymbolTableRecord
100
AcDbLayerTableRecord
  2
16_MISC
 70
0
 62
7
  6
CONTINUOUS
370
-3
390
F
  0
LAYER
  5
20A
100
AcDbSymbolTableRecord
100
AcDbLayerTableRecord
  2
17_NO_PRINT
 70
0
 62
7
  6
CONTINUOUS
370
-3
390
F
  0
LAYER
  5
20B
100
AcDbSymbolTableRecord
100
AcDbLayerTableRecord
  2
18_DATUM_CAMS_JOINTS
 70
0
 62
7
  6
CONTINUOUS
370
-3
390
F
  0
LAYER
  5
20C
100
AcDbSymbolTableRecord
100
AcDbLayerTableRecord
  2
19_DATUM_FUNCTIONAL
 70
0
 62
7
  6
CONTINUOUS
370
-3
390
F
  0
LAYER
  5
20D
100
AcDbSymbolTableRecord
100
AcDbLayerTableRecord
  2
20_DATUM_KINEMATIC_SCHEME
 70
0
 62
7
  6
CONTINUOUS
370
-3
390
F
  0
ENDTAB
  0
TABLE
  2
STYLE
  5
3
100
AcDbSymbolTable
 70
1
  0
STYLE
  5
11
100
AcDbSymbolTableRecord
100
AcDbTextStyleTableRecord
  2
STANDARD
 70
0
 40
0.0
 41
0.8
 50
0.0
 71
0
 42
0.2
  3
txt
  4

  0
STYLE
  5
20E
100
AcDbSymbolTableRecord
100
AcDbTextStyleTableRecord
  2
TEXTSTYLE_1
 70
0
 40
0.0
 41
0.8
 50
0.0
 71
0
 42
0.2
  3
gdt
  4

  0
ENDTAB
  0
TABLE
  2
VIEW
  5
6
100
AcDbSymbolTable
 70
0
  0
ENDTAB
  0
TABLE
  2
UCS
  5
7
100
AcDbSymbolTable
 70
0
  0
ENDTAB
  0
TABLE
  2
APPID
  5
9
100
AcDbSymbolTable
 70
1
  0
APPID
  5
20F
100
AcDbSymbolTableRecord
100
AcDbRegAppTableRecord
  2
ACAD
 70
0
  0
ENDTAB
  0
TABLE
  2
BLOCK_RECORD
  5
1
100
AcDbSymbolTable
 70
0
  0
BLOCK_RECORD
  5
210
100
AcDbSymbolTableRecord
100
AcDbBlockTableRecord
  2
*Model_Space
  0
BLOCK_RECORD
  5
211
100
AcDbSymbolTableRecord
100
AcDbBlockTableRecord
  2
*Paper_Space
  0
BLOCK_RECORD
  5
212
100
AcDbSymbolTableRecord
100
AcDbBlockTableRecord
  2
_FILLED
  0
ENDTAB
  0
TABLE
  2
DIMSTYLE
  5
A
100
AcDbSymbolTable
 70
1
100
AcDbDimStyleTable
 71
0
  0
DIMSTYLE
105
213
100
AcDbSymbolTableRecord
100
AcDbDimStyleTableRecord
  2
STANDARD
 70
0
  3

  4

 40
1.0
 41
4.5145105323
 42
1.0
 43
0.38
 44
1.0
 45
0.0
 46
0.0
 47
0.01
 48
0.01
140
6.3203147452
141
0.09
142
0.0
143
25.4
144
1.0
145
0.0
146
1.0
147
0.625
 71
1
 72
0
 73
0
 74
0
 75
0
 76
0
 77
1
 78
8
 79
2
170
0
171
1
172
0
173
0
174
0
175
0
176
0
177
0
178
0
270
2
179
2
271
2
272
2
273
2
274
2
275
0
280
0
281
0
282
0
283
1
284
8
285
0
286
0
287
3
288
0
340
11
278
46
341
212
342
212
343
212
344
212
  0
ENDTAB
  0
ENDSEC
  0
SECTION
  2
BLOCKS
  0
BLOCK
  5
20
100
AcDbEntity
  8
0
100
AcDbBlockBegin
  2
*Model_Space
 70
0
 10
0.0
 20
0.0
 30
0.0
  3
*Model_Space
  1

  0
ENDBLK
  5
21
100
AcDbEntity
  8
0
100
AcDbBlockEnd
  0
BLOCK
  5
1C
100
AcDbEntity
  8
0
100
AcDbBlockBegin
  2
*Paper_Space
 70
0
 10
0.0
 20
0.0
 30
0.0
  3
*Paper_Space
  1

  0
ENDBLK
  5
1D
100
AcDbEntity
  8
0
100
AcDbBlockEnd
  0
BLOCK
  5
214
100
AcDbEntity
  8
0
100
AcDbBlockBegin
  2
_FILLED
 70
64
 10
0.0
 20
0.0
  3
_FILLED
  1

  0
SOLID
  5
215
100
AcDbEntity
  8
0
  6
BYBLOCK
 62
0
100
AcDbTrace
 10
0.0
 20
0.0
 11
-1.0
 21
0.25
 12
-1.0
 22
-0.25
 13
-1.0
 23
-0.25
  0
ENDBLK
  5
216
100
AcDbEntity
  8
0
  6
BYBLOCK
 62
0
100
AcDbBlockEnd
  0
ENDSEC
  0
SECTION
  2
ENTITIES
  0
LINE
  5
217
100
AcDbEntity
  8
0
100
AcDbLine
 62
7
  6
CONTINUOUS
 10
44.8610834954
 20
192.1748059282
 11
44.8610834954
 21
313.7748059282
  0
LINE
  5
218
100
AcDbEntity
  8
0
100
AcDbLine
 62
7
  6
CONTINUOUS
 10
46.3865397806
 20
334.3172125957
 11
46.3865397806
 21
324.0851025396
  0
LINE
  5
219
100
AcDbEntity
  8
0
100
AcDbLine
 62
7
  6
CONTINUOUS
 10
47.3865397806
 20
324.0851025396
 11
47.3865397806
 21
334.3172125957
  0
LINE
  5
21A
100
AcDbEntity
  8
0
100
AcDbLine
 62
7
  6
CONTINUOUS
 10
50.8610834954
 20
317.1748059282
 11
50.8610834954
 21
316.9748059282
  0
LINE
  5
21B
100
AcDbEntity
  8
0
100
AcDbLine
 62
7
  6
CONTINUOUS
 10
47.7510951843
 20
336.9384991375
 11
55.5600513087
 21
342.4063890813
  0
LINE
  5
21C
100
AcDbEntity
  8
0
100
AcDbLine
 62
7
  6
CONTINUOUS
 10
53.5599129546
 20
339.7851025396
 11
48.3246716206
 21
336.1193470932
  0
LINE
  5
21D
100
AcDbEntity
  8
0
100
AcDbLine
 62
7
  6
CONTINUOUS
 10
60.8610834954
 20
316.9748059282
 11
60.8610834954
 21
317.1748059282
  0
LINE
  5
21E
100
AcDbEntity
  8
0
100
AcDbLine
 62
7
  6
CONTINUOUS
 10
67.1110834954
 20
265.2248059282
 11
67.1110834954
 21
228.7248059282
  0
LINE
  5
21F
100
AcDbEntity
  8
0
100
AcDbLine
 62
7
  6
CONTINUOUS
 10
67.6110834954
 20
228.7248059282
 11
67.6110834954
 21
265.2248059282
  0
LINE
  5
220
100
AcDbEntity
  8
0
100
AcDbLine
 62
7
  6
CONTINUOUS
 10
68.432884233
 20
264.2248059279
 11
68.432884233
 21
229.7248059287
  0
LINE
  5
221
100
AcDbEntity
  8
0
100
AcDbLine
 62
7
  6
CONTINUOUS
 10
70.4024997391
 20
229.7248059282
 11
70.4024997391
 21
264.2248059282
  0
LINE
  5
222
100
AcDbEntity
  8
0
100
AcDbLine
 62
7
  6
CONTINUOUS
 10
70.4943563157
 20
264.2248059282
 11
70.4943563157
 21
229.7248059282
  0
LINE
  5
223
100
AcDbEntity
  8
0
100
AcDbLine
 62
7
  6
CONTINUOUS
 10
71.4791640687
 20
229.7248059282
 11
71.4791640687
 21
264.2248059282
  0
LINE
  5
224
100
AcDbEntity
  8
0
100
AcDbLine
 62
7
  6
CONTINUOUS
 10
72.3610834954
 20
261.9748059282
 11
72.3610834954
 21
231.9748059282
  0
LINE
  5
225
100
AcDbEntity
  8
0
100
AcDbLine
 62
7
  6
CONTINUOUS
 10
80.4612561887
 20
345.1247005264
 11
80.3865397806
 21
342.9851025396
  0
LINE
  5
226
100
AcDbEntity
  8
0
100
AcDbLine
 62
7
  6
CONTINUOUS
 10
64.3981438541
 20
319.356423919
 11
63.6928001821
 21
322.9851025396
  0
LINE
  5
227
100
AcDbEntity
  8
0
100
AcDbLine
 62
7
  6
CONTINUOUS
 10
64.6744273656
 20
322.9851025396
 11
65.3797710376
 21
319.356423919
  0
LINE
  5
228
100
AcDbEntity
  8
0
100
AcDbLine
 62
7
  6
CONTINUOUS
 10
94.1110834954
 20
201.7248059282
 11
94.1110834954
 21
202.2248059282
  0
LINE
  5
229
100
AcDbEntity
  8
0
100
AcDbLine
 62
7
  6
CONTINUOUS
 10
94.1110834954
 20
291.7248059282
 11
94.1110834954
 21
292.2248059282
  0
LINE
  5
22A
100
AcDbEntity
  8
0
100
AcDbLine
 62
7
  6
CONTINUOUS
 10
108.8419265146
 20
348.9501458083
 11
108.782116896
 21
348.9290355311
  0
LINE
  5
22B
100
AcDbEntity
  8
0
100
AcDbLine
 62
7
  6
CONTINUOUS
 10
108.7950400322
 20
348.9336462324
 11
108.761477312
 21
348.9237832105
  0
LINE
  5
22C
100
AcDbEntity
  8
0
100
AcDbLine
 62
7
  6
CONTINUOUS
 10
95.1110834954
 20
203.0466066659
 11
95.1110834954
 21
206.0928865015
  0
LINE
  5
22D
100
AcDbEntity
  8
0
100
AcDbLine
 62
7
  6
CONTINUOUS
 10
95.1110834954
 20
287.8567253549
 11
95.1110834954
 21
290.9030051906
  0
LINE
  5
22E
100
AcDbEntity
  8
0
100
AcDbLine
 62
7
  6
CONTINUOUS
 10
112.3118233725
 20
345.1247005264
 11
112.3865397806
 21
342.9851025396
  0
LINE
  5
22F
100
AcDbEntity
  8
0
100
AcDbLine
 62
7
  6
CONTINUOUS
 10
47.0610834954
 20
189.9748059282
 11
342.6610834954
 21
189.9748059282
  0
LINE
  5
230
100
AcDbEntity
  8
0
100
AcDbLine
 62
7
  6
CONTINUOUS
 10
344.8610834954
 20
192.1748059282
 11
44.8610834954
 21
192.1748059282
  0
LINE
  5
231
100
AcDbEntity
  8
0
100
AcDbLine
 62
7
  6
CONTINUOUS
 10
94.1110834954
 20
201.7248059282
 11
295.6110834954
 21
201.7248059282
  0
LINE
  5
232
100
AcDbEntity
  8
0
100
AcDbLine
 62
7
  6
CONTINUOUS
 10
295.6110834954
 20
202.2248059282
 11
94.1110834954
 21
202.2248059282
  0
LINE
  5
233
100
AcDbEntity
  8
0
100
AcDbLine
 62
7
  6
CONTINUOUS
 10
95.1110834954
 20
203.0466066659
 11
294.6110834954
 21
203.0466066659
  0
LINE
  5
234
100
AcDbEntity
  8
0
100
AcDbLine
 62
7
  6
CONTINUOUS
 10
52.3900425954
 20
338.9659504953
 11
51.816466159
 21
339.7851025396
  0
LINE
  5
235
100
AcDbEntity
  8
0
100
AcDbLine
 62
7
  6
CONTINUOUS
 10
55.5600513087
 20
342.4063890813
 11
55.7644643452
 21
342.1144570108
  0
LINE
  5
236
100
AcDbEntity
  8
0
100
AcDbLine
 62
7
  6
CONTINUOUS
 10
294.6110834954
 20
205.0162221719
 11
95.1110834954
 21
205.0162221719
  0
LINE
  5
237
100
AcDbEntity
  8
0
100
AcDbLine
 62
7
  6
CONTINUOUS
 10
95.1110834954
 20
205.1080787485
 11
294.6110834954
 21
205.1080787485
  0
LINE
  5
238
100
AcDbEntity
  8
0
100
AcDbLine
 62
7
  6
CONTINUOUS
 10
294.6110834954
 20
206.0928865015
 11
95.1110834954
 21
206.0928865015
  0
LINE
  5
239
100
AcDbEntity
  8
0
100
AcDbLine
 62
7
  6
CONTINUOUS
 10
292.3610834954
 20
206.9748059282
 11
97.3610834954
 21
206.9748059282
  0
LINE
  5
23A
100
AcDbEntity
  8
0
100
AcDbLine
 62
7
  6
CONTINUOUS
 10
322.6110834954
 20
228.7248059282
 11
322.1110834954
 21
228.7248059282
  0
LINE
  5
23B
100
AcDbEntity
  8
0
100
AcDbLine
 62
7
  6
CONTINUOUS
 10
67.6110834954
 20
228.7248059282
 11
67.1110834954
 21
228.7248059282
  0
LINE
  5
23C
100
AcDbEntity
  8
0
100
AcDbLine
 62
7
  6
CONTINUOUS
 10
321.2892827578
 20
229.7248059282
 11
318.2430029221
 21
229.7248059282
  0
LINE
  5
23D
100
AcDbEntity
  8
0
100
AcDbLine
 62
7
  6
CONTINUOUS
 10
71.4791640687
 20
229.7248059282
 11
68.432884233
 21
229.7248059282
  0
LINE
  5
23E
100
AcDbEntity
  8
0
100
AcDbLine
 62
7
  6
CONTINUOUS
 10
68.432884233
 20
264.2248059282
 11
71.4791640687
 21
264.2248059282
  0
LINE
  5
23F
100
AcDbEntity
  8
0
100
AcDbLine
 62
7
  6
CONTINUOUS
 10
318.2430029221
 20
264.2248059282
 11
321.2892827578
 21
264.2248059282
  0
LINE
  5
240
100
AcDbEntity
  8
0
100
AcDbLine
 62
7
  6
CONTINUOUS
 10
67.1110834954
 20
265.2248059282
 11
67.6110834954
 21
265.2248059282
  0
LINE
  5
241
100
AcDbEntity
  8
0
100
AcDbLine
 62
7
  6
CONTINUOUS
 10
322.1110834954
 20
265.2248059282
 11
322.6110834954
 21
265.2248059282
  0
LINE
  5
242
100
AcDbEntity
  8
0
100
AcDbLine
 62
7
  6
CONTINUOUS
 10
97.3610834954
 20
286.9748059282
 11
292.3610834954
 21
286.9748059282
  0
LINE
  5
243
100
AcDbEntity
  8
0
100
AcDbLine
 62
7
  6
CONTINUOUS
 10
95.1110834954
 20
287.8567253549
 11
294.6110834954
 21
287.8567253549
  0
LINE
  5
244
100
AcDbEntity
  8
0
100
AcDbLine
 62
7
  6
CONTINUOUS
 10
294.6110834954
 20
288.8415331079
 11
95.1110834954
 21
288.8415331079
  0
LINE
  5
245
100
AcDbEntity
  8
0
100
AcDbLine
 62
7
  6
CONTINUOUS
 10
95.1110834954
 20
288.9333896845
 11
294.6110834954
 21
288.9333896845
  0
LINE
  5
246
100
AcDbEntity
  8
0
100
AcDbLine
 62
7
  6
CONTINUOUS
 10
294.6110834951
 20
290.9030051906
 11
95.1110834959
 21
290.9030051906
  0
LINE
  5
247
100
AcDbEntity
  8
0
100
AcDbLine
 62
7
  6
CONTINUOUS
 10
94.1110834954
 20
291.7248059282
 11
295.6110834954
 21
291.7248059282
  0
LINE
  5
248
100
AcDbEntity
  8
0
100
AcDbLine
 62
7
  6
CONTINUOUS
 10
295.6110834954
 20
292.2248059282
 11
94.1110834954
 21
292.2248059282
  0
LINE
  5
249
100
AcDbEntity
  8
0
100
AcDbLine
 62
7
  6
CONTINUOUS
 10
44.8610834954
 20
313.7748059282
 11
344.8610834954
 21
313.7748059282
  0
LINE
  5
24A
100
AcDbEntity
  8
0
100
AcDbLine
 62
7
  6
CONTINUOUS
 10
84.0116004061
 20
348.9237866405
 11
83.9781183699
 21
348.9336261453
  0
LINE
  5
24B
100
AcDbEntity
  8
0
100
AcDbLine
 62
7
  6
CONTINUOUS
 10
89.1505617293
 20
348.9033816245
 11
88.933296675
 21
348.967568409
  0
LINE
  5
24C
100
AcDbEntity
  8
0
100
AcDbLine
 62
7
  6
CONTINUOUS
 10
89.1513560206
 20
348.9031818461
 11
88.9455679565
 21
348.9659701583
  0
LINE
  5
24D
100
AcDbEntity
  8
0
100
AcDbLine
 62
7
  6
CONTINUOUS
 10
88.9469267668
 20
348.9655356772
 11
88.9455679565
 21
348.9659701583
  0
LINE
  5
24E
100
AcDbEntity
  8
0
100
AcDbLine
 62
7
  6
CONTINUOUS
 10
83.9910214156
 20
348.9290261881
 11
83.9311530466
 21
348.9501458084
  0
LINE
  5
24F
100
AcDbEntity
  8
0
100
AcDbLine
 62
7
  6
CONTINUOUS
 10
342.3610834954
 20
316.9748059282
 11
48.0610834954
 21
316.9748059282
  0
LINE
  5
250
100
AcDbEntity
  8
0
100
AcDbLine
 62
7
  6
CONTINUOUS
 10
50.8610834954
 20
317.1748059282
 11
60.8610834954
 21
317.1748059282
  0
LINE
  5
251
100
AcDbEntity
  8
0
100
AcDbLine
 62
7
  6
CONTINUOUS
 10
55.1110834953
 20
318.1748059282
 11
56.6110834955
 21
318.1748059282
  0
LINE
  5
252
100
AcDbEntity
  8
0
100
AcDbLine
 62
7
  6
CONTINUOUS
 10
328.0741804993
 20
318.4748059282
 11
340.5610834954
 21
318.4748059282
  0
LINE
  5
253
100
AcDbEntity
  8
0
100
AcDbLine
 62
7
  6
CONTINUOUS
 10
333.0804916588
 20
319.0030901994
 11
338.9733268203
 21
319.0031076254
  0
LINE
  5
254
100
AcDbEntity
  8
0
100
AcDbLine
 62
7
  6
CONTINUOUS
 10
333.0804916588
 20
319.1748059282
 11
338.9732159652
 21
319.1748059282
  0
LINE
  5
255
100
AcDbEntity
  8
0
100
AcDbLine
 62
7
  6
CONTINUOUS
 10
324.3423959532
 20
319.356423919
 11
65.3797710376
 21
319.356423919
  0
LINE
  5
256
100
AcDbEntity
  8
0
100
AcDbLine
 62
7
  6
CONTINUOUS
 10
340.4947864967
 20
322.9851025396
 11
48.2782930645
 21
322.9851025396
  0
LINE
  5
257
100
AcDbEntity
  8
0
100
AcDbLine
 62
7
  6
CONTINUOUS
 10
342.3865397806
 20
324.0851025396
 11
46.3865397806
 21
324.0851025396
  0
LINE
  5
258
100
AcDbEntity
  8
0
100
AcDbLine
 62
7
  6
CONTINUOUS
 10
88.9333391236
 20
348.9693110994
 11
88.9355650554
 21
348.9687520055
  0
LWPOLYLINE
  5
259
100
AcDbEntity
  8
0
100
AcDbPolyline
 62
7
  6
CONTINUOUS
 90
3
 70
0
 10
84.0173601442
 20
348.9433859761
 10
83.9487661121
 20
348.9520672521
 10
83.9311132353
 20
348.9504356205
  0
LINE
  5
25A
100
AcDbEntity
  8
0
100
AcDbLine
 62
7
  6
CONTINUOUS
 10
333.0086152161
 20
342.1144570107
 11
333.2130282525
 21
342.4063890813
  0
LINE
  5
25B
100
AcDbEntity
  8
0
100
AcDbLine
 62
7
  6
CONTINUOUS
 10
336.9566134022
 20
339.7851025396
 11
336.3830369658
 21
338.9659504953
  0
LINE
  5
25C
100
AcDbEntity
  8
0
100
AcDbLine
 62
7
  6
CONTINUOUS
 10
65.3797710376
 20
319.5472329143
 11
64.3981438541
 21
319.356423919
  0
LINE
  5
25D
100
AcDbEntity
  8
0
100
AcDbLine
 62
7
  6
CONTINUOUS
 10
53.5599129546
 20
339.7851025396
 11
335.2131666066
 21
339.7851025396
  0
LINE
  5
25E
100
AcDbEntity
  8
0
100
AcDbLine
 62
7
  6
CONTINUOUS
 10
331.3775836562
 20
342.9851025396
 11
57.395495905
 21
342.9851025396
  0
LINE
  5
25F
100
AcDbEntity
  8
0
100
AcDbLine
 62
7
  6
CONTINUOUS
 10
84.7656384865
 20
343.8237178235
 11
108.0074108976
 21
343.8237178235
  0
LINE
  5
260
100
AcDbEntity
  8
0
100
AcDbLine
 62
7
  6
CONTINUOUS
 10
107.9278341797
 20
344.5661697316
 11
84.8452523259
 21
344.5661697316
  0
LINE
  5
261
100
AcDbEntity
  8
0
100
AcDbLine
 62
7
  6
CONTINUOUS
 10
80.4612561949
 20
345.1247007045
 11
81.8186331158
 21
345.1247007045
  0
LINE
  5
262
100
AcDbEntity
  8
0
100
AcDbLine
 62
7
  6
CONTINUOUS
 10
110.9544445686
 20
345.1247007045
 11
112.3118233663
 21
345.1247007045
  0
LWPOLYLINE
  5
263
100
AcDbEntity
  8
0
100
AcDbPolyline
 62
7
  6
CONTINUOUS
 90
3
 70
0
 10
108.841966326
 20
348.9504356205
 10
108.8243366782
 20
348.9520661387
 10
108.7557194179
 20
348.9433859763
  0
LINE
  5
264
100
AcDbEntity
  8
0
100
AcDbLine
 62
7
  6
CONTINUOUS
 10
325.3240231367
 20
319.356423919
 11
324.3423959533
 21
319.5472329143
  0
LINE
  5
265
100
AcDbEntity
  8
0
100
AcDbLine
 62
7
  6
CONTINUOUS
 10
294.6110834954
 20
290.9030051906
 11
294.6110834954
 21
287.8567253549
  0
LINE
  5
266
100
AcDbEntity
  8
0
100
AcDbLine
 62
7
  6
CONTINUOUS
 10
294.6110834954
 20
206.0928865015
 11
294.6110834954
 21
203.0466066659
  0
LINE
  5
267
100
AcDbEntity
  8
0
100
AcDbLine
 62
7
  6
CONTINUOUS
 10
295.6110834954
 20
292.2248059282
 11
295.6110834954
 21
291.7248059282
  0
LINE
  5
268
100
AcDbEntity
  8
0
100
AcDbLine
 62
7
  6
CONTINUOUS
 10
295.6110834954
 20
202.2248059282
 11
295.6110834954
 21
201.7248059282
  0
LINE
  5
269
100
AcDbEntity
  8
0
100
AcDbLine
 62
7
  6
CONTINUOUS
 10
317.3610834954
 20
261.9748059282
 11
317.3610834954
 21
231.9748059282
  0
LINE
  5
26A
100
AcDbEntity
  8
0
100
AcDbLine
 62
7
  6
CONTINUOUS
 10
318.2430029221
 20
264.2248059282
 11
318.2430029221
 21
229.7248059282
  0
LINE
  5
26B
100
AcDbEntity
  8
0
100
AcDbLine
 62
7
  6
CONTINUOUS
 10
319.2278106751
 20
229.7248059282
 11
319.2278106751
 21
264.2248059282
  0
LINE
  5
26C
100
AcDbEntity
  8
0
100
AcDbLine
 62
7
  6
CONTINUOUS
 10
319.3196672517
 20
264.2248059282
 11
319.3196672517
 21
229.7248059282
  0
LINE
  5
26D
100
AcDbEntity
  8
0
100
AcDbLine
 62
7
  6
CONTINUOUS
 10
324.3423959532
 20
319.356423919
 11
325.0477396253
 21
322.9851025396
  0
LINE
  5
26E
100
AcDbEntity
  8
0
100
AcDbLine
 62
7
  6
CONTINUOUS
 10
326.0293668087
 20
322.9851025396
 11
325.3240231367
 21
319.356423919
  0
LINE
  5
26F
100
AcDbEntity
  8
0
100
AcDbLine
 62
7
  6
CONTINUOUS
 10
326.2097213026
 20
322.9851025396
 11
325.6201125409
 21
319.9518284167
  0
LINE
  5
270
100
AcDbEntity
  8
0
100
AcDbLine
 62
7
  6
CONTINUOUS
 10
327.092553316
 20
319.6656149237
 11
327.737796345
 21
322.9851025396
  0
LINE
  5
271
100
AcDbEntity
  8
0
100
AcDbLine
 62
7
  6
CONTINUOUS
 10
332.8881868693
 20
319.0297501538
 11
332.7296313763
 21
318.4748059282
  0
LINE
  5
272
100
AcDbEntity
  8
0
100
AcDbLine
 62
7
  6
CONTINUOUS
 10
333.0804916588
 20
319.0030901994
 11
332.9295532956
 21
318.4748059282
  0
LINE
  5
273
100
AcDbEntity
  8
0
100
AcDbLine
 62
7
  6
CONTINUOUS
 10
321.2892827578
 20
229.7248059287
 11
321.2892827578
 21
264.2248059277
  0
LINE
  5
274
100
AcDbEntity
  8
0
100
AcDbLine
 62
7
  6
CONTINUOUS
 10
322.1110834954
 20
265.2248059282
 11
322.1110834954
 21
228.7248059282
  0
LINE
  5
275
100
AcDbEntity
  8
0
100
AcDbLine
 62
7
  6
CONTINUOUS
 10
322.6110834954
 20
228.7248059282
 11
322.6110834954
 21
265.2248059282
  0
LINE
  5
276
100
AcDbEntity
  8
0
100
AcDbLine
 62
7
  6
CONTINUOUS
 10
340.2532925992
 20
318.4748059282
 11
340.1585402242
 21
318.5576908001
  0
LINE
  5
277
100
AcDbEntity
  8
0
100
AcDbLine
 62
7
  6
CONTINUOUS
 10
340.5312459817
 20
318.4690660926
 11
340.2902251011
 21
318.6799593631
  0
LINE
  5
278
100
AcDbEntity
  8
0
100
AcDbLine
 62
7
  6
CONTINUOUS
 10
338.9732159381
 20
319.1748059282
 11
338.9732159381
 21
319.0030989122
  0
LINE
  5
279
100
AcDbEntity
  8
0
100
AcDbLine
 62
7
  6
CONTINUOUS
 10
340.3610834954
 20
318.4748059282
 11
340.3610834954
 21
316.9748059282
  0
LINE
  5
27A
100
AcDbEntity
  8
0
100
AcDbLine
 62
7
  6
CONTINUOUS
 10
341.3865397806
 20
334.3172125957
 11
341.3865397806
 21
324.0851025396
  0
LINE
  5
27B
100
AcDbEntity
  8
0
100
AcDbLine
 62
7
  6
CONTINUOUS
 10
342.3610834954
 20
316.9748059282
 11
342.3610834954
 21
317.4748059282
  0
LINE
  5
27C
100
AcDbEntity
  8
0
100
AcDbLine
 62
7
  6
CONTINUOUS
 10
342.3865397806
 20
324.0851025396
 11
342.3865397806
 21
334.3172125957
  0
LINE
  5
27D
100
AcDbEntity
  8
0
100
AcDbLine
 62
7
  6
CONTINUOUS
 10
340.4484079406
 20
336.1193470932
 11
335.2131666066
 21
339.7851025396
  0
LINE
  5
27E
100
AcDbEntity
  8
0
100
AcDbLine
 62
7
  6
CONTINUOUS
 10
333.2130282525
 20
342.4063890813
 11
341.0219843769
 21
336.9384991375
  0
LINE
  5
27F
100
AcDbEntity
  8
0
100
AcDbLine
 62
7
  6
CONTINUOUS
 10
344.8610834954
 20
192.1748059282
 11
344.8610834954
 21
313.7748059282
  0
ARC
  5
280
100
AcDbEntity
  8
0
100
AcDbCircle
 62
7
  6
CONTINUOUS
 10
133.4302664199
 20
257.5080852546
 40
104.9306629126
100
AcDbArc
 50
147.2464524023
 51
147.5727953939
  0
ARC
  5
281
100
AcDbEntity
  8
0
100
AcDbCircle
 62
7
  6
CONTINUOUS
 10
94.1110834954
 20
265.2248059282
 40
27.0
100
AcDbArc
 50
90.0
 51
180.0
  0
ARC
  5
282
100
AcDbEntity
  8
0
100
AcDbCircle
 62
7
  6
CONTINUOUS
 10
94.1110834954
 20
228.7248059282
 40
27.0
100
AcDbArc
 50
180.0
 51
270.0
  0
ARC
  5
283
100
AcDbEntity
  8
0
100
AcDbCircle
 62
7
  6
CONTINUOUS
 10
95.1110834954
 20
264.2248059282
 40
26.6781992624
100
AcDbArc
 50
89.9999999989
 51
180.0000000007
  0
ARC
  5
284
100
AcDbEntity
  8
0
100
AcDbCircle
 62
7
  6
CONTINUOUS
 10
95.1110834954
 20
229.7248059282
 40
26.6781992624
100
AcDbArc
 50
179.9999999989
 51
270.0
  0
ARC
  5
285
100
AcDbEntity
  8
0
100
AcDbCircle
 62
7
  6
CONTINUOUS
 10
94.1110834954
 20
228.7248059282
 40
26.5
100
AcDbArc
 50
180.0
 51
270.0
  0
ARC
  5
286
100
AcDbEntity
  8
0
100
AcDbCircle
 62
7
  6
CONTINUOUS
 10
94.1110834954
 20
265.2248059282
 40
26.5
100
AcDbArc
 50
90.0
 51
180.0
  0
ARC
  5
287
100
AcDbEntity
  8
0
100
AcDbCircle
 62
7
  6
CONTINUOUS
 10
97.3610834954
 20
231.9748059282
 40
25.0
100
AcDbArc
 50
180.0
 51
270.0
  0
ARC
  5
288
100
AcDbEntity
  8
0
100
AcDbCircle
 62
7
  6
CONTINUOUS
 10
97.3610834954
 20
261.9748059282
 40
25.0
100
AcDbArc
 50
90.0
 51
180.0
  0
ARC
  5
289
100
AcDbEntity
  8
0
100
AcDbCircle
 62
7
  6
CONTINUOUS
 10
95.1110834954
 20
264.2248059282
 40
24.7085837564
100
AcDbArc
 50
90.0
 51
180.0
  0
ARC
  5
28A
100
AcDbEntity
  8
0
100
AcDbCircle
 62
7
  6
CONTINUOUS
 10
95.1110834954
 20
229.7248059282
 40
24.7085837563
100
AcDbArc
 50
180.0
 51
270.0
  0
ARC
  5
28B
100
AcDbEntity
  8
0
100
AcDbCircle
 62
7
  6
CONTINUOUS
 10
95.1110834954
 20
229.7248059282
 40
24.6167271797
100
AcDbArc
 50
180.0
 51
270.0
  0
ARC
  5
28C
100
AcDbEntity
  8
0
100
AcDbCircle
 62
7
  6
CONTINUOUS
 10
95.1110834954
 20
264.2248059282
 40
24.6167271797
100
AcDbArc
 50
90.0
 51
180.0
  0
ARC
  5
28D
100
AcDbEntity
  8
0
100
AcDbCircle
 62
7
  6
CONTINUOUS
 10
95.1110834954
 20
229.7248059282
 40
23.6319194267
100
AcDbArc
 50
180.0
 51
270.0
  0
ARC
  5
28E
100
AcDbEntity
  8
0
100
AcDbCircle
 62
7
  6
CONTINUOUS
 10
95.1110834954
 20
264.2248059282
 40
23.6319194267
100
AcDbArc
 50
90.0
 51
180.0
  0
CIRCLE
  5
28F
100
AcDbEntity
  8
0
100
AcDbCircle
 62
7
  6
CONTINUOUS
 10
124.8610834954
 20
213.4748059282
 40
3.0
  0
ARC
  5
290
100
AcDbEntity
  8
0
100
AcDbCircle
 62
7
  6
CONTINUOUS
 10
47.0610834954
 20
192.1748059282
 40
2.2
100
AcDbArc
 50
180.0
 51
259.7728760957
  0
CIRCLE
  5
291
100
AcDbEntity
  8
0
100
AcDbCircle
 62
7
  6
CONTINUOUS
 10
124.8610834954
 20
213.4748059282
 40
1.95
  0
CIRCLE
  5
292
100
AcDbEntity
  8
0
100
AcDbCircle
 62
7
  6
CONTINUOUS
 10
169.8610834954
 20
246.9748059282
 40
1.2679491924
  0
CIRCLE
  5
293
100
AcDbEntity
  8
0
100
AcDbCircle
 62
7
  6
CONTINUOUS
 10
119.8610834954
 20
246.9748059282
 40
1.2679491924
  0
CIRCLE
  5
294
100
AcDbEntity
  8
0
100
AcDbCircle
 62
7
  6
CONTINUOUS
 10
144.8610834954
 20
246.9748059282
 40
1.2679491924
  0
ARC
  5
295
100
AcDbEntity
  8
0
100
AcDbCircle
 62
7
  6
CONTINUOUS
 10
55.8610834954
 20
305.4560559282
 40
12.7408438324
100
AcDbArc
 50
93.3747129724
 51
113.1063268583
  0
ARC
  5
296
100
AcDbEntity
  8
0
100
AcDbCircle
 62
7
  6
CONTINUOUS
 10
55.8610834954
 20
305.4560559282
 40
12.7408438324
100
AcDbArc
 50
66.8936731417
 51
86.6252870276
  0
CIRCLE
  5
297
100
AcDbEntity
  8
0
100
AcDbCircle
 62
7
  6
CONTINUOUS
 10
59.8610834954
 20
301.9748059282
 40
6.5
  0
ARC
  5
298
100
AcDbEntity
  8
0
100
AcDbCircle
 62
7
  6
CONTINUOUS
 10
48.0610834954
 20
313.7748059282
 40
3.2
100
AcDbArc
 50
90.0
 51
180.0
  0
ARC
  5
299
100
AcDbEntity
  8
0
100
AcDbCircle
 62
7
  6
CONTINUOUS
 10
60.07355364
 20
336.7792053966
 40
6.8442267411
100
AcDbArc
 50
128.5570115636
 51
129.1576802755
  0
ARC
  5
29A
100
AcDbEntity
  8
0
100
AcDbCircle
 62
7
  6
CONTINUOUS
 10
84.4588194968
 20
344.9851025396
 40
4.0
100
AcDbArc
 50
97.580360278
 51
177.9999974478
  0
ARC
  5
29B
100
AcDbEntity
  8
0
100
AcDbCircle
 62
7
  6
CONTINUOUS
 10
57.395495905
 20
339.7851025396
 40
3.2
100
AcDbArc
 50
90.0
 51
124.9999999996
  0
ARC
  5
29C
100
AcDbEntity
  8
0
100
AcDbCircle
 62
7
  6
CONTINUOUS
 10
49.5865397806
 20
334.3172125957
 40
3.2
100
AcDbArc
 50
124.9999999996
 51
180.0
  0
ARC
  5
29D
100
AcDbEntity
  8
0
100
AcDbCircle
 62
7
  6
CONTINUOUS
 10
49.4886587565
 20
334.3681662318
 40
2.0896507005
100
AcDbArc
 50
143.1305904434
 51
161.8694095604
  0
ARC
  5
29E
100
AcDbEntity
  8
0
100
AcDbCircle
 62
7
  6
CONTINUOUS
 10
62.4348894872
 20
318.9748059282
 40
2.0
100
AcDbArc
 50
270.0
 51
11.0000000013
  0
ARC
  5
29F
100
AcDbEntity
  8
0
100
AcDbCircle
 62
7
  6
CONTINUOUS
 10
47.4865397806
 20
324.0851025396
 40
1.1
100
AcDbArc
 50
180.0
 51
300.9651310156
  0
ARC
  5
2A0
100
AcDbEntity
  8
0
100
AcDbCircle
 62
7
  6
CONTINUOUS
 10
112.646733213
 20
279.3276081232
 40
61.9393630844
100
AcDbArc
 50
139.7944313136
 51
140.2009649609
  0
ARC
  5
2A1
100
AcDbEntity
  8
0
100
AcDbCircle
 62
7
  6
CONTINUOUS
 10
86.8070476683
 20
301.1242534012
 40
28.1343246871
100
AcDbArc
 50
139.6060038927
 51
139.7261712922
  0
CIRCLE
  5
2A2
100
AcDbEntity
  8
0
100
AcDbCircle
 62
7
  6
CONTINUOUS
 10
124.8610834954
 20
280.4748059282
 40
3.0
  0
CIRCLE
  5
2A3
100
AcDbEntity
  8
0
100
AcDbCircle
 62
7
  6
CONTINUOUS
 10
124.8610834954
 20
280.4748059282
 40
1.95
  0
ARC
  5
2A4
100
AcDbEntity
  8
0
100
AcDbCircle
 62
7
  6
CONTINUOUS
 10
88.3072496541
 20
347.0382777726
 40
2.019059818
100
AcDbArc
 50
72.4100784439
 51
72.5671249219
  0
ARC
  5
2A5
100
AcDbEntity
  8
0
100
AcDbCircle
 62
7
  6
CONTINUOUS
 10
88.4168013639
 20
347.3873614129
 40
1.6531896765
100
AcDbArc
 50
72.5649928752
 51
72.8098369464
  0
ARC
  5
2A6
100
AcDbEntity
  8
0
100
AcDbCircle
 62
7
  6
CONTINUOUS
 10
94.274817335
 20
347.6084568303
 40
1.4206911092
100
AcDbArc
 50
106.57436174
 51
107.1758742208
  0
ARC
  5
2A7
100
AcDbEntity
  8
0
100
AcDbCircle
 62
7
  6
CONTINUOUS
 10
88.5809132745
 20
347.9206506489
 40
1.0952209591
100
AcDbArc
 50
72.7664386871
 51
73.7644726091
  0
ARC
  5
2A8
100
AcDbEntity
  8
0
100
AcDbCircle
 62
7
  6
CONTINUOUS
 10
94.1072903173
 20
348.1725707519
 40
0.8322273415
100
AcDbArc
 50
105.4854925735
 51
106.5986329083
  0
ARC
  5
2A9
100
AcDbEntity
  8
0
100
AcDbCircle
 62
7
  6
CONTINUOUS
 10
88.6804510914
 20
348.2607535089
 40
0.7408519543
100
AcDbArc
 50
73.8016047892
 51
74.3717618404
  0
ARC
  5
2AA
100
AcDbEntity
  8
0
100
AcDbCircle
 62
7
  6
CONTINUOUS
 10
89.0611464828
 20
348.2560054004
 40
0.7407143621
100
AcDbArc
 50
104.7380663479
 51
106.2178439872
  0
ARC
  5
2AB
100
AcDbEntity
  8
0
100
AcDbCircle
 62
7
  6
CONTINUOUS
 10
89.0123108432
 20
348.4398865759
 40
0.5504594421
100
AcDbArc
 50
103.9045603597
 51
104.6912866403
  0
ARC
  5
2AC
100
AcDbEntity
  8
0
100
AcDbCircle
 62
7
  6
CONTINUOUS
 10
93.8865397806
 20
348.7748692417
 40
0.2
100
AcDbArc
 50
72.2770875913
 51
107.7236107831
  0
ARC
  5
2AD
100
AcDbEntity
  8
0
100
AcDbCircle
 62
7
  6
CONTINUOUS
 10
88.8865397806
 20
348.7748692417
 40
0.2
100
AcDbArc
 50
71.5574646439
 51
107.7224217226
  0
ARC
  5
2AE
100
AcDbEntity
  8
0
100
AcDbCircle
 62
7
  6
CONTINUOUS
 10
93.8878456551
 20
348.7775655891
 40
0.1970274462
100
AcDbArc
 50
78.7483667199
 51
84.8817378648
  0
ARC
  5
2AF
100
AcDbEntity
  8
0
100
AcDbCircle
 62
7
  6
CONTINUOUS
 10
88.8848854206
 20
348.7800431062
 40
0.1945680782
100
AcDbArc
 50
102.8357721861
 51
107.7599863682
  0
ARC
  5
2B0
100
AcDbEntity
  8
0
100
AcDbCircle
 62
7
  6
CONTINUOUS
 10
93.8880812291
 20
348.7806265654
 40
0.1939576629
100
AcDbArc
 50
84.8703824159
 51
90.883728165
  0
ARC
  5
2B1
100
AcDbEntity
  8
0
100
AcDbCircle
 62
7
  6
CONTINUOUS
 10
93.8885557318
 20
348.7808933622
 40
0.1936250907
100
AcDbArc
 50
72.318796139
 51
78.7623098859
  0
ARC
  5
2B2
100
AcDbEntity
  8
0
100
AcDbCircle
 62
7
  6
CONTINUOUS
 10
93.8848206006
 20
348.7809528229
 40
0.1936174842
100
AcDbArc
 50
89.9199230568
 51
107.6725075963
  0
ARC
  5
2B3
100
AcDbEntity
  8
0
100
AcDbCircle
 62
7
  6
CONTINUOUS
 10
88.8911791718
 20
348.8288223961
 40
0.1457031117
100
AcDbArc
 50
86.7733239452
 51
94.3867370281
  0
ARC
  5
2B4
100
AcDbEntity
  8
0
100
AcDbCircle
 62
7
  6
CONTINUOUS
 10
86.5380818369
 20
358.2695981846
 40
9.7053320736
100
AcDbArc
 50
263.0411106693
 51
263.3336689985
  0
ARC
  5
2B5
100
AcDbEntity
  8
0
100
AcDbCircle
 62
7
  6
CONTINUOUS
 10
86.3865397806
 20
356.5976025396
 40
8.0125
100
AcDbArc
 50
252.8013596554
 51
287.7229246565
  0
ARC
  5
2B6
100
AcDbEntity
  8
0
100
AcDbCircle
 62
7
  6
CONTINUOUS
 10
96.3865397806
 20
356.5976025396
 40
8.0125
100
AcDbArc
 50
252.2770985149
 51
287.7229073146
  0
ARC
  5
2B7
100
AcDbEntity
  8
0
100
AcDbCircle
 62
7
  6
CONTINUOUS
 10
91.3865397806
 20
356.5976025396
 40
8.0125
100
AcDbArc
 50
253.8017311263
 51
287.7228949766
  0
ARC
  5
2B8
100
AcDbEntity
  8
0
100
AcDbCircle
 62
7
  6
CONTINUOUS
 10
90.6497962539
 20
353.9657496869
 40
5.2933287462
100
AcDbArc
 50
252.3623424929
 51
252.6271175637
  0
ARC
  5
2B9
100
AcDbEntity
  8
0
100
AcDbCircle
 62
7
  6
CONTINUOUS
 10
108.3142600645
 20
344.9851025396
 40
4.0
100
AcDbArc
 50
2.0000025522
 51
82.419639722
  0
ARC
  5
2BA
100
AcDbEntity
  8
0
100
AcDbCircle
 62
7
  6
CONTINUOUS
 10
99.3806059087
 20
347.3165962711
 40
1.7296792739
100
AcDbArc
 50
107.1000111825
 51
107.5727024687
  0
ARC
  5
2BB
100
AcDbEntity
  8
0
100
AcDbCircle
 62
7
  6
CONTINUOUS
 10
99.159733857
 20
348.0362348625
 40
0.9769085705
100
AcDbArc
 50
106.1511180985
 51
107.1290399401
  0
ARC
  5
2BC
100
AcDbEntity
  8
0
100
AcDbCircle
 62
7
  6
CONTINUOUS
 10
98.8865397806
 20
348.7748692417
 40
0.2
100
AcDbArc
 50
72.2769574865
 51
107.7229124087
  0
ARC
  5
2BD
100
AcDbEntity
  8
0
100
AcDbCircle
 62
7
  6
CONTINUOUS
 10
103.8865397806
 20
348.7748692417
 40
0.2
100
AcDbArc
 50
72.2772385153
 51
107.7229124087
  0
ARC
  5
2BE
100
AcDbEntity
  8
0
100
AcDbCircle
 62
7
  6
CONTINUOUS
 10
103.8854592286
 20
348.777408521
 40
0.1972524322
100
AcDbArc
 50
88.420571808
 51
107.6484756677
  0
ARC
  5
2BF
100
AcDbEntity
  8
0
100
AcDbCircle
 62
7
  6
CONTINUOUS
 10
98.8880172329
 20
348.7783078324
 40
0.1962883493
100
AcDbArc
 50
78.4533040736
 51
84.3284128722
  0
ARC
  5
2C0
100
AcDbEntity
  8
0
100
AcDbCircle
 62
7
  6
CONTINUOUS
 10
98.8850021178
 20
348.7805500346
 40
0.1940506133
100
AcDbArc
 50
89.1189606406
 51
107.6669788979
  0
ARC
  5
2C1
100
AcDbEntity
  8
0
100
AcDbCircle
 62
7
  6
CONTINUOUS
 10
103.8881570237
 20
348.7806009293
 40
0.1940055071
100
AcDbArc
 50
72.3094983189
 51
89.1925632782
  0
ARC
  5
2C2
100
AcDbEntity
  8
0
100
AcDbCircle
 62
7
  6
CONTINUOUS
 10
98.8882567966
 20
348.7810541825
 40
0.193531771
100
AcDbArc
 50
84.3186369956
 51
90.0804470384
  0
ARC
  5
2C3
100
AcDbEntity
  8
0
100
AcDbCircle
 62
7
  6
CONTINUOUS
 10
98.888683761
 20
348.7813627717
 40
0.1931618241
100
AcDbArc
 50
72.2930835414
 51
78.4656264026
  0
ARC
  5
2C4
100
AcDbEntity
  8
0
100
AcDbCircle
 62
7
  6
CONTINUOUS
 10
106.4734152034
 20
357.2085514455
 40
8.636714337
100
AcDbArc
 50
263.0866256946
 51
265.5983763035
  0
ARC
  5
2C5
100
AcDbEntity
  8
0
100
AcDbCircle
 62
7
  6
CONTINUOUS
 10
106.4467635998
 20
356.8342961564
 40
8.2626145739
100
AcDbArc
 50
257.7467420883
 51
258.9206418912
  0
ARC
  5
2C6
100
AcDbEntity
  8
0
100
AcDbCircle
 62
7
  6
CONTINUOUS
 10
106.4981181766
 20
356.809346355
 40
8.224357988
100
AcDbArc
 50
276.3720345526
 51
280.2749629851
  0
ARC
  5
2C7
100
AcDbEntity
  8
0
100
AcDbCircle
 62
7
  6
CONTINUOUS
 10
101.3865397806
 20
356.5976025396
 40
8.0125
100
AcDbArc
 50
252.277090839
 51
287.7229592916
  0
ARC
  5
2C8
100
AcDbEntity
  8
0
100
AcDbCircle
 62
7
  6
CONTINUOUS
 10
106.3865397806
 20
356.5976025396
 40
8.0125
100
AcDbArc
 50
252.2770838242
 51
287.1986403446
  0
ARC
  5
2C9
100
AcDbEntity
  8
0
100
AcDbCircle
 62
7
  6
CONTINUOUS
 10
106.3853071237
 20
356.5026618832
 40
7.9253520568
100
AcDbArc
 50
258.8959274465
 51
263.1047032619
  0
ARC
  5
2CA
100
AcDbEntity
  8
0
100
AcDbCircle
 62
7
  6
CONTINUOUS
 10
106.4168436235
 20
355.9462758577
 40
7.372802648
100
AcDbArc
 50
270.3832591378
 51
271.9252310151
  0
ARC
  5
2CB
100
AcDbEntity
  8
0
100
AcDbCircle
 62
7
  6
CONTINUOUS
 10
107.2348219998
 20
353.1576571507
 40
4.4991029252
100
AcDbArc
 50
282.4431452969
 51
283.276187424
  0
ARC
  5
2CC
100
AcDbEntity
  8
0
100
AcDbCircle
 62
7
  6
CONTINUOUS
 10
256.2915957264
 20
257.5078914808
 40
104.9310241306
100
AcDbArc
 50
32.4272046571
 51
32.7535454557
  0
ARC
  5
2CD
100
AcDbEntity
  8
0
100
AcDbCircle
 62
7
  6
CONTINUOUS
 10
295.6110834954
 20
265.2248059282
 40
27.0
100
AcDbArc
 50
0.0
 51
90.0
  0
ARC
  5
2CE
100
AcDbEntity
  8
0
100
AcDbCircle
 62
7
  6
CONTINUOUS
 10
295.6110834954
 20
228.7248059282
 40
27.0
100
AcDbArc
 50
270.0
 51
360.0
  0
ARC
  5
2CF
100
AcDbEntity
  8
0
100
AcDbCircle
 62
7
  6
CONTINUOUS
 10
294.6110834954
 20
229.7248059282
 40
26.6781992624
100
AcDbArc
 50
270.0
 51
360.0
  0
ARC
  5
2D0
100
AcDbEntity
  8
0
100
AcDbCircle
 62
7
  6
CONTINUOUS
 10
294.6110834954
 20
264.2248059282
 40
26.6781992624
100
AcDbArc
 50
0.0
 51
90.0000000007
  0
ARC
  5
2D1
100
AcDbEntity
  8
0
100
AcDbCircle
 62
7
  6
CONTINUOUS
 10
295.6110834954
 20
265.2248059282
 40
26.5
100
AcDbArc
 50
0.0
 51
90.0
  0
ARC
  5
2D2
100
AcDbEntity
  8
0
100
AcDbCircle
 62
7
  6
CONTINUOUS
 10
295.6110834954
 20
228.7248059282
 40
26.5
100
AcDbArc
 50
270.0
 51
360.0
  0
ARC
  5
2D3
100
AcDbEntity
  8
0
100
AcDbCircle
 62
7
  6
CONTINUOUS
 10
292.3610834954
 20
261.9748059282
 40
25.0
100
AcDbArc
 50
0.0
 51
90.0
  0
ARC
  5
2D4
100
AcDbEntity
  8
0
100
AcDbCircle
 62
7
  6
CONTINUOUS
 10
292.3610834954
 20
231.9748059282
 40
25.0
100
AcDbArc
 50
270.0
 51
360.0
  0
ARC
  5
2D5
100
AcDbEntity
  8
0
100
AcDbCircle
 62
7
  6
CONTINUOUS
 10
294.6110834954
 20
229.7248059282
 40
24.7085837564
100
AcDbArc
 50
270.0
 51
360.0
  0
ARC
  5
2D6
100
AcDbEntity
  8
0
100
AcDbCircle
 62
7
  6
CONTINUOUS
 10
294.6110834954
 20
264.2248059282
 40
24.7085837564
100
AcDbArc
 50
0.0
 51
90.0
  0
ARC
  5
2D7
100
AcDbEntity
  8
0
100
AcDbCircle
 62
7
  6
CONTINUOUS
 10
294.6110834954
 20
264.2248059282
 40
24.6167271797
100
AcDbArc
 50
0.0
 51
90.0
  0
ARC
  5
2D8
100
AcDbEntity
  8
0
100
AcDbCircle
 62
7
  6
CONTINUOUS
 10
294.6110834954
 20
229.7248059282
 40
24.6167271797
100
AcDbArc
 50
270.0
 51
360.0
  0
ARC
  5
2D9
100
AcDbEntity
  8
0
100
AcDbCircle
 62
7
  6
CONTINUOUS
 10
294.6110834954
 20
264.2248059282
 40
23.6319194267
100
AcDbArc
 50
0.0
 51
90.0
  0
ARC
  5
2DA
100
AcDbEntity
  8
0
100
AcDbCircle
 62
7
  6
CONTINUOUS
 10
294.6110834954
 20
229.7248059282
 40
23.6319194267
100
AcDbArc
 50
270.0
 51
360.0
  0
CIRCLE
  5
2DB
100
AcDbEntity
  8
0
100
AcDbCircle
 62
7
  6
CONTINUOUS
 10
264.8610834954
 20
213.4748059282
 40
3.0
  0
ARC
  5
2DC
100
AcDbEntity
  8
0
100
AcDbCircle
 62
7
  6
CONTINUOUS
 10
342.6610834954
 20
192.1748059282
 40
2.2
100
AcDbArc
 50
270.0
 51
360.0
  0
CIRCLE
  5
2DD
100
AcDbEntity
  8
0
100
AcDbCircle
 62
7
  6
CONTINUOUS
 10
264.8610834954
 20
213.4748059282
 40
1.95
  0
CIRCLE
  5
2DE
100
AcDbEntity
  8
0
100
AcDbCircle
 62
7
  6
CONTINUOUS
 10
269.8610834954
 20
246.9748059282
 40
1.2679491924
  0
CIRCLE
  5
2DF
100
AcDbEntity
  8
0
100
AcDbCircle
 62
7
  6
CONTINUOUS
 10
244.8610834954
 20
246.9748059282
 40
1.2679491924
  0
CIRCLE
  5
2E0
100
AcDbEntity
  8
0
100
AcDbCircle
 62
7
  6
CONTINUOUS
 10
219.8610834954
 20
246.9748059282
 40
1.2679491924
  0
CIRCLE
  5
2E1
100
AcDbEntity
  8
0
100
AcDbCircle
 62
7
  6
CONTINUOUS
 10
194.8610834954
 20
246.9748059282
 40
1.2679491924
  0
ARC
  5
2E2
100
AcDbEntity
  8
0
100
AcDbCircle
 62
7
  6
CONTINUOUS
 10
277.0761151198
 20
279.3281785279
 40
61.938474501
100
AcDbArc
 50
39.7990330838
 51
40.2055772542
  0
ARC
  5
2E3
100
AcDbEntity
  8
0
100
AcDbCircle
 62
7
  6
CONTINUOUS
 10
302.9152785361
 20
301.1243881876
 40
28.1341160821
100
AcDbArc
 50
40.2738392083
 51
40.3939971715
  0
ARC
  5
2E4
100
AcDbEntity
  8
0
100
AcDbCircle
 62
7
  6
CONTINUOUS
 10
328.6995259542
 20
336.7792054383
 40
6.8442266881
100
AcDbArc
 50
50.8423197166
 51
51.4429884332
  0
ARC
  5
2E5
100
AcDbEntity
  8
0
100
AcDbCircle
 62
7
  6
CONTINUOUS
 10
331.3775836562
 20
339.7851025396
 40
3.2
100
AcDbArc
 50
55.0000000004
 51
90.0
  0
ARC
  5
2E6
100
AcDbEntity
  8
0
100
AcDbCircle
 62
7
  6
CONTINUOUS
 10
339.1865397806
 20
334.3172125957
 40
3.2
100
AcDbArc
 50
0.0
 51
55.0
  0
ARC
  5
2E7
100
AcDbEntity
  8
0
100
AcDbCircle
 62
7
  6
CONTINUOUS
 10
341.6610834954
 20
313.7748059282
 40
3.2
100
AcDbArc
 50
0.0
 51
90.0
  0
CIRCLE
  5
2E8
100
AcDbEntity
  8
0
100
AcDbCircle
 62
7
  6
CONTINUOUS
 10
264.8610834954
 20
280.4748059282
 40
3.0
  0
ARC
  5
2E9
100
AcDbEntity
  8
0
100
AcDbCircle
 62
7
  6
CONTINUOUS
 10
328.0741804995
 20
319.4748059282
 40
2.5
100
AcDbArc
 50
168.9999999991
 51
255.4343444183
  0
ARC
  5
2EA
100
AcDbEntity
  8
0
100
AcDbCircle
 62
7
  6
CONTINUOUS
 10
340.5610834954
 20
316.3548059282
 40
2.12
100
AcDbArc
 50
31.8907918018
 51
90.0
  0
ARC
  5
2EB
100
AcDbEntity
  8
0
100
AcDbCircle
 62
7
  6
CONTINUOUS
 10
339.2844208049
 20
334.3681662318
 40
2.0896507003
100
AcDbArc
 50
18.1305904411
 51
36.8694095592
  0
ARC
  5
2EC
100
AcDbEntity
  8
0
100
AcDbCircle
 62
7
  6
CONTINUOUS
 10
327.2872775036
 20
318.9748059282
 40
2.0
100
AcDbArc
 50
168.9999999987
 51
270.0
  0
ARC
  5
2ED
100
AcDbEntity
  8
0
100
AcDbCircle
 62
7
  6
CONTINUOUS
 10
338.9732159373
 20
317.1748059282
 40
2.0
100
AcDbArc
 50
48.8140748327
 51
89.9999991843
  0
CIRCLE
  5
2EE
100
AcDbEntity
  8
0
100
AcDbCircle
 62
7
  6
CONTINUOUS
 10
264.8610834954
 20
280.4748059282
 40
1.95
  0
ARC
  5
2EF
100
AcDbEntity
  8
0
100
AcDbCircle
 62
7
  6
CONTINUOUS
 10
338.9710910105
 20
317.1887137062
 40
1.8143952968
100
AcDbArc
 50
76.2953330751
 51
89.9293965865
  0
ARC
  5
2F0
100
AcDbEntity
  8
0
100
AcDbCircle
 62
7
  6
CONTINUOUS
 10
338.9723780596
 20
317.1991287646
 40
1.8039722433
100
AcDbArc
 50
62.5529234387
 51
76.2566768617
  0
ARC
  5
2F1
100
AcDbEntity
  8
0
100
AcDbCircle
 62
7
  6
CONTINUOUS
 10
338.9737954348
 20
317.2045955341
 40
1.7984679632
100
AcDbArc
 50
48.7952196116
 51
62.5127197191
  0
ARC
  5
2F2
100
AcDbEntity
  8
0
100
AcDbCircle
 62
7
  6
CONTINUOUS
 10
341.2865397806
 20
324.0851025396
 40
1.1
100
AcDbArc
 50
240.3024057655
 51
360.0
  0
ARC
  5
2F3
100
AcDbEntity
  8
0
100
AcDbCircle
 62
7
  6
CONTINUOUS
 10
328.0741804995
 20
319.4748059282
 40
1.0000000001
100
AcDbArc
 50
168.9999999931
 51
269.9999999858
  0
ARC
  5
2F4
100
AcDbEntity
  8
0
100
AcDbCircle
 62
7
  6
CONTINUOUS
 10
333.0804916588
 20
318.9748059282
 40
0.2
100
AcDbArc
 50
90.0000000001
 51
164.0546040912
  0
SPLINE
  5
2F5
100
AcDbEntity
  8
0
100
AcDbSpline
 62
7
  6
CONTINUOUS
 70
0
 71
3
 72
10
 73
6
 74
0
 42
0.0000001
 43
0.0000001
 44
0.0000000001
 40
0.0
 40
0.0
 40
0.0
 40
0.0
 40
0.1305143056
 40
0.4685805991
 40
1.0
 40
1.0
 40
1.0
 40
1.0
 10
108.782116896
 20
348.9290355311
 30
0.0
 10
108.7601588675
 20
348.9212259952
 30
0.0
 10
108.6809634603
 20
348.8941573908
 30
0.0
 10
108.5088221867
 20
348.8463941211
 30
0.0
 10
108.3590058196
 20
348.8056901311
 30
0.0
 10
108.2680110688
 20
348.7787690884
 30
0.0
  0
SPLINE
  5
2F6
100
AcDbEntity
  8
0
100
AcDbSpline
 62
7
  6
CONTINUOUS
 70
0
 71
3
 72
15
 73
11
 74
0
 42
0.0000001
 43
0.0000001
 44
0.0000000001
 40
0.0
 40
0.0
 40
0.0
 40
0.0
 40
0.0538527205
 40
0.1198511554
 40
0.2053050956
 40
0.3140573521
 40
0.4481465038
 40
0.6079883246
 40
0.7929422185
 40
1.0
 40
1.0
 40
1.0
 40
1.0
 10
110.954442165
 20
345.1247018318
 30
0.0
 10
110.9111243504
 20
345.1247003996
 30
0.0
 10
110.8142309649
 20
345.0972301593
 30
0.0
 10
110.6856568217
 20
344.9891883849
 30
0.0
 10
110.562722799
 20
344.8182524632
 30
0.0
 10
110.4456200647
 20
344.5806202809
 30
0.0
 10
110.3368516231
 20
344.2749704706
 30
0.0
 10
110.2405143426
 20
343.9015711002
 30
0.0
 10
110.1614665564
 20
343.4644416047
 30
0.0
 10
110.1249472603
 20
343.151011352
 30
0.0
 10
110.1103367525
 20
342.9851012021
 30
0.0
  0
SPLINE
  5
2F7
100
AcDbEntity
  8
0
100
AcDbSpline
 62
7
  6
CONTINUOUS
 70
0
 71
3
 72
11
 73
7
 74
0
 42
0.0000001
 43
0.0000001
 44
0.0000000001
 40
0.0
 40
0.0
 40
0.0
 40
0.0
 40
0.2785913622
 40
0.5333632508
 40
0.7694303042
 40
1.0
 40
1.0
 40
1.0
 40
1.0
 10
108.8705982234
 20
342.9851019365
 30
0.0
 10
108.8382523475
 20
343.1009160941
 30
0.0
 10
108.7598510881
 20
343.3190318763
 30
0.0
 10
108.5718695011
 20
343.5989977391
 30
0.0
 10
108.3113376257
 20
343.7843383726
 30
0.0
 10
108.1069301319
 20
343.8236794917
 30
0.0
 10
108.0074110582
 20
343.8236993104
 30
0.0
  0
SPLINE
  5
2F8
100
AcDbEntity
  8
0
100
AcDbSpline
 62
7
  6
CONTINUOUS
 70
0
 71
3
 72
11
 73
7
 74
0
 42
0.0000001
 43
0.0000001
 44
0.0000000001
 40
0.0
 40
0.0
 40
0.0
 40
0.0
 40
0.2363485452
 40
0.4809334231
 40
0.7369651558
 40
1.0
 40
1.0
 40
1.0
 40
1.0
 10
84.7656384865
 20
343.8237178235
 30
0.0
 10
84.6636476005
 20
343.8236735427
 30
0.0
 10
84.4528789809
 20
343.7818620006
 30
0.0
 10
84.1899202115
 20
343.5874601612
 30
0.0
 10
84.0084198902
 20
343.3066858494
 30
0.0
 10
83.9330112306
 20
343.0944261688
 30
0.0
 10
83.902480421
 20
342.9851025396
 30
0.0
  0
SPLINE
  5
2F9
100
AcDbEntity
  8
0
100
AcDbSpline
 62
7
  6
CONTINUOUS
 70
0
 71
3
 72
9
 73
5
 74
0
 42
0.0000001
 43
0.0000001
 44
0.0000000001
 40
0.0
 40
0.0
 40
0.0
 40
0.0
 40
0.2436102893
 40
1.0
 40
1.0
 40
1.0
 40
1.0
 10
107.9278474205
 20
344.5661628899
 30
0.0
 10
107.9401364469
 20
344.5067358463
 30
0.0
 10
107.9839684173
 20
344.2614584434
 30
0.0
 10
108.0044108861
 20
344.0121130384
 30
0.0
 10
108.0074633688
 20
343.8237178145
 30
0.0
  0
SPLINE
  5
2FA
100
AcDbEntity
  8
0
100
AcDbSpline
 62
7
  6
CONTINUOUS
 70
0
 71
3
 72
9
 73
5
 74
0
 42
0.0000001
 43
0.0000001
 44
0.0000000001
 40
0.0
 40
0.0
 40
0.0
 40
0.0
 40
0.2436103627
 40
1.0
 40
1.0
 40
1.0
 40
1.0
 10
84.8452410833
 20
344.566162856
 30
0.0
 10
84.8329517342
 20
344.506735829
 30
0.0
 10
84.7891184718
 20
344.2614585279
 30
0.0
 10
84.768674741
 20
344.0121130994
 30
0.0
 10
84.7656212853
 20
343.8237178141
 30
0.0
  0
SPLINE
  5
2FB
100
AcDbEntity
  8
0
100
AcDbSpline
 62
7
  6
CONTINUOUS
 70
0
 71
3
 72
13
 73
9
 74
0
 42
0.0000001
 43
0.0000001
 44
0.0000000001
 40
0.0
 40
0.0
 40
0.0
 40
0.0
 40
0.1226368288
 40
0.2448650727
 40
0.3676202214
 40
0.4912142854
 40
0.7419507833
 40
1.0
 40
1.0
 40
1.0
 40
1.0
 10
84.845269646
 20
344.566211784
 30
0.0
 10
84.7450661415
 20
344.5553476599
 30
0.0
 10
84.5460270832
 20
344.5195130432
 30
0.0
 10
84.2609961829
 20
344.4145378516
 30
0.0
 10
83.9987156102
 20
344.259876011
 30
0.0
 10
83.6842201935
 20
343.9968131997
 30
0.0
 10
83.3660830057
 20
343.5761215282
 30
0.0
 10
83.205744562
 20
343.1864898938
 30
0.0
 10
83.1392451163
 20
342.9851040178
 30
0.0
  0
SPLINE
  5
2FC
100
AcDbEntity
  8
0
100
AcDbSpline
 62
7
  6
CONTINUOUS
 70
0
 71
3
 72
15
 73
11
 74
0
 42
0.0000001
 43
0.0000001
 44
0.0000000001
 40
0.0
 40
0.0
 40
0.0
 40
0.0
 40
0.2070572938
 40
0.3920109847
 40
0.5518528107
 40
0.6859420776
 40
0.7946944724
 40
0.8801485351
 40
0.9461470836
 40
1.0
 40
1.0
 40
1.0
 40
1.0
 10
82.6627336671
 20
342.9850813722
 30
0.0
 10
82.6481233672
 20
343.15098959
 30
0.0
 10
82.6116045303
 20
343.4644163791
 30
0.0
 10
82.5325576181
 20
343.9015412704
 30
0.0
 10
82.4362212148
 20
344.2749370925
 30
0.0
 10
82.3274536192
 20
344.5805842226
 30
0.0
 10
82.2103516321
 20
344.8182143719
 30
0.0
 10
82.0874182739
 20
344.9891487449
 30
0.0
 10
81.9588446135
 20
345.0971893026
 30
0.0
 10
81.8619516429
 20
345.1246586804
 30
0.0
 10
81.8186340739
 20
345.124659788
 30
0.0
  0
SPLINE
  5
2FD
100
AcDbEntity
  8
0
100
AcDbSpline
 62
7
  6
CONTINUOUS
 70
0
 71
3
 72
8
 73
4
 74
0
 42
0.0000001
 43
0.0000001
 44
0.0000000001
 40
0.0
 40
0.0
 40
0.0
 40
0.0
 40
1.0
 40
1.0
 40
1.0
 40
1.0
 10
84.5050684927
 20
348.7787690479
 30
0.0
 10
84.5388200712
 20
348.7900734788
 30
0.0
 10
84.5770028457
 20
348.7920126965
 30
0.0
 10
84.6117163034
 20
348.7841428133
 30
0.0
  0
SPLINE
  5
2FE
100
AcDbEntity
  8
0
100
AcDbSpline
 62
7
  6
CONTINUOUS
 70
0
 71
3
 72
8
 73
4
 74
0
 42
0.0000001
 43
0.0000001
 44
0.0000000001
 40
0.0
 40
0.0
 40
0.0
 40
0.0
 40
1.0
 40
1.0
 40
1.0
 40
1.0
 10
85.3622065831
 20
348.6357905982
 30
0.0
 10
85.3800645229
 20
348.642956527
 30
0.0
 10
85.4002909807
 20
348.6460080886
 30
0.0
 10
85.4193913945
 20
348.6436776938
 30
0.0
  0
SPLINE
  5
2FF
100
AcDbEntity
  8
0
100
AcDbSpline
 62
7
  6
CONTINUOUS
 70
0
 71
3
 72
9
 73
5
 74
0
 42
0.0000001
 43
0.0000001
 44
0.0000000001
 40
0.0
 40
0.0
 40
0.0
 40
0.0
 40
0.268015233
 40
1.0
 40
1.0
 40
1.0
 40
1.0
 10
88.8416607053
 20
348.969749092
 30
0.0
 10
88.8450291966
 20
348.9705164183
 30
0.0
 10
88.8576611172
 20
348.9730320094
 30
0.0
 10
88.8706060644
 20
348.9744602263
 30
0.0
 10
88.8800345993
 20
348.9740986683
 30
0.0
  0
SPLINE
  5
300
100
AcDbEntity
  8
0
100
AcDbSpline
 62
7
  6
CONTINUOUS
 70
0
 71
3
 72
8
 73
4
 74
0
 42
0.0000001
 43
0.0000001
 44
0.0000000001
 40
0.0
 40
0.0
 40
0.0
 40
0.0
 40
1.0
 40
1.0
 40
1.0
 40
1.0
 10
88.8993802693
 20
348.9742945198
 30
0.0
 10
88.9044374126
 20
348.9740146169
 30
0.0
 10
88.9094847638
 20
348.9735068938
 30
0.0
 10
88.9145040877
 20
348.9728290802
 30
0.0
  0
SPLINE
  5
301
100
AcDbEntity
  8
0
100
AcDbSpline
 62
7
  6
CONTINUOUS
 70
0
 71
3
 72
8
 73
4
 74
0
 42
0.0000001
 43
0.0000001
 44
0.0000000001
 40
0.0
 40
0.0
 40
0.0
 40
0.0
 40
1.0
 40
1.0
 40
1.0
 40
1.0
 10
88.9145040877
 20
348.9728290802
 30
0.0
 10
88.9208357101
 20
348.9719740527
 30
0.0
 10
88.9271382582
 20
348.9708231534
 30
0.0
 10
88.9333454426
 20
348.9693094238
 30
0.0
  0
LINE
  5
302
100
AcDbEntity
  8
0
100
AcDbLine
 62
7
  6
CONTINUOUS
 10
88.9174140092
 20
348.9629341078
 11
89.045937189
 21
348.9212511672
  0
SPLINE
  5
303
100
AcDbEntity
  8
0
100
AcDbSpline
 62
7
  6
CONTINUOUS
 70
0
 71
3
 72
16
 73
12
 74
0
 42
0.0000001
 43
0.0000001
 44
0.0000000001
 40
0.0
 40
0.0
 40
0.0
 40
0.0
 40
0.0758572322
 40
0.1816466498
 40
0.4698170447
 40
0.6386337819
 40
0.8011611306
 40
0.8710953126
 40
0.9290651274
 40
0.9723970917
 40
1.0
 40
1.0
 40
1.0
 40
1.0
 10
89.0692658518
 20
348.9138933089
 30
0.0
 10
89.1864968861
 20
348.8772211148
 30
0.0
 10
89.4703486759
 20
348.7994120822
 30
0.0
 10
90.2136596965
 20
348.6362336203
 30
0.0
 10
91.1268677258
 20
348.5511700488
 30
0.0
 10
92.1302407941
 20
348.5970265536
 30
0.0
 10
92.7745496979
 20
348.6899755025
 30
0.0
 10
93.2341265217
 20
348.7902767516
 30
0.0
 10
93.5027329453
 20
348.8592346579
 30
0.0
 10
93.7034241167
 20
348.9167851865
 30
0.0
 10
93.8125698871
 20
348.9526094583
 30
0.0
 10
93.8552790379
 20
348.9657890833
 30
0.0
  0
SPLINE
  5
304
100
AcDbEntity
  8
0
100
AcDbSpline
 62
7
  6
CONTINUOUS
 70
0
 71
3
 72
9
 73
5
 74
0
 42
0.0000001
 43
0.0000001
 44
0.0000000001
 40
0.0
 40
0.0
 40
0.0
 40
0.0
 40
0.2312574375
 40
1.0
 40
1.0
 40
1.0
 40
1.0
 10
98.8879855099
 20
348.9745861779
 30
0.0
 10
98.8902962157
 20
348.9739452496
 30
0.0
 10
98.9002719191
 20
348.971115198
 30
0.0
 10
98.9101926491
 20
348.9680950529
 30
0.0
 10
98.917804639
 20
348.9657290516
 30
0.0
  0
SPLINE
  5
305
100
AcDbEntity
  8
0
100
AcDbSpline
 62
7
  6
CONTINUOUS
 70
0
 71
3
 72
17
 73
13
 74
0
 42
0.0000001
 43
0.0000001
 44
0.0000000001
 40
0.0
 40
0.0
 40
0.0
 40
0.0
 40
0.0298538274
 40
0.0780276326
 40
0.2195055337
 40
0.3948491278
 40
0.5700409974
 40
0.725015629
 40
0.8511942932
 40
0.9440386858
 40
0.9771010989
 40
1.0
 40
1.0
 40
1.0
 40
1.0
 10
98.917804639
 20
348.9657290516
 30
0.0
 10
98.96557317
 20
348.9508813693
 30
0.0
 10
99.0898277685
 20
348.91014732
 30
0.0
 10
99.4441492397
 20
348.8111589754
 30
0.0
 10
100.0413237724
 20
348.6759482797
 30
0.0
 10
100.8614761709
 20
348.5762771837
 30
0.0
 10
101.7101101639
 20
348.5657211876
 30
0.0
 10
102.4727811677
 20
348.6353477046
 30
0.0
 10
103.0901795999
 20
348.7466606563
 30
0.0
 10
103.4995019192
 20
348.8521839385
 30
0.0
 10
103.7381391737
 20
348.9244112331
 30
0.0
 10
103.8276746426
 20
348.9523361027
 30
0.0
 10
103.8639510342
 20
348.9648349603
 30
0.0
  0
SPLINE
  5
306
100
AcDbEntity
  8
0
100
AcDbSpline
 62
7
  6
CONTINUOUS
 70
0
 71
3
 72
9
 73
5
 74
0
 42
0.0000001
 43
0.0000001
 44
0.0000000001
 40
0.0
 40
0.0
 40
0.0
 40
0.0
 40
0.2865371023
 40
1.0
 40
1.0
 40
1.0
 40
1.0
 10
103.8639510342
 20
348.9648349603
 30
0.0
 10
103.8665384238
 20
348.965726433
 30
0.0
 10
103.8755579984
 20
348.9688665453
 30
0.0
 10
103.8845420574
 20
348.9721145831
 30
0.0
 10
103.8908926462
 20
348.9745849264
 30
0.0
  0
SPLINE
  5
307
100
AcDbEntity
  8
0
100
AcDbSpline
 62
7
  6
CONTINUOUS
 70
0
 71
3
 72
8
 73
4
 74
0
 42
0.0000001
 43
0.0000001
 44
0.0000000001
 40
0.0
 40
0.0
 40
0.0
 40
0.0
 40
1.0
 40
1.0
 40
1.0
 40
1.0
 10
107.4108843727
 20
348.6357683986
 30
0.0
 10
107.3930261346
 20
348.6429459746
 30
0.0
 10
107.3727957717
 20
348.6460061811
 30
0.0
 10
107.3536896173
 20
348.6436847316
 30
0.0
  0
SPLINE
  5
308
100
AcDbEntity
  8
0
100
AcDbSpline
 62
7
  6
CONTINUOUS
 70
0
 71
3
 72
9
 73
5
 74
0
 42
0.0000001
 43
0.0000001
 44
0.0000000001
 40
0.0
 40
0.0
 40
0.0
 40
0.0
 40
0.3124853643
 40
1.0
 40
1.0
 40
1.0
 40
1.0
 10
107.9651155112
 20
348.7168817654
 30
0.0
 10
107.9901046483
 20
348.7213923655
 30
0.0
 10
108.07001196
 20
348.7361612926
 30
0.0
 10
108.1496907389
 20
348.752199947
 30
0.0
 10
108.2042469792
 20
348.7642368042
 30
0.0
  0
SPLINE
  5
309
100
AcDbEntity
  8
0
100
AcDbSpline
 62
7
  6
CONTINUOUS
 70
0
 71
3
 72
8
 73
4
 74
0
 42
0.0000001
 43
0.0000001
 44
0.0000000001
 40
0.0
 40
0.0
 40
0.0
 40
0.0
 40
1.0
 40
1.0
 40
1.0
 40
1.0
 10
108.2680195587
 20
348.7787954345
 30
0.0
 10
108.2342458999
 20
348.7900975186
 30
0.0
 10
108.1960376207
 20
348.7920220167
 30
0.0
 10
108.1613090089
 20
348.7841276733
 30
0.0
  0
SPLINE
  5
30A
100
AcDbEntity
  8
0
100
AcDbSpline
 62
7
  6
CONTINUOUS
 70
0
 71
3
 72
11
 73
7
 74
0
 42
0.0000001
 43
0.0000001
 44
0.0000000001
 40
0.0
 40
0.0
 40
0.0
 40
0.0
 40
0.242283254
 40
0.4976240997
 40
0.7541595826
 40
1.0
 40
1.0
 40
1.0
 40
1.0
 10
110.9544483781
 20
345.1247006207
 30
0.0
 10
110.9411186887
 20
345.512532589
 30
0.0
 10
110.7981081588
 20
346.3097186804
 30
0.0
 10
110.2373860931
 20
347.4005019785
 30
0.0
 10
109.3677218788
 20
348.2744601889
 30
0.0
 10
108.6408608072
 20
348.6521659194
 30
0.0
 10
108.2680187974
 20
348.7787934339
 30
0.0
  0
SPLINE
  5
30B
100
AcDbEntity
  8
0
100
AcDbSpline
 62
7
  6
CONTINUOUS
 70
0
 71
3
 72
11
 73
7
 74
0
 42
0.0000001
 43
0.0000001
 44
0.0000000001
 40
0.0
 40
0.0
 40
0.0
 40
0.0
 40
0.244542539
 40
0.4903283062
 40
0.7415366774
 40
1.0
 40
1.0
 40
1.0
 40
1.0
 10
107.9278214822
 20
344.5662401223
 30
0.0
 10
108.127768626
 20
344.5497859609
 30
0.0
 10
108.5248777598
 20
344.4364233583
 30
0.0
 10
109.0286629254
 20
344.0779678941
 30
0.0
 10
109.4065336137
 20
343.5759452049
 30
0.0
 10
109.5674573505
 20
343.1864975824
 30
0.0
 10
109.6338079033
 20
342.9851021572
 30
0.0
  0
SPLINE
  5
30C
100
AcDbEntity
  8
0
100
AcDbSpline
 62
7
  6
CONTINUOUS
 70
0
 71
3
 72
9
 73
5
 74
0
 42
0.0000001
 43
0.0000001
 44
0.0000000001
 40
0.0
 40
0.0
 40
0.0
 40
0.0
 40
0.2013233302
 40
1.0
 40
1.0
 40
1.0
 40
1.0
 10
88.854272248
 20
348.9672443315
 30
0.0
 10
88.8453919188
 20
348.964670939
 30
0.0
 10
88.8014750368
 20
348.9512299687
 30
0.0
 10
88.7578501804
 20
348.9368697373
 30
0.0
 10
88.7228122652
 20
348.9260215708
 30
0.0
  0
SPLINE
  5
30D
100
AcDbEntity
  8
0
100
AcDbSpline
 62
7
  6
CONTINUOUS
 70
0
 71
3
 72
12
 73
8
 74
0
 42
0.0000001
 43
0.0000001
 44
0.0000000001
 40
0.0
 40
0.0
 40
0.0
 40
0.0
 40
0.0855760377
 40
0.2081648607
 40
0.427529988
 40
0.6434130541
 40
1.0
 40
1.0
 40
1.0
 40
1.0
 10
88.7228122652
 20
348.9260215708
 30
0.0
 10
88.6316223194
 20
348.8977880497
 30
0.0
 10
88.4077424537
 20
348.8358496548
 30
0.0
 10
87.9439261875
 20
348.7243444367
 30
0.0
 10
87.3290157753
 20
348.6228069667
 30
0.0
 10
86.4474812135
 20
348.5543778323
 30
0.0
 10
85.8065048822
 20
348.5837154367
 30
0.0
 10
85.4114180278
 20
348.6298834939
 30
0.0
  0
SPLINE
  5
30E
100
AcDbEntity
  8
0
100
AcDbSpline
 62
7
  6
CONTINUOUS
 70
0
 71
3
 72
17
 73
13
 74
0
 42
0.0000001
 43
0.0000001
 44
0.0000000001
 40
0.0
 40
0.0
 40
0.0
 40
0.0
 40
0.0258206707
 40
0.0648196631
 40
0.1162337444
 40
0.1782902386
 40
0.3282363882
 40
0.4989120055
 40
0.6696771457
 40
0.8200295775
 40
0.9337287048
 40
1.0
 40
1.0
 40
1.0
 40
1.0
 10
98.8583885348
 20
348.9655594013
 30
0.0
 10
98.8171493335
 20
348.9525155513
 30
0.0
 10
98.7141167408
 20
348.9182217155
 30
0.0
 10
98.5272815927
 20
348.8632656317
 30
0.0
 10
98.2801494659
 20
348.7986208391
 30
0.0
 10
97.8495043004
 20
348.7020183127
 30
0.0
 10
97.2150859698
 20
348.6034453065
 30
0.0
 10
96.3915818515
 20
348.5584817602
 30
0.0
 10
95.5674192843
 20
348.6027692058
 30
0.0
 10
94.8462573779
 20
348.7129696474
 30
0.0
 10
94.3082544089
 20
348.8440533219
 30
0.0
 10
94.0190517555
 20
348.9296415084
 30
0.0
 10
93.9137274631
 20
348.964722047
 30
0.0
  0
LINE
  5
30F
100
AcDbEntity
  8
0
100
AcDbLine
 62
7
  6
CONTINUOUS
 10
93.9137274631
 20
348.964722047
 11
93.8850902992
 21
348.9745866494
  0
LINE
  5
310
100
AcDbEntity
  8
0
100
AcDbLine
 62
7
  6
CONTINUOUS
 10
107.4108843187
 20
348.6357680869
 11
107.3619386878
 21
348.6305368522
  0
SPLINE
  5
311
100
AcDbEntity
  8
0
100
AcDbSpline
 62
7
  6
CONTINUOUS
 70
0
 71
3
 72
9
 73
5
 74
0
 42
0.0000001
 43
0.0000001
 44
0.0000000001
 40
0.0
 40
0.0
 40
0.0
 40
0.0
 40
0.2352648372
 40
1.0
 40
1.0
 40
1.0
 40
1.0
 10
107.3619386878
 20
348.6305368522
 30
0.0
 10
107.3073906017
 20
348.6247490819
 30
0.0
 10
107.0754805605
 20
348.6007848633
 30
0.0
 10
106.8427397729
 20
348.5836288421
 30
0.0
 10
106.6645351207
 20
348.577635019
 30
0.0
  0
SPLINE
  5
312
100
AcDbEntity
  8
0
100
AcDbSpline
 62
7
  6
CONTINUOUS
 70
0
 71
3
 72
9
 73
5
 74
0
 42
0.0000001
 43
0.0000001
 44
0.0000000001
 40
0.0
 40
0.0
 40
0.0
 40
0.0
 40
0.2387434654
 40
1.0
 40
1.0
 40
1.0
 40
1.0
 10
106.4661609194
 20
348.5736381553
 30
0.0
 10
106.4139469241
 20
348.5732859546
 30
0.0
 10
106.1952315732
 20
348.5741035961
 30
0.0
 10
105.9765735111
 20
348.5845401803
 30
0.0
 10
105.8105708403
 20
348.5973104263
 30
0.0
  0
SPLINE
  5
313
100
AcDbEntity
  8
0
100
AcDbSpline
 62
7
  6
CONTINUOUS
 70
0
 71
3
 72
11
 73
7
 74
0
 42
0.0000001
 43
0.0000001
 44
0.0000000001
 40
0.0
 40
0.0
 40
0.0
 40
0.0
 40
0.3635950462
 40
0.6582563467
 40
0.8666392979
 40
1.0
 40
1.0
 40
1.0
 40
1.0
 10
104.6931621509
 20
348.759911873
 30
0.0
 10
104.5981943073
 20
348.7805452829
 30
0.0
 10
104.4269407099
 20
348.8210427375
 30
0.0
 10
104.2029692988
 20
348.8802638271
 30
0.0
 10
104.039847467
 20
348.9285595271
 30
0.0
 10
103.953196853
 20
348.9575844785
 30
0.0
 10
103.9188986047
 20
348.9672910797
 30
0.0
  0
SPLINE
  5
314
100
AcDbEntity
  8
0
100
AcDbSpline
 62
7
  6
CONTINUOUS
 70
0
 71
3
 72
8
 73
4
 74
0
 42
0.0000001
 43
0.0000001
 44
0.0000000001
 40
0.0
 40
0.0
 40
0.0
 40
0.0
 40
1.0
 40
1.0
 40
1.0
 40
1.0
 10
103.9188986047
 20
348.9672910797
 30
0.0
 10
103.9096164346
 20
348.9699179871
 30
0.0
 10
103.9002864622
 20
348.9723904915
 30
0.0
 10
103.8908926462
 20
348.9745849264
 30
0.0
  0
SPLINE
  5
315
100
AcDbEntity
  8
0
100
AcDbSpline
 62
7
  6
CONTINUOUS
 70
0
 71
3
 72
13
 73
9
 74
0
 42
0.0000001
 43
0.0000001
 44
0.0000000001
 40
0.0
 40
0.0
 40
0.0
 40
0.0
 40
0.3399702568
 40
0.6245853271
 40
0.7432506956
 40
0.8453476868
 40
0.9308179946
 40
1.0
 40
1.0
 40
1.0
 40
1.0
 10
107.9278242205
 20
344.5661697316
 30
0.0
 10
107.9071888074
 20
345.0324077656
 30
0.0
 10
107.8625476795
 20
345.8886580504
 30
0.0
 10
107.7776739484
 20
346.9059069963
 30
0.0
 10
107.6854088467
 20
347.5936513688
 30
0.0
 10
107.6102094328
 20
348.0075116874
 30
0.0
 10
107.5239448473
 20
348.3495002535
 30
0.0
 10
107.451303798
 20
348.5498291454
 30
0.0
 10
107.4108843187
 20
348.6357680869
 30
0.0
  0
SPLINE
  5
316
100
AcDbEntity
  8
0
100
AcDbSpline
 62
7
  6
CONTINUOUS
 70
0
 71
3
 72
11
 73
7
 74
0
 42
0.0000001
 43
0.0000001
 44
0.0000000001
 40
0.0
 40
0.0
 40
0.0
 40
0.0
 40
0.2458414604
 40
0.5023773194
 40
0.7577177804
 40
1.0
 40
1.0
 40
1.0
 40
1.0
 10
84.5050610404
 20
348.7787934143
 30
0.0
 10
84.1322174531
 20
348.6521653561
 30
0.0
 10
83.4053544672
 20
348.2744580191
 30
0.0
 10
82.5356903633
 20
347.4004972687
 30
0.0
 10
81.9749707028
 20
346.3097147114
 30
0.0
 10
81.8319610691
 20
345.5125309307
 30
0.0
 10
81.8186314248
 20
345.1247006207
 30
0.0
  0
SPLINE
  5
317
100
AcDbEntity
  8
0
100
AcDbSpline
 62
7
  6
CONTINUOUS
 70
0
 71
3
 72
9
 73
5
 74
0
 42
0.0000001
 43
0.0000001
 44
0.0000000001
 40
0.0
 40
0.0
 40
0.0
 40
0.0
 40
0.5751368369
 40
1.0
 40
1.0
 40
1.0
 40
1.0
 10
85.3622092825
 20
348.6357749536
 30
0.0
 10
85.2564528228
 20
348.6438868834
 30
0.0
 10
85.0740961728
 20
348.6735785243
 30
0.0
 10
84.8920421146
 20
348.7024882326
 30
0.0
 10
84.8148164054
 20
348.7157346458
 30
0.0
  0
SPLINE
  5
318
100
AcDbEntity
  8
0
100
AcDbSpline
 62
7
  6
CONTINUOUS
 70
0
 71
3
 72
9
 73
5
 74
0
 42
0.0000001
 43
0.0000001
 44
0.0000000001
 40
0.0
 40
0.0
 40
0.0
 40
0.0
 40
0.3198242637
 40
1.0
 40
1.0
 40
1.0
 40
1.0
 10
84.8148164054
 20
348.7157346458
 30
0.0
 10
84.7886238143
 20
348.7202274228
 30
0.0
 10
84.706771706
 20
348.7345397914
 30
0.0
 10
84.6254702214
 20
348.7519486795
 30
0.0
 10
84.5705334423
 20
348.7652229857
 30
0.0
  0
SPLINE
  5
319
100
AcDbEntity
  8
0
100
AcDbSpline
 62
7
  6
CONTINUOUS
 70
0
 71
3
 72
9
 73
5
 74
0
 42
0.0000001
 43
0.0000001
 44
0.0000000001
 40
0.0
 40
0.0
 40
0.0
 40
0.0
 40
0.2837258884
 40
1.0
 40
1.0
 40
1.0
 40
1.0
 10
84.5705334423
 20
348.7652229857
 30
0.0
 10
84.5643855852
 20
348.7667084848
 30
0.0
 10
84.5427159013
 20
348.7719008507
 30
0.0
 10
84.5208929486
 20
348.7767194203
 30
0.0
 10
84.5050611328
 20
348.7787934457
 30
0.0
  0
SPLINE
  5
31A
100
AcDbEntity
  8
0
100
AcDbSpline
 62
7
  6
CONTINUOUS
 70
0
 71
3
 72
13
 73
9
 74
0
 42
0.0000001
 43
0.0000001
 44
0.0000000001
 40
0.0
 40
0.0
 40
0.0
 40
0.0
 40
0.3399709614
 40
0.6245815591
 40
0.743245576
 40
0.8453425225
 40
0.93081535
 40
1.0
 40
1.0
 40
1.0
 40
1.0
 10
84.845258243
 20
344.5661697316
 30
0.0
 10
84.8658944576
 20
345.0324092072
 30
0.0
 10
84.9105767396
 20
345.8886524386
 30
0.0
 10
84.9953814616
 20
346.905900944
 30
0.0
 10
85.0876327442
 20
347.593640071
 30
0.0
 10
85.1628305489
 20
348.0075029767
 30
0.0
 10
85.249126002
 20
348.3494927049
 30
0.0
 10
85.3217907104
 20
348.5498195578
 30
0.0
 10
85.3622115231
 20
348.6357619984
 30
0.0
  0
SPLINE
  5
31B
100
AcDbEntity
  8
0
100
AcDbSpline
 62
7
  6
CONTINUOUS
 70
0
 71
3
 72
9
 73
5
 74
0
 42
0.0000001
 43
0.0000001
 44
0.0000000001
 40
0.0
 40
0.0
 40
0.0
 40
0.0
 40
0.3747456312
 40
1.0
 40
1.0
 40
1.0
 40
1.0
 10
84.5050687155
 20
348.7787690627
 30
0.0
 10
84.4409195226
 20
348.7977572032
 30
0.0
 10
84.2691327195
 20
348.8461306162
 30
0.0
 10
84.0961988577
 20
348.8916478932
 30
0.0
 10
83.9910214156
 20
348.9290261881
 30
0.0
  0
SPLINE
  5
31C
100
AcDbEntity
  8
0
100
AcDbSpline
 62
7
  6
CONTINUOUS
 70
0
 71
3
 72
10
 73
6
 74
0
 42
0.0000001
 43
0.0000001
 44
0.0000000001
 40
0.0
 40
0.0
 40
0.0
 40
0.0
 40
0.1934611051
 40
0.5434906586
 40
1.0
 40
1.0
 40
1.0
 40
1.0
 10
48.2783277558
 20
322.9851751447
 30
0.0
 10
48.2358144635
 20
322.9851846594
 30
0.0
 10
48.1156949261
 20
323.0131907461
 30
0.0
 10
47.9416791004
 20
323.1574102566
 30
0.0
 10
47.8356614423
 20
323.2994750496
 30
0.0
 10
47.7797328363
 20
323.3827563784
 30
0.0
  0
SPLINE
  5
31D
100
AcDbEntity
  8
0
100
AcDbSpline
 62
7
  6
CONTINUOUS
 70
0
 71
3
 72
9
 73
5
 74
0
 42
0.0000001
 43
0.0000001
 44
0.0000000001
 40
0.0
 40
0.0
 40
0.0
 40
0.0
 40
0.2385542239
 40
1.0
 40
1.0
 40
1.0
 40
1.0
 10
47.7797328363
 20
323.3827563784
 30
0.0
 10
47.7674298773
 20
323.4010762838
 30
0.0
 10
47.7168093368
 20
323.4785119867
 30
0.0
 10
47.6694906249
 20
323.5580659134
 30
0.0
 10
47.6346133746
 20
323.6192632702
 30
0.0
  0
SPLINE
  5
31E
100
AcDbEntity
  8
0
100
AcDbSpline
 62
7
  6
CONTINUOUS
 70
0
 71
3
 72
9
 73
5
 74
0
 42
0.0000001
 43
0.0000001
 44
0.0000000001
 40
0.0
 40
0.0
 40
0.0
 40
0.0
 40
0.2423009759
 40
1.0
 40
1.0
 40
1.0
 40
1.0
 10
47.6346133746
 20
323.6192632702
 30
0.0
 10
47.6135056987
 20
323.6562998475
 30
0.0
 10
47.5281743193
 20
323.8101718197
 30
0.0
 10
47.4476775367
 20
323.9666435946
 30
0.0
 10
47.3865397806
 20
324.0851025396
 30
0.0
  0
SPLINE
  5
31F
100
AcDbEntity
  8
0
100
AcDbSpline
 62
7
  6
CONTINUOUS
 70
0
 71
3
 72
9
 73
5
 74
0
 42
0.0000001
 43
0.0000001
 44
0.0000000001
 40
0.0
 40
0.0
 40
0.0
 40
0.0
 40
0.2441651987
 40
1.0
 40
1.0
 40
1.0
 40
1.0
 10
56.1813865499
 20
342.4063890813
 30
0.0
 10
56.1500319629
 20
342.3853155686
 30
0.0
 10
56.0226147283
 20
342.2975244429
 30
0.0
 10
55.8990480949
 20
342.2041990181
 30
0.0
 10
55.8075946498
 20
342.1313109241
 30
0.0
  0
SPLINE
  5
320
100
AcDbEntity
  8
0
100
AcDbSpline
 62
7
  6
CONTINUOUS
 70
0
 71
3
 72
9
 73
5
 74
0
 42
0.0000001
 43
0.0000001
 44
0.0000000001
 40
0.0
 40
0.0
 40
0.0
 40
0.0
 40
0.2441288613
 40
1.0
 40
1.0
 40
1.0
 40
1.0
 10
55.7517205208
 20
342.0862948224
 30
0.0
 10
55.7144054
 20
342.0559096868
 30
0.0
 10
55.562840492
 20
341.9298695223
 30
0.0
 10
55.4161428162
 20
341.798030478
 30
0.0
 10
55.3075619695
 20
341.6960046373
 30
0.0
  0
SPLINE
  5
321
100
AcDbEntity
  8
0
100
AcDbSpline
 62
7
  6
CONTINUOUS
 70
0
 71
3
 72
9
 73
5
 74
0
 42
0.0000001
 43
0.0000001
 44
0.0000000001
 40
0.0
 40
0.0
 40
0.0
 40
0.0
 40
0.2375371997
 40
1.0
 40
1.0
 40
1.0
 40
1.0
 10
55.3075619695
 20
341.6960046373
 30
0.0
 10
55.1580820212
 20
341.5555487663
 30
0.0
 10
54.5469310618
 20
340.9448457344
 30
0.0
 10
53.9873084292
 20
340.2859142395
 30
0.0
 10
53.5599129546
 20
339.7851025396
 30
0.0
  0
SPLINE
  5
322
100
AcDbEntity
  8
0
100
AcDbSpline
 62
7
  6
CONTINUOUS
 70
0
 71
3
 72
9
 73
5
 74
0
 42
0.0000001
 43
0.0000001
 44
0.0000000001
 40
0.0
 40
0.0
 40
0.0
 40
0.0
 40
0.2590258495
 40
1.0
 40
1.0
 40
1.0
 40
1.0
 10
335.2131666066
 20
339.7851025396
 30
0.0
 10
335.0679980793
 20
339.9552075159
 30
0.0
 10
334.5074329226
 20
340.6113757972
 30
0.0
 10
333.9317178068
 20
341.2579488443
 30
0.0
 10
333.4655175917
 20
341.6960046373
 30
0.0
  0
SPLINE
  5
323
100
AcDbEntity
  8
0
100
AcDbSpline
 62
7
  6
CONTINUOUS
 70
0
 71
3
 72
9
 73
5
 74
0
 42
0.0000001
 43
0.0000001
 44
0.0000000001
 40
0.0
 40
0.0
 40
0.0
 40
0.0
 40
0.2557776783
 40
1.0
 40
1.0
 40
1.0
 40
1.0
 10
333.4655175917
 20
341.6960046373
 30
0.0
 10
333.4287755185
 20
341.7305285983
 30
0.0
 10
333.2841085826
 20
341.8644102052
 30
0.0
 10
333.135112333
 20
341.9936672456
 30
0.0
 10
333.0213590406
 20
342.0862948225
 30
0.0
  0
SPLINE
  5
324
100
AcDbEntity
  8
0
100
AcDbSpline
 62
7
  6
CONTINUOUS
 70
0
 71
3
 72
9
 73
5
 74
0
 42
0.0000001
 43
0.0000001
 44
0.0000000001
 40
0.0
 40
0.0
 40
0.0
 40
0.0
 40
0.2558407391
 40
1.0
 40
1.0
 40
1.0
 40
1.0
 10
332.9654849117
 20
342.1313109242
 30
0.0
 10
332.934529394
 20
342.1559823696
 30
0.0
 10
332.8126829579
 20
342.2513357339
 30
0.0
 10
332.6872535076
 20
342.342162583
 30
0.0
 10
332.5916930113
 20
342.4063890813
 30
0.0
  0
SPLINE
  5
325
100
AcDbEntity
  8
0
100
AcDbSpline
 62
7
  6
CONTINUOUS
 70
0
 71
3
 72
9
 73
5
 74
0
 42
0.0000001
 43
0.0000001
 44
0.0000000001
 40
0.0
 40
0.0
 40
0.0
 40
0.0
 40
0.5436094597
 40
1.0
 40
1.0
 40
1.0
 40
1.0
 10
332.5916930113
 20
342.4063890813
 30
0.0
 10
332.4094316494
 20
342.5747043432
 30
0.0
 10
332.0438070746
 20
342.8589075672
 30
0.0
 10
331.5858700715
 20
342.9851025396
 30
0.0
 10
331.3775836562
 20
342.9851025396
 30
0.0
  0
SPLINE
  5
326
100
AcDbEntity
  8
0
100
AcDbSpline
 62
7
  6
CONTINUOUS
 70
0
 71
3
 72
9
 73
5
 74
0
 42
0.0000001
 43
0.0000001
 44
0.0000000001
 40
0.0
 40
0.0
 40
0.0
 40
0.0
 40
0.4563905403
 40
1.0
 40
1.0
 40
1.0
 40
1.0
 10
57.395495905
 20
342.9851025396
 30
0.0
 10
57.1872094897
 20
342.9851025396
 30
0.0
 10
56.7292724866
 20
342.8589075672
 30
0.0
 10
56.3636479118
 20
342.5747043432
 30
0.0
 10
56.1813865499
 20
342.4063890813
 30
0.0
  0
SPLINE
  5
327
100
AcDbEntity
  8
0
100
AcDbSpline
 62
7
  6
CONTINUOUS
 70
0
 71
3
 72
8
 73
4
 74
0
 42
0.0000001
 43
0.0000001
 44
0.0000000001
 40
0.0
 40
0.0
 40
0.0
 40
0.0
 40
1.0
 40
1.0
 40
1.0
 40
1.0
 10
48.3246716206
 20
336.1193470932
 30
0.0
 10
48.122910467
 20
335.9704707907
 30
0.0
 10
47.9536624319
 20
335.80466923
 30
0.0
 10
47.8169275155
 20
335.621942411
 30
0.0
  0
SPLINE
  5
328
100
AcDbEntity
  8
0
100
AcDbSpline
 62
7
  6
CONTINUOUS
 70
0
 71
3
 72
8
 73
4
 74
0
 42
0.0000001
 43
0.0000001
 44
0.0000000001
 40
0.0
 40
0.0
 40
0.0
 40
0.0
 40
1.0
 40
1.0
 40
1.0
 40
1.0
 10
47.5027597884
 20
335.0184318224
 30
0.0
 10
47.4315066672
 20
334.8016173385
 30
0.0
 10
47.3927666646
 20
334.5678775962
 30
0.0
 10
47.3865397806
 20
334.3172125957
 30
0.0
  0
SPLINE
  5
329
100
AcDbEntity
  8
0
100
AcDbSpline
 62
7
  6
CONTINUOUS
 70
0
 71
3
 72
8
 73
4
 74
0
 42
0.0000001
 43
0.0000001
 44
0.0000000001
 40
0.0
 40
0.0
 40
0.0
 40
0.0
 40
1.0
 40
1.0
 40
1.0
 40
1.0
 10
341.3865397806
 20
334.3172125958
 30
0.0
 10
341.3803128966
 20
334.5678775962
 30
0.0
 10
341.341572894
 20
334.8016173385
 30
0.0
 10
341.2703197728
 20
335.0184318224
 30
0.0
  0
SPLINE
  5
32A
100
AcDbEntity
  8
0
100
AcDbSpline
 62
7
  6
CONTINUOUS
 70
0
 71
3
 72
8
 73
4
 74
0
 42
0.0000001
 43
0.0000001
 44
0.0000000001
 40
0.0
 40
0.0
 40
0.0
 40
0.0
 40
1.0
 40
1.0
 40
1.0
 40
1.0
 10
340.9561520458
 20
335.621942411
 30
0.0
 10
340.8194171293
 20
335.80466923
 30
0.0
 10
340.6501690942
 20
335.9704707907
 30
0.0
 10
340.4484079406
 20
336.1193470932
 30
0.0
  0
SPLINE
  5
32B
100
AcDbEntity
  8
0
100
AcDbSpline
 62
7
  6
CONTINUOUS
 70
0
 71
3
 72
9
 73
5
 74
0
 42
0.0000001
 43
0.0000001
 44
0.0000000001
 40
0.0
 40
0.0
 40
0.0
 40
0.0
 40
0.7576855187
 40
1.0
 40
1.0
 40
1.0
 40
1.0
 10
341.3865397806
 20
324.0851025396
 30
0.0
 10
341.3254836572
 20
323.9668017638
 30
0.0
 10
341.2450916661
 20
323.8105369711
 30
0.0
 10
341.1598863769
 20
323.6568602364
 30
0.0
 10
341.1388100352
 20
323.6198677113
 30
0.0
  0
SPLINE
  5
32C
100
AcDbEntity
  8
0
100
AcDbSpline
 62
7
  6
CONTINUOUS
 70
0
 71
3
 72
9
 73
5
 74
0
 42
0.0000001
 43
0.0000001
 44
0.0000000001
 40
0.0
 40
0.0
 40
0.0
 40
0.0
 40
0.2605000004
 40
1.0
 40
1.0
 40
1.0
 40
1.0
 10
341.1388100352
 20
323.6198677113
 30
0.0
 10
341.1272264635
 20
323.5995365944
 30
0.0
 10
341.0822577931
 20
323.5217820108
 30
0.0
 10
341.0350603795
 20
323.4452791132
 30
0.0
 10
340.9982060495
 20
323.3900149783
 30
0.0
  0
SPLINE
  5
32D
100
AcDbEntity
  8
0
100
AcDbSpline
 62
7
  6
CONTINUOUS
 70
0
 71
3
 72
9
 73
5
 74
0
 42
0.0000001
 43
0.0000001
 44
0.0000000001
 40
0.0
 40
0.0
 40
0.0
 40
0.0
 40
0.3227487719
 40
1.0
 40
1.0
 40
1.0
 40
1.0
 10
340.9982060495
 20
323.3900149783
 30
0.0
 10
340.9590320875
 20
323.331272488
 30
0.0
 10
340.8359979724
 20
323.1584282127
 30
0.0
 10
340.6428924369
 20
322.9852355235
 30
0.0
 10
340.4947328019
 20
322.9851588836
 30
0.0
  0
SPLINE
  5
32E
100
AcDbEntity
  8
0
100
AcDbSpline
 62
7
  6
CONTINUOUS
 70
0
 71
3
 72
9
 73
5
 74
0
 42
0.0000001
 43
0.0000001
 44
0.0000000001
 40
0.0
 40
0.0
 40
0.0
 40
0.0
 40
0.2416760732
 40
1.0
 40
1.0
 40
1.0
 40
1.0
 10
342.6610834954
 20
189.9748059282
 30
0.0
 10
342.6970447789
 20
189.9748059282
 30
0.0
 10
342.845862414
 20
189.9839530895
 30
0.0
 10
342.9910775955
 20
190.0302847427
 30
0.0
 10
343.0929846819
 20
190.0787348525
 30
0.0
  0
SPLINE
  5
32F
100
AcDbEntity
  8
0
100
AcDbSpline
 62
7
  6
CONTINUOUS
 70
0
 71
3
 72
9
 73
5
 74
0
 42
0.0000001
 43
0.0000001
 44
0.0000000001
 40
0.0
 40
0.0
 40
0.0
 40
0.0
 40
0.4339882961
 40
1.0
 40
1.0
 40
1.0
 40
1.0
 10
343.0929846819
 20
190.0787348525
 30
0.0
 10
343.3753002481
 20
190.2129573162
 30
0.0
 10
343.9087922123
 20
190.7344882025
 30
0.0
 10
344.3114754261
 20
191.3255688836
 30
0.0
 10
344.5346852403
 20
191.6667310499
 30
0.0
  0
SPLINE
  5
330
100
AcDbEntity
  8
0
100
AcDbSpline
 62
7
  6
CONTINUOUS
 70
0
 71
3
 72
8
 73
4
 74
0
 42
0.0000001
 43
0.0000001
 44
0.0000000001
 40
0.0
 40
0.0
 40
0.0
 40
0.0
 40
1.0
 40
1.0
 40
1.0
 40
1.0
 10
344.5346852403
 20
191.6667310499
 30
0.0
 10
344.6448928148
 20
191.8351763979
 30
0.0
 10
344.7529823638
 20
192.0050010693
 30
0.0
 10
344.8610834954
 20
192.1748059282
 30
0.0
  0
SPLINE
  5
331
100
AcDbEntity
  8
0
100
AcDbSpline
 62
7
  6
CONTINUOUS
 70
0
 71
3
 72
8
 73
4
 74
0
 42
0.0000001
 43
0.0000001
 44
0.0000000001
 40
0.0
 40
0.0
 40
0.0
 40
0.0
 40
1.0
 40
1.0
 40
1.0
 40
1.0
 10
44.8610834954
 20
192.1748059282
 30
0.0
 10
44.9691842336
 20
192.0050016857
 30
0.0
 10
45.0772733883
 20
191.8351776305
 30
0.0
 10
45.187480547
 20
191.6667328843
 30
0.0
  0
SPLINE
  5
332
100
AcDbEntity
  8
0
100
AcDbSpline
 62
7
  6
CONTINUOUS
 70
0
 71
3
 72
9
 73
5
 74
0
 42
0.0000001
 43
0.0000001
 44
0.0000000001
 40
0.0
 40
0.0
 40
0.0
 40
0.0
 40
0.5660114447
 40
1.0
 40
1.0
 40
1.0
 40
1.0
 10
45.187480547
 20
191.6667328843
 30
0.0
 10
45.4106901233
 20
191.3255710138
 30
0.0
 10
45.8133731034
 20
190.7344905301
 30
0.0
 10
46.3468641038
 20
190.2129594665
 30
0.0
 10
46.6291793724
 20
190.0787362833
 30
0.0
  0
SPLINE
  5
333
100
AcDbEntity
  8
0
100
AcDbSpline
 62
7
  6
CONTINUOUS
 70
0
 71
3
 72
9
 73
5
 74
0
 42
0.0000001
 43
0.0000001
 44
0.0000000001
 40
0.0
 40
0.0
 40
0.0
 40
0.0
 40
0.2627287964
 40
1.0
 40
1.0
 40
1.0
 40
1.0
 10
46.6291793724
 20
190.0787362833
 30
0.0
 10
46.6644740004
 20
190.0619559039
 30
0.0
 10
46.8015065203
 20
190.0041850165
 30
0.0
 10
46.9514153196
 20
189.9748059282
 30
0.0
 10
47.0610834954
 20
189.9748059282
 30
0.0
  0
SPLINE
  5
334
100
AcDbEntity
  8
0
100
AcDbSpline
 62
7
  6
CONTINUOUS
 70
0
 71
3
 72
8
 73
4
 74
0
 42
0.0000001
 43
0.0000001
 44
0.0000000001
 40
0.0
 40
0.0
 40
0.0
 40
0.0
 40
1.0
 40
1.0
 40
1.0
 40
1.0
 10
48.0610834954
 20
316.9748059282
 30
0.0
 10
47.9174274694
 20
316.9748059282
 30
0.0
 10
47.772414228
 20
316.9494250605
 30
0.0
 10
47.6358129763
 20
316.9049598849
 30
0.0
  0
SPLINE
  5
335
100
AcDbEntity
  8
0
100
AcDbSpline
 62
7
  6
CONTINUOUS
 70
0
 71
3
 72
10
 73
6
 74
0
 42
0.0000001
 43
0.0000001
 44
0.0000000001
 40
0.0
 40
0.0
 40
0.0
 40
0.0
 40
0.1920276067
 40
0.4249166203
 40
1.0
 40
1.0
 40
1.0
 40
1.0
 10
47.6358129763
 20
316.9049598849
 30
0.0
 10
47.4138535632
 20
316.8327097103
 30
0.0
 10
46.9601673859
 20
316.5615928851
 30
0.0
 10
46.104139626
 20
315.6923534964
 30
0.0
 10
45.5617645451
 20
314.8659068488
 30
0.0
 10
45.1830001449
 20
314.2783592918
 30
0.0
  0
SPLINE
  5
336
100
AcDbEntity
  8
0
100
AcDbSpline
 62
7
  6
CONTINUOUS
 70
0
 71
3
 72
10
 73
6
 74
0
 42
0.0000001
 43
0.0000001
 44
0.0000000001
 40
0.0
 40
0.0
 40
0.0
 40
0.0
 40
0.5750831843
 40
0.8079722807
 40
1.0
 40
1.0
 40
1.0
 40
1.0
 10
344.5391679101
 20
314.2783576474
 30
0.0
 10
344.1604037515
 20
314.8659048845
 30
0.0
 10
343.6180289094
 20
315.692351187
 30
0.0
 10
342.762001961
 20
316.5615909617
 30
0.0
 10
342.3083160508
 20
316.8327083445
 30
0.0
 10
342.0863566964
 20
316.904958966
 30
0.0
  0
SPLINE
  5
337
100
AcDbEntity
  8
0
100
AcDbSpline
 62
7
  6
CONTINUOUS
 70
0
 71
3
 72
8
 73
4
 74
0
 42
0.0000001
 43
0.0000001
 44
0.0000000001
 40
0.0
 40
0.0
 40
0.0
 40
0.0
 40
1.0
 40
1.0
 40
1.0
 40
1.0
 10
342.0863566964
 20
316.904958966
 30
0.0
 10
341.9497546431
 20
316.9494246894
 30
0.0
 10
341.8047404532
 20
316.9748059282
 30
0.0
 10
341.6610834954
 20
316.9748059282
 30
0.0
  0
LINE
  5
338
100
AcDbEntity
  8
0
100
AcDbLine
 62
7
  6
CONTINUOUS
 10
65.0590733589
 20
318.9747937599
 11
64.9549408798
 21
318.8501989774
  0
SPLINE
  5
339
100
AcDbEntity
  8
0
100
AcDbSpline
 62
7
  6
CONTINUOUS
 70
0
 71
3
 72
9
 73
5
 74
0
 42
0.0000001
 43
0.0000001
 44
0.0000000001
 40
0.0
 40
0.0
 40
0.0
 40
0.0
 40
0.2596846561
 40
1.0
 40
1.0
 40
1.0
 40
1.0
 10
64.9549408798
 20
318.8501989774
 30
0.0
 10
64.8758423972
 20
318.7556832062
 30
0.0
 10
64.5704041701
 20
318.3926109694
 30
0.0
 10
64.2550037712
 20
318.0365046358
 30
0.0
 10
64.0022907297
 20
317.7924008422
 30
0.0
  0
SPLINE
  5
33A
100
AcDbEntity
  8
0
100
AcDbSpline
 62
7
  6
CONTINUOUS
 70
0
 71
3
 72
9
 73
5
 74
0
 42
0.0000001
 43
0.0000001
 44
0.0000000001
 40
0.0
 40
0.0
 40
0.0
 40
0.0
 40
0.5485426477
 40
1.0
 40
1.0
 40
1.0
 40
1.0
 10
64.0022907297
 20
317.7924008422
 30
0.0
 10
63.7654504762
 20
317.5636290939
 30
0.0
 10
63.3051817319
 20
317.1688051356
 30
0.0
 10
62.7058966049
 20
316.9748059282
 30
0.0
 10
62.4348894872
 20
316.9748059282
 30
0.0
  0
SPLINE
  5
33B
100
AcDbEntity
  8
0
100
AcDbSpline
 62
7
  6
CONTINUOUS
 70
0
 71
3
 72
9
 73
5
 74
0
 42
0.0000001
 43
0.0000001
 44
0.0000000001
 40
0.0
 40
0.0
 40
0.0
 40
0.0
 40
0.451456342
 40
1.0
 40
1.0
 40
1.0
 40
1.0
 10
327.2872775036
 20
316.9748059282
 30
0.0
 10
327.0162654754
 20
316.9748059282
 30
0.0
 10
326.4169685772
 20
317.1688128809
 30
0.0
 10
325.9566937378
 20
317.5636483886
 30
0.0
 10
325.7198495821
 20
317.7924266188
 30
0.0
  0
SPLINE
  5
33C
100
AcDbEntity
  8
0
100
AcDbSpline
 62
7
  6
CONTINUOUS
 70
0
 71
3
 72
9
 73
5
 74
0
 42
0.0000001
 43
0.0000001
 44
0.0000000001
 40
0.0
 40
0.0
 40
0.0
 40
0.0
 40
0.237809784
 40
1.0
 40
1.0
 40
1.0
 40
1.0
 10
325.7198495821
 20
317.7924266188
 30
0.0
 10
325.6386622169
 20
317.8708490805
 30
0.0
 10
325.3060834412
 20
318.2097905029
 30
0.0
 10
324.9994132196
 20
318.5727556926
 30
0.0
 10
324.7672274754
 20
318.8501973484
 30
0.0
  0
LINE
  5
33D
100
AcDbEntity
  8
0
100
AcDbLine
 62
7
  6
CONTINUOUS
 10
324.7672274754
 20
318.8501973484
 11
324.6630936334
 21
318.9747937612
  0
SPLINE
  5
33E
100
AcDbEntity
  8
0
100
AcDbSpline
 62
7
  6
CONTINUOUS
 70
0
 71
3
 72
9
 73
5
 74
0
 42
0.0000001
 43
0.0000001
 44
0.0000000001
 40
0.0
 40
0.0
 40
0.0
 40
0.0
 40
0.3063260622
 40
1.0
 40
1.0
 40
1.0
 40
1.0
 10
340.1585183511
 20
318.5577216637
 30
0.0
 10
340.1692525164
 20
318.5697440306
 30
0.0
 10
340.2049144948
 20
318.6083489887
 30
0.0
 10
340.241207186
 20
318.6469144046
 30
0.0
 10
340.2698886295
 20
318.669484435
 30
0.0
  0
SPLINE
  5
33F
100
AcDbEntity
  8
0
100
AcDbSpline
 62
7
  6
CONTINUOUS
 70
0
 71
3
 72
9
 73
5
 74
0
 42
0.0000001
 43
0.0000001
 44
0.0000000001
 40
0.0
 40
0.0
 40
0.0
 40
0.0
 40
0.7025319999
 40
1.0
 40
1.0
 40
1.0
 40
1.0
 10
340.2698886295
 20
318.669484435
 30
0.0
 10
340.2741761227
 20
318.6728583534
 30
0.0
 10
340.2793662211
 20
318.6766772043
 30
0.0
 10
340.2884866135
 20
318.6814805397
 30
0.0
 10
340.2902251532
 20
318.6799593175
 30
0.0
  0
SPLINE
  5
340
100
AcDbEntity
  8
0
100
AcDbSpline
 62
7
  6
CONTINUOUS
 70
0
 71
3
 72
9
 73
5
 74
0
 42
0.0000001
 43
0.0000001
 44
0.0000000001
 40
0.0
 40
0.0
 40
0.0
 40
0.0
 40
0.2989758862
 40
1.0
 40
1.0
 40
1.0
 40
1.0
 10
333.0804916588
 20
319.0030901995
 30
0.0
 10
333.0644246885
 20
319.0075896292
 30
0.0
 10
333.0104452392
 20
319.0213733387
 30
0.0
 10
332.9554663152
 20
319.0340073926
 30
0.0
 10
332.9163735914
 20
319.0355309069
 30
0.0
  0
SPLINE
  5
341
100
AcDbEntity
  8
0
100
AcDbSpline
 62
7
  6
CONTINUOUS
 70
0
 71
3
 72
9
 73
5
 74
0
 42
0.0000001
 43
0.0000001
 44
0.0000000001
 40
0.0
 40
0.0
 40
0.0
 40
0.0
 40
0.3921707015
 40
1.0
 40
1.0
 40
1.0
 40
1.0
 10
332.9163735914
 20
319.0355309069
 30
0.0
 10
332.9125652199
 20
319.035679326
 30
0.0
 10
332.9039114195
 20
319.0354426408
 30
0.0
 10
332.8898096783
 20
319.0354299852
 30
0.0
 10
332.8881868693
 20
319.0297501538
 30
0.0
  0
LINE
  5
342
100
AcDbEntity
  8
0
100
AcDbLine
 62
7
  6
CONTINUOUS
 10
333.0804953655
 20
319.0030989122
 11
333.0803360624
 21
319.1333460652
  0
SPLINE
  5
343
100
AcDbEntity
  8
0
100
AcDbSpline
 62
7
  6
CONTINUOUS
 70
0
 71
3
 72
9
 73
5
 74
0
 42
0.0000001
 43
0.0000001
 44
0.0000000001
 40
0.0
 40
0.0
 40
0.0
 40
0.0
 40
0.7376841519
 40
1.0
 40
1.0
 40
1.0
 40
1.0
 10
333.0803360624
 20
319.1333460652
 30
0.0
 10
333.0803303738
 20
319.1435413211
 30
0.0
 10
333.0852580725
 20
319.1522668052
 30
0.0
 10
333.0770044936
 20
319.1748059282
 30
0.0
 10
333.0806298631
 20
319.1748059282
 30
0.0
  0
ENDSEC
  0
SECTION
  2
OBJECTS
  0
DICTIONARY
  5
C
100
AcDbDictionary
280
0
281
1
  3
ACAD_GROUP
350
D
  3
ACAD_MLINESTYLE
350
17
  3
ACAD_LAYOUT
350
1A
  3
ACAD_PLOTSETTINGS
350
19
  3
ACAD_PLOTSTYLENAME
350
E
  0
DICTIONARY
  5
D
102
{ACAD_REACTORS
330
C
102
}
100
AcDbDictionary
280
0
281
1
  0
ACDBDICTIONARYWDFLT
  5
E
102
{ACAD_REACTORS
330
C
102
}
100
AcDbDictionary
281
1
  3
Normal
350
F
100
AcDbDictionaryWithDefault
340
F
  0
DICTIONARY
  5
17
102
{ACAD_REACTORS
330
C
102
}
100
AcDbDictionary
280
0
281
1
  3
Standard
350
18
  0
DICTIONARY
  5
19
102
{ACAD_REACTORS
330
C
102
}
100
AcDbDictionary
281
1
  0
DICTIONARY
  5
1A
102
{ACAD_REACTORS
330
C
102
}
100
AcDbDictionary
281
1
  3
Model
350
344
  3
Layout1
350
345
  0
ACDBPLACEHOLDER
  5
F
102
{ACAD_REACTORS
330
E
102
}
  0
MLINESTYLE
  5
18
102
{ACAD_REACTORS
330
17
102
}
100
AcDbMlineStyle
  2
STANDARD
 70
0
  3

 62
256
 51
90.0
 52
90.0
 71
2
 49
0.5
 62
256
  6
BYLAYER
 49
-0.5
 62
256
  6
BYLAYER
  0
LAYOUT
  5
344
102
{ACAD_REACTORS
330
1A
102
}
100
AcDbPlotSettings
  1

  2
none_device
  4

  6

 40
0.0
 41
0.0
 42
0.0
 43
0.0
 44
210.0
 45
297.0
 46
0.0
 47
0.0
 48
0.0
 49
0.0
140
0.0
141
0.0
142
1.0
143
1.0
 70
1024
 72
1
 73
0
 74
0
  7

 75
0
147
1.0
148
0.0
149
0.0
100
AcDbLayout
  1
Model
 70
0
 71
0
 10
0.0
 20
0.0
 11
210.0
 21
297.0
 12
0.0
 22
0.0
 32
0.0
 14
0.0
 24
0.0
 34
0.0
 15
0.0
 25
0.0
 35
0.0
146
0.0
 13
0.0
 23
0.0
 33
0.0
 16
1.0
 26
0.0
 36
0.0
 17
0.0
 27
1.0
 37
0.0
 76
0
330
210
345
0
346
0
  0
LAYOUT
  5
345
102
{ACAD_REACTORS
330
1A
102
}
100
AcDbPlotSettings
  1

  2
none_device
  4

  6

 40
0.0
 41
0.0
 42
0.0
 43
0.0
 44
210.0
 45
297.0
 46
0.0
 47
0.0
 48
0.0
 49
0.0
140
0.0
141
0.0
142
1.0
143
1.0
 70
0
 72
1
 73
0
 74
0
  7

 75
0
147
1.0
148
0.0
149
0.0
100
AcDbLayout
  1
Layout1
 70
0
 71
1
 10
0.0
 20
0.0
 11
210.0
 21
297.0
 12
0.0
 22
0.0
 32
0.0
 14
0.0
 24
0.0
 34
0.0
 15
0.0
 25
0.0
 35
0.0
146
0.0
 13
0.0
 23
0.0
 33
0.0
 16
1.0
 26
0.0
 36
0.0
 17
0.0
 27
1.0
 37
0.0
 76
0
330
211
345
0
346
0
  0
ENDSEC
  0
EOF
