999
DXF file: C:\Users\sesa63760\Dev\_Creo\CAD\MCADID0004119_3D-CAD\drw0001_3.dxf
999
Pro/ENGINEER 2019471 by Parametric Technology Corporation
  0
SECTION
  2
HEADER
  9
$ACADVER
  1
AC1024
  9
$DWGCODEPAGE
  3
ANSI_1252
  9
$EXTMAX
 10
72.051588091
 20
101.9015317287
 30
0.0
  9
$EXTMIN
 10
0.0
 20
0.0
 30
0.0
  9
$LIMMIN
 10
0.0
 20
0.0
  9
$LIMMAX
 10
72.051588091
 20
101.9015317287
  9
$VIEWCTR
 10
36.0257940455
 20
50.9507658643
  9
$VIEWSIZE
 40
101.9015317287
  9
$CLAYER
  8
0
  9
$LTSCALE
 40
6.6424702164
  9
$CELTYPE
  6
BYLAYER
  9
$DIMSCALE
 40
1.0
  9
$DIMASZ
 40
0.8577570011
  9
$DIMEXO
 40
1.0
  9
$DIMDLI
 40
4.5893430586
  9
$DIMEXE
 40
1.0
  9
$DIMCEN
 40
1.0869496718
  9
$DIMLFAC
 40
1.0
  9
$DIMBLK
  1
_FILLED
  9
$DIMALT
 70
0
  9
$DIMALTF
 40
0.0393700787
  9
$DIMTXT
 40
1.2008598015
  9
$DIMTOL
 70
1
  9
$DIMLIM
 70
0
  9
$DIMTFAC
 40
1.0
  9
$DIMTP
 40
0.01
  9
$DIMTM
 40
0.01
  9
$DIMGAP
 40
0.625
  9
$DIMDSEP
 70
46
  9
$AUNITS
 70
0
  9
$PDMODE
 70
3
  9
$PDSIZE
 40
0.3125
  9
$HANDSEED
  5
27B
  9
$TILEMODE
 70
1
  9
$MEASUREMENT
 70
1
  9
$INSUNITS
 70
4
  0
ENDSEC
  0
SECTION
  2
CLASSES
  0
CLASS
  1
ACDBDICTIONARYWDFLT
  2
AcDbDictionaryWithDefault
  3
AutoCAD 2000
 90
0
 91
1
280
0
281
0
  0
CLASS
  1
ACDBPLACEHOLDER
  2
AcDbPlaceHolder
  3
AutoCAD 2000
 90
0
 91
1
280
0
281
0
  0
CLASS
  1
LAYOUT
  2
AcDbLayout
  3
AutoCAD 2000
 90
0
 91
0
280
0
281
0
  0
ENDSEC
  0
SECTION
  2
TABLES
  0
TABLE
  2
VPORT
  5
8
100
AcDbSymbolTable
 70
2
  0
VPORT
  5
1F4
100
AcDbSymbolTableRecord
100
AcDbViewportTableRecord
  2
*ACTIVE
 70
0
 10
0.0
 20
0.0
 11
1.0
 21
1.0
 12
36.0257940455
 22
50.9507658643
 13
0.0
 23
0.0
 14
1.0
 24
1.0
 15
0.0
 25
0.0
 16
0.0
 26
0.0
 36
1.0
 17
0.0
 27
0.0
 37
0.0
 40
101.9015317287
 41
0.7070707071
 42
50.0
 43
0.0
 44
0.0
 50
0.0
 51
0.0
 71
0
 72
100
 73
1
 74
1
 75
0
 76
0
 77
0
 78
0
  0
ENDTAB
  0
TABLE
  2
LTYPE
  5
5
100
AcDbSymbolTable
 70
6
  0
LTYPE
  5
14
100
AcDbSymbolTableRecord
100
AcDbLinetypeTableRecord
  2
BYBLOCK
 70
0
  3

 72
65
 73
0
 40
0.0
  0
LTYPE
  5
15
100
AcDbSymbolTableRecord
100
AcDbLinetypeTableRecord
  2
BYLAYER
 70
0
  3

 72
65
 73
0
 40
0.0
  0
LTYPE
  5
16
100
AcDbSymbolTableRecord
100
AcDbLinetypeTableRecord
  2
CONTINUOUS
 70
64
  3
Solid line
 72
65
 73
0
 40
0.0
  0
LTYPE
  5
1F5
100
AcDbSymbolTableRecord
100
AcDbLinetypeTableRecord
  2
CENTER
 70
64
  3
____ _ ____ _ ____ _ ____ _ ____ _ ____ _ ____
 72
65
 73
4
 40
0.6
 49
0.375
 74
0
 49
-0.075
 74
0
 49
0.075
 74
0
 49
-0.075
 74
0
  0
LTYPE
  5
1F6
100
AcDbSymbolTableRecord
100
AcDbLinetypeTableRecord
  2
HIDDEN
 70
64
  3
- - - - - - - - - - - - - - - - - - - -
 72
65
 73
2
 40
0.2
 49
0.1
 74
0
 49
-0.1
 74
0
  0
LTYPE
  5
1F7
100
AcDbSymbolTableRecord
100
AcDbLinetypeTableRecord
  2
PHANTOM
 70
64
  3
_____ _ _ _____ _ _ _____ _ _ _____
 72
65
 73
6
 40
0.8
 49
0.45
 74
0
 49
-0.05
 74
0
 49
0.1
 74
0
 49
-0.05
 74
0
 49
0.1
 74
0
 49
-0.05
 74
0
  0
LTYPE
  5
1F8
100
AcDbSymbolTableRecord
100
AcDbLinetypeTableRecord
  2
DOT
 70
64
  3
. . . . . . . . . . . . . . . . . . . .
 72
65
 73
2
 40
0.2
 49
0.1
 74
0
 49
-0.1
 74
0
  0
LTYPE
  5
1F9
100
AcDbSymbolTableRecord
100
AcDbLinetypeTableRecord
  2
DASHED
 70
64
  3
- - - - - - - - - - - - - - - - - - - -
 72
65
 73
2
 40
0.2
 49
0.1
 74
0
 49
-0.1
 74
0
  0
ENDTAB
  0
TABLE
  2
LAYER
  5
2
100
AcDbSymbolTable
 70
36
  0
LAYER
  5
10
100
AcDbSymbolTableRecord
100
AcDbLayerTableRecord
  2
0
 70
0
 62
7
  6
CONTINUOUS
370
-3
390
F
  0
LAYER
  5
1FA
100
AcDbSymbolTableRecord
100
AcDbLayerTableRecord
  2
DEFAULT_1
 70
0
 62
7
  6
CENTER
370
-3
390
F
  0
LAYER
  5
1FB
100
AcDbSymbolTableRecord
100
AcDbLayerTableRecord
  2
DEFAULT_2
 70
0
 62
7
  6
HIDDEN
370
-3
390
F
  0
LAYER
  5
1FC
100
AcDbSymbolTableRecord
100
AcDbLayerTableRecord
  2
DEFAULT_3
 70
0
 62
7
  6
PHANTOM
370
-3
390
F
  0
LAYER
  5
1FD
100
AcDbSymbolTableRecord
100
AcDbLayerTableRecord
  2
00_COMPONENTS
 70
0
 62
7
  6
CONTINUOUS
370
-3
390
F
  0
LAYER
  5
1FE
100
AcDbSymbolTableRecord
100
AcDbLayerTableRecord
  2
01_1_DEFAULT_DATUMS
 70
0
 62
7
  6
CONTINUOUS
370
-3
390
F
  0
LAYER
  5
1FF
100
AcDbSymbolTableRecord
100
AcDbLayerTableRecord
  2
01_PLANES
 70
0
 62
7
  6
CONTINUOUS
370
-3
390
F
  0
LAYER
  5
200
100
AcDbSymbolTableRecord
100
AcDbLayerTableRecord
  2
02_COORD_SYS
 70
0
 62
7
  6
CONTINUOUS
370
-3
390
F
  0
LAYER
  5
201
100
AcDbSymbolTableRecord
100
AcDbLayerTableRecord
  2
03_AXES
 70
0
 62
7
  6
CONTINUOUS
370
-3
390
F
  0
LAYER
  5
202
100
AcDbSymbolTableRecord
100
AcDbLayerTableRecord
  2
04_POINTS
 70
0
 62
7
  6
CONTINUOUS
370
-3
390
F
  0
LAYER
  5
203
100
AcDbSymbolTableRecord
100
AcDbLayerTableRecord
  2
05_CURVES
 70
0
 62
7
  6
CONTINUOUS
370
-3
390
F
  0
LAYER
  5
204
100
AcDbSymbolTableRecord
100
AcDbLayerTableRecord
  2
06_SURFS
 70
0
 62
7
  6
CONTINUOUS
370
-3
390
F
  0
LAYER
  5
205
100
AcDbSymbolTableRecord
100
AcDbLayerTableRecord
  2
07_COSMETICS
 70
0
 62
7
  6
CONTINUOUS
370
-3
390
F
  0
LAYER
  5
206
100
AcDbSymbolTableRecord
100
AcDbLayerTableRecord
  2
10_NOTES
 70
0
 62
7
  6
CONTINUOUS
370
-3
390
F
  0
LAYER
  5
207
100
AcDbSymbolTableRecord
100
AcDbLayerTableRecord
  2
11_NOTES_PUB
 70
0
 62
7
  6
CONTINUOUS
370
-3
390
F
  0
LAYER
  5
208
100
AcDbSymbolTableRecord
100
AcDbLayerTableRecord
  2
13_REF_GTOL
 70
0
 62
7
  6
CONTINUOUS
370
-3
390
F
  0
LAYER
  5
209
100
AcDbSymbolTableRecord
100
AcDbLayerTableRecord
  2
16_MISC
 70
0
 62
7
  6
CONTINUOUS
370
-3
390
F
  0
LAYER
  5
20A
100
AcDbSymbolTableRecord
100
AcDbLayerTableRecord
  2
17_NO_PRINT
 70
0
 62
7
  6
CONTINUOUS
370
-3
390
F
  0
LAYER
  5
20B
100
AcDbSymbolTableRecord
100
AcDbLayerTableRecord
  2
18_DATUM_CAMS_JOINTS
 70
0
 62
7
  6
CONTINUOUS
370
-3
390
F
  0
LAYER
  5
20C
100
AcDbSymbolTableRecord
100
AcDbLayerTableRecord
  2
19_DATUM_FUNCTIONAL
 70
0
 62
7
  6
CONTINUOUS
370
-3
390
F
  0
LAYER
  5
20D
100
AcDbSymbolTableRecord
100
AcDbLayerTableRecord
  2
20_DATUM_KINEMATIC_SCHEME
 70
0
 62
7
  6
CONTINUOUS
370
-3
390
F
  0
ENDTAB
  0
TABLE
  2
STYLE
  5
3
100
AcDbSymbolTable
 70
1
  0
STYLE
  5
11
100
AcDbSymbolTableRecord
100
AcDbTextStyleTableRecord
  2
STANDARD
 70
0
 40
0.0
 41
1.0
 50
0.0
 71
0
 42
0.2
  3
ARIAL.TTF
  4

  0
STYLE
  5
20E
100
AcDbSymbolTableRecord
100
AcDbTextStyleTableRecord
  2
TEXTSTYLE_1
 70
0
 40
0.0
 41
0.8
 50
0.0
 71
0
 42
0.2
  3
gdt
  4

  0
ENDTAB
  0
TABLE
  2
VIEW
  5
6
100
AcDbSymbolTable
 70
0
  0
ENDTAB
  0
TABLE
  2
UCS
  5
7
100
AcDbSymbolTable
 70
0
  0
ENDTAB
  0
TABLE
  2
APPID
  5
9
100
AcDbSymbolTable
 70
1
  0
APPID
  5
20F
100
AcDbSymbolTableRecord
100
AcDbRegAppTableRecord
  2
ACAD
 70
0
  0
ENDTAB
  0
TABLE
  2
BLOCK_RECORD
  5
1
100
AcDbSymbolTable
 70
0
  0
BLOCK_RECORD
  5
210
100
AcDbSymbolTableRecord
100
AcDbBlockTableRecord
  2
*Model_Space
  0
BLOCK_RECORD
  5
211
100
AcDbSymbolTableRecord
100
AcDbBlockTableRecord
  2
*Paper_Space
  0
BLOCK_RECORD
  5
212
100
AcDbSymbolTableRecord
100
AcDbBlockTableRecord
  2
_FILLED
  0
ENDTAB
  0
TABLE
  2
DIMSTYLE
  5
A
100
AcDbSymbolTable
 70
1
100
AcDbDimStyleTable
 71
0
  0
DIMSTYLE
105
213
100
AcDbSymbolTableRecord
100
AcDbDimStyleTableRecord
  2
STANDARD
 70
0
  3

  4

 40
1.0
 41
0.8577570011
 42
1.0
 43
0.38
 44
1.0
 45
0.0
 46
0.0
 47
0.01
 48
0.01
140
1.2008598015
141
0.09
142
0.0
143
25.4
144
1.0
145
0.0
146
1.0
147
0.625
 71
1
 72
0
 73
0
 74
0
 75
0
 76
0
 77
1
 78
8
 79
2
170
0
171
1
172
0
173
0
174
0
175
0
176
0
177
0
178
0
270
2
179
2
271
2
272
2
273
2
274
2
275
0
280
0
281
0
282
0
283
1
284
8
285
0
286
0
287
3
288
0
340
11
278
46
341
212
342
212
343
212
344
212
  0
ENDTAB
  0
ENDSEC
  0
SECTION
  2
BLOCKS
  0
BLOCK
  5
20
100
AcDbEntity
  8
0
100
AcDbBlockBegin
  2
*Model_Space
 70
0
 10
0.0
 20
0.0
 30
0.0
  3
*Model_Space
  1

  0
ENDBLK
  5
21
100
AcDbEntity
  8
0
100
AcDbBlockEnd
  0
BLOCK
  5
1C
100
AcDbEntity
  8
0
100
AcDbBlockBegin
  2
*Paper_Space
 70
0
 10
0.0
 20
0.0
 30
0.0
  3
*Paper_Space
  1

  0
ENDBLK
  5
1D
100
AcDbEntity
  8
0
100
AcDbBlockEnd
  0
BLOCK
  5
214
100
AcDbEntity
  8
0
100
AcDbBlockBegin
  2
_FILLED
 70
64
 10
0.0
 20
0.0
  3
_FILLED
  1

  0
SOLID
  5
215
100
AcDbEntity
  8
0
  6
BYBLOCK
 62
0
100
AcDbTrace
 10
0.0
 20
0.0
 11
-1.0
 21
0.25
 12
-1.0
 22
-0.25
 13
-1.0
 23
-0.25
  0
ENDBLK
  5
216
100
AcDbEntity
  8
0
  6
BYBLOCK
 62
0
100
AcDbBlockEnd
  0
ENDSEC
  0
SECTION
  2
ENTITIES
  0
LINE
  5
217
100
AcDbEntity
  8
0
100
AcDbLine
 62
7
  6
BYLAYER
 10
19.516232364
 20
43.8502250401
 11
19.516232364
 21
58.5502125967
  0
LINE
  5
218
100
AcDbEntity
  8
0
100
AcDbLine
 62
7
  6
BYLAYER
 10
41.7236058617
 20
39.1952188184
 11
44.7236058617
 21
39.1952188184
  0
LINE
  5
219
100
AcDbEntity
  8
0
100
AcDbLine
 62
7
  6
BYLAYER
 10
51.7236058617
 20
39.1952188184
 11
54.7236058617
 21
39.1952188184
  0
LINE
  5
21A
100
AcDbEntity
  8
0
100
AcDbLine
 62
7
  6
BYLAYER
 10
53.8604672092
 20
39.8500575305
 11
52.5867445141
 21
39.8500575305
  0
LINE
  5
21B
100
AcDbEntity
  8
0
100
AcDbLine
 62
7
  6
BYLAYER
 10
43.8604672092
 20
39.8500575305
 11
42.5867445141
 21
39.8500575305
  0
LINE
  5
21C
100
AcDbEntity
  8
0
100
AcDbLine
 62
7
  6
BYLAYER
 10
27.9367023005
 20
42.9555253665
 11
27.9367023005
 21
59.4449122702
  0
LINE
  5
21D
100
AcDbEntity
  8
0
100
AcDbLine
 62
7
  6
BYLAYER
 10
29.0121999754
 20
59.4449008191
 11
29.0121999754
 21
42.9555368177
  0
LINE
  5
21E
100
AcDbEntity
  8
0
100
AcDbLine
 62
7
  6
BYLAYER
 10
62.2217317031
 20
42.2068628081
 11
54.7236058617
 21
42.2068628081
  0
LINE
  5
21F
100
AcDbEntity
  8
0
100
AcDbLine
 62
7
  6
BYLAYER
 10
51.0249638087
 20
42.2068628081
 11
45.4222479147
 21
42.2068628081
  0
LINE
  5
220
100
AcDbEntity
  8
0
100
AcDbLine
 62
7
  6
BYLAYER
 10
41.7236058617
 20
42.2068628081
 11
36.0548949979
 21
42.2068628081
  0
LINE
  5
221
100
AcDbEntity
  8
0
100
AcDbLine
 62
7
  6
BYLAYER
 10
63.8272394452
 20
42.9066177622
 11
62.8236714486
 21
42.9066177622
  0
LINE
  5
222
100
AcDbEntity
  8
0
100
AcDbLine
 62
7
  6
BYLAYER
 10
35.3062324395
 20
42.9555253665
 11
29.3131698482
 21
42.9555253665
  0
LINE
  5
223
100
AcDbEntity
  8
0
100
AcDbLine
 62
7
  6
BYLAYER
 10
29.0121999754
 20
42.9555253665
 11
27.9367023005
 21
42.9555253665
  0
LINE
  5
224
100
AcDbEntity
  8
0
100
AcDbLine
 62
7
  6
BYLAYER
 10
19.516232364
 20
43.8502250401
 11
27.9367023005
 21
42.9555253665
  0
LINE
  5
225
100
AcDbEntity
  8
0
100
AcDbLine
 62
7
  6
BYLAYER
 10
29.3131698482
 20
42.9555368177
 11
29.3131698482
 21
59.4449008191
  0
LINE
  5
226
100
AcDbEntity
  8
0
100
AcDbLine
 62
7
  6
BYLAYER
 10
35.3062324395
 20
59.4449122702
 11
36.0548949979
 21
60.1935748287
  0
LINE
  5
227
100
AcDbEntity
  8
0
100
AcDbLine
 62
7
  6
BYLAYER
 10
29.3131698482
 20
43.7568576528
 11
29.0121999754
 21
43.7568576528
  0
LINE
  5
228
100
AcDbEntity
  8
0
100
AcDbLine
 62
7
  6
BYLAYER
 10
65.325663456
 20
44.3961487405
 11
64.2251036806
 21
44.3961487405
  0
LINE
  5
229
100
AcDbEntity
  8
0
100
AcDbLine
 62
7
  6
BYLAYER
 10
35.3062324395
 20
42.9555253665
 11
36.0548949979
 21
42.2068628081
  0
LINE
  5
22A
100
AcDbEntity
  8
0
100
AcDbLine
 62
7
  6
BYLAYER
 10
51.0249638087
 20
62.2490545468
 11
51.7236058617
 21
62.5006468717
  0
LINE
  5
22B
100
AcDbEntity
  8
0
100
AcDbLine
 62
7
  6
BYLAYER
 10
51.0249638087
 20
40.1513830899
 11
51.7236058617
 21
39.8997907651
  0
LINE
  5
22C
100
AcDbEntity
  8
0
100
AcDbLine
 62
7
  6
BYLAYER
 10
19.516232364
 20
49.1002188184
 11
8.9878994127
 21
49.1002188184
  0
LINE
  5
22D
100
AcDbEntity
  8
0
100
AcDbLine
 62
7
  6
BYLAYER
 10
35.3062324395
 20
59.4449122702
 11
35.3062324395
 21
42.9555253665
  0
LINE
  5
22E
100
AcDbEntity
  8
0
100
AcDbLine
 62
7
  6
BYLAYER
 10
36.0548949979
 20
42.2068628081
 11
36.0548949979
 21
60.1935748287
  0
LINE
  5
22F
100
AcDbEntity
  8
0
100
AcDbLine
 62
7
  6
BYLAYER
 10
42.5867445141
 20
50.5453801063
 11
43.8604672092
 21
50.5453801063
  0
LINE
  5
230
100
AcDbEntity
  8
0
100
AcDbLine
 62
7
  6
BYLAYER
 10
52.5867445141
 20
50.5453801063
 11
53.8604672092
 21
50.5453801063
  0
LINE
  5
231
100
AcDbEntity
  8
0
100
AcDbLine
 62
7
  6
BYLAYER
 10
53.8604672092
 20
51.8550575305
 11
52.5867445141
 21
51.8550575305
  0
LINE
  5
232
100
AcDbEntity
  8
0
100
AcDbLine
 62
7
  6
BYLAYER
 10
43.8604672092
 20
51.8550575305
 11
42.5867445141
 21
51.8550575305
  0
LINE
  5
233
100
AcDbEntity
  8
0
100
AcDbLine
 62
7
  6
BYLAYER
 10
8.9878994127
 20
53.3002188184
 11
19.516232364
 21
53.3002188184
  0
LINE
  5
234
100
AcDbEntity
  8
0
100
AcDbLine
 62
7
  6
BYLAYER
 10
41.7236058617
 20
39.1952188184
 11
41.7236058617
 21
63.2052188184
  0
LINE
  5
235
100
AcDbEntity
  8
0
100
AcDbLine
 62
7
  6
BYLAYER
 10
42.5867445141
 20
39.1952188184
 11
42.5867445141
 21
39.8500575305
  0
LINE
  5
236
100
AcDbEntity
  8
0
100
AcDbLine
 62
7
  6
BYLAYER
 10
42.5867445141
 20
50.5453801063
 11
42.5867445141
 21
51.8550575305
  0
LINE
  5
237
100
AcDbEntity
  8
0
100
AcDbLine
 62
7
  6
BYLAYER
 10
42.5867445141
 20
62.5503801063
 11
42.5867445141
 21
63.2052188184
  0
LINE
  5
238
100
AcDbEntity
  8
0
100
AcDbLine
 62
7
  6
BYLAYER
 10
43.8604672092
 20
63.2052188184
 11
43.8604672092
 21
62.5503801063
  0
LINE
  5
239
100
AcDbEntity
  8
0
100
AcDbLine
 62
7
  6
BYLAYER
 10
43.8604672092
 20
51.8550575305
 11
43.8604672092
 21
50.5453801063
  0
LINE
  5
23A
100
AcDbEntity
  8
0
100
AcDbLine
 62
7
  6
BYLAYER
 10
43.8604672092
 20
39.8500575305
 11
43.8604672092
 21
39.1952188184
  0
LINE
  5
23B
100
AcDbEntity
  8
0
100
AcDbLine
 62
7
  6
BYLAYER
 10
44.7236058617
 20
63.2052188184
 11
44.7236058617
 21
39.1952188184
  0
LINE
  5
23C
100
AcDbEntity
  8
0
100
AcDbLine
 62
7
  6
BYLAYER
 10
45.4222479147
 20
62.2490484075
 11
45.4222479147
 21
40.1513892292
  0
LINE
  5
23D
100
AcDbEntity
  8
0
100
AcDbLine
 62
7
  6
BYLAYER
 10
65.325663456
 20
58.0042888963
 11
64.2251036806
 21
58.0042888963
  0
LINE
  5
23E
100
AcDbEntity
  8
0
100
AcDbLine
 62
7
  6
BYLAYER
 10
29.3131698482
 20
58.643579984
 11
29.0121999754
 21
58.643579984
  0
LINE
  5
23F
100
AcDbEntity
  8
0
100
AcDbLine
 62
7
  6
BYLAYER
 10
35.3062324395
 20
59.4449122702
 11
29.3131698482
 21
59.4449122702
  0
LINE
  5
240
100
AcDbEntity
  8
0
100
AcDbLine
 62
7
  6
BYLAYER
 10
29.0121999754
 20
59.4449122702
 11
27.9367023005
 21
59.4449122702
  0
LINE
  5
241
100
AcDbEntity
  8
0
100
AcDbLine
 62
7
  6
BYLAYER
 10
63.8272394452
 20
59.4938198745
 11
62.8236714486
 21
59.4938198745
  0
LINE
  5
242
100
AcDbEntity
  8
0
100
AcDbLine
 62
7
  6
BYLAYER
 10
19.516232364
 20
58.5502125967
 11
27.9367023005
 21
59.4449122702
  0
LINE
  5
243
100
AcDbEntity
  8
0
100
AcDbLine
 62
7
  6
BYLAYER
 10
62.2217317031
 20
60.1935748287
 11
54.7236058617
 21
60.1935748287
  0
LINE
  5
244
100
AcDbEntity
  8
0
100
AcDbLine
 62
7
  6
BYLAYER
 10
51.0249638087
 20
60.1935748287
 11
45.4222479147
 21
60.1935748287
  0
LINE
  5
245
100
AcDbEntity
  8
0
100
AcDbLine
 62
7
  6
BYLAYER
 10
41.7236058617
 20
60.1935748287
 11
36.0548949979
 21
60.1935748287
  0
LINE
  5
246
100
AcDbEntity
  8
0
100
AcDbLine
 62
7
  6
BYLAYER
 10
42.5867445141
 20
62.5503801063
 11
43.8604672092
 21
62.5503801063
  0
LINE
  5
247
100
AcDbEntity
  8
0
100
AcDbLine
 62
7
  6
BYLAYER
 10
52.5867445141
 20
62.5503801063
 11
53.8604672092
 21
62.5503801063
  0
LINE
  5
248
100
AcDbEntity
  8
0
100
AcDbLine
 62
7
  6
BYLAYER
 10
54.7236058617
 20
63.2052188184
 11
51.7236058617
 21
63.2052188184
  0
LINE
  5
249
100
AcDbEntity
  8
0
100
AcDbLine
 62
7
  6
BYLAYER
 10
44.7236058617
 20
63.2052188184
 11
41.7236058617
 21
63.2052188184
  0
LINE
  5
24A
100
AcDbEntity
  8
0
100
AcDbLine
 62
7
  6
BYLAYER
 10
51.0249638087
 20
40.1513892292
 11
51.0249638087
 21
62.2490484075
  0
LINE
  5
24B
100
AcDbEntity
  8
0
100
AcDbLine
 62
7
  6
BYLAYER
 10
51.7236058617
 20
39.1952188184
 11
51.7236058617
 21
63.2052188184
  0
LINE
  5
24C
100
AcDbEntity
  8
0
100
AcDbLine
 62
7
  6
BYLAYER
 10
45.4222479147
 20
40.1513830899
 11
44.7236058617
 21
39.8997907651
  0
LINE
  5
24D
100
AcDbEntity
  8
0
100
AcDbLine
 62
7
  6
BYLAYER
 10
45.4222479147
 20
62.2490545468
 11
44.7236058617
 21
62.5006468717
  0
LINE
  5
24E
100
AcDbEntity
  8
0
100
AcDbLine
 62
7
  6
BYLAYER
 10
52.5867445141
 20
39.1952188184
 11
52.5867445141
 21
39.8500575305
  0
LINE
  5
24F
100
AcDbEntity
  8
0
100
AcDbLine
 62
7
  6
BYLAYER
 10
52.5867445141
 20
50.5453801063
 11
52.5867445141
 21
51.8550575305
  0
LINE
  5
250
100
AcDbEntity
  8
0
100
AcDbLine
 62
7
  6
BYLAYER
 10
52.5867445141
 20
62.5503801063
 11
52.5867445141
 21
63.2052188184
  0
LINE
  5
251
100
AcDbEntity
  8
0
100
AcDbLine
 62
7
  6
BYLAYER
 10
53.8604672092
 20
63.2052188184
 11
53.8604672092
 21
62.5503801063
  0
LINE
  5
252
100
AcDbEntity
  8
0
100
AcDbLine
 62
7
  6
BYLAYER
 10
53.8604672092
 20
51.8550575305
 11
53.8604672092
 21
50.5453801063
  0
LINE
  5
253
100
AcDbEntity
  8
0
100
AcDbLine
 62
7
  6
BYLAYER
 10
53.8604672092
 20
39.8500575305
 11
53.8604672092
 21
39.1952188184
  0
LINE
  5
254
100
AcDbEntity
  8
0
100
AcDbLine
 62
7
  6
BYLAYER
 10
54.7236058617
 20
63.2052188184
 11
54.7236058617
 21
39.1952188184
  0
LINE
  5
255
100
AcDbEntity
  8
0
100
AcDbLine
 62
7
  6
BYLAYER
 10
62.8236714486
 20
42.8050404302
 11
62.2217317031
 21
42.2068628081
  0
LINE
  5
256
100
AcDbEntity
  8
0
100
AcDbLine
 62
7
  6
BYLAYER
 10
62.8236714486
 20
59.5953972066
 11
62.2217317031
 21
60.1935748287
  0
LINE
  5
257
100
AcDbEntity
  8
0
100
AcDbLine
 62
7
  6
BYLAYER
 10
62.2217317031
 20
60.1935748287
 11
62.2217317031
 21
42.2068628081
  0
LINE
  5
258
100
AcDbEntity
  8
0
100
AcDbLine
 62
7
  6
BYLAYER
 10
62.8236714486
 20
59.5953854862
 11
62.8236714486
 21
42.8050521505
  0
LINE
  5
259
100
AcDbEntity
  8
0
100
AcDbLine
 62
7
  6
BYLAYER
 10
63.8272394452
 20
59.4938198745
 11
63.8272394452
 21
42.9066177622
  0
LINE
  5
25A
100
AcDbEntity
  8
0
100
AcDbLine
 62
7
  6
BYLAYER
 10
64.0232024268
 20
59.2958774689
 11
64.0232024268
 21
43.1045601679
  0
LINE
  5
25B
100
AcDbEntity
  8
0
100
AcDbLine
 62
7
  6
BYLAYER
 10
64.2251036806
 20
44.3961487405
 11
64.2251036806
 21
58.0042888963
  0
LINE
  5
25C
100
AcDbEntity
  8
0
100
AcDbLine
 62
7
  6
BYLAYER
 10
65.325663456
 20
58.0042888963
 11
65.325663456
 21
44.3961487405
  0
LINE
  5
25D
100
AcDbEntity
  8
0
100
AcDbLine
 62
7
  6
BYLAYER
 10
65.5236058617
 20
57.8063464906
 11
65.5236058617
 21
44.5940911461
  0
ARC
  5
25E
100
AcDbEntity
  8
0
100
AcDbCircle
 62
7
  6
BYLAYER
 10
65.3207148959
 20
57.8013979305
 40
0.2029513051
100
AcDbArc
 50
1.3971810273
 51
88.6028189727
  0
ARC
  5
25F
100
AcDbEntity
  8
0
100
AcDbCircle
 62
7
  6
BYLAYER
 10
65.3207148959
 20
44.5990397063
 40
0.2029513051
100
AcDbArc
 50
271.3971810273
 51
358.6028189727
  0
ARC
  5
260
100
AcDbEntity
  8
0
100
AcDbCircle
 62
7
  6
BYLAYER
 10
64.2259520052
 20
44.1933991621
 40
0.2027513531
100
AcDbArc
 50
90.2397298961
 51
179.7602701039
  0
ARC
  5
261
100
AcDbEntity
  8
0
100
AcDbCircle
 62
7
  6
BYLAYER
 10
64.2259520052
 20
58.2070384747
 40
0.2027513531
100
AcDbArc
 50
180.2397298961
 51
269.7602701039
  0
ARC
  5
262
100
AcDbEntity
  8
0
100
AcDbCircle
 62
7
  6
BYLAYER
 10
63.8272394452
 20
43.1025807438
 40
0.1959729784
100
AcDbArc
 50
270.0
 51
0.5787255656
  0
ARC
  5
263
100
AcDbEntity
  8
0
100
AcDbCircle
 62
7
  6
BYLAYER
 10
63.8272394452
 20
59.297856893
 40
0.1959729784
100
AcDbArc
 50
359.4212744344
 51
90.0
  0
SPLINE
  5
264
100
AcDbEntity
  8
0
100
AcDbSpline
 62
7
  6
BYLAYER
 70
0
 71
3
 72
11
 73
7
 74
0
 42
0.0000001
 43
0.0000001
 44
0.0000000001
 40
0.0
 40
0.0
 40
0.0
 40
0.0
 40
0.249047688
 40
0.4985365606
 40
0.7487968618
 40
1.0
 40
1.0
 40
1.0
 40
1.0
 10
54.7236058617
 20
45.1977188184
 30
0.0
 10
54.7236058617
 20
44.7464519924
 30
0.0
 10
54.6842134259
 20
43.8426423511
 30
0.0
 10
54.5107263139
 20
42.4955674638
 30
0.0
 10
54.2350546598
 20
41.1619395787
 30
0.0
 10
53.9932301717
 20
40.285437758
 30
0.0
 10
53.8604672092
 20
39.8500575305
 30
0.0
  0
SPLINE
  5
265
100
AcDbEntity
  8
0
100
AcDbSpline
 62
7
  6
BYLAYER
 70
0
 71
3
 72
11
 73
7
 74
0
 42
0.0000001
 43
0.0000001
 44
0.0000000001
 40
0.0
 40
0.0
 40
0.0
 40
0.0
 40
0.2511976629
 40
0.5014566469
 40
0.750949112
 40
1.0
 40
1.0
 40
1.0
 40
1.0
 10
53.8604672092
 20
62.5503801063
 30
0.0
 10
53.9932272691
 20
62.1150093976
 30
0.0
 10
54.2349707219
 20
61.2385003023
 30
0.0
 10
54.5107838421
 20
59.9049079587
 30
0.0
 10
54.6841961867
 20
58.5578104657
 30
0.0
 10
54.7236058617
 20
57.6539914126
 30
0.0
 10
54.7236058617
 20
57.2027188184
 30
0.0
  0
SPLINE
  5
266
100
AcDbEntity
  8
0
100
AcDbSpline
 62
7
  6
BYLAYER
 70
0
 71
3
 72
11
 73
7
 74
0
 42
0.0000001
 43
0.0000001
 44
0.0000000001
 40
0.0
 40
0.0
 40
0.0
 40
0.0
 40
0.249047688
 40
0.4985365606
 40
0.7487968618
 40
1.0
 40
1.0
 40
1.0
 40
1.0
 10
51.7236058617
 20
57.2027188184
 30
0.0
 10
51.7236058617
 20
57.6539856444
 30
0.0
 10
51.7629982974
 20
58.5577952857
 30
0.0
 10
51.9364854095
 20
59.9048701729
 30
0.0
 10
52.2121570635
 20
61.238498058
 30
0.0
 10
52.4539815517
 20
62.1149998788
 30
0.0
 10
52.5867445141
 20
62.5503801063
 30
0.0
  0
SPLINE
  5
267
100
AcDbEntity
  8
0
100
AcDbSpline
 62
7
  6
BYLAYER
 70
0
 71
3
 72
11
 73
7
 74
0
 42
0.0000001
 43
0.0000001
 44
0.0000000001
 40
0.0
 40
0.0
 40
0.0
 40
0.0
 40
0.2511976629
 40
0.5014566469
 40
0.750949112
 40
1.0
 40
1.0
 40
1.0
 40
1.0
 10
52.5867445141
 20
39.8500575305
 30
0.0
 10
52.4539844543
 20
40.2854282392
 30
0.0
 10
52.2122410015
 20
41.1619373344
 30
0.0
 10
51.9364278813
 20
42.495529678
 30
0.0
 10
51.7630155367
 20
43.8426271711
 30
0.0
 10
51.7236058617
 20
44.7464462241
 30
0.0
 10
51.7236058617
 20
45.1977188184
 30
0.0
  0
SPLINE
  5
268
100
AcDbEntity
  8
0
100
AcDbSpline
 62
7
  6
BYLAYER
 70
0
 71
3
 72
11
 73
7
 74
0
 42
0.0000001
 43
0.0000001
 44
0.0000000001
 40
0.0
 40
0.0
 40
0.0
 40
0.0
 40
0.2511976629
 40
0.5014566469
 40
0.750949112
 40
1.0
 40
1.0
 40
1.0
 40
1.0
 10
53.8604672092
 20
50.5453801063
 30
0.0
 10
53.9932272691
 20
50.1100093976
 30
0.0
 10
54.2349707219
 20
49.2335003023
 30
0.0
 10
54.5107838421
 20
47.8999079587
 30
0.0
 10
54.6841961867
 20
46.5528104657
 30
0.0
 10
54.7236058617
 20
45.6489914126
 30
0.0
 10
54.7236058617
 20
45.1977188184
 30
0.0
  0
SPLINE
  5
269
100
AcDbEntity
  8
0
100
AcDbSpline
 62
7
  6
BYLAYER
 70
0
 71
3
 72
11
 73
7
 74
0
 42
0.0000001
 43
0.0000001
 44
0.0000000001
 40
0.0
 40
0.0
 40
0.0
 40
0.0
 40
0.249047688
 40
0.4985365606
 40
0.7487968618
 40
1.0
 40
1.0
 40
1.0
 40
1.0
 10
54.7236058617
 20
57.2027188184
 30
0.0
 10
54.7236058617
 20
56.7514519924
 30
0.0
 10
54.6842134259
 20
55.8476423511
 30
0.0
 10
54.5107263139
 20
54.5005674638
 30
0.0
 10
54.2350546598
 20
53.1669395787
 30
0.0
 10
53.9932301717
 20
52.290437758
 30
0.0
 10
53.8604672092
 20
51.8550575305
 30
0.0
  0
SPLINE
  5
26A
100
AcDbEntity
  8
0
100
AcDbSpline
 62
7
  6
BYLAYER
 70
0
 71
3
 72
11
 73
7
 74
0
 42
0.0000001
 43
0.0000001
 44
0.0000000001
 40
0.0
 40
0.0
 40
0.0
 40
0.0
 40
0.249047688
 40
0.4985365606
 40
0.7487968618
 40
1.0
 40
1.0
 40
1.0
 40
1.0
 10
51.7236058617
 20
45.1977188184
 30
0.0
 10
51.7236058617
 20
45.6489856444
 30
0.0
 10
51.7629982974
 20
46.5527952857
 30
0.0
 10
51.9364854095
 20
47.8998701729
 30
0.0
 10
52.2121570635
 20
49.233498058
 30
0.0
 10
52.4539815517
 20
50.1099998788
 30
0.0
 10
52.5867445141
 20
50.5453801063
 30
0.0
  0
SPLINE
  5
26B
100
AcDbEntity
  8
0
100
AcDbSpline
 62
7
  6
BYLAYER
 70
0
 71
3
 72
11
 73
7
 74
0
 42
0.0000001
 43
0.0000001
 44
0.0000000001
 40
0.0
 40
0.0
 40
0.0
 40
0.0
 40
0.2511976629
 40
0.5014566469
 40
0.750949112
 40
1.0
 40
1.0
 40
1.0
 40
1.0
 10
52.5867445141
 20
51.8550575305
 30
0.0
 10
52.4539844543
 20
52.2904282392
 30
0.0
 10
52.2122410015
 20
53.1669373344
 30
0.0
 10
51.9364278813
 20
54.500529678
 30
0.0
 10
51.7630155367
 20
55.8476271711
 30
0.0
 10
51.7236058617
 20
56.7514462241
 30
0.0
 10
51.7236058617
 20
57.2027188184
 30
0.0
  0
SPLINE
  5
26C
100
AcDbEntity
  8
0
100
AcDbSpline
 62
7
  6
BYLAYER
 70
0
 71
3
 72
11
 73
7
 74
0
 42
0.0000001
 43
0.0000001
 44
0.0000000001
 40
0.0
 40
0.0
 40
0.0
 40
0.0
 40
0.249047688
 40
0.4985365606
 40
0.7487968618
 40
1.0
 40
1.0
 40
1.0
 40
1.0
 10
41.7236058617
 20
57.2027188184
 30
0.0
 10
41.7236058617
 20
57.6539856444
 30
0.0
 10
41.7629982974
 20
58.5577952857
 30
0.0
 10
41.9364854095
 20
59.9048701729
 30
0.0
 10
42.2121570635
 20
61.238498058
 30
0.0
 10
42.4539815517
 20
62.1149998788
 30
0.0
 10
42.5867445141
 20
62.5503801063
 30
0.0
  0
SPLINE
  5
26D
100
AcDbEntity
  8
0
100
AcDbSpline
 62
7
  6
BYLAYER
 70
0
 71
3
 72
11
 73
7
 74
0
 42
0.0000001
 43
0.0000001
 44
0.0000000001
 40
0.0
 40
0.0
 40
0.0
 40
0.0
 40
0.2511976629
 40
0.5014566469
 40
0.750949112
 40
1.0
 40
1.0
 40
1.0
 40
1.0
 10
42.5867445141
 20
39.8500575305
 30
0.0
 10
42.4539844543
 20
40.2854282392
 30
0.0
 10
42.2122410015
 20
41.1619373344
 30
0.0
 10
41.9364278813
 20
42.495529678
 30
0.0
 10
41.7630155367
 20
43.8426271711
 30
0.0
 10
41.7236058617
 20
44.7464462241
 30
0.0
 10
41.7236058617
 20
45.1977188184
 30
0.0
  0
SPLINE
  5
26E
100
AcDbEntity
  8
0
100
AcDbSpline
 62
7
  6
BYLAYER
 70
0
 71
3
 72
11
 73
7
 74
0
 42
0.0000001
 43
0.0000001
 44
0.0000000001
 40
0.0
 40
0.0
 40
0.0
 40
0.0
 40
0.249047688
 40
0.4985365606
 40
0.7487968618
 40
1.0
 40
1.0
 40
1.0
 40
1.0
 10
44.7236058617
 20
45.1977188184
 30
0.0
 10
44.7236058617
 20
44.7464519924
 30
0.0
 10
44.6842134259
 20
43.8426423511
 30
0.0
 10
44.5107263139
 20
42.4955674638
 30
0.0
 10
44.2350546598
 20
41.1619395787
 30
0.0
 10
43.9932301717
 20
40.285437758
 30
0.0
 10
43.8604672092
 20
39.8500575305
 30
0.0
  0
SPLINE
  5
26F
100
AcDbEntity
  8
0
100
AcDbSpline
 62
7
  6
BYLAYER
 70
0
 71
3
 72
11
 73
7
 74
0
 42
0.0000001
 43
0.0000001
 44
0.0000000001
 40
0.0
 40
0.0
 40
0.0
 40
0.0
 40
0.2511976629
 40
0.5014566469
 40
0.750949112
 40
1.0
 40
1.0
 40
1.0
 40
1.0
 10
43.8604672092
 20
62.5503801063
 30
0.0
 10
43.9932272691
 20
62.1150093976
 30
0.0
 10
44.2349707219
 20
61.2385003023
 30
0.0
 10
44.5107838421
 20
59.9049079587
 30
0.0
 10
44.6841961867
 20
58.5578104657
 30
0.0
 10
44.7236058617
 20
57.6539914126
 30
0.0
 10
44.7236058617
 20
57.2027188184
 30
0.0
  0
SPLINE
  5
270
100
AcDbEntity
  8
0
100
AcDbSpline
 62
7
  6
BYLAYER
 70
0
 71
3
 72
11
 73
7
 74
0
 42
0.0000001
 43
0.0000001
 44
0.0000000001
 40
0.0
 40
0.0
 40
0.0
 40
0.0
 40
0.2511976629
 40
0.5014566469
 40
0.750949112
 40
1.0
 40
1.0
 40
1.0
 40
1.0
 10
42.5867445141
 20
51.8550575305
 30
0.0
 10
42.4539844543
 20
52.2904282392
 30
0.0
 10
42.2122410015
 20
53.1669373344
 30
0.0
 10
41.9364278813
 20
54.500529678
 30
0.0
 10
41.7630155367
 20
55.8476271711
 30
0.0
 10
41.7236058617
 20
56.7514462241
 30
0.0
 10
41.7236058617
 20
57.2027188184
 30
0.0
  0
SPLINE
  5
271
100
AcDbEntity
  8
0
100
AcDbSpline
 62
7
  6
BYLAYER
 70
0
 71
3
 72
11
 73
7
 74
0
 42
0.0000001
 43
0.0000001
 44
0.0000000001
 40
0.0
 40
0.0
 40
0.0
 40
0.0
 40
0.249047688
 40
0.4985365606
 40
0.7487968618
 40
1.0
 40
1.0
 40
1.0
 40
1.0
 10
41.7236058617
 20
45.1977188184
 30
0.0
 10
41.7236058617
 20
45.6489856444
 30
0.0
 10
41.7629982974
 20
46.5527952857
 30
0.0
 10
41.9364854095
 20
47.8998701729
 30
0.0
 10
42.2121570635
 20
49.233498058
 30
0.0
 10
42.4539815517
 20
50.1099998788
 30
0.0
 10
42.5867445141
 20
50.5453801063
 30
0.0
  0
SPLINE
  5
272
100
AcDbEntity
  8
0
100
AcDbSpline
 62
7
  6
BYLAYER
 70
0
 71
3
 72
11
 73
7
 74
0
 42
0.0000001
 43
0.0000001
 44
0.0000000001
 40
0.0
 40
0.0
 40
0.0
 40
0.0
 40
0.249047688
 40
0.4985365606
 40
0.7487968618
 40
1.0
 40
1.0
 40
1.0
 40
1.0
 10
44.7236058617
 20
57.2027188184
 30
0.0
 10
44.7236058617
 20
56.7514519924
 30
0.0
 10
44.6842134259
 20
55.8476423511
 30
0.0
 10
44.5107263139
 20
54.5005674638
 30
0.0
 10
44.2350546598
 20
53.1669395787
 30
0.0
 10
43.9932301717
 20
52.290437758
 30
0.0
 10
43.8604672092
 20
51.8550575305
 30
0.0
  0
SPLINE
  5
273
100
AcDbEntity
  8
0
100
AcDbSpline
 62
7
  6
BYLAYER
 70
0
 71
3
 72
11
 73
7
 74
0
 42
0.0000001
 43
0.0000001
 44
0.0000000001
 40
0.0
 40
0.0
 40
0.0
 40
0.0
 40
0.2511976629
 40
0.5014566469
 40
0.750949112
 40
1.0
 40
1.0
 40
1.0
 40
1.0
 10
43.8604672092
 20
50.5453801063
 30
0.0
 10
43.9932272691
 20
50.1100093976
 30
0.0
 10
44.2349707219
 20
49.2335003023
 30
0.0
 10
44.5107838421
 20
47.8999079587
 30
0.0
 10
44.6841961867
 20
46.5528104657
 30
0.0
 10
44.7236058617
 20
45.6489914126
 30
0.0
 10
44.7236058617
 20
45.1977188184
 30
0.0
  0
SPLINE
  5
274
100
AcDbEntity
  8
0
100
AcDbSpline
 62
7
  6
BYLAYER
 70
0
 71
3
 72
19
 73
15
 74
0
 42
0.0000001
 43
0.0000001
 44
0.0000000001
 40
0.0
 40
0.0
 40
0.0
 40
0.0
 40
0.0511773158
 40
0.1069989933
 40
0.1667713859
 40
0.229783884
 40
0.3625148399
 40
0.4997706813
 40
0.6369495637
 40
0.7696898525
 40
0.8328478942
 40
0.8927903393
 40
0.9487787684
 40
1.0
 40
1.0
 40
1.0
 40
1.0
 10
9.3811773331
 20
49.7152945779
 30
0.0
 10
9.3811773331
 20
49.7683262346
 30
0.0
 10
9.3752775508
 20
49.8792299491
 30
0.0
 10
9.3522834757
 20
50.0506463787
 30
0.0
 10
9.3153318828
 20
50.2321189876
 30
0.0
 10
9.2486205912
 20
50.4884531301
 30
0.0
 10
9.1396336607
 20
50.8162053389
 30
0.0
 10
8.9859077786
 20
51.2091917668
 30
0.0
 10
8.8239472184
 20
51.5987594084
 30
0.0
 10
8.6966175475
 20
51.9197118005
 30
0.0
 10
8.6124105994
 20
52.1711867764
 30
0.0
 10
8.563605832
 20
52.3503995084
 30
0.0
 10
8.5320814627
 20
52.5209359742
 30
0.0
 10
8.5236058617
 20
52.6320658951
 30
0.0
 10
8.5236058617
 20
52.6851430589
 30
0.0
  0
SPLINE
  5
275
100
AcDbEntity
  8
0
100
AcDbSpline
 62
7
  6
BYLAYER
 70
0
 71
3
 72
15
 73
11
 74
0
 42
0.0000001
 43
0.0000001
 44
0.0000000001
 40
0.0
 40
0.0
 40
0.0
 40
0.0
 40
0.1691326814
 40
0.3211871924
 40
0.4580555337
 40
0.5826088329
 40
0.6972339671
 40
0.803971432
 40
0.9043457436
 40
1.0
 40
1.0
 40
1.0
 40
1.0
 10
8.5236058617
 20
52.6851430589
 30
0.0
 10
8.5236058617
 20
52.7333144353
 30
0.0
 10
8.529938459
 20
52.8249979197
 30
0.0
 10
8.5604117103
 20
52.9525479491
 30
0.0
 10
8.6091810178
 20
53.0605536919
 30
0.0
 10
8.671715
 20
53.1483565063
 30
0.0
 10
8.7441362893
 20
53.2161297044
 30
0.0
 10
8.8228344655
 20
53.2643172389
 30
0.0
 10
8.9046473142
 20
53.2934702686
 30
0.0
 10
8.9606557294
 20
53.3002188184
 30
0.0
 10
8.9878994127
 20
53.3002188184
 30
0.0
  0
SPLINE
  5
276
100
AcDbEntity
  8
0
100
AcDbSpline
 62
7
  6
BYLAYER
 70
0
 71
3
 72
13
 73
9
 74
0
 42
0.0000001
 43
0.0000001
 44
0.0000000001
 40
0.0
 40
0.0
 40
0.0
 40
0.0
 40
0.2741638384
 40
0.5395514646
 40
0.6658421594
 40
0.7856993437
 40
0.897631985
 40
1.0
 40
1.0
 40
1.0
 40
1.0
 10
8.9876611096
 20
51.1996144876
 30
0.0
 10
8.9342705708
 20
51.0670751994
 30
0.0
 10
8.8263245899
 20
50.8074446065
 30
0.0
 10
8.698125236
 20
50.4848173288
 30
0.0
 10
8.613237676
 20
50.2319978805
 30
0.0
 10
8.5639944524
 20
50.0518187639
 30
0.0
 10
8.5321690628
 20
49.8803718324
 30
0.0
 10
8.5236058617
 20
49.7686467782
 30
0.0
 10
8.5236058617
 20
49.7152945779
 30
0.0
  0
SPLINE
  5
277
100
AcDbEntity
  8
0
100
AcDbSpline
 62
7
  6
BYLAYER
 70
0
 71
3
 72
15
 73
11
 74
0
 42
0.0000001
 43
0.0000001
 44
0.0000000001
 40
0.0
 40
0.0
 40
0.0
 40
0.0
 40
0.1691326814
 40
0.3211871924
 40
0.4580555337
 40
0.5826088329
 40
0.6972339671
 40
0.803971432
 40
0.9043457436
 40
1.0
 40
1.0
 40
1.0
 40
1.0
 10
8.5236058617
 20
49.7152945779
 30
0.0
 10
8.5236058617
 20
49.6671232014
 30
0.0
 10
8.529938459
 20
49.5754397171
 30
0.0
 10
8.5604117103
 20
49.4478896876
 30
0.0
 10
8.6091810178
 20
49.3398839448
 30
0.0
 10
8.671715
 20
49.2520811305
 30
0.0
 10
8.7441362893
 20
49.1843079324
 30
0.0
 10
8.8228344655
 20
49.1361203979
 30
0.0
 10
8.9046473142
 20
49.1069673682
 30
0.0
 10
8.9606557294
 20
49.1002188184
 30
0.0
 10
8.9878994127
 20
49.1002188184
 30
0.0
  0
SPLINE
  5
278
100
AcDbEntity
  8
0
100
AcDbSpline
 62
7
  6
BYLAYER
 70
0
 71
3
 72
15
 73
11
 74
0
 42
0.0000001
 43
0.0000001
 44
0.0000000001
 40
0.0
 40
0.0
 40
0.0
 40
0.0
 40
0.0968700474
 40
0.1943203478
 40
0.2959922812
 40
0.4060774583
 40
0.5287368323
 40
0.6673286353
 40
0.8242188722
 40
1.0
 40
1.0
 40
1.0
 40
1.0
 10
8.9878994127
 20
49.1002188184
 30
0.0
 10
9.0141595304
 20
49.1002188184
 30
0.0
 10
9.0670827168
 20
49.1063989556
 30
0.0
 10
9.1427732435
 20
49.1354291977
 30
0.0
 10
9.2117190334
 20
49.1846159725
 30
0.0
 10
9.2714232071
 20
49.2538713533
 30
0.0
 10
9.3197823028
 20
49.3428959502
 30
0.0
 10
9.3554187085
 20
49.4510350551
 30
0.0
 10
9.3768699352
 20
49.5773555894
 30
0.0
 10
9.3811773331
 20
49.6676427676
 30
0.0
 10
9.3811773331
 20
49.7152945779
 30
0.0
  0
ENDSEC
  0
SECTION
  2
OBJECTS
  0
DICTIONARY
  5
C
100
AcDbDictionary
280
0
281
1
  3
ACAD_GROUP
350
D
  3
ACAD_MLINESTYLE
350
17
  3
ACAD_LAYOUT
350
1A
  3
ACAD_PLOTSETTINGS
350
19
  3
ACAD_PLOTSTYLENAME
350
E
  0
DICTIONARY
  5
D
102
{ACAD_REACTORS
330
C
102
}
100
AcDbDictionary
280
0
281
1
  0
ACDBDICTIONARYWDFLT
  5
E
102
{ACAD_REACTORS
330
C
102
}
100
AcDbDictionary
281
1
  3
Normal
350
F
100
AcDbDictionaryWithDefault
340
F
  0
DICTIONARY
  5
17
102
{ACAD_REACTORS
330
C
102
}
100
AcDbDictionary
280
0
281
1
  3
Standard
350
18
  0
DICTIONARY
  5
19
102
{ACAD_REACTORS
330
C
102
}
100
AcDbDictionary
281
1
  0
DICTIONARY
  5
1A
102
{ACAD_REACTORS
330
C
102
}
100
AcDbDictionary
281
1
  3
Model
350
279
  3
Layout1
350
27A
  0
ACDBPLACEHOLDER
  5
F
102
{ACAD_REACTORS
330
E
102
}
  0
MLINESTYLE
  5
18
102
{ACAD_REACTORS
330
17
102
}
100
AcDbMlineStyle
  2
STANDARD
 70
0
  3

 62
256
 51
90.0
 52
90.0
 71
2
 49
0.5
 62
256
  6
BYLAYER
 49
-0.5
 62
256
  6
BYLAYER
  0
LAYOUT
  5
279
102
{ACAD_REACTORS
330
1A
102
}
100
AcDbPlotSettings
  1

  2
none_device
  4

  6

 40
0.0
 41
0.0
 42
0.0
 43
0.0
 44
210.0
 45
297.0
 46
0.0
 47
0.0
 48
0.0
 49
0.0
140
0.0
141
0.0
142
1.0
143
1.0
 70
1024
 72
1
 73
0
 74
0
  7

 75
0
147
1.0
148
0.0
149
0.0
100
AcDbLayout
  1
Model
 70
0
 71
0
 10
0.0
 20
0.0
 11
210.0
 21
297.0
 12
0.0
 22
0.0
 32
0.0
 14
0.0
 24
0.0
 34
0.0
 15
0.0
 25
0.0
 35
0.0
146
0.0
 13
0.0
 23
0.0
 33
0.0
 16
1.0
 26
0.0
 36
0.0
 17
0.0
 27
1.0
 37
0.0
 76
0
330
210
345
0
346
0
  0
LAYOUT
  5
27A
102
{ACAD_REACTORS
330
1A
102
}
100
AcDbPlotSettings
  1

  2
none_device
  4

  6

 40
0.0
 41
0.0
 42
0.0
 43
0.0
 44
210.0
 45
297.0
 46
0.0
 47
0.0
 48
0.0
 49
0.0
140
0.0
141
0.0
142
1.0
143
1.0
 70
0
 72
1
 73
0
 74
0
  7

 75
0
147
1.0
148
0.0
149
0.0
100
AcDbLayout
  1
Layout1
 70
0
 71
1
 10
0.0
 20
0.0
 11
210.0
 21
297.0
 12
0.0
 22
0.0
 32
0.0
 14
0.0
 24
0.0
 34
0.0
 15
0.0
 25
0.0
 35
0.0
146
0.0
 13
0.0
 23
0.0
 33
0.0
 16
1.0
 26
0.0
 36
0.0
 17
0.0
 27
1.0
 37
0.0
 76
0
330
211
345
0
346
0
  0
ENDSEC
  0
EOF
