999
DXF file: C:\Users\sesa63760\Dev\_Creo\CAD\MCADID0003771_3D-CAD\drw0001_2.dxf
999
Pro/ENGINEER 2019471 by Parametric Technology Corporation
  0
SECTION
  2
HEADER
  9
$ACADVER
  1
AC1024
  9
$DWGCODEPAGE
  3
ANSI_1252
  9
$EXTMAX
 10
73.9205772816
 20
104.5448164412
 30
0.0
  9
$EXTMIN
 10
0.0
 20
0.0
 30
0.0
  9
$LIMMIN
 10
0.0
 20
0.0
  9
$LIMMAX
 10
73.9205772816
 20
104.5448164412
  9
$VIEWCTR
 10
36.9602886408
 20
52.2724082206
  9
$VIEWSIZE
 40
104.5448164412
  9
$CLAYER
  8
0
  9
$LTSCALE
 40
6.8147732199
  9
$CELTYPE
  6
BYLAYER
  9
$DIMSCALE
 40
1.0
  9
$DIMASZ
 40
0.8800068724
  9
$DIMEXO
 40
1.0
  9
$DIMDLI
 40
4.7083887701
  9
$DIMEXE
 40
1.0
  9
$DIMCEN
 40
1.1151447087
  9
$DIMLFAC
 40
1.0
  9
$DIMBLK
  1
_FILLED
  9
$DIMALT
 70
0
  9
$DIMALTF
 40
0.0393700787
  9
$DIMTXT
 40
1.2320096214
  9
$DIMTOL
 70
1
  9
$DIMLIM
 70
0
  9
$DIMTFAC
 40
1.0
  9
$DIMTP
 40
0.01
  9
$DIMTM
 40
0.01
  9
$DIMGAP
 40
0.625
  9
$DIMDSEP
 70
46
  9
$AUNITS
 70
0
  9
$PDMODE
 70
3
  9
$PDSIZE
 40
0.3125
  9
$HANDSEED
  5
291
  9
$TILEMODE
 70
1
  9
$MEASUREMENT
 70
1
  9
$INSUNITS
 70
4
  0
ENDSEC
  0
SECTION
  2
CLASSES
  0
CLASS
  1
ACDBDICTIONARYWDFLT
  2
AcDbDictionaryWithDefault
  3
AutoCAD 2000
 90
0
 91
1
280
0
281
0
  0
CLASS
  1
ACDBPLACEHOLDER
  2
AcDbPlaceHolder
  3
AutoCAD 2000
 90
0
 91
1
280
0
281
0
  0
CLASS
  1
LAYOUT
  2
AcDbLayout
  3
AutoCAD 2000
 90
0
 91
0
280
0
281
0
  0
ENDSEC
  0
SECTION
  2
TABLES
  0
TABLE
  2
VPORT
  5
8
100
AcDbSymbolTable
 70
2
  0
VPORT
  5
1F4
100
AcDbSymbolTableRecord
100
AcDbViewportTableRecord
  2
*ACTIVE
 70
0
 10
0.0
 20
0.0
 11
1.0
 21
1.0
 12
36.9602886408
 22
52.2724082206
 13
0.0
 23
0.0
 14
1.0
 24
1.0
 15
0.0
 25
0.0
 16
0.0
 26
0.0
 36
1.0
 17
0.0
 27
0.0
 37
0.0
 40
104.5448164412
 41
0.7070707071
 42
50.0
 43
0.0
 44
0.0
 50
0.0
 51
0.0
 71
0
 72
100
 73
1
 74
1
 75
0
 76
0
 77
0
 78
0
  0
ENDTAB
  0
TABLE
  2
LTYPE
  5
5
100
AcDbSymbolTable
 70
6
  0
LTYPE
  5
14
100
AcDbSymbolTableRecord
100
AcDbLinetypeTableRecord
  2
BYBLOCK
 70
0
  3

 72
65
 73
0
 40
0.0
  0
LTYPE
  5
15
100
AcDbSymbolTableRecord
100
AcDbLinetypeTableRecord
  2
BYLAYER
 70
0
  3

 72
65
 73
0
 40
0.0
  0
LTYPE
  5
16
100
AcDbSymbolTableRecord
100
AcDbLinetypeTableRecord
  2
CONTINUOUS
 70
64
  3
Solid line
 72
65
 73
0
 40
0.0
  0
LTYPE
  5
1F5
100
AcDbSymbolTableRecord
100
AcDbLinetypeTableRecord
  2
CENTER
 70
64
  3
____ _ ____ _ ____ _ ____ _ ____ _ ____ _ ____
 72
65
 73
4
 40
0.6
 49
0.375
 74
0
 49
-0.075
 74
0
 49
0.075
 74
0
 49
-0.075
 74
0
  0
LTYPE
  5
1F6
100
AcDbSymbolTableRecord
100
AcDbLinetypeTableRecord
  2
HIDDEN
 70
64
  3
- - - - - - - - - - - - - - - - - - - -
 72
65
 73
2
 40
0.2
 49
0.1
 74
0
 49
-0.1
 74
0
  0
LTYPE
  5
1F7
100
AcDbSymbolTableRecord
100
AcDbLinetypeTableRecord
  2
PHANTOM
 70
64
  3
_____ _ _ _____ _ _ _____ _ _ _____
 72
65
 73
6
 40
0.8
 49
0.45
 74
0
 49
-0.05
 74
0
 49
0.1
 74
0
 49
-0.05
 74
0
 49
0.1
 74
0
 49
-0.05
 74
0
  0
LTYPE
  5
1F8
100
AcDbSymbolTableRecord
100
AcDbLinetypeTableRecord
  2
DOT
 70
64
  3
. . . . . . . . . . . . . . . . . . . .
 72
65
 73
2
 40
0.2
 49
0.1
 74
0
 49
-0.1
 74
0
  0
LTYPE
  5
1F9
100
AcDbSymbolTableRecord
100
AcDbLinetypeTableRecord
  2
DASHED
 70
64
  3
- - - - - - - - - - - - - - - - - - - -
 72
65
 73
2
 40
0.2
 49
0.1
 74
0
 49
-0.1
 74
0
  0
ENDTAB
  0
TABLE
  2
LAYER
  5
2
100
AcDbSymbolTable
 70
36
  0
LAYER
  5
10
100
AcDbSymbolTableRecord
100
AcDbLayerTableRecord
  2
0
 70
0
 62
7
  6
CONTINUOUS
370
-3
390
F
  0
LAYER
  5
1FA
100
AcDbSymbolTableRecord
100
AcDbLayerTableRecord
  2
DEFAULT_1
 70
0
 62
7
  6
CENTER
370
-3
390
F
  0
LAYER
  5
1FB
100
AcDbSymbolTableRecord
100
AcDbLayerTableRecord
  2
DEFAULT_2
 70
0
 62
7
  6
HIDDEN
370
-3
390
F
  0
LAYER
  5
1FC
100
AcDbSymbolTableRecord
100
AcDbLayerTableRecord
  2
DEFAULT_3
 70
0
 62
7
  6
PHANTOM
370
-3
390
F
  0
LAYER
  5
1FD
100
AcDbSymbolTableRecord
100
AcDbLayerTableRecord
  2
00_COMPONENTS
 70
0
 62
7
  6
CONTINUOUS
370
-3
390
F
  0
LAYER
  5
1FE
100
AcDbSymbolTableRecord
100
AcDbLayerTableRecord
  2
01_1_DEFAULT_DATUMS
 70
0
 62
7
  6
CONTINUOUS
370
-3
390
F
  0
LAYER
  5
1FF
100
AcDbSymbolTableRecord
100
AcDbLayerTableRecord
  2
01_PLANES
 70
0
 62
7
  6
CONTINUOUS
370
-3
390
F
  0
LAYER
  5
200
100
AcDbSymbolTableRecord
100
AcDbLayerTableRecord
  2
02_COORD_SYS
 70
0
 62
7
  6
CONTINUOUS
370
-3
390
F
  0
LAYER
  5
201
100
AcDbSymbolTableRecord
100
AcDbLayerTableRecord
  2
03_AXES
 70
0
 62
7
  6
CONTINUOUS
370
-3
390
F
  0
LAYER
  5
202
100
AcDbSymbolTableRecord
100
AcDbLayerTableRecord
  2
04_POINTS
 70
0
 62
7
  6
CONTINUOUS
370
-3
390
F
  0
LAYER
  5
203
100
AcDbSymbolTableRecord
100
AcDbLayerTableRecord
  2
05_CURVES
 70
0
 62
7
  6
CONTINUOUS
370
-3
390
F
  0
LAYER
  5
204
100
AcDbSymbolTableRecord
100
AcDbLayerTableRecord
  2
06_SURFS
 70
0
 62
7
  6
CONTINUOUS
370
-3
390
F
  0
LAYER
  5
205
100
AcDbSymbolTableRecord
100
AcDbLayerTableRecord
  2
07_COSMETICS
 70
0
 62
7
  6
CONTINUOUS
370
-3
390
F
  0
LAYER
  5
206
100
AcDbSymbolTableRecord
100
AcDbLayerTableRecord
  2
10_NOTES
 70
0
 62
7
  6
CONTINUOUS
370
-3
390
F
  0
LAYER
  5
207
100
AcDbSymbolTableRecord
100
AcDbLayerTableRecord
  2
11_NOTES_PUB
 70
0
 62
7
  6
CONTINUOUS
370
-3
390
F
  0
LAYER
  5
208
100
AcDbSymbolTableRecord
100
AcDbLayerTableRecord
  2
13_REF_GTOL
 70
0
 62
7
  6
CONTINUOUS
370
-3
390
F
  0
LAYER
  5
209
100
AcDbSymbolTableRecord
100
AcDbLayerTableRecord
  2
16_MISC
 70
0
 62
7
  6
CONTINUOUS
370
-3
390
F
  0
LAYER
  5
20A
100
AcDbSymbolTableRecord
100
AcDbLayerTableRecord
  2
17_NO_PRINT
 70
0
 62
7
  6
CONTINUOUS
370
-3
390
F
  0
LAYER
  5
20B
100
AcDbSymbolTableRecord
100
AcDbLayerTableRecord
  2
18_DATUM_CAMS_JOINTS
 70
0
 62
7
  6
CONTINUOUS
370
-3
390
F
  0
LAYER
  5
20C
100
AcDbSymbolTableRecord
100
AcDbLayerTableRecord
  2
19_DATUM_FUNCTIONAL
 70
0
 62
7
  6
CONTINUOUS
370
-3
390
F
  0
LAYER
  5
20D
100
AcDbSymbolTableRecord
100
AcDbLayerTableRecord
  2
20_DATUM_KINEMATIC_SCHEME
 70
0
 62
7
  6
CONTINUOUS
370
-3
390
F
  0
ENDTAB
  0
TABLE
  2
STYLE
  5
3
100
AcDbSymbolTable
 70
1
  0
STYLE
  5
11
100
AcDbSymbolTableRecord
100
AcDbTextStyleTableRecord
  2
STANDARD
 70
0
 40
0.0
 41
1.0
 50
0.0
 71
0
 42
0.2
  3
ARIAL.TTF
  4

  0
STYLE
  5
20E
100
AcDbSymbolTableRecord
100
AcDbTextStyleTableRecord
  2
TEXTSTYLE_1
 70
0
 40
0.0
 41
0.8
 50
0.0
 71
0
 42
0.2
  3
gdt
  4

  0
ENDTAB
  0
TABLE
  2
VIEW
  5
6
100
AcDbSymbolTable
 70
0
  0
ENDTAB
  0
TABLE
  2
UCS
  5
7
100
AcDbSymbolTable
 70
0
  0
ENDTAB
  0
TABLE
  2
APPID
  5
9
100
AcDbSymbolTable
 70
1
  0
APPID
  5
20F
100
AcDbSymbolTableRecord
100
AcDbRegAppTableRecord
  2
ACAD
 70
0
  0
ENDTAB
  0
TABLE
  2
BLOCK_RECORD
  5
1
100
AcDbSymbolTable
 70
0
  0
BLOCK_RECORD
  5
210
100
AcDbSymbolTableRecord
100
AcDbBlockTableRecord
  2
*Model_Space
  0
BLOCK_RECORD
  5
211
100
AcDbSymbolTableRecord
100
AcDbBlockTableRecord
  2
*Paper_Space
  0
BLOCK_RECORD
  5
212
100
AcDbSymbolTableRecord
100
AcDbBlockTableRecord
  2
_FILLED
  0
ENDTAB
  0
TABLE
  2
DIMSTYLE
  5
A
100
AcDbSymbolTable
 70
1
100
AcDbDimStyleTable
 71
0
  0
DIMSTYLE
105
213
100
AcDbSymbolTableRecord
100
AcDbDimStyleTableRecord
  2
STANDARD
 70
0
  3

  4

 40
1.0
 41
0.8800068724
 42
1.0
 43
0.38
 44
1.0
 45
0.0
 46
0.0
 47
0.01
 48
0.01
140
1.2320096214
141
0.09
142
0.0
143
25.4
144
1.0
145
0.0
146
1.0
147
0.625
 71
1
 72
0
 73
0
 74
0
 75
0
 76
0
 77
1
 78
8
 79
2
170
0
171
1
172
0
173
0
174
0
175
0
176
0
177
0
178
0
270
2
179
2
271
2
272
2
273
2
274
2
275
0
280
0
281
0
282
0
283
1
284
8
285
0
286
0
287
3
288
0
340
11
278
46
341
212
342
212
343
212
344
212
  0
ENDTAB
  0
ENDSEC
  0
SECTION
  2
BLOCKS
  0
BLOCK
  5
20
100
AcDbEntity
  8
0
100
AcDbBlockBegin
  2
*Model_Space
 70
0
 10
0.0
 20
0.0
 30
0.0
  3
*Model_Space
  1

  0
ENDBLK
  5
21
100
AcDbEntity
  8
0
100
AcDbBlockEnd
  0
BLOCK
  5
1C
100
AcDbEntity
  8
0
100
AcDbBlockBegin
  2
*Paper_Space
 70
0
 10
0.0
 20
0.0
 30
0.0
  3
*Paper_Space
  1

  0
ENDBLK
  5
1D
100
AcDbEntity
  8
0
100
AcDbBlockEnd
  0
BLOCK
  5
214
100
AcDbEntity
  8
0
100
AcDbBlockBegin
  2
_FILLED
 70
64
 10
0.0
 20
0.0
  3
_FILLED
  1

  0
SOLID
  5
215
100
AcDbEntity
  8
0
  6
BYBLOCK
 62
0
100
AcDbTrace
 10
0.0
 20
0.0
 11
-1.0
 21
0.25
 12
-1.0
 22
-0.25
 13
-1.0
 23
-0.25
  0
ENDBLK
  5
216
100
AcDbEntity
  8
0
  6
BYBLOCK
 62
0
100
AcDbBlockEnd
  0
ENDSEC
  0
SECTION
  2
ENTITIES
  0
LINE
  5
217
100
AcDbEntity
  8
0
100
AcDbLine
 62
7
  6
BYLAYER
 10
42.9721359673
 20
6.9739198238
 11
31.9721359673
 21
6.9739198238
  0
LINE
  5
218
100
AcDbEntity
  8
0
100
AcDbLine
 62
7
  6
BYLAYER
 10
43.9721359673
 20
7.9739198238
 11
30.9721359673
 21
7.9739198238
  0
LINE
  5
219
100
AcDbEntity
  8
0
100
AcDbLine
 62
7
  6
BYLAYER
 10
30.9721359673
 20
15.0739198238
 11
43.9721359673
 21
15.0739198238
  0
LINE
  5
21A
100
AcDbEntity
  8
0
100
AcDbLine
 62
7
  6
BYLAYER
 10
31.5706641048
 20
15.6724479612
 11
43.3736078299
 21
15.6724479612
  0
LINE
  5
21B
100
AcDbEntity
  8
0
100
AcDbLine
 62
7
  6
BYLAYER
 10
43.0221359673
 20
16.5209760986
 11
31.9221359673
 21
16.5209760986
  0
LINE
  5
21C
100
AcDbEntity
  8
0
100
AcDbLine
 62
7
  6
BYLAYER
 10
30.9721359682
 20
7.9739198247
 11
31.9721359673
 21
6.9739198238
  0
LINE
  5
21D
100
AcDbEntity
  8
0
100
AcDbLine
 62
7
  6
BYLAYER
 10
46.8721359673
 20
18.9739198238
 11
28.0721359673
 21
18.9739198238
  0
LINE
  5
21E
100
AcDbEntity
  8
0
100
AcDbLine
 62
7
  6
BYLAYER
 10
28.0721359673
 20
21.4739198238
 11
46.8721359673
 21
21.4739198238
  0
LINE
  5
21F
100
AcDbEntity
  8
0
100
AcDbLine
 62
7
  6
BYLAYER
 10
26.5024808538
 20
22.3801606286
 11
28.0721359673
 21
21.4739198238
  0
LINE
  5
220
100
AcDbEntity
  8
0
100
AcDbLine
 62
7
  6
BYLAYER
 10
28.0135573236
 20
25.8324984676
 11
46.9307146111
 21
25.8324984676
  0
LINE
  5
221
100
AcDbEntity
  8
0
100
AcDbLine
 62
7
  6
BYLAYER
 10
46.9307146111
 20
26.11534118
 11
28.0135573236
 21
26.11534118
  0
LINE
  5
222
100
AcDbEntity
  8
0
100
AcDbLine
 62
7
  6
BYLAYER
 10
50.4721359673
 20
29.6762850186
 11
24.4721359673
 21
29.6762850186
  0
LINE
  5
223
100
AcDbEntity
  8
0
100
AcDbLine
 62
7
  6
BYLAYER
 10
26.5024808541
 20
27.6264176522
 11
28.0135573236
 21
26.11534118
  0
LINE
  5
224
100
AcDbEntity
  8
0
100
AcDbLine
 62
7
  6
BYLAYER
 10
50.4721359674
 20
32.5262850168
 11
53.1301307836
 21
32.5726804936
  0
LINE
  5
225
100
AcDbEntity
  8
0
100
AcDbLine
 62
7
  6
BYLAYER
 10
24.4721359673
 20
32.5262850186
 11
50.4721359673
 21
32.5262850186
  0
LINE
  5
226
100
AcDbEntity
  8
0
100
AcDbLine
 62
7
  6
BYLAYER
 10
53.8721359673
 20
32.5865049926
 11
21.0721359673
 21
32.5865049926
  0
LINE
  5
227
100
AcDbEntity
  8
0
100
AcDbLine
 62
7
  6
BYLAYER
 10
55.4722884219
 20
32.7870111225
 11
19.4719835127
 21
32.7870111225
  0
LINE
  5
228
100
AcDbEntity
  8
0
100
AcDbLine
 62
7
  6
BYLAYER
 10
24.4721359673
 20
32.5262850168
 11
21.8141411511
 21
32.5726804936
  0
LINE
  5
229
100
AcDbEntity
  8
0
100
AcDbLine
 62
7
  6
BYLAYER
 10
43.9721359668
 20
15.0739198233
 11
43.3736078299
 21
15.6724479612
  0
LINE
  5
22A
100
AcDbEntity
  8
0
100
AcDbLine
 62
7
  6
BYLAYER
 10
20.7221359673
 20
85.1870111225
 11
20.7221359673
 21
74.6870111225
  0
LINE
  5
22B
100
AcDbEntity
  8
0
100
AcDbLine
 62
7
  6
BYLAYER
 10
21.0721359673
 20
32.5865049926
 11
21.0721359673
 21
32.7870111225
  0
LINE
  5
22C
100
AcDbEntity
  8
0
100
AcDbLine
 62
7
  6
BYLAYER
 10
19.5316027687
 20
36.2069521937
 11
19.4719074753
 21
32.7870111225
  0
LINE
  5
22D
100
AcDbEntity
  8
0
100
AcDbLine
 62
7
  6
BYLAYER
 10
20.663356538
 20
72.3870111225
 11
20.0404534472
 21
36.7009169058
  0
LINE
  5
22E
100
AcDbEntity
  8
0
100
AcDbLine
 62
7
  6
BYLAYER
 10
28.23083025
 20
95.1870111225
 11
28.0721359673
 21
94.2870111225
  0
LINE
  5
22F
100
AcDbEntity
  8
0
100
AcDbLine
 62
7
  6
BYLAYER
 10
19.5316027687
 20
36.2069521937
 11
55.412669166
 21
36.2069521937
  0
LINE
  5
230
100
AcDbEntity
  8
0
100
AcDbLine
 62
7
  6
BYLAYER
 10
24.0721359673
 20
72.3870111225
 11
24.0721359673
 21
74.6870111225
  0
LINE
  5
231
100
AcDbEntity
  8
0
100
AcDbLine
 62
7
  6
BYLAYER
 10
24.4721359673
 20
29.6762850186
 11
24.4721359673
 21
32.5262850186
  0
LINE
  5
232
100
AcDbEntity
  8
0
100
AcDbLine
 62
7
  6
BYLAYER
 10
34.5900851598
 20
97.1870111225
 11
34.3221359673
 21
96.1870111225
  0
LINE
  5
233
100
AcDbEntity
  8
0
100
AcDbLine
 62
7
  6
BYLAYER
 10
20.0404534469
 20
36.7009169058
 11
19.9879487449
 21
36.6963233395
  0
LINE
  5
234
100
AcDbEntity
  8
0
100
AcDbLine
 62
7
  6
BYLAYER
 10
54.9563231897
 20
36.6963233395
 11
19.9879487449
 21
36.6963233395
  0
LINE
  5
235
100
AcDbEntity
  8
0
100
AcDbLine
 62
7
  6
BYLAYER
 10
20.0404534472
 20
36.7009169058
 11
54.9038184875
 21
36.7009169058
  0
LINE
  5
236
100
AcDbEntity
  8
0
100
AcDbLine
 62
7
  6
BYLAYER
 10
54.9038184878
 20
36.7009169058
 11
54.9563231897
 21
36.6963233395
  0
LINE
  5
237
100
AcDbEntity
  8
0
100
AcDbLine
 62
7
  6
BYLAYER
 10
25.2102849406
 20
85.1870111225
 11
25.2102849406
 21
74.6870111225
  0
LINE
  5
238
100
AcDbEntity
  8
0
100
AcDbLine
 62
7
  6
BYLAYER
 10
26.5024808527
 20
29.6762850186
 11
26.5024808527
 21
27.6264176509
  0
LINE
  5
239
100
AcDbEntity
  8
0
100
AcDbLine
 62
7
  6
BYLAYER
 10
26.5024808527
 20
24.3214219967
 11
26.5024808527
 21
22.3801606268
  0
LINE
  5
23A
100
AcDbEntity
  8
0
100
AcDbLine
 62
7
  6
BYLAYER
 10
28.0721359673
 20
94.2870111225
 11
28.0721359673
 21
85.1870111225
  0
LINE
  5
23B
100
AcDbEntity
  8
0
100
AcDbLine
 62
7
  6
BYLAYER
 10
28.0721359673
 20
21.4739198238
 11
28.0721359673
 21
18.9739198238
  0
LINE
  5
23C
100
AcDbEntity
  8
0
100
AcDbLine
 62
7
  6
BYLAYER
 10
35.23083025
 20
95.1870111225
 11
35.0721359673
 21
94.2870111225
  0
LINE
  5
23D
100
AcDbEntity
  8
0
100
AcDbLine
 62
7
  6
BYLAYER
 10
52.953401079
 20
40.541377019
 11
54.8367596924
 21
40.541377019
  0
LINE
  5
23E
100
AcDbEntity
  8
0
100
AcDbLine
 62
7
  6
BYLAYER
 10
48.4417910806
 20
24.3214219954
 11
46.9307146111
 21
25.8324984676
  0
LINE
  5
23F
100
AcDbEntity
  8
0
100
AcDbLine
 62
7
  6
BYLAYER
 10
29.0721359673
 20
85.1870111225
 11
29.0721359673
 21
95.1870111225
  0
LINE
  5
240
100
AcDbEntity
  8
0
100
AcDbLine
 62
7
  6
BYLAYER
 10
29.8721359673
 20
94.2870111225
 11
29.8721359673
 21
85.1870111225
  0
LINE
  5
241
100
AcDbEntity
  8
0
100
AcDbLine
 62
7
  6
BYLAYER
 10
30.9721359673
 20
15.0739198238
 11
30.9721359673
 21
7.9739198238
  0
LINE
  5
242
100
AcDbEntity
  8
0
100
AcDbLine
 62
7
  6
BYLAYER
 10
31.9221359673
 20
18.9739198238
 11
31.9221359673
 21
16.5209760986
  0
LINE
  5
243
100
AcDbEntity
  8
0
100
AcDbLine
 62
7
  6
BYLAYER
 10
31.98730841
 20
29.6762850186
 11
31.98730841
 21
27.6264176509
  0
LINE
  5
244
100
AcDbEntity
  8
0
100
AcDbLine
 62
7
  6
BYLAYER
 10
31.98730841
 20
24.3214219967
 11
31.98730841
 21
22.3801606268
  0
LINE
  5
245
100
AcDbEntity
  8
0
100
AcDbLine
 62
7
  6
BYLAYER
 10
32.9839869941
 20
85.1870111225
 11
32.9839869941
 21
74.6870111225
  0
LINE
  5
246
100
AcDbEntity
  8
0
100
AcDbLine
 62
7
  6
BYLAYER
 10
33.5721359673
 20
86.1870111225
 11
33.5721359673
 21
85.1870111225
  0
LINE
  5
247
100
AcDbEntity
  8
0
100
AcDbLine
 62
7
  6
BYLAYER
 10
34.3221359673
 20
96.1870111225
 11
34.3221359673
 21
86.1870111225
  0
LINE
  5
248
100
AcDbEntity
  8
0
100
AcDbLine
 62
7
  6
BYLAYER
 10
35.0721359673
 20
94.2870111225
 11
35.0721359673
 21
85.1870111225
  0
LINE
  5
249
100
AcDbEntity
  8
0
100
AcDbLine
 62
7
  6
BYLAYER
 10
35.5721359673
 20
74.6870111225
 11
35.5721359673
 21
85.1870111225
  0
LINE
  5
24A
100
AcDbEntity
  8
0
100
AcDbLine
 62
7
  6
BYLAYER
 10
36.0721359673
 20
85.1870111225
 11
36.0721359673
 21
95.1870111225
  0
LINE
  5
24B
100
AcDbEntity
  8
0
100
AcDbLine
 62
7
  6
BYLAYER
 10
45.0721359673
 20
94.2870111225
 11
45.23083025
 21
95.1870111225
  0
LINE
  5
24C
100
AcDbEntity
  8
0
100
AcDbLine
 62
7
  6
BYLAYER
 10
29.7134416847
 20
95.1870111225
 11
29.8721359673
 21
94.2870111225
  0
LINE
  5
24D
100
AcDbEntity
  8
0
100
AcDbLine
 62
7
  6
BYLAYER
 10
38.8721359673
 20
95.1870111225
 11
38.8721359673
 21
85.1870111225
  0
LINE
  5
24E
100
AcDbEntity
  8
0
100
AcDbLine
 62
7
  6
BYLAYER
 10
39.3721359673
 20
74.6870111225
 11
39.3721359673
 21
85.1870111225
  0
LINE
  5
24F
100
AcDbEntity
  8
0
100
AcDbLine
 62
7
  6
BYLAYER
 10
39.8721359673
 20
85.1870111225
 11
39.8721359673
 21
94.2870111225
  0
LINE
  5
250
100
AcDbEntity
  8
0
100
AcDbLine
 62
7
  6
BYLAYER
 10
40.6221359673
 20
96.1870111225
 11
40.6221359673
 21
86.1870111225
  0
LINE
  5
251
100
AcDbEntity
  8
0
100
AcDbLine
 62
7
  6
BYLAYER
 10
41.3721359673
 20
86.1870111225
 11
41.3721359673
 21
85.1870111225
  0
LINE
  5
252
100
AcDbEntity
  8
0
100
AcDbLine
 62
7
  6
BYLAYER
 10
41.9602849406
 20
85.1870111225
 11
41.9602849406
 21
74.6870111225
  0
LINE
  5
253
100
AcDbEntity
  8
0
100
AcDbLine
 62
7
  6
BYLAYER
 10
42.9569635246
 20
29.6762850186
 11
42.9569635246
 21
27.6264176509
  0
LINE
  5
254
100
AcDbEntity
  8
0
100
AcDbLine
 62
7
  6
BYLAYER
 10
42.9569635246
 20
24.3214219967
 11
42.9569635246
 21
22.3801606268
  0
LINE
  5
255
100
AcDbEntity
  8
0
100
AcDbLine
 62
7
  6
BYLAYER
 10
43.0221359673
 20
16.5209760986
 11
43.0221359673
 21
18.9739198238
  0
LINE
  5
256
100
AcDbEntity
  8
0
100
AcDbLine
 62
7
  6
BYLAYER
 10
43.9721359673
 20
7.9739198238
 11
43.9721359673
 21
15.0739198238
  0
LINE
  5
257
100
AcDbEntity
  8
0
100
AcDbLine
 62
7
  6
BYLAYER
 10
45.0721359673
 20
94.2870111225
 11
45.0721359673
 21
85.1870111225
  0
LINE
  5
258
100
AcDbEntity
  8
0
100
AcDbLine
 62
7
  6
BYLAYER
 10
45.8721359673
 20
95.1870111225
 11
45.8721359673
 21
85.1870111225
  0
LINE
  5
259
100
AcDbEntity
  8
0
100
AcDbLine
 62
7
  6
BYLAYER
 10
46.8721359673
 20
18.9739198238
 11
46.8721359673
 21
21.4739198238
  0
LINE
  5
25A
100
AcDbEntity
  8
0
100
AcDbLine
 62
7
  6
BYLAYER
 10
46.8721359673
 20
85.1870111225
 11
46.8721359673
 21
94.2870111225
  0
LINE
  5
25B
100
AcDbEntity
  8
0
100
AcDbLine
 62
7
  6
BYLAYER
 10
39.8721359673
 20
94.2870111225
 11
39.7134416847
 21
95.1870111225
  0
LINE
  5
25C
100
AcDbEntity
  8
0
100
AcDbLine
 62
7
  6
BYLAYER
 10
48.4417910819
 20
29.6762850186
 11
48.4417910819
 21
27.6264176509
  0
LINE
  5
25D
100
AcDbEntity
  8
0
100
AcDbLine
 62
7
  6
BYLAYER
 10
48.4417910819
 20
24.3214219967
 11
48.4417910819
 21
22.3801606268
  0
LINE
  5
25E
100
AcDbEntity
  8
0
100
AcDbLine
 62
7
  6
BYLAYER
 10
49.7339869941
 20
85.1870111225
 11
49.7339869941
 21
74.6870111225
  0
LINE
  5
25F
100
AcDbEntity
  8
0
100
AcDbLine
 62
7
  6
BYLAYER
 10
50.4721359673
 20
32.5262850186
 11
50.4721359673
 21
29.6762850186
  0
LINE
  5
260
100
AcDbEntity
  8
0
100
AcDbLine
 62
7
  6
BYLAYER
 10
28.0135573236
 20
25.8324984676
 11
26.5024808541
 21
24.3214219954
  0
LINE
  5
261
100
AcDbEntity
  8
0
100
AcDbLine
 62
7
  6
BYLAYER
 10
50.8721359673
 20
72.3870111225
 11
50.8721359673
 21
74.6870111225
  0
LINE
  5
262
100
AcDbEntity
  8
0
100
AcDbLine
 62
7
  6
BYLAYER
 10
53.8721359673
 20
32.7870111225
 11
53.8721359673
 21
32.5865049926
  0
LINE
  5
263
100
AcDbEntity
  8
0
100
AcDbLine
 62
7
  6
BYLAYER
 10
54.4002484743
 20
65.541377019
 11
52.4600376173
 21
65.541377019
  0
LINE
  5
264
100
AcDbEntity
  8
0
100
AcDbLine
 62
7
  6
BYLAYER
 10
40.3541867749
 20
97.1870111225
 11
40.6221359673
 21
96.1870111225
  0
LINE
  5
265
100
AcDbEntity
  8
0
100
AcDbLine
 62
7
  6
BYLAYER
 10
46.8721359673
 20
94.2870111225
 11
46.7134416847
 21
95.1870111225
  0
LINE
  5
266
100
AcDbEntity
  8
0
100
AcDbLine
 62
7
  6
BYLAYER
 10
54.2004139996
 20
65.541377019
 11
54.6367906223
 21
40.541377019
  0
LINE
  5
267
100
AcDbEntity
  8
0
100
AcDbLine
 62
7
  6
BYLAYER
 10
54.2809153966
 20
72.3870111225
 11
54.4004063843
 21
65.541377019
  0
LINE
  5
268
100
AcDbEntity
  8
0
100
AcDbLine
 62
7
  6
BYLAYER
 10
54.836783007
 20
40.541377019
 11
54.9038184875
 21
36.7009169058
  0
LINE
  5
269
100
AcDbEntity
  8
0
100
AcDbLine
 62
7
  6
BYLAYER
 10
55.412669166
 20
36.2069521937
 11
55.4723644593
 21
32.7870111225
  0
LINE
  5
26A
100
AcDbEntity
  8
0
100
AcDbLine
 62
7
  6
BYLAYER
 10
54.2221359673
 20
85.1870111225
 11
54.2221359673
 21
74.6870111225
  0
LINE
  5
26B
100
AcDbEntity
  8
0
100
AcDbLine
 62
7
  6
BYLAYER
 10
31.5706641048
 20
15.6724479612
 11
30.9721359679
 21
15.0739198233
  0
LINE
  5
26C
100
AcDbEntity
  8
0
100
AcDbLine
 62
7
  6
BYLAYER
 10
20.66339983
 20
72.3870111225
 11
54.2808721047
 21
72.3870111225
  0
LINE
  5
26D
100
AcDbEntity
  8
0
100
AcDbLine
 62
7
  6
BYLAYER
 10
54.2221359673
 20
74.6870111225
 11
20.7221359673
 21
74.6870111225
  0
LINE
  5
26E
100
AcDbEntity
  8
0
100
AcDbLine
 62
7
  6
BYLAYER
 10
46.9307146111
 20
26.11534118
 11
48.4417910806
 21
27.6264176522
  0
LINE
  5
26F
100
AcDbEntity
  8
0
100
AcDbLine
 62
7
  6
BYLAYER
 10
46.8721359673
 20
21.4739198238
 11
48.4417910809
 21
22.3801606286
  0
LINE
  5
270
100
AcDbEntity
  8
0
100
AcDbLine
 62
7
  6
BYLAYER
 10
42.9721359673
 20
6.9739198238
 11
43.9721359664
 21
7.9739198247
  0
LINE
  5
271
100
AcDbEntity
  8
0
100
AcDbLine
 62
7
  6
BYLAYER
 10
20.7221359673
 20
85.1870111225
 11
54.2221359673
 21
85.1870111225
  0
LINE
  5
272
100
AcDbEntity
  8
0
100
AcDbLine
 62
7
  6
BYLAYER
 10
33.572240253
 20
86.1870111225
 11
35.0721359673
 21
86.1870111225
  0
LINE
  5
273
100
AcDbEntity
  8
0
100
AcDbLine
 62
7
  6
BYLAYER
 10
39.8721359673
 20
86.1870111225
 11
41.3720316817
 21
86.1870111225
  0
LINE
  5
274
100
AcDbEntity
  8
0
100
AcDbLine
 62
7
  6
BYLAYER
 10
28.0721359673
 20
94.2870111225
 11
29.8721359673
 21
94.2870111225
  0
LINE
  5
275
100
AcDbEntity
  8
0
100
AcDbLine
 62
7
  6
BYLAYER
 10
35.0721359673
 20
94.2870111225
 11
39.8721359673
 21
94.2870111225
  0
LINE
  5
276
100
AcDbEntity
  8
0
100
AcDbLine
 62
7
  6
BYLAYER
 10
45.0721359673
 20
94.2870111225
 11
46.8721359673
 21
94.2870111225
  0
LINE
  5
277
100
AcDbEntity
  8
0
100
AcDbLine
 62
7
  6
BYLAYER
 10
28.23083025
 20
95.1870111225
 11
29.7134416847
 21
95.1870111225
  0
LINE
  5
278
100
AcDbEntity
  8
0
100
AcDbLine
 62
7
  6
BYLAYER
 10
35.23083025
 20
95.1870111225
 11
39.7134416847
 21
95.1870111225
  0
LINE
  5
279
100
AcDbEntity
  8
0
100
AcDbLine
 62
7
  6
BYLAYER
 10
45.23083025
 20
95.1870111225
 11
46.7134416847
 21
95.1870111225
  0
LINE
  5
27A
100
AcDbEntity
  8
0
100
AcDbLine
 62
7
  6
BYLAYER
 10
40.6221359673
 20
96.1870111225
 11
34.3221359673
 21
96.1870111225
  0
LINE
  5
27B
100
AcDbEntity
  8
0
100
AcDbLine
 62
7
  6
BYLAYER
 10
40.3541867749
 20
97.1870111225
 11
34.5900851598
 21
97.1870111225
  0
ARC
  5
27C
100
AcDbEntity
  8
0
100
AcDbCircle
 62
7
  6
BYLAYER
 10
30.7221359673
 20
16.5209760986
 40
1.2
100
AcDbArc
 50
315.0
 51
360.0
  0
ARC
  5
27D
100
AcDbEntity
  8
0
100
AcDbCircle
 62
7
  6
BYLAYER
 10
44.2221359673
 20
16.5209760986
 40
1.2
100
AcDbArc
 50
180.0
 51
225.0
  0
CIRCLE
  5
27E
100
AcDbEntity
  8
0
100
AcDbCircle
 62
7
  6
BYLAYER
 10
37.4721359673
 20
90.9370111225
 40
0.85
  0
ARC
  5
27F
100
AcDbEntity
  8
0
100
AcDbCircle
 62
7
  6
BYLAYER
 10
54.9127453184
 20
36.1982259905
 40
0.5
100
AcDbArc
 50
1.0
 51
84.9999999029
  0
ARC
  5
280
100
AcDbEntity
  8
0
100
AcDbCircle
 62
7
  6
BYLAYER
 10
20.0315266163
 20
36.1982259905
 40
0.5
100
AcDbArc
 50
95.0000000971
 51
179.0
  0
ARC
  5
281
100
AcDbEntity
  8
0
100
AcDbCircle
 62
7
  6
BYLAYER
 10
27.8721359673
 20
25.9739198238
 40
0.2
100
AcDbArc
 50
315.0
 51
45.0
  0
ARC
  5
282
100
AcDbEntity
  8
0
100
AcDbCircle
 62
7
  6
BYLAYER
 10
47.0721359673
 20
25.9739198238
 40
0.2
100
AcDbArc
 50
135.0
 51
225.0
  0
SPLINE
  5
283
100
AcDbEntity
  8
0
100
AcDbSpline
 62
7
  6
BYLAYER
 70
0
 71
3
 72
15
 73
11
 74
0
 42
0.0000001
 43
0.0000001
 44
0.0000000001
 40
0.0
 40
0.0
 40
0.0
 40
0.0
 40
0.0791422483
 40
0.1688397466
 40
0.2722866206
 40
0.3908575929
 40
0.5247264313
 40
0.6728937111
 40
0.8329795638
 40
1.0
 40
1.0
 40
1.0
 40
1.0
 10
52.953401079
 20
40.541377019
 30
0.0
 10
52.8864583171
 20
40.541377019
 30
0.0
 10
52.7431852314
 20
40.569788301
 30
0.0
 10
52.5383862977
 20
40.6800228849
 30
0.0
 10
52.3380621188
 20
40.8540877127
 30
0.0
 10
52.1482898303
 20
41.0894297256
 30
0.0
 10
51.9774764422
 20
41.3834886999
 30
0.0
 10
51.8376088592
 20
41.7317276154
 30
0.0
 10
51.7421446526
 20
42.1235635424
 30
0.0
 10
51.7153180556
 20
42.4001344207
 30
0.0
 10
51.7122994895
 20
42.541377019
 30
0.0
  0
SPLINE
  5
284
100
AcDbEntity
  8
0
100
AcDbSpline
 62
7
  6
BYLAYER
 70
0
 71
3
 72
14
 73
10
 74
0
 42
0.0000001
 43
0.0000001
 44
0.0000000001
 40
0.0
 40
0.0
 40
0.0
 40
0.0
 40
0.3262860359
 40
0.474158479
 40
0.6074872637
 40
0.7255602596
 40
0.8288927285
 40
0.9192346223
 40
1.0
 40
1.0
 40
1.0
 40
1.0
 10
51.2610507366
 20
63.541377019
 30
0.0
 10
51.2551066073
 20
63.8164610758
 30
0.0
 10
51.3065579222
 20
64.221444576
 30
0.0
 10
51.4867222403
 20
64.7024701171
 30
0.0
 10
51.6521505653
 20
64.9974157165
 30
0.0
 10
51.8396745333
 20
65.2323020393
 30
0.0
 10
52.0400958507
 20
65.4052678545
 30
0.0
 10
52.247083515
 20
65.5140038176
 30
0.0
 10
52.3919303385
 20
65.541377019
 30
0.0
 10
52.4600376173
 20
65.541377019
 30
0.0
  0
SPLINE
  5
285
100
AcDbEntity
  8
0
100
AcDbSpline
 62
7
  6
BYLAYER
 70
0
 71
3
 72
9
 73
5
 74
0
 42
0.0000001
 43
0.0000001
 44
0.0000000001
 40
0.0
 40
0.0
 40
0.0
 40
0.0
 40
0.5
 40
1.0
 40
1.0
 40
1.0
 40
1.0
 10
51.7122994895
 20
42.541377019
 30
0.0
 10
51.6374990567
 20
46.0413857583
 30
0.0
 10
51.4870339383
 20
53.0413847288
 30
0.0
 10
51.3366799784
 20
60.0413860911
 30
0.0
 10
51.2610507366
 20
63.541377019
 30
0.0
  0
SPLINE
  5
286
100
AcDbEntity
  8
0
100
AcDbSpline
 62
7
  6
BYLAYER
 70
0
 71
3
 72
19
 73
15
 74
0
 42
0.0000001
 43
0.0000001
 44
0.0000000001
 40
0.0
 40
0.0
 40
0.0
 40
0.0
 40
0.1378786747
 40
0.2667317509
 40
0.3277059281
 40
0.3865560379
 40
0.4437516895
 40
0.5000193303
 40
0.5562889779
 40
0.6134909027
 40
0.6723480265
 40
0.7333241718
 40
0.8621496616
 40
1.0
 40
1.0
 40
1.0
 40
1.0
 10
31.98730841
 20
27.6264176509
 30
0.0
 10
31.7799887772
 20
27.4190980176
 30
0.0
 10
31.3618124554
 20
27.0344502667
 30
0.0
 10
30.7900472346
 20
26.6302827346
 30
0.0
 10
30.3180824368
 20
26.389761857
 30
0.0
 10
29.9645936403
 20
26.2575728889
 30
0.0
 10
29.6061866092
 20
26.1757937594
 30
0.0
 10
29.2449349911
 20
26.1476245716
 30
0.0
 10
28.8836926935
 20
26.1760838746
 30
0.0
 10
28.525318013
 20
26.258139445
 30
0.0
 10
28.1718689815
 20
26.3905132328
 30
0.0
 10
27.6999738093
 20
26.6310618236
 30
0.0
 10
27.1280541732
 20
27.0347695081
 30
0.0
 10
26.709757878
 20
27.4191406252
 30
0.0
 10
26.5024808527
 20
27.6264176509
 30
0.0
  0
SPLINE
  5
287
100
AcDbEntity
  8
0
100
AcDbSpline
 62
7
  6
BYLAYER
 70
0
 71
3
 72
19
 73
15
 74
0
 42
0.0000001
 43
0.0000001
 44
0.0000000001
 40
0.0
 40
0.0
 40
0.0
 40
0.0
 40
0.1378503373
 40
0.2666758268
 40
0.327651972
 40
0.3865090954
 40
0.4437110206
 40
0.4999806676
 40
0.556248309
 40
0.6134439604
 40
0.6722940705
 40
0.7332682475
 40
0.8621213242
 40
1.0
 40
1.0
 40
1.0
 40
1.0
 10
42.9569635246
 20
24.3214219967
 30
0.0
 10
43.1642405482
 20
24.5286990207
 30
0.0
 10
43.5825368477
 20
24.9130701292
 30
0.0
 10
44.1544564763
 20
25.3167778148
 30
0.0
 10
44.6263516409
 20
25.5573264193
 30
0.0
 10
44.9798006769
 20
25.6897001921
 30
0.0
 10
45.3381753499
 20
25.7717557877
 30
0.0
 10
45.6994176514
 20
25.8002150787
 30
0.0
 10
46.0606692663
 20
25.7720458729
 30
0.0
 10
46.4190763022
 20
25.6902667586
 30
0.0
 10
46.7725650959
 20
25.5580777837
 30
0.0
 10
47.2445299051
 20
25.3175569274
 30
0.0
 10
47.8162951279
 20
24.9133893888
 30
0.0
 10
48.2344714475
 20
24.5287416316
 30
0.0
 10
48.4417910819
 20
24.3214219967
 30
0.0
  0
SPLINE
  5
288
100
AcDbEntity
  8
0
100
AcDbSpline
 62
7
  6
BYLAYER
 70
0
 71
3
 72
15
 73
11
 74
0
 42
0.0000001
 43
0.0000001
 44
0.0000000001
 40
0.0
 40
0.0
 40
0.0
 40
0.0
 40
0.1249999125
 40
0.2499999176
 40
0.3749997878
 40
0.5000001971
 40
0.6250002857
 40
0.7500000383
 40
0.8750000432
 40
1.0
 40
1.0
 40
1.0
 40
1.0
 10
31.98730841
 20
24.3214219967
 30
0.0
 10
32.4141748325
 20
24.5348552083
 30
0.0
 10
33.283557975
 20
24.9317705503
 30
0.0
 10
34.6378358782
 20
25.4040049182
 30
0.0
 10
36.0391719458
 20
25.7164317967
 30
0.0
 10
37.4721308439
 20
25.8280172548
 30
0.0
 10
38.9050844112
 20
25.7163856328
 30
0.0
 10
40.3064154765
 20
25.4039525214
 30
0.0
 10
41.6607017314
 20
24.931746326
 30
0.0
 10
42.5300969511
 20
24.5348552839
 30
0.0
 10
42.9569635246
 20
24.3214219967
 30
0.0
  0
SPLINE
  5
289
100
AcDbEntity
  8
0
100
AcDbSpline
 62
7
  6
BYLAYER
 70
0
 71
3
 72
19
 73
15
 74
0
 42
0.0000001
 43
0.0000001
 44
0.0000000001
 40
0.0
 40
0.0
 40
0.0
 40
0.0
 40
0.1378503373
 40
0.2666758268
 40
0.327651972
 40
0.3865090954
 40
0.4437110206
 40
0.4999806676
 40
0.556248309
 40
0.6134439604
 40
0.6722940705
 40
0.7332682475
 40
0.8621213242
 40
1.0
 40
1.0
 40
1.0
 40
1.0
 10
26.5024808527
 20
24.3214219967
 30
0.0
 10
26.7097578763
 20
24.5286990207
 30
0.0
 10
27.1280541758
 20
24.9130701292
 30
0.0
 10
27.6999738044
 20
25.3167778148
 30
0.0
 10
28.171868969
 20
25.5573264193
 30
0.0
 10
28.525318005
 20
25.6897001921
 30
0.0
 10
28.883692678
 20
25.7717557877
 30
0.0
 10
29.2449349795
 20
25.8002150787
 30
0.0
 10
29.6061865944
 20
25.7720458729
 30
0.0
 10
29.9645936303
 20
25.6902667586
 30
0.0
 10
30.318082424
 20
25.5580777837
 30
0.0
 10
30.7900472332
 20
25.3175569274
 30
0.0
 10
31.361812456
 20
24.9133893888
 30
0.0
 10
31.7799887756
 20
24.5287416316
 30
0.0
 10
31.98730841
 20
24.3214219967
 30
0.0
  0
SPLINE
  5
28A
100
AcDbEntity
  8
0
100
AcDbSpline
 62
7
  6
BYLAYER
 70
0
 71
3
 72
17
 73
13
 74
0
 42
0.0000001
 43
0.0000001
 44
0.0000000001
 40
0.0
 40
0.0
 40
0.0
 40
0.0
 40
0.1307822576
 40
0.2571763384
 40
0.3797103308
 40
0.4400135807
 40
0.5000030346
 40
0.5599928595
 40
0.620296919
 40
0.7428319324
 40
0.8692221811
 40
1.0
 40
1.0
 40
1.0
 40
1.0
 10
31.98730841
 20
22.3801606268
 30
0.0
 10
31.768113234
 20
22.2536082325
 30
0.0
 10
31.3270640853
 20
22.0212496364
 30
0.0
 10
30.6432830418
 20
21.7477371593
 30
0.0
 10
30.0605843575
 20
21.601010308
 30
0.0
 10
29.5939179964
 20
21.5416433241
 30
0.0
 10
29.2448992458
 20
21.5269209312
 30
0.0
 10
28.8958820904
 20
21.5417119795
 30
0.0
 10
28.4292213343
 20
21.6011529821
 30
0.0
 10
27.8465399654
 20
21.7479088484
 30
0.0
 10
27.1627374398
 20
22.0213194985
 30
0.0
 10
26.7216685894
 20
22.2536125276
 30
0.0
 10
26.5024808527
 20
22.3801606268
 30
0.0
  0
SPLINE
  5
28B
100
AcDbEntity
  8
0
100
AcDbSpline
 62
7
  6
BYLAYER
 70
0
 71
3
 72
15
 73
11
 74
0
 42
0.0000001
 43
0.0000001
 44
0.0000000001
 40
0.0
 40
0.0
 40
0.0
 40
0.0
 40
0.1249962618
 40
0.249997275
 40
0.3749989865
 40
0.5000000455
 40
0.6250013155
 40
0.7500030933
 40
0.8750039382
 40
1.0
 40
1.0
 40
1.0
 40
1.0
 10
42.9569635246
 20
22.3801606268
 30
0.0
 10
42.5112169079
 20
22.2514846618
 30
0.0
 10
41.6130857607
 20
22.0161766229
 30
0.0
 10
40.2469316466
 20
21.7447819682
 30
0.0
 10
38.8644521673
 20
21.5715918687
 30
0.0
 10
37.4721512624
 20
21.5118432414
 30
0.0
 10
36.0798649059
 20
21.5718313114
 30
0.0
 10
34.6973913746
 20
21.745024472
 30
0.0
 10
33.3312109148
 20
22.0162706349
 30
0.0
 10
32.4330543136
 20
22.2514848677
 30
0.0
 10
31.98730841
 20
22.3801606268
 30
0.0
  0
SPLINE
  5
28C
100
AcDbEntity
  8
0
100
AcDbSpline
 62
7
  6
BYLAYER
 70
0
 71
3
 72
17
 73
13
 74
0
 42
0.0000001
 43
0.0000001
 44
0.0000000001
 40
0.0
 40
0.0
 40
0.0
 40
0.0
 40
0.1307822576
 40
0.2571763384
 40
0.3797103308
 40
0.4400135807
 40
0.5000030346
 40
0.5599928595
 40
0.620296919
 40
0.7428319324
 40
0.8692221811
 40
1.0
 40
1.0
 40
1.0
 40
1.0
 10
48.4417910819
 20
22.3801606268
 30
0.0
 10
48.2225959059
 20
22.2536082325
 30
0.0
 10
47.7815467572
 20
22.0212496364
 30
0.0
 10
47.0977657137
 20
21.7477371593
 30
0.0
 10
46.5150670294
 20
21.601010308
 30
0.0
 10
46.0484006683
 20
21.5416433241
 30
0.0
 10
45.6993819177
 20
21.5269209312
 30
0.0
 10
45.3503647623
 20
21.5417119795
 30
0.0
 10
44.8837040062
 20
21.6011529821
 30
0.0
 10
44.3010226373
 20
21.7479088484
 30
0.0
 10
43.6172201117
 20
22.0213194985
 30
0.0
 10
43.1761512614
 20
22.2536125276
 30
0.0
 10
42.9569635246
 20
22.3801606268
 30
0.0
  0
SPLINE
  5
28D
100
AcDbEntity
  8
0
100
AcDbSpline
 62
7
  6
BYLAYER
 70
0
 71
3
 72
15
 73
11
 74
0
 42
0.0000001
 43
0.0000001
 44
0.0000000001
 40
0.0
 40
0.0
 40
0.0
 40
0.0
 40
0.1249999568
 40
0.2499999617
 40
0.3749997143
 40
0.4999998028
 40
0.6250002122
 40
0.7500000823
 40
0.8750000874
 40
1.0
 40
1.0
 40
1.0
 40
1.0
 10
42.9569635246
 20
27.6264176509
 30
0.0
 10
42.5300969512
 20
27.4129843638
 30
0.0
 10
41.6607017314
 20
27.016093322
 30
0.0
 10
40.3064154769
 20
26.5438871263
 30
0.0
 10
38.9050844119
 20
26.2314540148
 30
0.0
 10
37.4721308446
 20
26.1198223927
 30
0.0
 10
36.0391719464
 20
26.2314078509
 30
0.0
 10
34.6378358785
 20
26.5438347292
 30
0.0
 10
33.283557975
 20
27.0160690969
 30
0.0
 10
32.4141748325
 20
27.4129844393
 30
0.0
 10
31.98730841
 20
27.6264176509
 30
0.0
  0
SPLINE
  5
28E
100
AcDbEntity
  8
0
100
AcDbSpline
 62
7
  6
BYLAYER
 70
0
 71
3
 72
19
 73
15
 74
0
 42
0.0000001
 43
0.0000001
 44
0.0000000001
 40
0.0
 40
0.0
 40
0.0
 40
0.0
 40
0.1378786747
 40
0.2667317509
 40
0.3277059281
 40
0.3865560379
 40
0.4437516895
 40
0.5000193303
 40
0.5562889779
 40
0.6134909027
 40
0.6723480265
 40
0.7333241718
 40
0.8621496616
 40
1.0
 40
1.0
 40
1.0
 40
1.0
 10
48.4417910819
 20
27.6264176509
 30
0.0
 10
48.2344714491
 20
27.4190980176
 30
0.0
 10
47.8162951273
 20
27.0344502667
 30
0.0
 10
47.2445299065
 20
26.6302827346
 30
0.0
 10
46.7725651087
 20
26.389761857
 30
0.0
 10
46.4190763122
 20
26.2575728889
 30
0.0
 10
46.0606692811
 20
26.1757937594
 30
0.0
 10
45.699417663
 20
26.1476245716
 30
0.0
 10
45.3381753654
 20
26.1760838746
 30
0.0
 10
44.979800685
 20
26.258139445
 30
0.0
 10
44.6263516534
 20
26.3905132328
 30
0.0
 10
44.1544564812
 20
26.6310618236
 30
0.0
 10
43.5825368451
 20
27.0347695081
 30
0.0
 10
43.1642405499
 20
27.4191406252
 30
0.0
 10
42.9569635246
 20
27.6264176509
 30
0.0
  0
ENDSEC
  0
SECTION
  2
OBJECTS
  0
DICTIONARY
  5
C
100
AcDbDictionary
280
0
281
1
  3
ACAD_GROUP
350
D
  3
ACAD_MLINESTYLE
350
17
  3
ACAD_LAYOUT
350
1A
  3
ACAD_PLOTSETTINGS
350
19
  3
ACAD_PLOTSTYLENAME
350
E
  0
DICTIONARY
  5
D
102
{ACAD_REACTORS
330
C
102
}
100
AcDbDictionary
280
0
281
1
  0
ACDBDICTIONARYWDFLT
  5
E
102
{ACAD_REACTORS
330
C
102
}
100
AcDbDictionary
281
1
  3
Normal
350
F
100
AcDbDictionaryWithDefault
340
F
  0
DICTIONARY
  5
17
102
{ACAD_REACTORS
330
C
102
}
100
AcDbDictionary
280
0
281
1
  3
Standard
350
18
  0
DICTIONARY
  5
19
102
{ACAD_REACTORS
330
C
102
}
100
AcDbDictionary
281
1
  0
DICTIONARY
  5
1A
102
{ACAD_REACTORS
330
C
102
}
100
AcDbDictionary
281
1
  3
Model
350
28F
  3
Layout1
350
290
  0
ACDBPLACEHOLDER
  5
F
102
{ACAD_REACTORS
330
E
102
}
  0
MLINESTYLE
  5
18
102
{ACAD_REACTORS
330
17
102
}
100
AcDbMlineStyle
  2
STANDARD
 70
0
  3

 62
256
 51
90.0
 52
90.0
 71
2
 49
0.5
 62
256
  6
BYLAYER
 49
-0.5
 62
256
  6
BYLAYER
  0
LAYOUT
  5
28F
102
{ACAD_REACTORS
330
1A
102
}
100
AcDbPlotSettings
  1

  2
none_device
  4

  6

 40
0.0
 41
0.0
 42
0.0
 43
0.0
 44
210.0
 45
297.0
 46
0.0
 47
0.0
 48
0.0
 49
0.0
140
0.0
141
0.0
142
1.0
143
1.0
 70
1024
 72
1
 73
0
 74
0
  7

 75
0
147
1.0
148
0.0
149
0.0
100
AcDbLayout
  1
Model
 70
0
 71
0
 10
0.0
 20
0.0
 11
210.0
 21
297.0
 12
0.0
 22
0.0
 32
0.0
 14
0.0
 24
0.0
 34
0.0
 15
0.0
 25
0.0
 35
0.0
146
0.0
 13
0.0
 23
0.0
 33
0.0
 16
1.0
 26
0.0
 36
0.0
 17
0.0
 27
1.0
 37
0.0
 76
0
330
210
345
0
346
0
  0
LAYOUT
  5
290
102
{ACAD_REACTORS
330
1A
102
}
100
AcDbPlotSettings
  1

  2
none_device
  4

  6

 40
0.0
 41
0.0
 42
0.0
 43
0.0
 44
210.0
 45
297.0
 46
0.0
 47
0.0
 48
0.0
 49
0.0
140
0.0
141
0.0
142
1.0
143
1.0
 70
0
 72
1
 73
0
 74
0
  7

 75
0
147
1.0
148
0.0
149
0.0
100
AcDbLayout
  1
Layout1
 70
0
 71
1
 10
0.0
 20
0.0
 11
210.0
 21
297.0
 12
0.0
 22
0.0
 32
0.0
 14
0.0
 24
0.0
 34
0.0
 15
0.0
 25
0.0
 35
0.0
146
0.0
 13
0.0
 23
0.0
 33
0.0
 16
1.0
 26
0.0
 36
0.0
 17
0.0
 27
1.0
 37
0.0
 76
0
330
211
345
0
346
0
  0
ENDSEC
  0
EOF
