999
DXF file: C:\Users\sesa63760\Dev\_Creo\CAD\MCADID0003772_3D-CAD\drw0001_2.dxf
999
Pro/ENGINEER 2019471 by Parametric Technology Corporation
  0
SECTION
  2
HEADER
  9
$ACADVER
  1
AC1024
  9
$DWGCODEPAGE
  3
ANSI_1252
  9
$EXTMAX
 10
72.2817779407
 20
102.2270859447
 30
0.0
  9
$EXTMIN
 10
0.0
 20
0.0
 30
0.0
  9
$LIMMIN
 10
0.0
 20
0.0
  9
$LIMMAX
 10
72.2817779407
 20
102.2270859447
  9
$VIEWCTR
 10
36.1408889703
 20
51.1135429723
  9
$VIEWSIZE
 40
102.2270859447
  9
$CLAYER
  8
0
  9
$LTSCALE
 40
6.6636915282
  9
$CELTYPE
  6
BYLAYER
  9
$DIMSCALE
 40
1.0
  9
$DIMASZ
 40
0.8604973564
  9
$DIMEXO
 40
1.0
  9
$DIMDLI
 40
4.6040050559
  9
$DIMEXE
 40
1.0
  9
$DIMCEN
 40
1.0904222501
  9
$DIMLFAC
 40
1.0
  9
$DIMBLK
  1
_FILLED
  9
$DIMALT
 70
0
  9
$DIMALTF
 40
0.0393700787
  9
$DIMTXT
 40
1.204696299
  9
$DIMTOL
 70
1
  9
$DIMLIM
 70
0
  9
$DIMTFAC
 40
1.0
  9
$DIMTP
 40
0.01
  9
$DIMTM
 40
0.01
  9
$DIMGAP
 40
0.625
  9
$DIMDSEP
 70
46
  9
$AUNITS
 70
0
  9
$PDMODE
 70
3
  9
$PDSIZE
 40
0.3125
  9
$HANDSEED
  5
283
  9
$TILEMODE
 70
1
  9
$MEASUREMENT
 70
1
  9
$INSUNITS
 70
4
  0
ENDSEC
  0
SECTION
  2
CLASSES
  0
CLASS
  1
ACDBDICTIONARYWDFLT
  2
AcDbDictionaryWithDefault
  3
AutoCAD 2000
 90
0
 91
1
280
0
281
0
  0
CLASS
  1
ACDBPLACEHOLDER
  2
AcDbPlaceHolder
  3
AutoCAD 2000
 90
0
 91
1
280
0
281
0
  0
CLASS
  1
LAYOUT
  2
AcDbLayout
  3
AutoCAD 2000
 90
0
 91
0
280
0
281
0
  0
ENDSEC
  0
SECTION
  2
TABLES
  0
TABLE
  2
VPORT
  5
8
100
AcDbSymbolTable
 70
2
  0
VPORT
  5
1F4
100
AcDbSymbolTableRecord
100
AcDbViewportTableRecord
  2
*ACTIVE
 70
0
 10
0.0
 20
0.0
 11
1.0
 21
1.0
 12
36.1408889703
 22
51.1135429723
 13
0.0
 23
0.0
 14
1.0
 24
1.0
 15
0.0
 25
0.0
 16
0.0
 26
0.0
 36
1.0
 17
0.0
 27
0.0
 37
0.0
 40
102.2270859447
 41
0.7070707071
 42
50.0
 43
0.0
 44
0.0
 50
0.0
 51
0.0
 71
0
 72
100
 73
1
 74
1
 75
0
 76
0
 77
0
 78
0
  0
ENDTAB
  0
TABLE
  2
LTYPE
  5
5
100
AcDbSymbolTable
 70
6
  0
LTYPE
  5
14
100
AcDbSymbolTableRecord
100
AcDbLinetypeTableRecord
  2
BYBLOCK
 70
0
  3

 72
65
 73
0
 40
0.0
  0
LTYPE
  5
15
100
AcDbSymbolTableRecord
100
AcDbLinetypeTableRecord
  2
BYLAYER
 70
0
  3

 72
65
 73
0
 40
0.0
  0
LTYPE
  5
16
100
AcDbSymbolTableRecord
100
AcDbLinetypeTableRecord
  2
CONTINUOUS
 70
64
  3
Solid line
 72
65
 73
0
 40
0.0
  0
LTYPE
  5
1F5
100
AcDbSymbolTableRecord
100
AcDbLinetypeTableRecord
  2
CENTER
 70
64
  3
____ _ ____ _ ____ _ ____ _ ____ _ ____ _ ____
 72
65
 73
4
 40
0.6
 49
0.375
 74
0
 49
-0.075
 74
0
 49
0.075
 74
0
 49
-0.075
 74
0
  0
LTYPE
  5
1F6
100
AcDbSymbolTableRecord
100
AcDbLinetypeTableRecord
  2
HIDDEN
 70
64
  3
- - - - - - - - - - - - - - - - - - - -
 72
65
 73
2
 40
0.2
 49
0.1
 74
0
 49
-0.1
 74
0
  0
LTYPE
  5
1F7
100
AcDbSymbolTableRecord
100
AcDbLinetypeTableRecord
  2
PHANTOM
 70
64
  3
_____ _ _ _____ _ _ _____ _ _ _____
 72
65
 73
6
 40
0.8
 49
0.45
 74
0
 49
-0.05
 74
0
 49
0.1
 74
0
 49
-0.05
 74
0
 49
0.1
 74
0
 49
-0.05
 74
0
  0
LTYPE
  5
1F8
100
AcDbSymbolTableRecord
100
AcDbLinetypeTableRecord
  2
DOT
 70
64
  3
. . . . . . . . . . . . . . . . . . . .
 72
65
 73
2
 40
0.2
 49
0.1
 74
0
 49
-0.1
 74
0
  0
LTYPE
  5
1F9
100
AcDbSymbolTableRecord
100
AcDbLinetypeTableRecord
  2
DASHED
 70
64
  3
- - - - - - - - - - - - - - - - - - - -
 72
65
 73
2
 40
0.2
 49
0.1
 74
0
 49
-0.1
 74
0
  0
ENDTAB
  0
TABLE
  2
LAYER
  5
2
100
AcDbSymbolTable
 70
36
  0
LAYER
  5
10
100
AcDbSymbolTableRecord
100
AcDbLayerTableRecord
  2
0
 70
0
 62
7
  6
CONTINUOUS
370
-3
390
F
  0
LAYER
  5
1FA
100
AcDbSymbolTableRecord
100
AcDbLayerTableRecord
  2
DEFAULT_1
 70
0
 62
7
  6
CENTER
370
-3
390
F
  0
LAYER
  5
1FB
100
AcDbSymbolTableRecord
100
AcDbLayerTableRecord
  2
DEFAULT_2
 70
0
 62
7
  6
HIDDEN
370
-3
390
F
  0
LAYER
  5
1FC
100
AcDbSymbolTableRecord
100
AcDbLayerTableRecord
  2
DEFAULT_3
 70
0
 62
7
  6
PHANTOM
370
-3
390
F
  0
LAYER
  5
1FD
100
AcDbSymbolTableRecord
100
AcDbLayerTableRecord
  2
00_COMPONENTS
 70
0
 62
7
  6
CONTINUOUS
370
-3
390
F
  0
LAYER
  5
1FE
100
AcDbSymbolTableRecord
100
AcDbLayerTableRecord
  2
01_1_DEFAULT_DATUMS
 70
0
 62
7
  6
CONTINUOUS
370
-3
390
F
  0
LAYER
  5
1FF
100
AcDbSymbolTableRecord
100
AcDbLayerTableRecord
  2
01_PLANES
 70
0
 62
7
  6
CONTINUOUS
370
-3
390
F
  0
LAYER
  5
200
100
AcDbSymbolTableRecord
100
AcDbLayerTableRecord
  2
02_COORD_SYS
 70
0
 62
7
  6
CONTINUOUS
370
-3
390
F
  0
LAYER
  5
201
100
AcDbSymbolTableRecord
100
AcDbLayerTableRecord
  2
03_AXES
 70
0
 62
7
  6
CONTINUOUS
370
-3
390
F
  0
LAYER
  5
202
100
AcDbSymbolTableRecord
100
AcDbLayerTableRecord
  2
04_POINTS
 70
0
 62
7
  6
CONTINUOUS
370
-3
390
F
  0
LAYER
  5
203
100
AcDbSymbolTableRecord
100
AcDbLayerTableRecord
  2
05_CURVES
 70
0
 62
7
  6
CONTINUOUS
370
-3
390
F
  0
LAYER
  5
204
100
AcDbSymbolTableRecord
100
AcDbLayerTableRecord
  2
06_SURFS
 70
0
 62
7
  6
CONTINUOUS
370
-3
390
F
  0
LAYER
  5
205
100
AcDbSymbolTableRecord
100
AcDbLayerTableRecord
  2
07_COSMETICS
 70
0
 62
7
  6
CONTINUOUS
370
-3
390
F
  0
LAYER
  5
206
100
AcDbSymbolTableRecord
100
AcDbLayerTableRecord
  2
10_NOTES
 70
0
 62
7
  6
CONTINUOUS
370
-3
390
F
  0
LAYER
  5
207
100
AcDbSymbolTableRecord
100
AcDbLayerTableRecord
  2
11_NOTES_PUB
 70
0
 62
7
  6
CONTINUOUS
370
-3
390
F
  0
LAYER
  5
208
100
AcDbSymbolTableRecord
100
AcDbLayerTableRecord
  2
13_REF_GTOL
 70
0
 62
7
  6
CONTINUOUS
370
-3
390
F
  0
LAYER
  5
209
100
AcDbSymbolTableRecord
100
AcDbLayerTableRecord
  2
16_MISC
 70
0
 62
7
  6
CONTINUOUS
370
-3
390
F
  0
LAYER
  5
20A
100
AcDbSymbolTableRecord
100
AcDbLayerTableRecord
  2
17_NO_PRINT
 70
0
 62
7
  6
CONTINUOUS
370
-3
390
F
  0
LAYER
  5
20B
100
AcDbSymbolTableRecord
100
AcDbLayerTableRecord
  2
18_DATUM_CAMS_JOINTS
 70
0
 62
7
  6
CONTINUOUS
370
-3
390
F
  0
LAYER
  5
20C
100
AcDbSymbolTableRecord
100
AcDbLayerTableRecord
  2
19_DATUM_FUNCTIONAL
 70
0
 62
7
  6
CONTINUOUS
370
-3
390
F
  0
LAYER
  5
20D
100
AcDbSymbolTableRecord
100
AcDbLayerTableRecord
  2
20_DATUM_KINEMATIC_SCHEME
 70
0
 62
7
  6
CONTINUOUS
370
-3
390
F
  0
LAYER
  5
20E
100
AcDbSymbolTableRecord
100
AcDbLayerTableRecord
  2
INTFCLR_11688
 70
0
 62
7
  6
CONTINUOUS
370
-3
390
F
  0
LAYER
  5
20F
100
AcDbSymbolTableRecord
100
AcDbLayerTableRecord
  2
INTFCLR_9063
 70
0
 62
7
  6
CONTINUOUS
370
-3
390
F
  0
LAYER
  5
210
100
AcDbSymbolTableRecord
100
AcDbLayerTableRecord
  2
_1
 70
0
 62
7
  6
CONTINUOUS
370
-3
390
F
  0
ENDTAB
  0
TABLE
  2
STYLE
  5
3
100
AcDbSymbolTable
 70
1
  0
STYLE
  5
11
100
AcDbSymbolTableRecord
100
AcDbTextStyleTableRecord
  2
STANDARD
 70
0
 40
0.0
 41
1.0
 50
0.0
 71
0
 42
0.2
  3
ARIAL.TTF
  4

  0
STYLE
  5
211
100
AcDbSymbolTableRecord
100
AcDbTextStyleTableRecord
  2
TEXTSTYLE_1
 70
0
 40
0.0
 41
0.8
 50
0.0
 71
0
 42
0.2
  3
gdt
  4

  0
ENDTAB
  0
TABLE
  2
VIEW
  5
6
100
AcDbSymbolTable
 70
0
  0
ENDTAB
  0
TABLE
  2
UCS
  5
7
100
AcDbSymbolTable
 70
0
  0
ENDTAB
  0
TABLE
  2
APPID
  5
9
100
AcDbSymbolTable
 70
1
  0
APPID
  5
212
100
AcDbSymbolTableRecord
100
AcDbRegAppTableRecord
  2
ACAD
 70
0
  0
ENDTAB
  0
TABLE
  2
BLOCK_RECORD
  5
1
100
AcDbSymbolTable
 70
0
  0
BLOCK_RECORD
  5
213
100
AcDbSymbolTableRecord
100
AcDbBlockTableRecord
  2
*Model_Space
  0
BLOCK_RECORD
  5
214
100
AcDbSymbolTableRecord
100
AcDbBlockTableRecord
  2
*Paper_Space
  0
BLOCK_RECORD
  5
215
100
AcDbSymbolTableRecord
100
AcDbBlockTableRecord
  2
_FILLED
  0
ENDTAB
  0
TABLE
  2
DIMSTYLE
  5
A
100
AcDbSymbolTable
 70
1
100
AcDbDimStyleTable
 71
0
  0
DIMSTYLE
105
216
100
AcDbSymbolTableRecord
100
AcDbDimStyleTableRecord
  2
STANDARD
 70
0
  3

  4

 40
1.0
 41
0.8604973564
 42
1.0
 43
0.38
 44
1.0
 45
0.0
 46
0.0
 47
0.01
 48
0.01
140
1.204696299
141
0.09
142
0.0
143
25.4
144
1.0
145
0.0
146
1.0
147
0.625
 71
1
 72
0
 73
0
 74
0
 75
0
 76
0
 77
1
 78
8
 79
2
170
0
171
1
172
0
173
0
174
0
175
0
176
0
177
0
178
0
270
2
179
2
271
2
272
2
273
2
274
2
275
0
280
0
281
0
282
0
283
1
284
8
285
0
286
0
287
3
288
0
340
11
278
46
341
215
342
215
343
215
344
215
  0
ENDTAB
  0
ENDSEC
  0
SECTION
  2
BLOCKS
  0
BLOCK
  5
20
100
AcDbEntity
  8
0
100
AcDbBlockBegin
  2
*Model_Space
 70
0
 10
0.0
 20
0.0
 30
0.0
  3
*Model_Space
  1

  0
ENDBLK
  5
21
100
AcDbEntity
  8
0
100
AcDbBlockEnd
  0
BLOCK
  5
1C
100
AcDbEntity
  8
0
100
AcDbBlockBegin
  2
*Paper_Space
 70
0
 10
0.0
 20
0.0
 30
0.0
  3
*Paper_Space
  1

  0
ENDBLK
  5
1D
100
AcDbEntity
  8
0
100
AcDbBlockEnd
  0
BLOCK
  5
217
100
AcDbEntity
  8
0
100
AcDbBlockBegin
  2
_FILLED
 70
64
 10
0.0
 20
0.0
  3
_FILLED
  1

  0
SOLID
  5
218
100
AcDbEntity
  8
0
  6
BYBLOCK
 62
0
100
AcDbTrace
 10
0.0
 20
0.0
 11
-1.0
 21
0.25
 12
-1.0
 22
-0.25
 13
-1.0
 23
-0.25
  0
ENDBLK
  5
219
100
AcDbEntity
  8
0
  6
BYBLOCK
 62
0
100
AcDbBlockEnd
  0
ENDSEC
  0
SECTION
  2
ENTITIES
  0
LINE
  5
21A
100
AcDbEntity
  8
0
100
AcDbLine
 62
7
  6
BYLAYER
 10
42.1411587588
 20
6.8193098947
 11
31.1416187994
 21
6.8193098947
  0
LINE
  5
21B
100
AcDbEntity
  8
0
100
AcDbLine
 62
7
  6
BYLAYER
 10
43.1413887791
 20
7.8193098947
 11
30.1413887791
 21
7.8193098947
  0
LINE
  5
21C
100
AcDbEntity
  8
0
100
AcDbLine
 62
7
  6
BYLAYER
 10
31.3413887791
 20
93.0324011934
 11
30.6413887796
 21
92.6282560041
  0
LINE
  5
21D
100
AcDbEntity
  8
0
100
AcDbLine
 62
7
  6
BYLAYER
 10
30.1413887791
 20
14.9193098941
 11
43.1413887791
 21
14.9193098941
  0
LINE
  5
21E
100
AcDbEntity
  8
0
100
AcDbLine
 62
7
  6
BYLAYER
 10
30.7399169166
 20
15.5178380321
 11
42.5428606417
 21
15.5178380321
  0
LINE
  5
21F
100
AcDbEntity
  8
0
100
AcDbLine
 62
7
  6
BYLAYER
 10
42.1913887791
 20
16.3663661695
 11
31.0913887791
 21
16.3663661695
  0
LINE
  5
220
100
AcDbEntity
  8
0
100
AcDbLine
 62
7
  6
BYLAYER
 10
31.1413887791
 20
6.8193098947
 11
30.14138878
 21
7.8193098956
  0
LINE
  5
221
100
AcDbEntity
  8
0
100
AcDbLine
 62
7
  6
BYLAYER
 10
46.0411438321
 20
18.8193098947
 11
27.2416337262
 21
18.8193098947
  0
LINE
  5
222
100
AcDbEntity
  8
0
100
AcDbLine
 62
7
  6
BYLAYER
 10
30.6413887791
 20
85.5324011933
 11
30.1413887801
 21
85.0324011934
  0
LINE
  5
223
100
AcDbEntity
  8
0
100
AcDbLine
 62
7
  6
BYLAYER
 10
27.2413887791
 20
21.3193098947
 11
46.0413887791
 21
21.3193098947
  0
LINE
  5
224
100
AcDbEntity
  8
0
100
AcDbLine
 62
7
  6
BYLAYER
 10
27.2413887791
 20
21.3193098947
 11
25.6717336649
 21
22.2255506999
  0
LINE
  5
225
100
AcDbEntity
  8
0
100
AcDbLine
 62
7
  6
BYLAYER
 10
27.1828101354
 20
25.6778885384
 11
46.0999674229
 21
25.6778885384
  0
LINE
  5
226
100
AcDbEntity
  8
0
100
AcDbLine
 62
7
  6
BYLAYER
 10
46.0999674229
 20
25.9607312509
 11
27.1828101354
 21
25.9607312509
  0
LINE
  5
227
100
AcDbEntity
  8
0
100
AcDbLine
 62
7
  6
BYLAYER
 10
27.1828101354
 20
25.9607312509
 11
25.6717336648
 21
27.4718077242
  0
LINE
  5
228
100
AcDbEntity
  8
0
100
AcDbLine
 62
7
  6
BYLAYER
 10
49.6413887792
 20
32.3716750877
 11
52.2993889984
 21
32.4180706588
  0
LINE
  5
229
100
AcDbEntity
  8
0
100
AcDbLine
 62
7
  6
BYLAYER
 10
49.6413708961
 20
29.5216750894
 11
23.6414066621
 21
29.5216750894
  0
LINE
  5
22A
100
AcDbEntity
  8
0
100
AcDbLine
 62
7
  6
BYLAYER
 10
23.6413887791
 20
32.3716750877
 11
20.9833885599
 21
32.4180706588
  0
LINE
  5
22B
100
AcDbEntity
  8
0
100
AcDbLine
 62
7
  6
BYLAYER
 10
42.5428606417
 20
15.5178380321
 11
43.1413887786
 21
14.9193098941
  0
LINE
  5
22C
100
AcDbEntity
  8
0
100
AcDbLine
 62
7
  6
BYLAYER
 10
19.8913887791
 20
85.0324011934
 11
19.8913887791
 21
74.5324011934
  0
LINE
  5
22D
100
AcDbEntity
  8
0
100
AcDbLine
 62
7
  6
BYLAYER
 10
20.2413887791
 20
32.4318950655
 11
20.2413887791
 21
32.6324011934
  0
LINE
  5
22E
100
AcDbEntity
  8
0
100
AcDbLine
 62
7
  6
BYLAYER
 10
18.7008555805
 20
36.0523422646
 11
18.6411602871
 21
32.6324011934
  0
LINE
  5
22F
100
AcDbEntity
  8
0
100
AcDbLine
 62
7
  6
BYLAYER
 10
19.8326093498
 20
72.2324011934
 11
19.2097062589
 21
36.5463069766
  0
LINE
  5
230
100
AcDbEntity
  8
0
100
AcDbLine
 62
7
  6
BYLAYER
 10
23.6413887791
 20
32.3716750877
 11
49.6413887791
 21
32.3716750877
  0
LINE
  5
231
100
AcDbEntity
  8
0
100
AcDbLine
 62
7
  6
BYLAYER
 10
53.0413887791
 20
32.4318950635
 11
20.2413887791
 21
32.4318950635
  0
LINE
  5
232
100
AcDbEntity
  8
0
100
AcDbLine
 62
7
  6
BYLAYER
 10
54.6415984295
 20
32.6324011934
 11
18.6411791287
 21
32.6324011934
  0
LINE
  5
233
100
AcDbEntity
  8
0
100
AcDbLine
 62
7
  6
BYLAYER
 10
23.2413887791
 20
72.2324011934
 11
23.2413887791
 21
74.5324011934
  0
LINE
  5
234
100
AcDbEntity
  8
0
100
AcDbLine
 62
7
  6
BYLAYER
 10
23.6413887791
 20
32.3716750877
 11
23.6413887791
 21
29.5216750894
  0
LINE
  5
235
100
AcDbEntity
  8
0
100
AcDbLine
 62
7
  6
BYLAYER
 10
19.2097062589
 20
36.5463069766
 11
19.1572015567
 21
36.5417134103
  0
LINE
  5
236
100
AcDbEntity
  8
0
100
AcDbLine
 62
7
  6
BYLAYER
 10
18.7008555805
 20
36.0523422646
 11
54.5819219777
 21
36.0523422646
  0
LINE
  5
237
100
AcDbEntity
  8
0
100
AcDbLine
 62
7
  6
BYLAYER
 10
54.1255760015
 20
36.5417134103
 11
19.157867301
 21
36.5417134103
  0
LINE
  5
238
100
AcDbEntity
  8
0
100
AcDbLine
 62
7
  6
BYLAYER
 10
54.0730712993
 20
36.5463069766
 11
19.2097062589
 21
36.5463069766
  0
LINE
  5
239
100
AcDbEntity
  8
0
100
AcDbLine
 62
7
  6
BYLAYER
 10
54.0730712993
 20
36.5463069766
 11
54.1255760015
 21
36.5417134103
  0
LINE
  5
23A
100
AcDbEntity
  8
0
100
AcDbLine
 62
7
  6
BYLAYER
 10
24.3795377523
 20
85.0324011934
 11
24.3795377523
 21
74.5324011934
  0
LINE
  5
23B
100
AcDbEntity
  8
0
100
AcDbLine
 62
7
  6
BYLAYER
 10
25.6717336645
 20
24.1668120646
 11
25.6717336645
 21
22.2255507
  0
LINE
  5
23C
100
AcDbEntity
  8
0
100
AcDbLine
 62
7
  6
BYLAYER
 10
25.6717336645
 20
27.4718077241
 11
25.6717336645
 21
29.5216750894
  0
LINE
  5
23D
100
AcDbEntity
  8
0
100
AcDbLine
 62
7
  6
BYLAYER
 10
27.2413887791
 20
21.3193098947
 11
27.2413887791
 21
18.8193098947
  0
LINE
  5
23E
100
AcDbEntity
  8
0
100
AcDbLine
 62
7
  6
BYLAYER
 10
52.1226538905
 20
40.3867670899
 11
54.006012504
 21
40.3867670899
  0
LINE
  5
23F
100
AcDbEntity
  8
0
100
AcDbLine
 62
7
  6
BYLAYER
 10
46.0999674229
 20
25.6778885384
 11
47.6110438937
 21
24.1668120649
  0
LINE
  5
240
100
AcDbEntity
  8
0
100
AcDbLine
 62
7
  6
BYLAYER
 10
30.1413887791
 20
14.9193098936
 11
30.1413887791
 21
7.8193098965
  0
LINE
  5
241
100
AcDbEntity
  8
0
100
AcDbLine
 62
7
  6
BYLAYER
 10
30.6413887791
 20
92.6282560038
 11
30.6413887791
 21
85.5324011933
  0
LINE
  5
242
100
AcDbEntity
  8
0
100
AcDbLine
 62
7
  6
BYLAYER
 10
31.0913887791
 20
18.8193098947
 11
31.0913887791
 21
16.3663661695
  0
LINE
  5
243
100
AcDbEntity
  8
0
100
AcDbLine
 62
7
  6
BYLAYER
 10
31.1565612218
 20
29.5216750894
 11
31.1565612218
 21
27.471807724
  0
LINE
  5
244
100
AcDbEntity
  8
0
100
AcDbLine
 62
7
  6
BYLAYER
 10
31.1565612218
 20
24.1668120645
 11
31.1565612218
 21
22.2255507
  0
LINE
  5
245
100
AcDbEntity
  8
0
100
AcDbLine
 62
7
  6
BYLAYER
 10
31.3413887791
 20
95.0324011934
 11
31.3413887791
 21
93.0324011934
  0
LINE
  5
246
100
AcDbEntity
  8
0
100
AcDbLine
 62
7
  6
BYLAYER
 10
32.1532398059
 20
85.0324011934
 11
32.1532398059
 21
74.5324011934
  0
LINE
  5
247
100
AcDbEntity
  8
0
100
AcDbLine
 62
7
  6
BYLAYER
 10
34.7413887791
 20
85.0324011934
 11
34.7413887791
 21
74.5324011934
  0
LINE
  5
248
100
AcDbEntity
  8
0
100
AcDbLine
 62
7
  6
BYLAYER
 10
38.5413887791
 20
74.5324011934
 11
38.5413887791
 21
85.0324011934
  0
LINE
  5
249
100
AcDbEntity
  8
0
100
AcDbLine
 62
7
  6
BYLAYER
 10
41.1295377523
 20
85.0324011934
 11
41.1295377523
 21
74.5324011934
  0
LINE
  5
24A
100
AcDbEntity
  8
0
100
AcDbLine
 62
7
  6
BYLAYER
 10
41.9413887791
 20
95.0324011934
 11
41.9413887791
 21
93.0324011934
  0
LINE
  5
24B
100
AcDbEntity
  8
0
100
AcDbLine
 62
7
  6
BYLAYER
 10
42.1262163364
 20
24.1668120646
 11
42.1262163364
 21
22.2255507
  0
LINE
  5
24C
100
AcDbEntity
  8
0
100
AcDbLine
 62
7
  6
BYLAYER
 10
42.1262163364
 20
27.4718077241
 11
42.1262163364
 21
29.5216750894
  0
LINE
  5
24D
100
AcDbEntity
  8
0
100
AcDbLine
 62
7
  6
BYLAYER
 10
42.1913887791
 20
18.8193098947
 11
42.1913887791
 21
16.3663661695
  0
LINE
  5
24E
100
AcDbEntity
  8
0
100
AcDbLine
 62
7
  6
BYLAYER
 10
42.6413887791
 20
92.6282560038
 11
42.6413887791
 21
85.5324011933
  0
LINE
  5
24F
100
AcDbEntity
  8
0
100
AcDbLine
 62
7
  6
BYLAYER
 10
43.1413887791
 20
14.9193098936
 11
43.1413887791
 21
7.8193098965
  0
LINE
  5
250
100
AcDbEntity
  8
0
100
AcDbLine
 62
7
  6
BYLAYER
 10
46.0413887791
 20
21.3193098947
 11
46.0413887791
 21
18.8193098947
  0
LINE
  5
251
100
AcDbEntity
  8
0
100
AcDbLine
 62
7
  6
BYLAYER
 10
47.6110438937
 20
24.1668120646
 11
47.6110438937
 21
22.2255507
  0
LINE
  5
252
100
AcDbEntity
  8
0
100
AcDbLine
 62
7
  6
BYLAYER
 10
47.6110438937
 20
27.4718077241
 11
47.6110438937
 21
29.5216750894
  0
LINE
  5
253
100
AcDbEntity
  8
0
100
AcDbLine
 62
7
  6
BYLAYER
 10
48.9032398059
 20
85.0324011934
 11
48.9032398059
 21
74.5324011934
  0
LINE
  5
254
100
AcDbEntity
  8
0
100
AcDbLine
 62
7
  6
BYLAYER
 10
49.6413887791
 20
32.3716750877
 11
49.6413887791
 21
29.5216750894
  0
LINE
  5
255
100
AcDbEntity
  8
0
100
AcDbLine
 62
7
  6
BYLAYER
 10
27.1828101354
 20
25.6778885384
 11
25.6717336645
 21
24.1668120649
  0
LINE
  5
256
100
AcDbEntity
  8
0
100
AcDbLine
 62
7
  6
BYLAYER
 10
50.0413887791
 20
72.2324011934
 11
50.0413887791
 21
74.5324011934
  0
LINE
  5
257
100
AcDbEntity
  8
0
100
AcDbLine
 62
7
  6
BYLAYER
 10
53.5696344337
 20
65.3867670899
 11
51.6292904295
 21
65.3867670899
  0
LINE
  5
258
100
AcDbEntity
  8
0
100
AcDbLine
 62
7
  6
BYLAYER
 10
53.3696668114
 20
65.3867670899
 11
53.8060434341
 21
40.3867670899
  0
LINE
  5
259
100
AcDbEntity
  8
0
100
AcDbLine
 62
7
  6
BYLAYER
 10
53.4501682084
 20
72.2324011934
 11
53.569659196
 21
65.3867670899
  0
LINE
  5
25A
100
AcDbEntity
  8
0
100
AcDbLine
 62
7
  6
BYLAYER
 10
54.0060358187
 20
40.3867670899
 11
54.0730712993
 21
36.5463069766
  0
LINE
  5
25B
100
AcDbEntity
  8
0
100
AcDbLine
 62
7
  6
BYLAYER
 10
54.5819219777
 20
36.0523422646
 11
54.6416172711
 21
32.6324011934
  0
LINE
  5
25C
100
AcDbEntity
  8
0
100
AcDbLine
 62
7
  6
BYLAYER
 10
53.0413887791
 20
32.4318950655
 11
53.0413887791
 21
32.6324011934
  0
LINE
  5
25D
100
AcDbEntity
  8
0
100
AcDbLine
 62
7
  6
BYLAYER
 10
53.3913887791
 20
85.0324011934
 11
53.3913887791
 21
74.5324011934
  0
LINE
  5
25E
100
AcDbEntity
  8
0
100
AcDbLine
 62
7
  6
BYLAYER
 10
30.7399169166
 20
15.5178380321
 11
30.1413887796
 21
14.9193098941
  0
LINE
  5
25F
100
AcDbEntity
  8
0
100
AcDbLine
 62
7
  6
BYLAYER
 10
19.8328904258
 20
72.2324011934
 11
53.4498871325
 21
72.2324011934
  0
LINE
  5
260
100
AcDbEntity
  8
0
100
AcDbLine
 62
7
  6
BYLAYER
 10
46.0999674229
 20
25.9607312509
 11
47.6110438935
 21
27.4718077242
  0
LINE
  5
261
100
AcDbEntity
  8
0
100
AcDbLine
 62
7
  6
BYLAYER
 10
19.8913887791
 20
74.5324011934
 11
53.3913887791
 21
74.5324011934
  0
LINE
  5
262
100
AcDbEntity
  8
0
100
AcDbLine
 62
7
  6
BYLAYER
 10
42.6413887791
 20
85.5324011933
 11
43.1413887782
 21
85.0324011934
  0
LINE
  5
263
100
AcDbEntity
  8
0
100
AcDbLine
 62
7
  6
BYLAYER
 10
46.0413887791
 20
21.3193098947
 11
47.6110438936
 21
22.2255507
  0
LINE
  5
264
100
AcDbEntity
  8
0
100
AcDbLine
 62
7
  6
BYLAYER
 10
42.1413887792
 20
6.8193098947
 11
43.1413887782
 21
7.8193098956
  0
LINE
  5
265
100
AcDbEntity
  8
0
100
AcDbLine
 62
7
  6
BYLAYER
 10
19.8913887791
 20
85.0324011934
 11
53.3913887791
 21
85.0324011934
  0
LINE
  5
266
100
AcDbEntity
  8
0
100
AcDbLine
 62
7
  6
BYLAYER
 10
42.6413887791
 20
85.5324011933
 11
30.6413887791
 21
85.5324011933
  0
LINE
  5
267
100
AcDbEntity
  8
0
100
AcDbLine
 62
7
  6
BYLAYER
 10
30.6413887791
 20
92.6282560049
 11
42.6413887791
 21
92.6282560049
  0
LINE
  5
268
100
AcDbEntity
  8
0
100
AcDbLine
 62
7
  6
BYLAYER
 10
41.9413887792
 20
93.0324011934
 11
42.6413887786
 21
92.6282560041
  0
LINE
  5
269
100
AcDbEntity
  8
0
100
AcDbLine
 62
7
  6
BYLAYER
 10
41.9413887791
 20
93.0324011934
 11
31.3413887791
 21
93.0324011934
  0
LINE
  5
26A
100
AcDbEntity
  8
0
100
AcDbLine
 62
7
  6
BYLAYER
 10
31.3416222869
 20
95.0324011934
 11
41.9411552713
 21
95.0324011934
  0
ARC
  5
26B
100
AcDbEntity
  8
0
100
AcDbCircle
 62
7
  6
BYLAYER
 10
43.3913887791
 20
16.3663661695
 40
1.2
100
AcDbArc
 50
180.0
 51
225.0
  0
ARC
  5
26C
100
AcDbEntity
  8
0
100
AcDbCircle
 62
7
  6
BYLAYER
 10
29.8913887791
 20
16.3663661695
 40
1.2
100
AcDbArc
 50
315.0
 51
360.0
  0
ARC
  5
26D
100
AcDbEntity
  8
0
100
AcDbCircle
 62
7
  6
BYLAYER
 10
54.0819981302
 20
36.0436160614
 40
0.5
100
AcDbArc
 50
0.9999999999
 51
84.9999999029
  0
ARC
  5
26E
100
AcDbEntity
  8
0
100
AcDbCircle
 62
7
  6
BYLAYER
 10
19.2007794281
 20
36.0436160614
 40
0.5
100
AcDbArc
 50
95.0000000971
 51
179.0
  0
ARC
  5
26F
100
AcDbEntity
  8
0
100
AcDbCircle
 62
7
  6
BYLAYER
 10
27.0413887791
 20
25.8193098947
 40
0.2
100
AcDbArc
 50
315.0000000001
 51
45.0000000001
  0
ARC
  5
270
100
AcDbEntity
  8
0
100
AcDbCircle
 62
7
  6
BYLAYER
 10
46.2413887791
 20
25.8193098947
 40
0.2
100
AcDbArc
 50
134.9999999999
 51
224.9999999999
  0
SPLINE
  5
271
100
AcDbEntity
  8
0
100
AcDbSpline
 62
7
  6
BYLAYER
 70
0
 71
3
 72
14
 73
10
 74
0
 42
0.0000001
 43
0.0000001
 44
0.0000000001
 40
0.0
 40
0.0
 40
0.0
 40
0.0
 40
0.3265134556
 40
0.474821544
 40
0.6088038637
 40
0.7274771852
 40
0.8310103253
 40
0.9207847847
 40
1.0
 40
1.0
 40
1.0
 40
1.0
 10
50.8815523011
 20
42.3867670899
 30
0.0
 10
50.8874483176
 20
42.1108848748
 30
0.0
 10
50.9543541351
 20
41.7074784036
 30
0.0
 10
51.1468485237
 20
41.2290568295
 30
0.0
 10
51.3175286886
 20
40.9347976003
 30
0.0
 10
51.5073266146
 20
40.6994998256
 30
0.0
 10
51.7076274697
 20
40.5254106429
 30
0.0
 10
51.9124288021
 20
40.4151715553
 30
0.0
 10
52.0557070039
 20
40.3867670899
 30
0.0
 10
52.1226538905
 20
40.3867670899
 30
0.0
  0
SPLINE
  5
272
100
AcDbEntity
  8
0
100
AcDbSpline
 62
7
  6
BYLAYER
 70
0
 71
3
 72
9
 73
5
 74
0
 42
0.0000001
 43
0.0000001
 44
0.0000000001
 40
0.0
 40
0.0
 40
0.0
 40
0.0
 40
0.5
 40
1.0
 40
1.0
 40
1.0
 40
1.0
 10
50.8815523011
 20
42.3867670899
 30
0.0
 10
50.8067518683
 20
45.8867758292
 30
0.0
 10
50.65628675
 20
52.8867747997
 30
0.0
 10
50.5059327906
 20
59.886776162
 30
0.0
 10
50.4303035488
 20
63.3867670899
 30
0.0
  0
SPLINE
  5
273
100
AcDbEntity
  8
0
100
AcDbSpline
 62
7
  6
BYLAYER
 70
0
 71
3
 72
14
 73
10
 74
0
 42
0.0000001
 43
0.0000001
 44
0.0000000001
 40
0.0
 40
0.0
 40
0.0
 40
0.0
 40
0.080765106
 40
0.1711056445
 40
0.2744375082
 40
0.3925101989
 40
0.5258411013
 40
0.6737216423
 40
1.0
 40
1.0
 40
1.0
 40
1.0
 10
51.6292904295
 20
65.3867670899
 30
0.0
 10
51.5611833409
 20
65.3867670899
 30
0.0
 10
51.4163378484
 20
65.3593967931
 30
0.0
 10
51.2093477896
 20
65.2506691361
 30
0.0
 10
51.0089242265
 20
65.0777080243
 30
0.0
 10
50.8214054714
 20
64.8428130389
 30
0.0
 10
50.6560130668
 20
64.5478404316
 30
0.0
 10
50.4757761768
 20
64.0668410384
 30
0.0
 10
50.4243595579
 20
63.6618448301
 30
0.0
 10
50.4303035507
 20
63.3867670899
 30
0.0
  0
SPLINE
  5
274
100
AcDbEntity
  8
0
100
AcDbSpline
 62
7
  6
BYLAYER
 70
0
 71
3
 72
11
 73
7
 74
0
 42
0.0000001
 43
0.0000001
 44
0.0000000001
 40
0.0
 40
0.0
 40
0.0
 40
0.0
 40
0.2500165077
 40
0.500033435
 40
0.7500245227
 40
1.0
 40
1.0
 40
1.0
 40
1.0
 10
42.1262163364
 20
27.4718077241
 30
0.0
 10
41.6992804783
 20
27.2583397946
 30
0.0
 10
40.8300691672
 20
26.860821701
 30
0.0
 10
39.4761808054
 20
26.3865800421
 30
0.0
 10
38.0745848343
 20
26.0752650142
 30
0.0
 10
37.1186392449
 20
26.0021526072
 30
0.0
 10
36.6413887791
 20
26.0021526072
 30
0.0
  0
SPLINE
  5
275
100
AcDbEntity
  8
0
100
AcDbSpline
 62
7
  6
BYLAYER
 70
0
 71
3
 72
19
 73
15
 74
0
 42
0.0000001
 43
0.0000001
 44
0.0000000001
 40
0.0
 40
0.0
 40
0.0
 40
0.0
 40
0.1379242888
 40
0.2036232668
 40
0.2669420065
 40
0.3865519571
 40
0.4437347389
 40
0.5000037358
 40
0.5562720139
 40
0.6134545548
 40
0.7330598394
 40
0.7963732375
 40
0.8620694884
 40
1.0
 40
1.0
 40
1.0
 40
1.0
 10
47.6110438937
 20
27.4718077241
 30
0.0
 10
47.4036469755
 20
27.2644108054
 30
0.0
 10
47.0843503547
 20
26.9703112272
 30
0.0
 10
46.6307743363
 20
26.6280431392
 30
0.0
 10
46.1846980948
 20
26.3438356932
 30
0.0
 10
45.7147540262
 20
26.1305752236
 30
0.0
 10
45.2298678621
 20
26.0208634381
 30
0.0
 10
44.8686252514
 20
25.9930204885
 30
0.0
 10
44.5073885914
 20
26.0209477124
 30
0.0
 10
44.0225441563
 20
26.1307679995
 30
0.0
 10
43.5525892497
 20
26.3439091697
 30
0.0
 10
43.1064652033
 20
26.6279972445
 30
0.0
 10
42.652853997
 20
26.970217437
 30
0.0
 10
42.3336226121
 20
27.2644014484
 30
0.0
 10
42.1262163364
 20
27.4718077244
 30
0.0
  0
SPLINE
  5
276
100
AcDbEntity
  8
0
100
AcDbSpline
 62
7
  6
BYLAYER
 70
0
 71
3
 72
19
 73
15
 74
0
 42
0.0000001
 43
0.0000001
 44
0.0000000001
 40
0.0
 40
0.0
 40
0.0
 40
0.0
 40
0.1379242887
 40
0.2036232668
 40
0.2669420065
 40
0.3865519571
 40
0.4437347389
 40
0.5000037358
 40
0.5562720139
 40
0.6134545548
 40
0.7330598394
 40
0.7963732375
 40
0.8620694884
 40
1.0
 40
1.0
 40
1.0
 40
1.0
 10
31.1565612218
 20
27.471807724
 30
0.0
 10
30.9491643035
 20
27.2644108054
 30
0.0
 10
30.6298676827
 20
26.9703112272
 30
0.0
 10
30.1762916644
 20
26.6280431392
 30
0.0
 10
29.7302154228
 20
26.3438356932
 30
0.0
 10
29.2602713543
 20
26.1305752236
 30
0.0
 10
28.7753851902
 20
26.0208634381
 30
0.0
 10
28.4141425795
 20
25.9930204885
 30
0.0
 10
28.0529059195
 20
26.0209477124
 30
0.0
 10
27.5680614844
 20
26.1307679995
 30
0.0
 10
27.0981065778
 20
26.3439091697
 30
0.0
 10
26.6519825314
 20
26.6279972445
 30
0.0
 10
26.1983713251
 20
26.970217437
 30
0.0
 10
25.8791399402
 20
27.2644014484
 30
0.0
 10
25.6717336645
 20
27.4718077244
 30
0.0
  0
SPLINE
  5
277
100
AcDbEntity
  8
0
100
AcDbSpline
 62
7
  6
BYLAYER
 70
0
 71
3
 72
11
 73
7
 74
0
 42
0.0000001
 43
0.0000001
 44
0.0000000001
 40
0.0
 40
0.0
 40
0.0
 40
0.0
 40
0.249973596
 40
0.4999676308
 40
0.7499847129
 40
1.0
 40
1.0
 40
1.0
 40
1.0
 10
36.6413887791
 20
26.0021526072
 30
0.0
 10
36.1641436536
 20
26.0021526072
 30
0.0
 10
35.2082140606
 20
26.0754684802
 30
0.0
 10
33.8066151546
 20
26.386661504
 30
0.0
 10
32.4526476971
 20
26.8607071195
 30
0.0
 10
31.5834934315
 20
27.2583416188
 30
0.0
 10
31.1565612218
 20
27.471807724
 30
0.0
  0
SPLINE
  5
278
100
AcDbEntity
  8
0
100
AcDbSpline
 62
7
  6
BYLAYER
 70
0
 71
3
 72
19
 73
15
 74
0
 42
0.0000001
 43
0.0000001
 44
0.0000000001
 40
0.0
 40
0.0
 40
0.0
 40
0.0
 40
0.137924289
 40
0.203623267
 40
0.2669420065
 40
0.386551957
 40
0.4437347388
 40
0.5000037357
 40
0.5562720138
 40
0.6134545546
 40
0.7330598392
 40
0.7963732373
 40
0.8620694882
 40
1.0
 40
1.0
 40
1.0
 40
1.0
 10
42.1262163364
 20
24.1668120646
 30
0.0
 10
42.3336132551
 20
24.3742089838
 30
0.0
 10
42.652909873
 20
24.6683085659
 30
0.0
 10
43.1064858929
 20
25.0105766525
 30
0.0
 10
43.5525621361
 20
25.2947840949
 30
0.0
 10
44.0225062036
 20
25.5080445656
 30
0.0
 10
44.5073923677
 20
25.6177563514
 30
0.0
 10
44.8686349785
 20
25.6455993007
 30
0.0
 10
45.2298716385
 20
25.6176720769
 30
0.0
 10
45.7147160736
 20
25.5078517901
 30
0.0
 10
46.1846709802
 20
25.2947106198
 30
0.0
 10
46.6307950268
 20
25.0106225449
 30
0.0
 10
47.0844062332
 20
24.6684023512
 30
0.0
 10
47.4036376166
 20
24.3742183374
 30
0.0
 10
47.6110438928
 20
24.1668120611
 30
0.0
  0
SPLINE
  5
279
100
AcDbEntity
  8
0
100
AcDbSpline
 62
7
  6
BYLAYER
 70
0
 71
3
 72
11
 73
7
 74
0
 42
0.0000001
 43
0.0000001
 44
0.0000000001
 40
0.0
 40
0.0
 40
0.0
 40
0.0
 40
0.249973596
 40
0.4999676308
 40
0.7499847129
 40
1.0
 40
1.0
 40
1.0
 40
1.0
 10
36.6413887791
 20
25.6364671821
 30
0.0
 10
37.1186339048
 20
25.6364671821
 30
0.0
 10
38.0745634982
 20
25.5631513091
 30
0.0
 10
39.4761624046
 20
25.2519582851
 30
0.0
 10
40.8301298628
 20
24.7779126694
 30
0.0
 10
41.6992841265
 20
24.3802781653
 30
0.0
 10
42.1262163364
 20
24.1668120601
 30
0.0
  0
SPLINE
  5
27A
100
AcDbEntity
  8
0
100
AcDbSpline
 62
7
  6
BYLAYER
 70
0
 71
3
 72
11
 73
7
 74
0
 42
0.0000001
 43
0.0000001
 44
0.0000000001
 40
0.0
 40
0.0
 40
0.0
 40
0.0
 40
0.2500165077
 40
0.500033435
 40
0.7500245227
 40
1.0
 40
1.0
 40
1.0
 40
1.0
 10
31.1565612218
 20
24.1668120645
 30
0.0
 10
31.58349708
 20
24.3802799942
 30
0.0
 10
32.4527083883
 20
24.7777980944
 30
0.0
 10
33.8065967531
 20
25.2520397457
 30
0.0
 10
35.2081927236
 20
25.5633547755
 30
0.0
 10
36.1641383132
 20
25.6364671821
 30
0.0
 10
36.6413887791
 20
25.6364671821
 30
0.0
  0
SPLINE
  5
27B
100
AcDbEntity
  8
0
100
AcDbSpline
 62
7
  6
BYLAYER
 70
0
 71
3
 72
19
 73
15
 74
0
 42
0.0000001
 43
0.0000001
 44
0.0000000001
 40
0.0
 40
0.0
 40
0.0
 40
0.0
 40
0.137924289
 40
0.2036232669
 40
0.2669420065
 40
0.386551957
 40
0.4437347388
 40
0.5000037357
 40
0.5562720138
 40
0.6134545546
 40
0.7330598392
 40
0.7963732373
 40
0.8620694882
 40
1.0
 40
1.0
 40
1.0
 40
1.0
 10
25.6717336645
 20
24.1668120646
 30
0.0
 10
25.8791305832
 20
24.3742089838
 30
0.0
 10
26.1984272012
 20
24.668308566
 30
0.0
 10
26.6520032212
 20
25.0105766526
 30
0.0
 10
27.0980794644
 20
25.2947840951
 30
0.0
 10
27.5680235321
 20
25.5080445657
 30
0.0
 10
28.0529096963
 20
25.6177563515
 30
0.0
 10
28.4141523071
 20
25.6455993007
 30
0.0
 10
28.7753889672
 20
25.6176720768
 30
0.0
 10
29.2602334024
 20
25.5078517898
 30
0.0
 10
29.7301883091
 20
25.2947106193
 30
0.0
 10
30.1763123558
 20
25.0106225443
 30
0.0
 10
30.6299235622
 20
24.6684023504
 30
0.0
 10
30.9491549457
 20
24.3742183365
 30
0.0
 10
31.1565612218
 20
24.1668120601
 30
0.0
  0
SPLINE
  5
27C
100
AcDbEntity
  8
0
100
AcDbSpline
 62
7
  6
BYLAYER
 70
0
 71
3
 72
15
 73
11
 74
0
 42
0.0000001
 43
0.0000001
 44
0.0000000001
 40
0.0
 40
0.0
 40
0.0
 40
0.0
 40
0.1308149167
 40
0.2572376708
 40
0.3797907958
 40
0.499999795
 40
0.620209281
 40
0.7427616294
 40
0.8691872939
 40
1.0
 40
1.0
 40
1.0
 40
1.0
 10
31.1565612218
 20
22.2255507
 30
0.0
 10
30.9373497136
 20
22.0989888763
 30
0.0
 10
30.4963658672
 20
21.8664807793
 30
0.0
 10
29.8125128187
 20
21.5928570082
 30
0.0
 10
29.1172436883
 20
21.417702173
 30
0.0
 10
28.4141467238
 20
21.3570745006
 30
0.0
 10
27.7110572089
 20
21.4177097281
 30
0.0
 10
27.0157629639
 20
21.5928059776
 30
0.0
 10
26.3319580803
 20
21.8665492252
 30
0.0
 10
25.8909414684
 20
22.0989910151
 30
0.0
 10
25.6717336645
 20
22.2255507
 30
0.0
  0
SPLINE
  5
27D
100
AcDbEntity
  8
0
100
AcDbSpline
 62
7
  6
BYLAYER
 70
0
 71
3
 72
11
 73
7
 74
0
 42
0.0000001
 43
0.0000001
 44
0.0000000001
 40
0.0
 40
0.0
 40
0.0
 40
0.0
 40
0.2499977627
 40
0.4999964248
 40
0.7499980452
 40
1.0
 40
1.0
 40
1.0
 40
1.0
 10
36.6413887791
 20
21.3770449217
 30
0.0
 10
36.1774201288
 20
21.3770449217
 30
0.0
 10
35.2490313936
 20
21.4167026267
 30
0.0
 10
33.866519841
 20
21.5892424609
 30
0.0
 10
32.5003620757
 20
21.8610640624
 30
0.0
 10
31.602335357
 20
22.0968667911
 30
0.0
 10
31.1565612218
 20
22.2255507
 30
0.0
  0
SPLINE
  5
27E
100
AcDbEntity
  8
0
100
AcDbSpline
 62
7
  6
BYLAYER
 70
0
 71
3
 72
10
 73
6
 74
0
 42
0.0000001
 43
0.0000001
 44
0.0000000001
 40
0.0
 40
0.0
 40
0.0
 40
0.0
 40
0.4998893328
 40
0.749945088
 40
1.0
 40
1.0
 40
1.0
 40
1.0
 10
42.1262163364
 20
22.2255507
 30
0.0
 10
41.2350763411
 20
21.9683007412
 30
0.0
 10
39.876498903
 20
21.6465963865
 30
0.0
 10
38.033777391
 20
21.4168182194
 30
0.0
 10
37.1053572935
 20
21.3770449217
 30
0.0
 10
36.6413887791
 20
21.3770449217
 30
0.0
  0
SPLINE
  5
27F
100
AcDbEntity
  8
0
100
AcDbSpline
 62
7
  6
BYLAYER
 70
0
 71
3
 72
9
 73
5
 74
0
 42
0.0000001
 43
0.0000001
 44
0.0000000001
 40
0.0
 40
0.0
 40
0.0
 40
0.0
 40
0.2579961578
 40
1.0
 40
1.0
 40
1.0
 40
1.0
 10
47.6110438937
 20
22.2255507
 30
0.0
 10
47.4779713126
 20
22.1487212092
 30
0.0
 10
46.9556400772
 20
21.8631955972
 30
0.0
 10
46.3987896918
 20
21.634533075
 30
0.0
 10
45.9711774779
 20
21.5229644246
 30
0.0
  0
SPLINE
  5
280
100
AcDbEntity
  8
0
100
AcDbSpline
 62
7
  6
BYLAYER
 70
0
 71
3
 72
14
 73
10
 74
0
 42
0.0000001
 43
0.0000001
 44
0.0000000001
 40
0.0
 40
0.0
 40
0.0
 40
0.0
 40
0.1229109632
 40
0.24431084
 40
0.3653722644
 40
0.4873241221
 40
0.6112258491
 40
0.737805993
 40
1.0
 40
1.0
 40
1.0
 40
1.0
 10
45.9711774779
 20
21.5229644246
 30
0.0
 10
45.8119075431
 20
21.4814091764
 30
0.0
 10
45.4908684689
 20
21.4145940997
 30
0.0
 10
45.0025491798
 20
21.3696708812
 30
0.0
 10
44.5135364139
 20
21.3828053316
 30
0.0
 10
44.026239169
 20
21.4536533057
 30
0.0
 10
43.5424216258
 20
21.5784334853
 30
0.0
 10
42.8963162573
 20
21.8129847246
 30
0.0
 10
42.4303029736
 20
22.0499861977
 30
0.0
 10
42.1262163364
 20
22.2255507
 30
0.0
  0
ENDSEC
  0
SECTION
  2
OBJECTS
  0
DICTIONARY
  5
C
100
AcDbDictionary
280
0
281
1
  3
ACAD_GROUP
350
D
  3
ACAD_MLINESTYLE
350
17
  3
ACAD_LAYOUT
350
1A
  3
ACAD_PLOTSETTINGS
350
19
  3
ACAD_PLOTSTYLENAME
350
E
  0
DICTIONARY
  5
D
102
{ACAD_REACTORS
330
C
102
}
100
AcDbDictionary
280
0
281
1
  0
ACDBDICTIONARYWDFLT
  5
E
102
{ACAD_REACTORS
330
C
102
}
100
AcDbDictionary
281
1
  3
Normal
350
F
100
AcDbDictionaryWithDefault
340
F
  0
DICTIONARY
  5
17
102
{ACAD_REACTORS
330
C
102
}
100
AcDbDictionary
280
0
281
1
  3
Standard
350
18
  0
DICTIONARY
  5
19
102
{ACAD_REACTORS
330
C
102
}
100
AcDbDictionary
281
1
  0
DICTIONARY
  5
1A
102
{ACAD_REACTORS
330
C
102
}
100
AcDbDictionary
281
1
  3
Model
350
281
  3
Layout1
350
282
  0
ACDBPLACEHOLDER
  5
F
102
{ACAD_REACTORS
330
E
102
}
  0
MLINESTYLE
  5
18
102
{ACAD_REACTORS
330
17
102
}
100
AcDbMlineStyle
  2
STANDARD
 70
0
  3

 62
256
 51
90.0
 52
90.0
 71
2
 49
0.5
 62
256
  6
BYLAYER
 49
-0.5
 62
256
  6
BYLAYER
  0
LAYOUT
  5
281
102
{ACAD_REACTORS
330
1A
102
}
100
AcDbPlotSettings
  1

  2
none_device
  4

  6

 40
0.0
 41
0.0
 42
0.0
 43
0.0
 44
210.0
 45
297.0
 46
0.0
 47
0.0
 48
0.0
 49
0.0
140
0.0
141
0.0
142
1.0
143
1.0
 70
1024
 72
1
 73
0
 74
0
  7

 75
0
147
1.0
148
0.0
149
0.0
100
AcDbLayout
  1
Model
 70
0
 71
0
 10
0.0
 20
0.0
 11
210.0
 21
297.0
 12
0.0
 22
0.0
 32
0.0
 14
0.0
 24
0.0
 34
0.0
 15
0.0
 25
0.0
 35
0.0
146
0.0
 13
0.0
 23
0.0
 33
0.0
 16
1.0
 26
0.0
 36
0.0
 17
0.0
 27
1.0
 37
0.0
 76
0
330
213
345
0
346
0
  0
LAYOUT
  5
282
102
{ACAD_REACTORS
330
1A
102
}
100
AcDbPlotSettings
  1

  2
none_device
  4

  6

 40
0.0
 41
0.0
 42
0.0
 43
0.0
 44
210.0
 45
297.0
 46
0.0
 47
0.0
 48
0.0
 49
0.0
140
0.0
141
0.0
142
1.0
143
1.0
 70
0
 72
1
 73
0
 74
0
  7

 75
0
147
1.0
148
0.0
149
0.0
100
AcDbLayout
  1
Layout1
 70
0
 71
1
 10
0.0
 20
0.0
 11
210.0
 21
297.0
 12
0.0
 22
0.0
 32
0.0
 14
0.0
 24
0.0
 34
0.0
 15
0.0
 25
0.0
 35
0.0
146
0.0
 13
0.0
 23
0.0
 33
0.0
 16
1.0
 26
0.0
 36
0.0
 17
0.0
 27
1.0
 37
0.0
 76
0
330
214
345
0
346
0
  0
ENDSEC
  0
EOF
