999
DXF file: C:\Users\sesa63760\Dev\_Creo\CAD\MCADUE0002395_3D-CAD\drw0001_4.dxf
999
Pro/ENGINEER 2019471 by Parametric Technology Corporation
  0
SECTION
  2
HEADER
  9
$ACADVER
  1
AC1024
  9
$DWGCODEPAGE
  3
ANSI_1252
  9
$EXTMAX
 10
746.9958202717
 20
1056.4655172414
 30
0.0
  9
$EXTMIN
 10
0.0
 20
0.0
 30
0.0
  9
$LIMMIN
 10
0.0
 20
0.0
  9
$LIMMAX
 10
746.9958202717
 20
1056.4655172414
  9
$VIEWCTR
 10
373.4979101358
 20
528.2327586207
  9
$VIEWSIZE
 40
1056.4655172414
  9
$CLAYER
  8
0
  9
$LTSCALE
 40
68.8659003831
  9
$CELTYPE
  6
BYLAYER
  9
$DIMSCALE
 40
1.0
  9
$DIMASZ
 40
8.8928073842
  9
$DIMEXO
 40
1.0
  9
$DIMDLI
 40
47.5800766284
  9
$DIMEXE
 40
1.0
  9
$DIMCEN
 40
11.2689655172
  9
$DIMLFAC
 40
1.0
  9
$DIMBLK
  1
_FILLED
  9
$DIMALT
 70
0
  9
$DIMALTF
 40
0.0393700787
  9
$DIMTXT
 40
12.4499303379
  9
$DIMTOL
 70
1
  9
$DIMLIM
 70
0
  9
$DIMTFAC
 40
1.0
  9
$DIMTP
 40
0.01
  9
$DIMTM
 40
0.01
  9
$DIMGAP
 40
0.625
  9
$DIMDSEP
 70
46
  9
$AUNITS
 70
0
  9
$PDMODE
 70
3
  9
$PDSIZE
 40
0.3125
  9
$HANDSEED
  5
565
  9
$TILEMODE
 70
1
  9
$MEASUREMENT
 70
1
  9
$INSUNITS
 70
4
  0
ENDSEC
  0
SECTION
  2
CLASSES
  0
CLASS
  1
ACDBDICTIONARYWDFLT
  2
AcDbDictionaryWithDefault
  3
AutoCAD 2000
 90
0
 91
1
280
0
281
0
  0
CLASS
  1
ACDBPLACEHOLDER
  2
AcDbPlaceHolder
  3
AutoCAD 2000
 90
0
 91
1
280
0
281
0
  0
CLASS
  1
LAYOUT
  2
AcDbLayout
  3
AutoCAD 2000
 90
0
 91
0
280
0
281
0
  0
ENDSEC
  0
SECTION
  2
TABLES
  0
TABLE
  2
VPORT
  5
8
100
AcDbSymbolTable
 70
2
  0
VPORT
  5
1F4
100
AcDbSymbolTableRecord
100
AcDbViewportTableRecord
  2
*ACTIVE
 70
0
 10
0.0
 20
0.0
 11
1.0
 21
1.0
 12
373.4979101358
 22
528.2327586207
 13
0.0
 23
0.0
 14
1.0
 24
1.0
 15
0.0
 25
0.0
 16
0.0
 26
0.0
 36
1.0
 17
0.0
 27
0.0
 37
0.0
 40
1056.4655172414
 41
0.7070707071
 42
50.0
 43
0.0
 44
0.0
 50
0.0
 51
0.0
 71
0
 72
100
 73
1
 74
1
 75
0
 76
0
 77
0
 78
0
  0
ENDTAB
  0
TABLE
  2
LTYPE
  5
5
100
AcDbSymbolTable
 70
6
  0
LTYPE
  5
14
100
AcDbSymbolTableRecord
100
AcDbLinetypeTableRecord
  2
BYBLOCK
 70
0
  3

 72
65
 73
0
 40
0.0
  0
LTYPE
  5
15
100
AcDbSymbolTableRecord
100
AcDbLinetypeTableRecord
  2
BYLAYER
 70
0
  3

 72
65
 73
0
 40
0.0
  0
LTYPE
  5
16
100
AcDbSymbolTableRecord
100
AcDbLinetypeTableRecord
  2
CONTINUOUS
 70
64
  3
Solid line
 72
65
 73
0
 40
0.0
  0
LTYPE
  5
1F5
100
AcDbSymbolTableRecord
100
AcDbLinetypeTableRecord
  2
CENTER
 70
64
  3
____ _ ____ _ ____ _ ____ _ ____ _ ____ _ ____
 72
65
 73
4
 40
0.6
 49
0.375
 74
0
 49
-0.075
 74
0
 49
0.075
 74
0
 49
-0.075
 74
0
  0
LTYPE
  5
1F6
100
AcDbSymbolTableRecord
100
AcDbLinetypeTableRecord
  2
HIDDEN
 70
64
  3
- - - - - - - - - - - - - - - - - - - -
 72
65
 73
2
 40
0.2
 49
0.1
 74
0
 49
-0.1
 74
0
  0
LTYPE
  5
1F7
100
AcDbSymbolTableRecord
100
AcDbLinetypeTableRecord
  2
PHANTOM
 70
64
  3
_____ _ _ _____ _ _ _____ _ _ _____
 72
65
 73
6
 40
0.8
 49
0.45
 74
0
 49
-0.05
 74
0
 49
0.1
 74
0
 49
-0.05
 74
0
 49
0.1
 74
0
 49
-0.05
 74
0
  0
LTYPE
  5
1F8
100
AcDbSymbolTableRecord
100
AcDbLinetypeTableRecord
  2
DOT
 70
64
  3
. . . . . . . . . . . . . . . . . . . .
 72
65
 73
2
 40
0.2
 49
0.1
 74
0
 49
-0.1
 74
0
  0
LTYPE
  5
1F9
100
AcDbSymbolTableRecord
100
AcDbLinetypeTableRecord
  2
DASHED
 70
64
  3
- - - - - - - - - - - - - - - - - - - -
 72
65
 73
2
 40
0.2
 49
0.1
 74
0
 49
-0.1
 74
0
  0
ENDTAB
  0
TABLE
  2
LAYER
  5
2
100
AcDbSymbolTable
 70
36
  0
LAYER
  5
10
100
AcDbSymbolTableRecord
100
AcDbLayerTableRecord
  2
0
 70
0
 62
7
  6
CONTINUOUS
370
-3
390
F
  0
LAYER
  5
1FA
100
AcDbSymbolTableRecord
100
AcDbLayerTableRecord
  2
DEFAULT_1
 70
0
 62
7
  6
CENTER
370
-3
390
F
  0
LAYER
  5
1FB
100
AcDbSymbolTableRecord
100
AcDbLayerTableRecord
  2
DEFAULT_2
 70
0
 62
8
  6
HIDDEN
370
-3
390
F
  0
LAYER
  5
1FC
100
AcDbSymbolTableRecord
100
AcDbLayerTableRecord
  2
DEFAULT_3
 70
0
 62
7
  6
PHANTOM
370
-3
390
F
  0
LAYER
  5
1FD
100
AcDbSymbolTableRecord
100
AcDbLayerTableRecord
  2
00_COMPONENTS
 70
0
 62
7
  6
CONTINUOUS
370
-3
390
F
  0
LAYER
  5
1FE
100
AcDbSymbolTableRecord
100
AcDbLayerTableRecord
  2
01_1_DEFAULT_DATUMS
 70
0
 62
7
  6
CONTINUOUS
370
-3
390
F
  0
LAYER
  5
1FF
100
AcDbSymbolTableRecord
100
AcDbLayerTableRecord
  2
01_PLANES
 70
0
 62
7
  6
CONTINUOUS
370
-3
390
F
  0
LAYER
  5
200
100
AcDbSymbolTableRecord
100
AcDbLayerTableRecord
  2
02_COORD_SYS
 70
0
 62
7
  6
CONTINUOUS
370
-3
390
F
  0
LAYER
  5
201
100
AcDbSymbolTableRecord
100
AcDbLayerTableRecord
  2
03_AXES
 70
0
 62
7
  6
CONTINUOUS
370
-3
390
F
  0
LAYER
  5
202
100
AcDbSymbolTableRecord
100
AcDbLayerTableRecord
  2
04_POINTS
 70
0
 62
7
  6
CONTINUOUS
370
-3
390
F
  0
LAYER
  5
203
100
AcDbSymbolTableRecord
100
AcDbLayerTableRecord
  2
05_CURVES
 70
0
 62
7
  6
CONTINUOUS
370
-3
390
F
  0
LAYER
  5
204
100
AcDbSymbolTableRecord
100
AcDbLayerTableRecord
  2
06_SURFS
 70
0
 62
7
  6
CONTINUOUS
370
-3
390
F
  0
LAYER
  5
205
100
AcDbSymbolTableRecord
100
AcDbLayerTableRecord
  2
07_COSMETICS
 70
0
 62
7
  6
CONTINUOUS
370
-3
390
F
  0
LAYER
  5
206
100
AcDbSymbolTableRecord
100
AcDbLayerTableRecord
  2
10_NOTES
 70
0
 62
7
  6
CONTINUOUS
370
-3
390
F
  0
LAYER
  5
207
100
AcDbSymbolTableRecord
100
AcDbLayerTableRecord
  2
11_NOTES_PUB
 70
0
 62
7
  6
CONTINUOUS
370
-3
390
F
  0
LAYER
  5
208
100
AcDbSymbolTableRecord
100
AcDbLayerTableRecord
  2
13_REF_GTOL
 70
0
 62
7
  6
CONTINUOUS
370
-3
390
F
  0
LAYER
  5
209
100
AcDbSymbolTableRecord
100
AcDbLayerTableRecord
  2
16_MISC
 70
0
 62
7
  6
CONTINUOUS
370
-3
390
F
  0
LAYER
  5
20A
100
AcDbSymbolTableRecord
100
AcDbLayerTableRecord
  2
17_NO_PRINT
 70
0
 62
7
  6
CONTINUOUS
370
-3
390
F
  0
LAYER
  5
20B
100
AcDbSymbolTableRecord
100
AcDbLayerTableRecord
  2
18_DATUM_CAMS_JOINTS
 70
0
 62
7
  6
CONTINUOUS
370
-3
390
F
  0
LAYER
  5
20C
100
AcDbSymbolTableRecord
100
AcDbLayerTableRecord
  2
19_DATUM_FUNCTIONAL
 70
0
 62
7
  6
CONTINUOUS
370
-3
390
F
  0
LAYER
  5
20D
100
AcDbSymbolTableRecord
100
AcDbLayerTableRecord
  2
20_DATUM_KINEMATIC_SCHEME
 70
0
 62
7
  6
CONTINUOUS
370
-3
390
F
  0
ENDTAB
  0
TABLE
  2
STYLE
  5
3
100
AcDbSymbolTable
 70
1
  0
STYLE
  5
11
100
AcDbSymbolTableRecord
100
AcDbTextStyleTableRecord
  2
STANDARD
 70
0
 40
0.0
 41
0.8
 50
0.0
 71
0
 42
0.2
  3
txt
  4

  0
STYLE
  5
20E
100
AcDbSymbolTableRecord
100
AcDbTextStyleTableRecord
  2
TEXTSTYLE_1
 70
0
 40
0.0
 41
0.8
 50
0.0
 71
0
 42
0.2
  3
gdt
  4

  0
ENDTAB
  0
TABLE
  2
VIEW
  5
6
100
AcDbSymbolTable
 70
0
  0
ENDTAB
  0
TABLE
  2
UCS
  5
7
100
AcDbSymbolTable
 70
0
  0
ENDTAB
  0
TABLE
  2
APPID
  5
9
100
AcDbSymbolTable
 70
1
  0
APPID
  5
20F
100
AcDbSymbolTableRecord
100
AcDbRegAppTableRecord
  2
ACAD
 70
0
  0
ENDTAB
  0
TABLE
  2
BLOCK_RECORD
  5
1
100
AcDbSymbolTable
 70
0
  0
BLOCK_RECORD
  5
210
100
AcDbSymbolTableRecord
100
AcDbBlockTableRecord
  2
*Model_Space
  0
BLOCK_RECORD
  5
211
100
AcDbSymbolTableRecord
100
AcDbBlockTableRecord
  2
*Paper_Space
  0
BLOCK_RECORD
  5
212
100
AcDbSymbolTableRecord
100
AcDbBlockTableRecord
  2
_FILLED
  0
ENDTAB
  0
TABLE
  2
DIMSTYLE
  5
A
100
AcDbSymbolTable
 70
1
100
AcDbDimStyleTable
 71
0
  0
DIMSTYLE
105
213
100
AcDbSymbolTableRecord
100
AcDbDimStyleTableRecord
  2
STANDARD
 70
0
  3

  4

 40
1.0
 41
8.8928073842
 42
1.0
 43
0.38
 44
1.0
 45
0.0
 46
0.0
 47
0.01
 48
0.01
140
12.4499303379
141
0.09
142
0.0
143
25.4
144
1.0
145
0.0
146
1.0
147
0.625
 71
1
 72
0
 73
0
 74
0
 75
0
 76
0
 77
1
 78
8
 79
2
170
0
171
1
172
0
173
0
174
0
175
0
176
0
177
0
178
0
270
2
179
2
271
2
272
2
273
2
274
2
275
0
280
0
281
0
282
0
283
1
284
8
285
0
286
0
287
3
288
0
340
11
278
46
341
212
342
212
343
212
344
212
  0
ENDTAB
  0
ENDSEC
  0
SECTION
  2
BLOCKS
  0
BLOCK
  5
20
100
AcDbEntity
  8
0
100
AcDbBlockBegin
  2
*Model_Space
 70
0
 10
0.0
 20
0.0
 30
0.0
  3
*Model_Space
  1

  0
ENDBLK
  5
21
100
AcDbEntity
  8
0
100
AcDbBlockEnd
  0
BLOCK
  5
1C
100
AcDbEntity
  8
0
100
AcDbBlockBegin
  2
*Paper_Space
 70
0
 10
0.0
 20
0.0
 30
0.0
  3
*Paper_Space
  1

  0
ENDBLK
  5
1D
100
AcDbEntity
  8
0
100
AcDbBlockEnd
  0
BLOCK
  5
214
100
AcDbEntity
  8
0
100
AcDbBlockBegin
  2
_FILLED
 70
64
 10
0.0
 20
0.0
  3
_FILLED
  1

  0
SOLID
  5
215
100
AcDbEntity
  8
0
  6
BYBLOCK
 62
0
100
AcDbTrace
 10
0.0
 20
0.0
 11
-1.0
 21
0.25
 12
-1.0
 22
-0.25
 13
-1.0
 23
-0.25
  0
ENDBLK
  5
216
100
AcDbEntity
  8
0
  6
BYBLOCK
 62
0
100
AcDbBlockEnd
  0
ENDSEC
  0
SECTION
  2
ENTITIES
  0
LINE
  5
217
100
AcDbEntity
  8
0
100
AcDbLine
 62
7
  6
CONTINUOUS
 10
141.4805024345
 20
175.082026519
 11
141.4861656341
 21
175.0755209049
  0
LINE
  5
218
100
AcDbEntity
  8
0
100
AcDbLine
 62
7
  6
CONTINUOUS
 10
625.017458684
 20
175.0967885588
 11
625.0139061776
 21
175.0960710357
  0
LINE
  5
219
100
AcDbEntity
  8
0
100
AcDbLine
 62
7
  6
CONTINUOUS
 10
564.017458684
 20
175.0967885588
 11
564.0139061776
 21
175.0960710357
  0
LINE
  5
21A
100
AcDbEntity
  8
0
100
AcDbLine
 62
7
  6
CONTINUOUS
 10
625.017685292
 20
175.0975593617
 11
625.0141380403
 21
175.0968580996
  0
LINE
  5
21B
100
AcDbEntity
  8
0
100
AcDbLine
 62
7
  6
CONTINUOUS
 10
564.017685292
 20
175.0975593617
 11
564.0141380403
 21
175.0968580996
  0
LINE
  5
21C
100
AcDbEntity
  8
0
100
AcDbLine
 62
7
  6
CONTINUOUS
 10
624.8574537114
 20
175.071240337
 11
624.8487780734
 21
175.0705038574
  0
LINE
  5
21D
100
AcDbEntity
  8
0
100
AcDbLine
 62
7
  6
CONTINUOUS
 10
141.5435939224
 20
175.0705038574
 11
141.5053945242
 21
175.0737936013
  0
LINE
  5
21E
100
AcDbEntity
  8
0
100
AcDbLine
 62
7
  6
CONTINUOUS
 10
141.5053945242
 20
175.0737936013
 11
141.4861656341
 21
175.0755209049
  0
LINE
  5
21F
100
AcDbEntity
  8
0
100
AcDbLine
 62
7
  6
CONTINUOUS
 10
141.3747233545
 20
175.0975521162
 11
141.3790657992
 21
175.096693651
  0
LINE
  5
220
100
AcDbEntity
  8
0
100
AcDbLine
 62
7
  6
CONTINUOUS
 10
202.3747233545
 20
175.0975521162
 11
202.3790657992
 21
175.096693651
  0
LINE
  5
221
100
AcDbEntity
  8
0
100
AcDbLine
 62
7
  6
CONTINUOUS
 10
141.3799955793
 20
175.1019487517
 11
141.3748903334
 21
175.1029607015
  0
LINE
  5
222
100
AcDbEntity
  8
0
100
AcDbLine
 62
7
  6
CONTINUOUS
 10
202.3799955793
 20
175.1019487517
 11
202.3748903334
 21
175.1029607015
  0
LINE
  5
223
100
AcDbEntity
  8
0
100
AcDbLine
 62
7
  6
CONTINUOUS
 10
141.3749500206
 20
175.0967811316
 11
141.379298783
 21
175.0959031605
  0
LINE
  5
224
100
AcDbEntity
  8
0
100
AcDbLine
 62
7
  6
CONTINUOUS
 10
202.3749500206
 20
175.0967811316
 11
202.379298783
 21
175.0959031605
  0
LINE
  5
225
100
AcDbEntity
  8
0
100
AcDbLine
 62
7
  6
CONTINUOUS
 10
141.3804008379
 20
175.100558641
 11
141.3752824642
 21
175.1016116142
  0
LINE
  5
226
100
AcDbEntity
  8
0
100
AcDbLine
 62
7
  6
CONTINUOUS
 10
202.3804008379
 20
175.100558641
 11
202.3752824642
 21
175.1016116142
  0
LINE
  5
227
100
AcDbEntity
  8
0
100
AcDbLine
 62
7
  6
CONTINUOUS
 10
202.4805024345
 20
175.082026519
 11
202.4861656341
 21
175.0755209049
  0
LINE
  5
228
100
AcDbEntity
  8
0
100
AcDbLine
 62
7
  6
CONTINUOUS
 10
444.017458684
 20
175.0967885588
 11
444.0139061776
 21
175.0960710357
  0
LINE
  5
229
100
AcDbEntity
  8
0
100
AcDbLine
 62
7
  6
CONTINUOUS
 10
444.017685292
 20
175.0975593617
 11
444.0141380403
 21
175.0968580996
  0
LINE
  5
22A
100
AcDbEntity
  8
0
100
AcDbLine
 62
7
  6
CONTINUOUS
 10
563.8574537114
 20
175.071240337
 11
563.8487780734
 21
175.0705038574
  0
LINE
  5
22B
100
AcDbEntity
  8
0
100
AcDbLine
 62
7
  6
CONTINUOUS
 10
443.8574537114
 20
175.071240337
 11
443.8487780734
 21
175.0705038574
  0
LINE
  5
22C
100
AcDbEntity
  8
0
100
AcDbLine
 62
7
  6
CONTINUOUS
 10
323.8574537114
 20
175.071240337
 11
323.8487780734
 21
175.0705038574
  0
LINE
  5
22D
100
AcDbEntity
  8
0
100
AcDbLine
 62
7
  6
CONTINUOUS
 10
626.7138814139
 20
175.4331664789
 11
626.7417494149
 21
175.4339644232
  0
LINE
  5
22E
100
AcDbEntity
  8
0
100
AcDbLine
 62
7
  6
CONTINUOUS
 10
626.7138821175
 20
175.4331667052
 11
626.7332451296
 21
175.4337209423
  0
LINE
  5
22F
100
AcDbEntity
  8
0
100
AcDbLine
 62
7
  6
CONTINUOUS
 10
626.8024287211
 20
175.4452248831
 11
626.7463823568
 21
175.4436198661
  0
LINE
  5
230
100
AcDbEntity
  8
0
100
AcDbLine
 62
7
  6
CONTINUOUS
 10
565.713881414
 20
175.4331664789
 11
565.7417494149
 21
175.4339644232
  0
LINE
  5
231
100
AcDbEntity
  8
0
100
AcDbLine
 62
7
  6
CONTINUOUS
 10
565.7138821175
 20
175.4331667052
 11
565.7332433622
 21
175.4337208917
  0
LINE
  5
232
100
AcDbEntity
  8
0
100
AcDbLine
 62
7
  6
CONTINUOUS
 10
565.8024287211
 20
175.4452248831
 11
565.7463823568
 21
175.4436198661
  0
LINE
  5
233
100
AcDbEntity
  8
0
100
AcDbLine
 62
7
  6
CONTINUOUS
 10
445.7138814144
 20
175.4331664791
 11
445.7417494149
 21
175.4339644232
  0
LINE
  5
234
100
AcDbEntity
  8
0
100
AcDbLine
 62
7
  6
CONTINUOUS
 10
445.8024287211
 20
175.4452248831
 11
445.7463823568
 21
175.4436198661
  0
LINE
  5
235
100
AcDbEntity
  8
0
100
AcDbLine
 62
7
  6
CONTINUOUS
 10
325.7138821175
 20
175.4331667052
 11
325.7417494149
 21
175.4339644232
  0
LINE
  5
236
100
AcDbEntity
  8
0
100
AcDbLine
 62
7
  6
CONTINUOUS
 10
325.8024287211
 20
175.4452248831
 11
325.7463823568
 21
175.4436198661
  0
LINE
  5
237
100
AcDbEntity
  8
0
100
AcDbLine
 62
7
  6
CONTINUOUS
 10
205.7138821174
 20
175.4331667052
 11
205.7332469551
 21
175.4337209946
  0
LINE
  5
238
100
AcDbEntity
  8
0
100
AcDbLine
 62
7
  6
CONTINUOUS
 10
205.7138814145
 20
175.4331664791
 11
205.7417494149
 21
175.4339644232
  0
LINE
  5
239
100
AcDbEntity
  8
0
100
AcDbLine
 62
7
  6
CONTINUOUS
 10
205.8024287211
 20
175.4452248831
 11
205.7463823568
 21
175.4436198661
  0
LINE
  5
23A
100
AcDbEntity
  8
0
100
AcDbLine
 62
7
  6
CONTINUOUS
 10
144.7138821175
 20
175.4331667052
 11
144.73324342
 21
175.4337208933
  0
LINE
  5
23B
100
AcDbEntity
  8
0
100
AcDbLine
 62
7
  6
CONTINUOUS
 10
144.7138814144
 20
175.4331664791
 11
144.7417494149
 21
175.4339644232
  0
LINE
  5
23C
100
AcDbEntity
  8
0
100
AcDbLine
 62
7
  6
CONTINUOUS
 10
144.8024287211
 20
175.4452248831
 11
144.7463823568
 21
175.4436198661
  0
LWPOLYLINE
  5
23D
100
AcDbEntity
  8
0
100
AcDbPolyline
 62
7
  6
CONTINUOUS
 90
4
 70
0
 10
623.6811859979
 20
175.43223154
 10
623.9966515751
 20
175.4336373836
 10
624.3928982342
 20
175.4336442758
 10
624.7111859979
 20
175.432231554
  0
LINE
  5
23E
100
AcDbEntity
  8
0
100
AcDbLine
 62
7
  6
CONTINUOUS
 10
623.6811859979
 20
175.43223154
 11
623.9979259954
 21
175.4336374058
  0
LWPOLYLINE
  5
23F
100
AcDbEntity
  8
0
100
AcDbPolyline
 62
7
  6
CONTINUOUS
 90
4
 70
0
 10
562.6811859979
 20
175.43223154
 10
562.9966515751
 20
175.4336373836
 10
563.3928982342
 20
175.4336442758
 10
563.7111859979
 20
175.432231554
  0
LINE
  5
240
100
AcDbEntity
  8
0
100
AcDbLine
 62
7
  6
CONTINUOUS
 10
562.6811859979
 20
175.43223154
 11
562.9979259954
 21
175.4336374058
  0
LINE
  5
241
100
AcDbEntity
  8
0
100
AcDbLine
 62
7
  6
CONTINUOUS
 10
442.6811859979
 20
175.43223154
 11
442.9979259954
 21
175.4336374058
  0
LINE
  5
242
100
AcDbEntity
  8
0
100
AcDbLine
 62
7
  6
CONTINUOUS
 10
322.6811859979
 20
175.43223154
 11
322.9979259954
 21
175.4336374058
  0
LINE
  5
243
100
AcDbEntity
  8
0
100
AcDbLine
 62
7
  6
CONTINUOUS
 10
202.6811859979
 20
175.43223154
 11
202.9979259954
 21
175.4336374058
  0
LWPOLYLINE
  5
244
100
AcDbEntity
  8
0
100
AcDbPolyline
 62
7
  6
CONTINUOUS
 90
4
 70
0
 10
202.6811859979
 20
175.43223154
 10
202.9966515751
 20
175.4336373836
 10
203.3928982342
 20
175.4336442758
 10
203.7111859979
 20
175.432231554
  0
LINE
  5
245
100
AcDbEntity
  8
0
100
AcDbLine
 62
7
  6
CONTINUOUS
 10
141.6811859979
 20
175.43223154
 11
141.9979259954
 21
175.4336374058
  0
LWPOLYLINE
  5
246
100
AcDbEntity
  8
0
100
AcDbPolyline
 62
7
  6
CONTINUOUS
 90
4
 70
0
 10
141.6811859979
 20
175.43223154
 10
141.9966515751
 20
175.4336373836
 10
142.3928982342
 20
175.4336442758
 10
142.7111859979
 20
175.432231554
  0
LINE
  5
247
100
AcDbEntity
  8
0
100
AcDbLine
 62
7
  6
CONTINUOUS
 10
104.6961859979
 20
175.4
 11
91.6961859979
 21
175.4
  0
LINE
  5
248
100
AcDbEntity
  8
0
100
AcDbLine
 62
7
  6
CONTINUOUS
 10
142.1961759681
 20
175.4336408541
 11
142.3944460713
 21
175.4336374057
  0
LINE
  5
249
100
AcDbEntity
  8
0
100
AcDbLine
 62
7
  6
CONTINUOUS
 10
203.1961759702
 20
175.4336408541
 11
203.3944460713
 21
175.4336374057
  0
LINE
  5
24A
100
AcDbEntity
  8
0
100
AcDbLine
 62
7
  6
CONTINUOUS
 10
323.1961759692
 20
175.4336408541
 11
323.3944460713
 21
175.4336374057
  0
LWPOLYLINE
  5
24B
100
AcDbEntity
  8
0
100
AcDbPolyline
 62
7
  6
CONTINUOUS
 90
3
 70
0
 10
442.9966515751
 20
175.4336373836
 10
443.3928982342
 20
175.4336442758
 10
443.7111859979
 20
175.432231554
  0
LWPOLYLINE
  5
24C
100
AcDbEntity
  8
0
100
AcDbPolyline
 62
7
  6
CONTINUOUS
 90
3
 70
0
 10
322.9966515751
 20
175.4336373836
 10
323.3928982342
 20
175.4336442758
 10
323.7111859979
 20
175.432231554
  0
LINE
  5
24D
100
AcDbEntity
  8
0
100
AcDbLine
 62
7
  6
CONTINUOUS
 10
443.1961759681
 20
175.4336408541
 11
443.3944460713
 21
175.4336374057
  0
LINE
  5
24E
100
AcDbEntity
  8
0
100
AcDbLine
 62
7
  6
CONTINUOUS
 10
563.1961759691
 20
175.4336408541
 11
563.3944460713
 21
175.4336374057
  0
LINE
  5
24F
100
AcDbEntity
  8
0
100
AcDbLine
 62
7
  6
CONTINUOUS
 10
624.1961759702
 20
175.4336408541
 11
624.3944460713
 21
175.4336374057
  0
LINE
  5
250
100
AcDbEntity
  8
0
100
AcDbLine
 62
7
  6
CONTINUOUS
 10
84.6961859979
 20
175.6
 11
681.6961859979
 21
175.6
  0
LINE
  5
251
100
AcDbEntity
  8
0
100
AcDbLine
 62
7
  6
CONTINUOUS
 10
83.1961859979
 20
177.1
 11
84.6961859979
 21
177.1
  0
LINE
  5
252
100
AcDbEntity
  8
0
100
AcDbLine
 62
7
  6
CONTINUOUS
 10
85.996789342
 20
177.1
 11
679.996789342
 21
177.1
  0
LINE
  5
253
100
AcDbEntity
  8
0
100
AcDbLine
 62
7
  6
CONTINUOUS
 10
681.6961859979
 20
177.1
 11
683.1961859979
 21
177.1
  0
LINE
  5
254
100
AcDbEntity
  8
0
100
AcDbLine
 62
7
  6
CONTINUOUS
 10
681.496789342
 20
178.6
 11
675.7812333622
 21
178.6
  0
LINE
  5
255
100
AcDbEntity
  8
0
100
AcDbLine
 62
7
  6
CONTINUOUS
 10
90.2123453217
 20
178.6
 11
84.496789342
 21
178.6
  0
LINE
  5
256
100
AcDbEntity
  8
0
100
AcDbLine
 62
7
  6
CONTINUOUS
 10
91.0727099757
 20
178.6
 11
92.8275155152
 21
178.6
  0
LINE
  5
257
100
AcDbEntity
  8
0
100
AcDbLine
 62
7
  6
CONTINUOUS
 10
673.1660631687
 20
178.6
 11
674.9208687082
 21
178.6
  0
LINE
  5
258
100
AcDbEntity
  8
0
100
AcDbLine
 62
7
  6
CONTINUOUS
 10
672.2716222844
 20
178.9190905452
 11
671.4112576298
 21
178.9190905452
  0
LINE
  5
259
100
AcDbEntity
  8
0
100
AcDbLine
 62
7
  6
CONTINUOUS
 10
93.7219563996
 20
178.9190905452
 11
94.5823210541
 21
178.9190905452
  0
LINE
  5
25A
100
AcDbEntity
  8
0
100
AcDbLine
 62
7
  6
CONTINUOUS
 10
670.5508929754
 20
180.1
 11
95.4426857086
 21
180.1
  0
LINE
  5
25B
100
AcDbEntity
  8
0
100
AcDbLine
 62
7
  6
CONTINUOUS
 10
139.6505536707
 20
175.4339665018
 11
139.6803453556
 21
175.4331135724
  0
LINE
  5
25C
100
AcDbEntity
  8
0
100
AcDbLine
 62
7
  6
CONTINUOUS
 10
139.6459868708
 20
175.4436208192
 11
139.5899432693
 21
175.4452248845
  0
LINE
  5
25D
100
AcDbEntity
  8
0
100
AcDbLine
 62
7
  6
CONTINUOUS
 10
200.6505536707
 20
175.4339665018
 11
200.6803453554
 21
175.4331135725
  0
LINE
  5
25E
100
AcDbEntity
  8
0
100
AcDbLine
 62
7
  6
CONTINUOUS
 10
200.6459868708
 20
175.4436208192
 11
200.5899432693
 21
175.4452248845
  0
LINE
  5
25F
100
AcDbEntity
  8
0
100
AcDbLine
 62
7
  6
CONTINUOUS
 10
320.6505536707
 20
175.4339665018
 11
320.6803453561
 21
175.4331135723
  0
LINE
  5
260
100
AcDbEntity
  8
0
100
AcDbLine
 62
7
  6
CONTINUOUS
 10
320.6459868708
 20
175.4436208192
 11
320.5899432693
 21
175.4452248845
  0
LINE
  5
261
100
AcDbEntity
  8
0
100
AcDbLine
 62
7
  6
CONTINUOUS
 10
440.6505536707
 20
175.4339665018
 11
440.6803453558
 21
175.4331135723
  0
LINE
  5
262
100
AcDbEntity
  8
0
100
AcDbLine
 62
7
  6
CONTINUOUS
 10
440.6459868708
 20
175.4436208192
 11
440.5899432693
 21
175.4452248845
  0
LINE
  5
263
100
AcDbEntity
  8
0
100
AcDbLine
 62
7
  6
CONTINUOUS
 10
560.6505536707
 20
175.4339665018
 11
560.6803453553
 21
175.4331135725
  0
LINE
  5
264
100
AcDbEntity
  8
0
100
AcDbLine
 62
7
  6
CONTINUOUS
 10
560.6459868708
 20
175.4436208192
 11
560.5899432693
 21
175.4452248845
  0
LINE
  5
265
100
AcDbEntity
  8
0
100
AcDbLine
 62
7
  6
CONTINUOUS
 10
621.6505536707
 20
175.4339665018
 11
621.6803453556
 21
175.4331135724
  0
LINE
  5
266
100
AcDbEntity
  8
0
100
AcDbLine
 62
7
  6
CONTINUOUS
 10
621.6459868708
 20
175.4436208192
 11
621.5899432693
 21
175.4452248845
  0
LINE
  5
267
100
AcDbEntity
  8
0
100
AcDbLine
 62
7
  6
CONTINUOUS
 10
202.5435939224
 20
175.0705038574
 11
202.5053945242
 21
175.0737936013
  0
LINE
  5
268
100
AcDbEntity
  8
0
100
AcDbLine
 62
7
  6
CONTINUOUS
 10
322.5435939224
 20
175.0705038574
 11
322.5053945242
 21
175.0737936013
  0
LINE
  5
269
100
AcDbEntity
  8
0
100
AcDbLine
 62
7
  6
CONTINUOUS
 10
442.5435939224
 20
175.0705038574
 11
442.5053945242
 21
175.0737936013
  0
LINE
  5
26A
100
AcDbEntity
  8
0
100
AcDbLine
 62
7
  6
CONTINUOUS
 10
202.5053945242
 20
175.0737936013
 11
202.4861656341
 21
175.0755209049
  0
LINE
  5
26B
100
AcDbEntity
  8
0
100
AcDbLine
 62
7
  6
CONTINUOUS
 10
322.5053945242
 20
175.0737936013
 11
322.4861656341
 21
175.0755209049
  0
LINE
  5
26C
100
AcDbEntity
  8
0
100
AcDbLine
 62
7
  6
CONTINUOUS
 10
442.5053945242
 20
175.0737936013
 11
442.4861656341
 21
175.0755209049
  0
LINE
  5
26D
100
AcDbEntity
  8
0
100
AcDbLine
 62
7
  6
CONTINUOUS
 10
322.3747233545
 20
175.0975521162
 11
322.3790657992
 21
175.096693651
  0
LINE
  5
26E
100
AcDbEntity
  8
0
100
AcDbLine
 62
7
  6
CONTINUOUS
 10
322.3799955793
 20
175.1019487517
 11
322.3748903334
 21
175.1029607015
  0
LINE
  5
26F
100
AcDbEntity
  8
0
100
AcDbLine
 62
7
  6
CONTINUOUS
 10
322.3749500206
 20
175.0967811316
 11
322.379298783
 21
175.0959031605
  0
LINE
  5
270
100
AcDbEntity
  8
0
100
AcDbLine
 62
7
  6
CONTINUOUS
 10
322.3804008379
 20
175.100558641
 11
322.3752824642
 21
175.1016116142
  0
LINE
  5
271
100
AcDbEntity
  8
0
100
AcDbLine
 62
7
  6
CONTINUOUS
 10
324.017458684
 20
175.0967885588
 11
324.0139061776
 21
175.0960710357
  0
LINE
  5
272
100
AcDbEntity
  8
0
100
AcDbLine
 62
7
  6
CONTINUOUS
 10
204.017458684
 20
175.0967885588
 11
204.0139061776
 21
175.0960710357
  0
LINE
  5
273
100
AcDbEntity
  8
0
100
AcDbLine
 62
7
  6
CONTINUOUS
 10
324.017685292
 20
175.0975593617
 11
324.0141380403
 21
175.0968580996
  0
LINE
  5
274
100
AcDbEntity
  8
0
100
AcDbLine
 62
7
  6
CONTINUOUS
 10
204.017685292
 20
175.0975593617
 11
204.0141380403
 21
175.0968580996
  0
LINE
  5
275
100
AcDbEntity
  8
0
100
AcDbLine
 62
7
  6
CONTINUOUS
 10
90.2123453212
 20
178.6
 11
93.7219563995
 21
178.9190905452
  0
LINE
  5
276
100
AcDbEntity
  8
0
100
AcDbLine
 62
7
  6
CONTINUOUS
 10
203.8574537114
 20
175.071240337
 11
203.8487780734
 21
175.0705038574
  0
LINE
  5
277
100
AcDbEntity
  8
0
100
AcDbLine
 62
7
  6
CONTINUOUS
 10
142.8574537114
 20
175.071240337
 11
142.8487780734
 21
175.0705038574
  0
LINE
  5
278
100
AcDbEntity
  8
0
100
AcDbLine
 62
7
  6
CONTINUOUS
 10
562.5435939224
 20
175.0705038574
 11
562.5053945242
 21
175.0737936013
  0
LINE
  5
279
100
AcDbEntity
  8
0
100
AcDbLine
 62
7
  6
CONTINUOUS
 10
623.5435939224
 20
175.0705038574
 11
623.5053945242
 21
175.0737936013
  0
LINE
  5
27A
100
AcDbEntity
  8
0
100
AcDbLine
 62
7
  6
CONTINUOUS
 10
562.5053945242
 20
175.0737936013
 11
562.4861656341
 21
175.0755209049
  0
LINE
  5
27B
100
AcDbEntity
  8
0
100
AcDbLine
 62
7
  6
CONTINUOUS
 10
623.5053945242
 20
175.0737936013
 11
623.4861656341
 21
175.0755209049
  0
LINE
  5
27C
100
AcDbEntity
  8
0
100
AcDbLine
 62
7
  6
CONTINUOUS
 10
675.7812333622
 20
178.6
 11
672.2716222844
 21
178.9190905452
  0
LINE
  5
27D
100
AcDbEntity
  8
0
100
AcDbLine
 62
7
  6
CONTINUOUS
 10
442.3747233545
 20
175.0975521162
 11
442.3790657992
 21
175.096693651
  0
LINE
  5
27E
100
AcDbEntity
  8
0
100
AcDbLine
 62
7
  6
CONTINUOUS
 10
562.3747233545
 20
175.0975521162
 11
562.3790657992
 21
175.096693651
  0
LINE
  5
27F
100
AcDbEntity
  8
0
100
AcDbLine
 62
7
  6
CONTINUOUS
 10
442.3799955793
 20
175.1019487517
 11
442.3748903334
 21
175.1029607015
  0
LINE
  5
280
100
AcDbEntity
  8
0
100
AcDbLine
 62
7
  6
CONTINUOUS
 10
562.3799955793
 20
175.1019487517
 11
562.3748903334
 21
175.1029607015
  0
LINE
  5
281
100
AcDbEntity
  8
0
100
AcDbLine
 62
7
  6
CONTINUOUS
 10
442.3749500206
 20
175.0967811316
 11
442.379298783
 21
175.0959031605
  0
LINE
  5
282
100
AcDbEntity
  8
0
100
AcDbLine
 62
7
  6
CONTINUOUS
 10
562.3749500206
 20
175.0967811316
 11
562.379298783
 21
175.0959031605
  0
LINE
  5
283
100
AcDbEntity
  8
0
100
AcDbLine
 62
7
  6
CONTINUOUS
 10
442.3804008379
 20
175.100558641
 11
442.3752824642
 21
175.1016116142
  0
LINE
  5
284
100
AcDbEntity
  8
0
100
AcDbLine
 62
7
  6
CONTINUOUS
 10
562.3804008379
 20
175.100558641
 11
562.3752824642
 21
175.1016116142
  0
LINE
  5
285
100
AcDbEntity
  8
0
100
AcDbLine
 62
7
  6
CONTINUOUS
 10
83.1961859979
 20
874.1
 11
83.1961859979
 21
177.1
  0
LINE
  5
286
100
AcDbEntity
  8
0
100
AcDbLine
 62
7
  6
CONTINUOUS
 10
84.496789342
 20
872.6
 11
84.496789342
 21
178.6
  0
LINE
  5
287
100
AcDbEntity
  8
0
100
AcDbLine
 62
7
  6
CONTINUOUS
 10
84.6961859979
 20
875.6
 11
84.6961859979
 21
874.1
  0
LINE
  5
288
100
AcDbEntity
  8
0
100
AcDbLine
 62
7
  6
CONTINUOUS
 10
84.6961859979
 20
177.1
 11
84.6961859979
 21
175.6
  0
LINE
  5
289
100
AcDbEntity
  8
0
100
AcDbLine
 62
7
  6
CONTINUOUS
 10
85.7760600329
 20
178.6
 11
85.7760600329
 21
872.6
  0
LINE
  5
28A
100
AcDbEntity
  8
0
100
AcDbLine
 62
7
  6
CONTINUOUS
 10
85.9967893419
 20
178.6
 11
85.9967893419
 21
177.1
  0
LINE
  5
28B
100
AcDbEntity
  8
0
100
AcDbLine
 62
7
  6
CONTINUOUS
 10
85.996789342
 20
872.6
 11
85.996789342
 21
874.1
  0
LINE
  5
28C
100
AcDbEntity
  8
0
100
AcDbLine
 62
7
  6
CONTINUOUS
 10
86.6364246874
 20
178.6
 11
86.6364246874
 21
177.1
  0
LINE
  5
28D
100
AcDbEntity
  8
0
100
AcDbLine
 62
7
  6
CONTINUOUS
 10
86.6364246874
 20
872.6
 11
86.6364246874
 21
874.1
  0
LINE
  5
28E
100
AcDbEntity
  8
0
100
AcDbLine
 62
7
  6
CONTINUOUS
 10
91.6961859979
 20
175.4
 11
91.6961859979
 21
175.6
  0
LINE
  5
28F
100
AcDbEntity
  8
0
100
AcDbLine
 62
7
  6
CONTINUOUS
 10
92.8275155151
 20
874.1
 11
92.8275155151
 21
872.6
  0
LINE
  5
290
100
AcDbEntity
  8
0
100
AcDbLine
 62
7
  6
CONTINUOUS
 10
92.8275155151
 20
178.6
 11
92.8275155151
 21
177.1
  0
LINE
  5
291
100
AcDbEntity
  8
0
100
AcDbLine
 62
7
  6
CONTINUOUS
 10
93.7219563995
 20
872.2809094548
 11
93.7219563995
 21
178.9190905452
  0
LINE
  5
292
100
AcDbEntity
  8
0
100
AcDbLine
 62
7
  6
CONTINUOUS
 10
94.6539592614
 20
179.2396353454
 11
94.6539592614
 21
178.3792706909
  0
LINE
  5
293
100
AcDbEntity
  8
0
100
AcDbLine
 62
7
  6
CONTINUOUS
 10
94.6539592614
 20
871.9603646546
 11
94.6539592614
 21
872.8207293091
  0
LINE
  5
294
100
AcDbEntity
  8
0
100
AcDbLine
 62
7
  6
CONTINUOUS
 10
95.4426857086
 20
180.1
 11
95.4426857086
 21
871.1
  0
LINE
  5
295
100
AcDbEntity
  8
0
100
AcDbLine
 62
7
  6
CONTINUOUS
 10
104.6961859979
 20
175.6
 11
104.6961859979
 21
175.4
  0
LINE
  5
296
100
AcDbEntity
  8
0
100
AcDbLine
 62
7
  6
CONTINUOUS
 10
143.017458684
 20
175.0967885588
 11
143.0139061776
 21
175.0960710357
  0
LINE
  5
297
100
AcDbEntity
  8
0
100
AcDbLine
 62
7
  6
CONTINUOUS
 10
143.017685292
 20
175.0975593617
 11
143.0141380403
 21
175.0968580996
  0
LINE
  5
298
100
AcDbEntity
  8
0
100
AcDbLine
 62
7
  6
CONTINUOUS
 10
592.996789342
 20
225.6
 11
172.996789342
 21
225.6
  0
LINE
  5
299
100
AcDbEntity
  8
0
100
AcDbLine
 62
7
  6
CONTINUOUS
 10
623.3747233545
 20
175.0975521162
 11
623.3790657992
 21
175.096693651
  0
LINE
  5
29A
100
AcDbEntity
  8
0
100
AcDbLine
 62
7
  6
CONTINUOUS
 10
623.3799955793
 20
175.1019487517
 11
623.3748903334
 21
175.1029607015
  0
LINE
  5
29B
100
AcDbEntity
  8
0
100
AcDbLine
 62
7
  6
CONTINUOUS
 10
623.3749500206
 20
175.0967811316
 11
623.379298783
 21
175.0959031605
  0
LINE
  5
29C
100
AcDbEntity
  8
0
100
AcDbLine
 62
7
  6
CONTINUOUS
 10
623.3804008379
 20
175.100558641
 11
623.3752824642
 21
175.1016116142
  0
LINE
  5
29D
100
AcDbEntity
  8
0
100
AcDbLine
 62
7
  6
CONTINUOUS
 10
322.4805024345
 20
175.082026519
 11
322.4861656341
 21
175.0755209049
  0
LINE
  5
29E
100
AcDbEntity
  8
0
100
AcDbLine
 62
7
  6
CONTINUOUS
 10
143.017685292
 20
175.0975593617
 11
143.0183562261
 21
175.0755209049
  0
LINE
  5
29F
100
AcDbEntity
  8
0
100
AcDbLine
 62
7
  6
CONTINUOUS
 10
143.0184837009
 20
175.0705038574
 11
143.0183562261
 21
175.0755209049
  0
LINE
  5
2A0
100
AcDbEntity
  8
0
100
AcDbLine
 62
7
  6
CONTINUOUS
 10
126.9359086021
 20
504.0144987488
 11
126.9359086021
 21
522.0390117463
  0
LINE
  5
2A1
100
AcDbEntity
  8
0
100
AcDbLine
 62
7
  6
CONTINUOUS
 10
126.9359073322
 20
529.1609849228
 11
126.9359073322
 21
537.5854779147
  0
LINE
  5
2A2
100
AcDbEntity
  8
0
100
AcDbLine
 62
7
  6
CONTINUOUS
 10
127.0576721425
 20
529.4088164649
 11
127.0576721425
 21
537.585463956
  0
LINE
  5
2A3
100
AcDbEntity
  8
0
100
AcDbLine
 62
7
  6
CONTINUOUS
 10
129.6982500343
 20
527.5978092948
 11
129.6982500343
 21
527.1978702168
  0
LINE
  5
2A4
100
AcDbEntity
  8
0
100
AcDbLine
 62
7
  6
CONTINUOUS
 10
129.6982500343
 20
524.0021297833
 11
129.6982500343
 21
523.6021907052
  0
LINE
  5
2A5
100
AcDbEntity
  8
0
100
AcDbLine
 62
7
  6
CONTINUOUS
 10
129.7593306128
 20
527.1068601728
 11
129.7593306128
 21
526.7069210948
  0
LINE
  5
2A6
100
AcDbEntity
  8
0
100
AcDbLine
 62
7
  6
CONTINUOUS
 10
129.7593306132
 20
524.4930789053
 11
129.7593306132
 21
524.0931398272
  0
LINE
  5
2A7
100
AcDbEntity
  8
0
100
AcDbLine
 62
7
  6
CONTINUOUS
 10
131.9359050666
 20
502.5860135238
 11
131.9359050666
 21
515.1818379629
  0
LINE
  5
2A8
100
AcDbEntity
  8
0
100
AcDbLine
 62
7
  6
CONTINUOUS
 10
131.9359063819
 20
536.0181627891
 11
131.9359063819
 21
539.014052195
  0
LINE
  5
2A9
100
AcDbEntity
  8
0
100
AcDbLine
 62
7
  6
CONTINUOUS
 10
132.0576721425
 20
502.5859449815
 11
132.0576721425
 21
515.1269443231
  0
LINE
  5
2AA
100
AcDbEntity
  8
0
100
AcDbLine
 62
7
  6
CONTINUOUS
 10
132.0576721425
 20
536.0730556769
 11
132.0576721425
 21
539.0140550185
  0
LINE
  5
2AB
100
AcDbEntity
  8
0
100
AcDbLine
 62
7
  6
CONTINUOUS
 10
136.9359065413
 20
539.0140550185
 11
136.9359065413
 21
536.0730556769
  0
LINE
  5
2AC
100
AcDbEntity
  8
0
100
AcDbLine
 62
7
  6
CONTINUOUS
 10
136.9359065413
 20
515.1269443231
 11
136.9359065413
 21
502.5859449815
  0
LINE
  5
2AD
100
AcDbEntity
  8
0
100
AcDbLine
 62
7
  6
CONTINUOUS
 10
137.0576736172
 20
539.0139864762
 11
137.0576736172
 21
536.0181620371
  0
LINE
  5
2AE
100
AcDbEntity
  8
0
100
AcDbLine
 62
7
  6
CONTINUOUS
 10
137.0576723019
 20
515.1818372109
 11
137.0576723019
 21
502.5859478049
  0
LINE
  5
2AF
100
AcDbEntity
  8
0
100
AcDbLine
 62
7
  6
CONTINUOUS
 10
139.2342480711
 20
524.0931398272
 11
139.2342480711
 21
524.4930789053
  0
LINE
  5
2B0
100
AcDbEntity
  8
0
100
AcDbLine
 62
7
  6
CONTINUOUS
 10
139.2342480706
 20
526.7069210948
 11
139.2342480706
 21
527.1068601728
  0
LINE
  5
2B1
100
AcDbEntity
  8
0
100
AcDbLine
 62
7
  6
CONTINUOUS
 10
139.2953286495
 20
523.6021907052
 11
139.2953286495
 21
524.0021297833
  0
LINE
  5
2B2
100
AcDbEntity
  8
0
100
AcDbLine
 62
7
  6
CONTINUOUS
 10
139.2953286495
 20
527.1978702168
 11
139.2953286495
 21
527.5978092948
  0
LINE
  5
2B3
100
AcDbEntity
  8
0
100
AcDbLine
 62
7
  6
CONTINUOUS
 10
127.0561786177
 20
504.014536044
 11
127.0576721425
 21
521.7911835351
  0
LINE
  5
2B4
100
AcDbEntity
  8
0
100
AcDbLine
 62
7
  6
CONTINUOUS
 10
126.7160137668
 20
526.4728921191
 11
126.7403719933
 21
526.5698801399
  0
LINE
  5
2B5
100
AcDbEntity
  8
0
100
AcDbLine
 62
7
  6
CONTINUOUS
 10
126.7160137516
 20
524.7271078771
 11
126.7403720194
 21
524.6301198635
  0
LINE
  5
2B6
100
AcDbEntity
  8
0
100
AcDbLine
 62
7
  6
CONTINUOUS
 10
141.6811859979
 20
175.4436207505
 11
141.6811859979
 21
175.0758991105
  0
LINE
  5
2B7
100
AcDbEntity
  8
0
100
AcDbLine
 62
7
  6
CONTINUOUS
 10
141.9359065413
 20
521.7911835351
 11
141.9359065413
 21
504.014536044
  0
LINE
  5
2B8
100
AcDbEntity
  8
0
100
AcDbLine
 62
7
  6
CONTINUOUS
 10
142.0576700817
 20
537.5855012512
 11
142.0576700817
 21
529.1609882537
  0
LINE
  5
2B9
100
AcDbEntity
  8
0
100
AcDbLine
 62
7
  6
CONTINUOUS
 10
142.0576713516
 20
522.0390150772
 11
142.0576713516
 21
504.0145220853
  0
LINE
  5
2BA
100
AcDbEntity
  8
0
100
AcDbLine
 62
7
  6
CONTINUOUS
 10
142.7111859979
 20
175.4436207012
 11
142.7111859979
 21
175.0758991105
  0
LINE
  5
2BB
100
AcDbEntity
  8
0
100
AcDbLine
 62
7
  6
CONTINUOUS
 10
141.9374005326
 20
537.585463956
 11
141.9359065413
 21
529.4088164649
  0
LINE
  5
2BC
100
AcDbEntity
  8
0
100
AcDbLine
 62
7
  6
CONTINUOUS
 10
142.4450742987
 20
525.6
 11
142.4449591116
 21
525.5572090383
  0
LINE
  5
2BD
100
AcDbEntity
  8
0
100
AcDbLine
 62
7
  6
CONTINUOUS
 10
141.3739065994
 20
175.0712300953
 11
141.373888295
 21
175.0705038574
  0
LINE
  5
2BE
100
AcDbEntity
  8
0
100
AcDbLine
 62
7
  6
CONTINUOUS
 10
141.3748727056
 20
175.1029641957
 11
141.3739065994
 21
175.0712300953
  0
LINE
  5
2BF
100
AcDbEntity
  8
0
100
AcDbLine
 62
7
  6
CONTINUOUS
 10
146.1177258342
 20
542.9018197918
 11
146.0380767967
 21
542.7503355569
  0
LINE
  5
2C0
100
AcDbEntity
  8
0
100
AcDbLine
 62
7
  6
CONTINUOUS
 10
122.8758528497
 20
498.6981802082
 11
122.9555018872
 21
498.8496644431
  0
LINE
  5
2C1
100
AcDbEntity
  8
0
100
AcDbLine
 62
7
  6
CONTINUOUS
 10
146.0380837412
 20
498.8496680945
 11
146.1177328266
 21
498.6981838848
  0
LINE
  5
2C2
100
AcDbEntity
  8
0
100
AcDbLine
 62
7
  6
CONTINUOUS
 10
122.9554935595
 20
542.7503311783
 11
122.8758444646
 21
542.901815383
  0
LINE
  5
2C3
100
AcDbEntity
  8
0
100
AcDbLine
 62
7
  6
CONTINUOUS
 10
204.017685292
 20
175.0975593617
 11
204.0183562261
 21
175.0755209049
  0
LINE
  5
2C4
100
AcDbEntity
  8
0
100
AcDbLine
 62
7
  6
CONTINUOUS
 10
204.0184837009
 20
175.0705038574
 11
204.0183562261
 21
175.0755209049
  0
LINE
  5
2C5
100
AcDbEntity
  8
0
100
AcDbLine
 62
7
  6
CONTINUOUS
 10
172.996789342
 20
225.6
 11
172.996789342
 21
825.6
  0
LINE
  5
2C6
100
AcDbEntity
  8
0
100
AcDbLine
 62
7
  6
CONTINUOUS
 10
202.6811859979
 20
175.4436207505
 11
202.6811859979
 21
175.0758991105
  0
LINE
  5
2C7
100
AcDbEntity
  8
0
100
AcDbLine
 62
7
  6
CONTINUOUS
 10
129.6982500343
 20
524.0021297833
 11
129.7593306132
 21
524.0931398272
  0
LINE
  5
2C8
100
AcDbEntity
  8
0
100
AcDbLine
 62
7
  6
CONTINUOUS
 10
139.2953286496
 20
527.1978702168
 11
139.2342480706
 21
527.1068601728
  0
LINE
  5
2C9
100
AcDbEntity
  8
0
100
AcDbLine
 62
7
  6
CONTINUOUS
 10
129.0062312187
 20
519.414789042
 11
128.8734787629
 21
519.2652410497
  0
LINE
  5
2CA
100
AcDbEntity
  8
0
100
AcDbLine
 62
7
  6
CONTINUOUS
 10
139.9873474652
 20
531.785210958
 11
140.1200999209
 21
531.9347589503
  0
LINE
  5
2CB
100
AcDbEntity
  8
0
100
AcDbLine
 62
7
  6
CONTINUOUS
 10
139.9873473769
 20
519.4147889637
 11
140.1200998306
 21
519.2652409695
  0
LINE
  5
2CC
100
AcDbEntity
  8
0
100
AcDbLine
 62
7
  6
CONTINUOUS
 10
129.0062313068
 20
531.7852110363
 11
128.8734788532
 21
531.9347590305
  0
LINE
  5
2CD
100
AcDbEntity
  8
0
100
AcDbLine
 62
7
  6
CONTINUOUS
 10
442.4805024345
 20
175.082026519
 11
442.4861656341
 21
175.0755209049
  0
LINE
  5
2CE
100
AcDbEntity
  8
0
100
AcDbLine
 62
7
  6
CONTINUOUS
 10
129.7593306132
 20
527.1068601728
 11
129.6982500343
 21
527.1978702168
  0
LINE
  5
2CF
100
AcDbEntity
  8
0
100
AcDbLine
 62
7
  6
CONTINUOUS
 10
139.2342480706
 20
524.0931398272
 11
139.2953286496
 21
524.0021297833
  0
LINE
  5
2D0
100
AcDbEntity
  8
0
100
AcDbLine
 62
7
  6
CONTINUOUS
 10
203.7111859979
 20
175.4436207012
 11
203.7111859979
 21
175.0758991105
  0
LINE
  5
2D1
100
AcDbEntity
  8
0
100
AcDbLine
 62
7
  6
CONTINUOUS
 10
202.3739065994
 20
175.0712300953
 11
202.373888295
 21
175.0705038574
  0
LINE
  5
2D2
100
AcDbEntity
  8
0
100
AcDbLine
 62
7
  6
CONTINUOUS
 10
202.3748727056
 20
175.1029641957
 11
202.3739065994
 21
175.0712300953
  0
LINE
  5
2D3
100
AcDbEntity
  8
0
100
AcDbLine
 62
7
  6
CONTINUOUS
 10
130.0674677716
 20
523.7559096976
 11
129.6982500343
 21
523.6021907052
  0
LINE
  5
2D4
100
AcDbEntity
  8
0
100
AcDbLine
 62
7
  6
CONTINUOUS
 10
138.9261109122
 20
527.4440903024
 11
139.2953286495
 21
527.5978092948
  0
LINE
  5
2D5
100
AcDbEntity
  8
0
100
AcDbLine
 62
7
  6
CONTINUOUS
 10
138.8632339022
 20
527.3574682325
 11
138.4922197135
 21
527.2081372056
  0
LINE
  5
2D6
100
AcDbEntity
  8
0
100
AcDbLine
 62
7
  6
CONTINUOUS
 10
130.1303447816
 20
523.8425317675
 11
130.5013589703
 21
523.9918627944
  0
LINE
  5
2D7
100
AcDbEntity
  8
0
100
AcDbLine
 62
7
  6
CONTINUOUS
 10
130.5013589705
 20
527.2081372062
 11
130.1303447819
 21
527.3574682332
  0
LINE
  5
2D8
100
AcDbEntity
  8
0
100
AcDbLine
 62
7
  6
CONTINUOUS
 10
138.4922197133
 20
523.9918627938
 11
138.8632339019
 21
523.8425317668
  0
LINE
  5
2D9
100
AcDbEntity
  8
0
100
AcDbLine
 62
7
  6
CONTINUOUS
 10
130.0674677716
 20
527.4440903026
 11
129.6982500343
 21
527.5978092948
  0
LINE
  5
2DA
100
AcDbEntity
  8
0
100
AcDbLine
 62
7
  6
CONTINUOUS
 10
138.9261109122
 20
523.7559096974
 11
139.2953286496
 21
523.6021907053
  0
LINE
  5
2DB
100
AcDbEntity
  8
0
100
AcDbLine
 62
7
  6
CONTINUOUS
 10
562.4805024345
 20
175.082026519
 11
562.4861656341
 21
175.0755209049
  0
LINE
  5
2DC
100
AcDbEntity
  8
0
100
AcDbLine
 62
7
  6
CONTINUOUS
 10
324.017685292
 20
175.0975593617
 11
324.0183562261
 21
175.0755209049
  0
LINE
  5
2DD
100
AcDbEntity
  8
0
100
AcDbLine
 62
7
  6
CONTINUOUS
 10
324.0184837009
 20
175.0705038574
 11
324.0183562261
 21
175.0755209049
  0
LINE
  5
2DE
100
AcDbEntity
  8
0
100
AcDbLine
 62
7
  6
CONTINUOUS
 10
322.6811859979
 20
175.4436207505
 11
322.6811859979
 21
175.0758991105
  0
LINE
  5
2DF
100
AcDbEntity
  8
0
100
AcDbLine
 62
7
  6
CONTINUOUS
 10
323.7111859979
 20
175.4436207012
 11
323.7111859979
 21
175.0758991105
  0
LINE
  5
2E0
100
AcDbEntity
  8
0
100
AcDbLine
 62
7
  6
CONTINUOUS
 10
149.0646999646
 20
505.5695764542
 11
146.378260643
 21
506.0522544911
  0
LINE
  5
2E1
100
AcDbEntity
  8
0
100
AcDbLine
 62
7
  6
CONTINUOUS
 10
322.3739065994
 20
175.0712300953
 11
322.373888295
 21
175.0705038574
  0
LINE
  5
2E2
100
AcDbEntity
  8
0
100
AcDbLine
 62
7
  6
CONTINUOUS
 10
322.3748727056
 20
175.1029641957
 11
322.3739065994
 21
175.0712300953
  0
LINE
  5
2E3
100
AcDbEntity
  8
0
100
AcDbLine
 62
7
  6
CONTINUOUS
 10
126.7403719933
 20
526.5698801399
 11
126.6411598609
 21
526.5822858514
  0
LINE
  5
2E4
100
AcDbEntity
  8
0
100
AcDbLine
 62
7
  6
CONTINUOUS
 10
119.9288787193
 20
536.0304235458
 11
122.6153180408
 21
535.5477455089
  0
LINE
  5
2E5
100
AcDbEntity
  8
0
100
AcDbLine
 62
7
  6
CONTINUOUS
 10
623.4805024345
 20
175.082026519
 11
623.4861656341
 21
175.0755209049
  0
LINE
  5
2E6
100
AcDbEntity
  8
0
100
AcDbLine
 62
7
  6
CONTINUOUS
 10
137.0576723019
 20
502.5859449815
 11
136.9359065413
 21
502.5859449815
  0
LINE
  5
2E7
100
AcDbEntity
  8
0
100
AcDbLine
 62
7
  6
CONTINUOUS
 10
132.0576721425
 20
502.5859449815
 11
131.9359050666
 21
502.5859449815
  0
LINE
  5
2E8
100
AcDbEntity
  8
0
100
AcDbLine
 62
7
  6
CONTINUOUS
 10
126.9359086021
 20
504.014536044
 11
127.0561786177
 21
504.014536044
  0
LINE
  5
2E9
100
AcDbEntity
  8
0
100
AcDbLine
 62
7
  6
CONTINUOUS
 10
141.9359065413
 20
504.014536044
 11
142.0576713516
 21
504.014536044
  0
LINE
  5
2EA
100
AcDbEntity
  8
0
100
AcDbLine
 62
7
  6
CONTINUOUS
 10
127.3536241363
 20
523.6021907052
 11
129.6982500343
 21
523.6021907052
  0
LINE
  5
2EB
100
AcDbEntity
  8
0
100
AcDbLine
 62
7
  6
CONTINUOUS
 10
139.2953286495
 20
523.6021907052
 11
141.6399545475
 21
523.6021907052
  0
LINE
  5
2EC
100
AcDbEntity
  8
0
100
AcDbLine
 62
7
  6
CONTINUOUS
 10
142.1489611826
 20
524.0021297833
 11
139.2953286496
 21
524.0021297833
  0
LINE
  5
2ED
100
AcDbEntity
  8
0
100
AcDbLine
 62
7
  6
CONTINUOUS
 10
129.6982500343
 20
524.0021297833
 11
126.8446175012
 21
524.0021297833
  0
LINE
  5
2EE
100
AcDbEntity
  8
0
100
AcDbLine
 62
7
  6
CONTINUOUS
 10
126.9055018489
 20
524.0371617663
 11
127.7761095656
 21
524.0371617663
  0
LINE
  5
2EF
100
AcDbEntity
  8
0
100
AcDbLine
 62
7
  6
CONTINUOUS
 10
141.2174691182
 20
524.0371617663
 11
142.0880768349
 21
524.0371617663
  0
LINE
  5
2F0
100
AcDbEntity
  8
0
100
AcDbLine
 62
7
  6
CONTINUOUS
 10
128.1738023572
 20
524.0931398272
 11
129.7593306132
 21
524.0931398272
  0
LINE
  5
2F1
100
AcDbEntity
  8
0
100
AcDbLine
 62
7
  6
CONTINUOUS
 10
139.2342480706
 20
524.0931398272
 11
140.8197763266
 21
524.0931398272
  0
LINE
  5
2F2
100
AcDbEntity
  8
0
100
AcDbLine
 62
7
  6
CONTINUOUS
 10
141.307422623
 20
524.4930789053
 11
139.2342514882
 21
524.4930789053
  0
LINE
  5
2F3
100
AcDbEntity
  8
0
100
AcDbLine
 62
7
  6
CONTINUOUS
 10
129.7593236259
 20
524.4930789053
 11
127.6861560608
 21
524.4930789053
  0
LINE
  5
2F4
100
AcDbEntity
  8
0
100
AcDbLine
 62
7
  6
CONTINUOUS
 10
127.6861560608
 20
526.7069210948
 11
129.759327259
 21
526.7069210948
  0
LINE
  5
2F5
100
AcDbEntity
  8
0
100
AcDbLine
 62
7
  6
CONTINUOUS
 10
139.2342549947
 20
526.7069210948
 11
141.307422623
 21
526.7069210948
  0
LINE
  5
2F6
100
AcDbEntity
  8
0
100
AcDbLine
 62
7
  6
CONTINUOUS
 10
140.8197763266
 20
527.1068601728
 11
139.2342480706
 21
527.1068601728
  0
LINE
  5
2F7
100
AcDbEntity
  8
0
100
AcDbLine
 62
7
  6
CONTINUOUS
 10
129.7593306132
 20
527.1068601728
 11
128.1738023572
 21
527.1068601728
  0
LINE
  5
2F8
100
AcDbEntity
  8
0
100
AcDbLine
 62
7
  6
CONTINUOUS
 10
126.8016355152
 20
527.1628382337
 11
127.7761095656
 21
527.1628382337
  0
LINE
  5
2F9
100
AcDbEntity
  8
0
100
AcDbLine
 62
7
  6
CONTINUOUS
 10
141.2174691182
 20
527.1628382337
 11
142.1919431686
 21
527.1628382337
  0
LINE
  5
2FA
100
AcDbEntity
  8
0
100
AcDbLine
 62
7
  6
CONTINUOUS
 10
126.8446175012
 20
527.1978702168
 11
129.6982500343
 21
527.1978702168
  0
LINE
  5
2FB
100
AcDbEntity
  8
0
100
AcDbLine
 62
7
  6
CONTINUOUS
 10
139.2953286496
 20
527.1978702168
 11
142.1489611826
 21
527.1978702168
  0
LINE
  5
2FC
100
AcDbEntity
  8
0
100
AcDbLine
 62
7
  6
CONTINUOUS
 10
141.6399545475
 20
527.5978092948
 11
139.2953286495
 21
527.5978092948
  0
LINE
  5
2FD
100
AcDbEntity
  8
0
100
AcDbLine
 62
7
  6
CONTINUOUS
 10
129.6982500343
 20
527.5978092948
 11
127.3536241363
 21
527.5978092948
  0
LINE
  5
2FE
100
AcDbEntity
  8
0
100
AcDbLine
 62
7
  6
CONTINUOUS
 10
122.6153182103
 20
506.0522528048
 11
119.9288790279
 21
505.5695747367
  0
LINE
  5
2FF
100
AcDbEntity
  8
0
100
AcDbLine
 62
7
  6
CONTINUOUS
 10
126.641159861
 20
524.6177141486
 11
126.7403719933
 21
524.6301198601
  0
LINE
  5
300
100
AcDbEntity
  8
0
100
AcDbLine
 62
7
  6
CONTINUOUS
 10
142.0576700817
 20
537.585463956
 11
141.9374005326
 21
537.585463956
  0
LINE
  5
301
100
AcDbEntity
  8
0
100
AcDbLine
 62
7
  6
CONTINUOUS
 10
127.0576721425
 20
537.585463956
 11
126.9359073322
 21
537.585463956
  0
LINE
  5
302
100
AcDbEntity
  8
0
100
AcDbLine
 62
7
  6
CONTINUOUS
 10
131.9359063819
 20
539.0140550185
 11
132.0576721425
 21
539.0140550185
  0
LINE
  5
303
100
AcDbEntity
  8
0
100
AcDbLine
 62
7
  6
CONTINUOUS
 10
136.9359065413
 20
539.0140550185
 11
137.0576736172
 21
539.0140550185
  0
LINE
  5
304
100
AcDbEntity
  8
0
100
AcDbLine
 62
7
  6
CONTINUOUS
 10
444.017685292
 20
175.0975593617
 11
444.0183562261
 21
175.0755209049
  0
LINE
  5
305
100
AcDbEntity
  8
0
100
AcDbLine
 62
7
  6
CONTINUOUS
 10
444.0184837009
 20
175.0705038574
 11
444.0183562261
 21
175.0755209049
  0
LINE
  5
306
100
AcDbEntity
  8
0
100
AcDbLine
 62
7
  6
CONTINUOUS
 10
442.6811859979
 20
175.4436207505
 11
442.6811859979
 21
175.0758991105
  0
LINE
  5
307
100
AcDbEntity
  8
0
100
AcDbLine
 62
7
  6
CONTINUOUS
 10
443.7111859979
 20
175.4436207012
 11
443.7111859979
 21
175.0758991105
  0
LINE
  5
308
100
AcDbEntity
  8
0
100
AcDbLine
 62
7
  6
CONTINUOUS
 10
146.3782604736
 20
535.5477471952
 11
149.064699656
 21
536.0304252633
  0
LINE
  5
309
100
AcDbEntity
  8
0
100
AcDbLine
 62
7
  6
CONTINUOUS
 10
442.3739065994
 20
175.0712300953
 11
442.373888295
 21
175.0705038574
  0
LINE
  5
30A
100
AcDbEntity
  8
0
100
AcDbLine
 62
7
  6
CONTINUOUS
 10
442.3748727056
 20
175.1029641957
 11
442.3739065994
 21
175.0712300953
  0
LINE
  5
30B
100
AcDbEntity
  8
0
100
AcDbLine
 62
7
  6
CONTINUOUS
 10
564.017685292
 20
175.0975593617
 11
564.0183562261
 21
175.0755209049
  0
LINE
  5
30C
100
AcDbEntity
  8
0
100
AcDbLine
 62
7
  6
CONTINUOUS
 10
564.0184837009
 20
175.0705038574
 11
564.0183562261
 21
175.0755209049
  0
LINE
  5
30D
100
AcDbEntity
  8
0
100
AcDbLine
 62
7
  6
CONTINUOUS
 10
562.6811859979
 20
175.4436207505
 11
562.6811859979
 21
175.0758991105
  0
LINE
  5
30E
100
AcDbEntity
  8
0
100
AcDbLine
 62
7
  6
CONTINUOUS
 10
563.7111859979
 20
175.4436207012
 11
563.7111859979
 21
175.0758991105
  0
LINE
  5
30F
100
AcDbEntity
  8
0
100
AcDbLine
 62
7
  6
CONTINUOUS
 10
562.3739065994
 20
175.0712300953
 11
562.373888295
 21
175.0705038574
  0
LINE
  5
310
100
AcDbEntity
  8
0
100
AcDbLine
 62
7
  6
CONTINUOUS
 10
592.996789342
 20
825.6
 11
592.996789342
 21
225.6
  0
LINE
  5
311
100
AcDbEntity
  8
0
100
AcDbLine
 62
7
  6
CONTINUOUS
 10
562.3748727056
 20
175.1029641957
 11
562.3739065994
 21
175.0712300953
  0
LINE
  5
312
100
AcDbEntity
  8
0
100
AcDbLine
 62
7
  6
CONTINUOUS
 10
625.017685292
 20
175.0975593617
 11
625.0183562261
 21
175.0755209049
  0
LINE
  5
313
100
AcDbEntity
  8
0
100
AcDbLine
 62
7
  6
CONTINUOUS
 10
625.0184837009
 20
175.0705038574
 11
625.0183562261
 21
175.0755209049
  0
LINE
  5
314
100
AcDbEntity
  8
0
100
AcDbLine
 62
7
  6
CONTINUOUS
 10
623.6811859979
 20
175.4436207505
 11
623.6811859979
 21
175.0758991105
  0
LINE
  5
315
100
AcDbEntity
  8
0
100
AcDbLine
 62
7
  6
CONTINUOUS
 10
624.7111859979
 20
175.4436207012
 11
624.7111859979
 21
175.0758991105
  0
LINE
  5
316
100
AcDbEntity
  8
0
100
AcDbLine
 62
7
  6
CONTINUOUS
 10
623.3739065994
 20
175.0712300953
 11
623.373888295
 21
175.0705038574
  0
LINE
  5
317
100
AcDbEntity
  8
0
100
AcDbLine
 62
7
  6
CONTINUOUS
 10
623.3748727056
 20
175.1029641957
 11
623.3739065994
 21
175.0712300953
  0
LINE
  5
318
100
AcDbEntity
  8
0
100
AcDbLine
 62
7
  6
CONTINUOUS
 10
670.5508929754
 20
871.1
 11
670.5508929754
 21
180.1
  0
LINE
  5
319
100
AcDbEntity
  8
0
100
AcDbLine
 62
7
  6
CONTINUOUS
 10
671.3396194225
 20
179.2396353455
 11
671.3396194225
 21
178.3792706909
  0
LINE
  5
31A
100
AcDbEntity
  8
0
100
AcDbLine
 62
7
  6
CONTINUOUS
 10
671.3396194225
 20
871.9603646546
 11
671.3396194225
 21
872.8207293091
  0
LINE
  5
31B
100
AcDbEntity
  8
0
100
AcDbLine
 62
7
  6
CONTINUOUS
 10
672.2716222844
 20
178.9190905452
 11
672.2716222844
 21
872.2809094548
  0
LINE
  5
31C
100
AcDbEntity
  8
0
100
AcDbLine
 62
7
  6
CONTINUOUS
 10
673.1660631688
 20
177.1
 11
673.1660631688
 21
178.6
  0
LINE
  5
31D
100
AcDbEntity
  8
0
100
AcDbLine
 62
7
  6
CONTINUOUS
 10
673.1660631688
 20
872.6
 11
673.1660631688
 21
874.1
  0
LINE
  5
31E
100
AcDbEntity
  8
0
100
AcDbLine
 62
7
  6
CONTINUOUS
 10
679.3571539965
 20
178.6
 11
679.3571539965
 21
177.1
  0
LINE
  5
31F
100
AcDbEntity
  8
0
100
AcDbLine
 62
7
  6
CONTINUOUS
 10
679.3571539965
 20
872.6
 11
679.3571539965
 21
874.1
  0
LINE
  5
320
100
AcDbEntity
  8
0
100
AcDbLine
 62
7
  6
CONTINUOUS
 10
679.996789342
 20
178.6
 11
679.996789342
 21
177.1
  0
LINE
  5
321
100
AcDbEntity
  8
0
100
AcDbLine
 62
7
  6
CONTINUOUS
 10
679.996789342
 20
872.6
 11
679.996789342
 21
874.1
  0
LINE
  5
322
100
AcDbEntity
  8
0
100
AcDbLine
 62
7
  6
CONTINUOUS
 10
680.217518651
 20
872.6
 11
680.217518651
 21
178.6
  0
LINE
  5
323
100
AcDbEntity
  8
0
100
AcDbLine
 62
7
  6
CONTINUOUS
 10
681.496789342
 20
178.6
 11
681.496789342
 21
872.6
  0
LINE
  5
324
100
AcDbEntity
  8
0
100
AcDbLine
 62
7
  6
CONTINUOUS
 10
681.6961859979
 20
175.6
 11
681.6961859979
 21
177.1
  0
LINE
  5
325
100
AcDbEntity
  8
0
100
AcDbLine
 62
7
  6
CONTINUOUS
 10
681.6961859979
 20
874.1
 11
681.6961859979
 21
875.6
  0
LINE
  5
326
100
AcDbEntity
  8
0
100
AcDbLine
 62
7
  6
CONTINUOUS
 10
683.1961859979
 20
177.1
 11
683.1961859979
 21
874.1
  0
LINE
  5
327
100
AcDbEntity
  8
0
100
AcDbLine
 62
7
  6
CONTINUOUS
 10
172.996789342
 20
825.6
 11
592.996789342
 21
825.6
  0
LINE
  5
328
100
AcDbEntity
  8
0
100
AcDbLine
 62
7
  6
CONTINUOUS
 10
675.7812333627
 20
872.6
 11
672.2716222844
 21
872.2809094548
  0
LINE
  5
329
100
AcDbEntity
  8
0
100
AcDbLine
 62
7
  6
CONTINUOUS
 10
93.7219563995
 20
872.2809094548
 11
90.2123453212
 21
872.6
  0
LINE
  5
32A
100
AcDbEntity
  8
0
100
AcDbLine
 62
7
  6
CONTINUOUS
 10
95.4426857086
 20
871.1
 11
670.5508929754
 21
871.1
  0
LINE
  5
32B
100
AcDbEntity
  8
0
100
AcDbLine
 62
7
  6
CONTINUOUS
 10
94.5823210541
 20
872.2809094548
 11
93.7219563996
 21
872.2809094548
  0
LINE
  5
32C
100
AcDbEntity
  8
0
100
AcDbLine
 62
7
  6
CONTINUOUS
 10
671.4112576298
 20
872.2809094548
 11
672.2716222844
 21
872.2809094548
  0
LINE
  5
32D
100
AcDbEntity
  8
0
100
AcDbLine
 62
7
  6
CONTINUOUS
 10
674.9208687076
 20
872.6
 11
673.1660631687
 21
872.6
  0
LINE
  5
32E
100
AcDbEntity
  8
0
100
AcDbLine
 62
7
  6
CONTINUOUS
 10
92.8275155152
 20
872.6
 11
91.0727099757
 21
872.6
  0
LINE
  5
32F
100
AcDbEntity
  8
0
100
AcDbLine
 62
7
  6
CONTINUOUS
 10
84.496789342
 20
872.6
 11
90.2123453217
 21
872.6
  0
LINE
  5
330
100
AcDbEntity
  8
0
100
AcDbLine
 62
7
  6
CONTINUOUS
 10
675.7812333622
 20
872.6
 11
681.496789342
 21
872.6
  0
LINE
  5
331
100
AcDbEntity
  8
0
100
AcDbLine
 62
7
  6
CONTINUOUS
 10
683.1961859979
 20
874.1
 11
681.6961859979
 21
874.1
  0
LINE
  5
332
100
AcDbEntity
  8
0
100
AcDbLine
 62
7
  6
CONTINUOUS
 10
84.6961859979
 20
874.1
 11
83.1961859979
 21
874.1
  0
LINE
  5
333
100
AcDbEntity
  8
0
100
AcDbLine
 62
7
  6
CONTINUOUS
 10
85.996789342
 20
874.1
 11
679.996789342
 21
874.1
  0
LINE
  5
334
100
AcDbEntity
  8
0
100
AcDbLine
 62
7
  6
CONTINUOUS
 10
681.6961859979
 20
875.6
 11
84.6961859979
 21
875.6
  0
ARC
  5
335
100
AcDbEntity
  8
0
100
AcDbCircle
 62
7
  6
CONTINUOUS
 10
142.1961840863
 20
93.0587293962
 40
82.3864995385
100
AcDbArc
 50
89.6418390354
 51
90.3581583057
  0
ARC
  5
336
100
AcDbEntity
  8
0
100
AcDbCircle
 62
7
  6
CONTINUOUS
 10
98.7205345195
 20
140.9709334404
 40
39.7828096051
100
AcDbArc
 50
109.0344427894
 51
109.5412911865
  0
ARC
  5
337
100
AcDbEntity
  8
0
100
AcDbCircle
 62
7
  6
CONTINUOUS
 10
72.6004062135
 20
182.3695993192
 40
14.2032949746
100
AcDbArc
 50
337.790653511
 51
339.0125054113
  0
ARC
  5
338
100
AcDbEntity
  8
0
100
AcDbCircle
 62
7
  6
CONTINUOUS
 10
88.2686810212
 20
169.1377869114
 40
9.7348782975
100
AcDbArc
 50
112.3360069622
 51
114.0913346881
  0
ARC
  5
339
100
AcDbEntity
  8
0
100
AcDbCircle
 62
7
  6
CONTINUOUS
 10
101.5811160412
 20
174.4617571244
 40
8.2976474073
100
AcDbArc
 50
145.4099917838
 51
147.5080991366
  0
ARC
  5
33A
100
AcDbEntity
  8
0
100
AcDbCircle
 62
7
  6
CONTINUOUS
 10
87.2395003071
 20
171.4469307547
 40
7.206767195
100
AcDbArc
 50
114.1155042488
 51
115.530634765
  0
ARC
  5
33B
100
AcDbEntity
  8
0
100
AcDbCircle
 62
7
  6
CONTINUOUS
 10
80.604944696
 20
178.8942200368
 40
5.4745898868
100
AcDbArc
 50
332.2299447537
 51
334.4991267033
  0
ARC
  5
33C
100
AcDbEntity
  8
0
100
AcDbCircle
 62
7
  6
CONTINUOUS
 10
87.1684309297
 20
175.7526926336
 40
2.9540166296
100
AcDbArc
 50
132.1213693991
 51
134.0443932041
  0
ARC
  5
33D
100
AcDbEntity
  8
0
100
AcDbCircle
 62
7
  6
CONTINUOUS
 10
98.1961859979
 20
196.025
 40
21.625
100
AcDbArc
 50
252.5076754749
 51
287.4923245251
  0
ARC
  5
33E
100
AcDbEntity
  8
0
100
AcDbCircle
 62
7
  6
CONTINUOUS
 10
66.7780180069
 20
184.6015588991
 40
20.4388259436
100
AcDbArc
 50
339.0166614884
 51
340.1140343278
  0
ARC
  5
33F
100
AcDbEntity
  8
0
100
AcDbCircle
 62
7
  6
CONTINUOUS
 10
79.6086791169
 20
186.0854200175
 40
16.9056804902
100
AcDbArc
 50
334.3967152614
 51
334.8914700199
  0
ARC
  5
340
100
AcDbEntity
  8
0
100
AcDbCircle
 62
7
  6
CONTINUOUS
 10
141.8742502753
 20
180.7123475974
 40
5.7307441734
100
AcDbArc
 50
281.5069561451
 51
285.8687970095
  0
ARC
  5
341
100
AcDbEntity
  8
0
100
AcDbCircle
 62
7
  6
CONTINUOUS
 10
142.4345167903
 20
180.2340515998
 40
5.2406021028
100
AcDbArc
 50
258.3961318339
 51
260.1162604875
  0
ARC
  5
342
100
AcDbEntity
  8
0
100
AcDbCircle
 62
7
  6
CONTINUOUS
 10
141.9787089504
 20
180.2288739648
 40
5.2361530925
100
AcDbArc
 50
280.202830677
 51
281.4026023751
  0
ARC
  5
343
100
AcDbEntity
  8
0
100
AcDbCircle
 62
7
  6
CONTINUOUS
 10
142.4135399665
 20
180.2282163094
 40
5.2354840353
100
AcDbArc
 50
258.6065941212
 51
259.7972201015
  0
ARC
  5
344
100
AcDbEntity
  8
0
100
AcDbCircle
 62
7
  6
CONTINUOUS
 10
141.4579841466
 20
179.0091102929
 40
3.9395392207
100
AcDbArc
 50
272.5799537912
 51
273.2479371574
  0
ARC
  5
345
100
AcDbEntity
  8
0
100
AcDbCircle
 62
7
  6
CONTINUOUS
 10
142.9343878493
 20
179.0091102932
 40
3.939539221
100
AcDbArc
 50
266.7520628427
 51
267.4200462088
  0
ARC
  5
346
100
AcDbEntity
  8
0
100
AcDbCircle
 62
7
  6
CONTINUOUS
 10
141.4583166105
 20
179.0017568411
 40
3.9321782572
100
AcDbArc
 50
271.9111198323
 51
272.5799374351
  0
ARC
  5
347
100
AcDbEntity
  8
0
100
AcDbCircle
 62
7
  6
CONTINUOUS
 10
142.9340553852
 20
179.0017568389
 40
3.932178255
100
AcDbArc
 50
267.4200625647
 51
268.0888801679
  0
ARC
  5
348
100
AcDbEntity
  8
0
100
AcDbCircle
 62
7
  6
CONTINUOUS
 10
142.9338364939
 20
178.9952307262
 40
3.9256484725
100
AcDbArc
 50
268.0888966508
 51
268.7584548263
  0
ARC
  5
349
100
AcDbEntity
  8
0
100
AcDbCircle
 62
7
  6
CONTINUOUS
 10
141.458535502
 20
178.9952307241
 40
3.9256484704
100
AcDbArc
 50
271.2415451735
 51
271.9111033493
  0
ARC
  5
34A
100
AcDbEntity
  8
0
100
AcDbCircle
 62
7
  6
CONTINUOUS
 10
141.4586192971
 20
178.975271926
 40
3.905687265
100
AcDbArc
 50
268.0850753046
 51
268.7569128362
  0
ARC
  5
34B
100
AcDbEntity
  8
0
100
AcDbCircle
 62
7
  6
CONTINUOUS
 10
142.9337526988
 20
178.9752719238
 40
3.9056872628
100
AcDbArc
 50
271.2430871637
 51
271.9149246955
  0
ARC
  5
34C
100
AcDbEntity
  8
0
100
AcDbCircle
 62
7
  6
CONTINUOUS
 10
142.9338169209
 20
178.9733165535
 40
3.9037308385
100
AcDbArc
 50
271.9149416244
 51
272.587004479
  0
ARC
  5
34D
100
AcDbEntity
  8
0
100
AcDbCircle
 62
7
  6
CONTINUOUS
 10
141.4585550748
 20
178.9733165514
 40
3.9037308364
100
AcDbArc
 50
267.4129955206
 51
268.0850583755
  0
ARC
  5
34E
100
AcDbEntity
  8
0
100
AcDbCircle
 62
7
  6
CONTINUOUS
 10
141.4585055202
 20
178.9721941932
 40
3.9026073854
100
AcDbArc
 50
266.7407876125
 51
267.4129785628
  0
ARC
  5
34F
100
AcDbEntity
  8
0
100
AcDbCircle
 62
7
  6
CONTINUOUS
 10
142.9338664758
 20
178.972194191
 40
3.9026073831
100
AcDbArc
 50
272.5870214368
 51
273.2592123877
  0
ARC
  5
350
100
AcDbEntity
  8
0
100
AcDbCircle
 62
7
  6
CONTINUOUS
 10
141.9915309666
 20
178.0643848504
 40
3.0562125657
100
AcDbArc
 50
255.8091204359
 51
258.3409045559
  0
ARC
  5
351
100
AcDbEntity
  8
0
100
AcDbCircle
 62
7
  6
CONTINUOUS
 10
139.6565772597
 20
175.6350474859
 40
0.2011775954
100
AcDbArc
 50
250.6572469304
 51
266.5160034391
  0
ARC
  5
352
100
AcDbEntity
  8
0
100
AcDbCircle
 62
7
  6
CONTINUOUS
 10
144.73579582
 20
175.635047413
 40
0.2011775721
100
AcDbArc
 50
273.4826391236
 51
289.342468756
  0
ARC
  5
353
100
AcDbEntity
  8
0
100
AcDbCircle
 62
7
  6
CONTINUOUS
 10
139.656295898
 20
175.631387762
 40
0.1975075458
100
AcDbArc
 50
266.532956889
 51
268.3290818206
  0
ARC
  5
354
100
AcDbEntity
  8
0
100
AcDbCircle
 62
7
  6
CONTINUOUS
 10
144.736077566
 20
175.6313789681
 40
0.1974987956
100
AcDbArc
 50
271.6523233187
 51
273.4657021141
  0
ARC
  5
355
100
AcDbEntity
  8
0
100
AcDbCircle
 62
7
  6
CONTINUOUS
 10
144.7361542364
 20
175.6306730991
 40
0.1967910234
100
AcDbArc
 50
265.4301666776
 51
271.6292808266
  0
ARC
  5
356
100
AcDbEntity
  8
0
100
AcDbCircle
 62
7
  6
CONTINUOUS
 10
142.1961859979
 20
182.85078125
 40
7.85078125
100
AcDbArc
 50
289.3885361716
 51
292.3743000866
  0
ARC
  5
357
100
AcDbEntity
  8
0
100
AcDbCircle
 62
7
  6
CONTINUOUS
 10
142.1961859979
 20
182.85078125
 40
7.85078125
100
AcDbArc
 50
247.6256999134
 51
250.6114638284
  0
ARC
  5
358
100
AcDbEntity
  8
0
100
AcDbCircle
 62
7
  6
CONTINUOUS
 10
142.1961859979
 20
182.85078125
 40
7.8338714079
100
AcDbArc
 50
251.0020052255
 51
262.964275686
  0
ARC
  5
359
100
AcDbEntity
  8
0
100
AcDbCircle
 62
7
  6
CONTINUOUS
 10
142.1961859979
 20
182.85078125
 40
7.8338714079
100
AcDbArc
 50
277.035724314
 51
288.9979859361
  0
ARC
  5
35A
100
AcDbEntity
  8
0
100
AcDbCircle
 62
7
  6
CONTINUOUS
 10
142.1957962424
 20
182.8761341224
 40
7.8328953208
100
AcDbArc
 50
274.8456460973
 51
275.2036328879
  0
ARC
  5
35B
100
AcDbEntity
  8
0
100
AcDbCircle
 62
7
  6
CONTINUOUS
 10
203.1961840863
 20
93.0587293962
 40
82.3864995385
100
AcDbArc
 50
89.6418390354
 51
90.3581583057
  0
ARC
  5
35C
100
AcDbEntity
  8
0
100
AcDbCircle
 62
7
  6
CONTINUOUS
 10
323.1961840863
 20
93.0587293999
 40
82.3864995349
100
AcDbArc
 50
89.6418390353
 51
90.3581583057
  0
ARC
  5
35D
100
AcDbEntity
  8
0
100
AcDbCircle
 62
7
  6
CONTINUOUS
 10
203.9343878493
 20
179.0091102932
 40
3.939539221
100
AcDbArc
 50
266.7520628427
 51
267.4200462088
  0
ARC
  5
35E
100
AcDbEntity
  8
0
100
AcDbCircle
 62
7
  6
CONTINUOUS
 10
202.4579841467
 20
179.0091102908
 40
3.9395392186
100
AcDbArc
 50
272.579953791
 51
273.2479371575
  0
ARC
  5
35F
100
AcDbEntity
  8
0
100
AcDbCircle
 62
7
  6
CONTINUOUS
 10
202.4583166106
 20
179.001756839
 40
3.9321782551
100
AcDbArc
 50
271.9111198321
 51
272.5799374353
  0
ARC
  5
360
100
AcDbEntity
  8
0
100
AcDbCircle
 62
7
  6
CONTINUOUS
 10
203.9340553852
 20
179.0017568389
 40
3.932178255
100
AcDbArc
 50
267.4200625647
 51
268.0888801679
  0
ARC
  5
361
100
AcDbEntity
  8
0
100
AcDbCircle
 62
7
  6
CONTINUOUS
 10
202.458535502
 20
178.9952307262
 40
3.9256484725
100
AcDbArc
 50
271.2415451737
 51
271.9111033492
  0
ARC
  5
362
100
AcDbEntity
  8
0
100
AcDbCircle
 62
7
  6
CONTINUOUS
 10
203.9338364939
 20
178.9952307262
 40
3.9256484725
100
AcDbArc
 50
268.0888966508
 51
268.7584548263
  0
ARC
  5
363
100
AcDbEntity
  8
0
100
AcDbCircle
 62
7
  6
CONTINUOUS
 10
203.9337526988
 20
178.9752719238
 40
3.9056872628
100
AcDbArc
 50
271.2430871637
 51
271.9149246955
  0
ARC
  5
364
100
AcDbEntity
  8
0
100
AcDbCircle
 62
7
  6
CONTINUOUS
 10
202.4586192971
 20
178.9752719239
 40
3.905687263
100
AcDbArc
 50
268.0850753044
 51
268.7569128364
  0
ARC
  5
365
100
AcDbEntity
  8
0
100
AcDbCircle
 62
7
  6
CONTINUOUS
 10
203.9338169209
 20
178.9733165535
 40
3.9037308385
100
AcDbArc
 50
271.9149416244
 51
272.587004479
  0
ARC
  5
366
100
AcDbEntity
  8
0
100
AcDbCircle
 62
7
  6
CONTINUOUS
 10
202.4585550748
 20
178.9733165514
 40
3.9037308364
100
AcDbArc
 50
267.4129955206
 51
268.0850583755
  0
ARC
  5
367
100
AcDbEntity
  8
0
100
AcDbCircle
 62
7
  6
CONTINUOUS
 10
202.4585055202
 20
178.9721941932
 40
3.9026073854
100
AcDbArc
 50
266.7407876125
 51
267.4129785628
  0
ARC
  5
368
100
AcDbEntity
  8
0
100
AcDbCircle
 62
7
  6
CONTINUOUS
 10
203.9338664758
 20
178.972194191
 40
3.9026073831
100
AcDbArc
 50
272.5870214368
 51
273.2592123877
  0
ARC
  5
369
100
AcDbEntity
  8
0
100
AcDbCircle
 62
7
  6
CONTINUOUS
 10
202.9915309666
 20
178.0643848504
 40
3.0562125657
100
AcDbArc
 50
255.8091204359
 51
258.3409045559
  0
ARC
  5
36A
100
AcDbEntity
  8
0
100
AcDbCircle
 62
7
  6
CONTINUOUS
 10
200.6565772597
 20
175.6350474859
 40
0.2011775954
100
AcDbArc
 50
250.6572469303
 51
266.5160034391
  0
ARC
  5
36B
100
AcDbEntity
  8
0
100
AcDbCircle
 62
7
  6
CONTINUOUS
 10
205.73579582
 20
175.635047413
 40
0.2011775721
100
AcDbArc
 50
273.4826391238
 51
289.3424687559
  0
ARC
  5
36C
100
AcDbEntity
  8
0
100
AcDbCircle
 62
7
  6
CONTINUOUS
 10
200.656295898
 20
175.631387762
 40
0.1975075458
100
AcDbArc
 50
266.5329568888
 51
268.3290818205
  0
ARC
  5
36D
100
AcDbEntity
  8
0
100
AcDbCircle
 62
7
  6
CONTINUOUS
 10
205.736077566
 20
175.631378968
 40
0.1974987954
100
AcDbArc
 50
271.6523233207
 51
273.4657021148
  0
ARC
  5
36E
100
AcDbEntity
  8
0
100
AcDbCircle
 62
7
  6
CONTINUOUS
 10
205.7361542364
 20
175.6306730991
 40
0.1967910234
100
AcDbArc
 50
265.4301666772
 51
271.6292808259
  0
ARC
  5
36F
100
AcDbEntity
  8
0
100
AcDbCircle
 62
7
  6
CONTINUOUS
 10
203.1961859979
 20
182.85078125
 40
7.85078125
100
AcDbArc
 50
289.3885361716
 51
292.3743000866
  0
ARC
  5
370
100
AcDbEntity
  8
0
100
AcDbCircle
 62
7
  6
CONTINUOUS
 10
203.1961859979
 20
182.85078125
 40
7.85078125
100
AcDbArc
 50
247.6256999134
 51
250.6114638284
  0
ARC
  5
371
100
AcDbEntity
  8
0
100
AcDbCircle
 62
7
  6
CONTINUOUS
 10
203.1961859979
 20
182.85078125
 40
7.8338714079
100
AcDbArc
 50
251.0020052255
 51
262.964275686
  0
ARC
  5
372
100
AcDbEntity
  8
0
100
AcDbCircle
 62
7
  6
CONTINUOUS
 10
203.1961859979
 20
182.85078125
 40
7.8338714079
100
AcDbArc
 50
277.035724314
 51
288.9979859361
  0
ARC
  5
373
100
AcDbEntity
  8
0
100
AcDbCircle
 62
7
  6
CONTINUOUS
 10
203.1957962418
 20
182.8761341296
 40
7.8328953281
100
AcDbArc
 50
274.8456460975
 51
275.2036328877
  0
ARC
  5
374
100
AcDbEntity
  8
0
100
AcDbCircle
 62
7
  6
CONTINUOUS
 10
202.8742502753
 20
180.7123475974
 40
5.7307441734
100
AcDbArc
 50
281.5069561451
 51
285.8687970095
  0
ARC
  5
375
100
AcDbEntity
  8
0
100
AcDbCircle
 62
7
  6
CONTINUOUS
 10
203.4345167903
 20
180.2340515998
 40
5.2406021028
100
AcDbArc
 50
258.3961318339
 51
260.1162604875
  0
ARC
  5
376
100
AcDbEntity
  8
0
100
AcDbCircle
 62
7
  6
CONTINUOUS
 10
202.9787089504
 20
180.2288739651
 40
5.2361530928
100
AcDbArc
 50
280.202830677
 51
281.4026023751
  0
ARC
  5
377
100
AcDbEntity
  8
0
100
AcDbCircle
 62
7
  6
CONTINUOUS
 10
203.4135399665
 20
180.2282163094
 40
5.2354840353
100
AcDbArc
 50
258.6065941212
 51
259.7972201015
  0
ARC
  5
378
100
AcDbEntity
  8
0
100
AcDbCircle
 62
7
  6
CONTINUOUS
 10
322.4579841466
 20
179.0091102929
 40
3.9395392207
100
AcDbArc
 50
272.5799537912
 51
273.2479371574
  0
ARC
  5
379
100
AcDbEntity
  8
0
100
AcDbCircle
 62
7
  6
CONTINUOUS
 10
323.9343878492
 20
179.0091102928
 40
3.9395392206
100
AcDbArc
 50
266.7520628426
 51
267.4200462088
  0
ARC
  5
37A
100
AcDbEntity
  8
0
100
AcDbCircle
 62
7
  6
CONTINUOUS
 10
323.9340553853
 20
179.0017568411
 40
3.9321782572
100
AcDbArc
 50
267.4200625649
 51
268.0888801677
  0
ARC
  5
37B
100
AcDbEntity
  8
0
100
AcDbCircle
 62
7
  6
CONTINUOUS
 10
322.4583166106
 20
179.001756839
 40
3.9321782551
100
AcDbArc
 50
271.9111198321
 51
272.5799374353
  0
ARC
  5
37C
100
AcDbEntity
  8
0
100
AcDbCircle
 62
7
  6
CONTINUOUS
 10
322.458535502
 20
178.9952307262
 40
3.9256484725
100
AcDbArc
 50
271.2415451737
 51
271.9111033492
  0
ARC
  5
37D
100
AcDbEntity
  8
0
100
AcDbCircle
 62
7
  6
CONTINUOUS
 10
323.9338364938
 20
178.9952307241
 40
3.9256484704
100
AcDbArc
 50
268.0888966507
 51
268.7584548265
  0
ARC
  5
37E
100
AcDbEntity
  8
0
100
AcDbCircle
 62
7
  6
CONTINUOUS
 10
322.4586192971
 20
178.9752719258
 40
3.9056872648
100
AcDbArc
 50
268.0850753047
 51
268.7569128361
  0
ARC
  5
37F
100
AcDbEntity
  8
0
100
AcDbCircle
 62
7
  6
CONTINUOUS
 10
323.9337526988
 20
178.9752719239
 40
3.905687263
100
AcDbArc
 50
271.2430871637
 51
271.9149246957
  0
ARC
  5
380
100
AcDbEntity
  8
0
100
AcDbCircle
 62
7
  6
CONTINUOUS
 10
322.4585550749
 20
178.9733165534
 40
3.9037308384
100
AcDbArc
 50
267.412995521
 51
268.0850583756
  0
ARC
  5
381
100
AcDbEntity
  8
0
100
AcDbCircle
 62
7
  6
CONTINUOUS
 10
323.933816921
 20
178.9733165514
 40
3.9037308364
100
AcDbArc
 50
271.9149416245
 51
272.5870044794
  0
ARC
  5
382
100
AcDbEntity
  8
0
100
AcDbCircle
 62
7
  6
CONTINUOUS
 10
323.9338664758
 20
178.9721941908
 40
3.902607383
100
AcDbArc
 50
272.5870214369
 51
273.2592123877
  0
ARC
  5
383
100
AcDbEntity
  8
0
100
AcDbCircle
 62
7
  6
CONTINUOUS
 10
322.45850552
 20
178.972194191
 40
3.9026073831
100
AcDbArc
 50
266.7407876123
 51
267.4129785632
  0
ARC
  5
384
100
AcDbEntity
  8
0
100
AcDbCircle
 62
7
  6
CONTINUOUS
 10
322.9915309666
 20
178.0643848505
 40
3.0562125658
100
AcDbArc
 50
255.8091204359
 51
258.3409045559
  0
ARC
  5
385
100
AcDbEntity
  8
0
100
AcDbCircle
 62
7
  6
CONTINUOUS
 10
320.6565772597
 20
175.6350474859
 40
0.2011775954
100
AcDbArc
 50
250.6572469303
 51
266.5160034392
  0
ARC
  5
386
100
AcDbEntity
  8
0
100
AcDbCircle
 62
7
  6
CONTINUOUS
 10
325.73579582
 20
175.635047413
 40
0.2011775721
100
AcDbArc
 50
273.4826391237
 51
289.3424687558
  0
ARC
  5
387
100
AcDbEntity
  8
0
100
AcDbCircle
 62
7
  6
CONTINUOUS
 10
320.656295898
 20
175.6313877617
 40
0.1975075455
100
AcDbArc
 50
266.5329568875
 51
268.3290818284
  0
ARC
  5
388
100
AcDbEntity
  8
0
100
AcDbCircle
 62
7
  6
CONTINUOUS
 10
325.736077566
 20
175.6313789679
 40
0.1974987954
100
AcDbArc
 50
271.6523233209
 51
273.4657021152
  0
ARC
  5
389
100
AcDbEntity
  8
0
100
AcDbCircle
 62
7
  6
CONTINUOUS
 10
325.7361542364
 20
175.6306730991
 40
0.1967910234
100
AcDbArc
 50
265.4301666775
 51
271.6292808289
  0
ARC
  5
38A
100
AcDbEntity
  8
0
100
AcDbCircle
 62
7
  6
CONTINUOUS
 10
323.1961859979
 20
182.85078125
 40
7.85078125
100
AcDbArc
 50
289.3885361716
 51
292.3743000866
  0
ARC
  5
38B
100
AcDbEntity
  8
0
100
AcDbCircle
 62
7
  6
CONTINUOUS
 10
323.1961859979
 20
182.85078125
 40
7.85078125
100
AcDbArc
 50
247.6256999134
 51
250.6114638284
  0
ARC
  5
38C
100
AcDbEntity
  8
0
100
AcDbCircle
 62
7
  6
CONTINUOUS
 10
323.1961859979
 20
182.85078125
 40
7.8338714079
100
AcDbArc
 50
251.0020052255
 51
262.964275686
  0
ARC
  5
38D
100
AcDbEntity
  8
0
100
AcDbCircle
 62
7
  6
CONTINUOUS
 10
323.1961859979
 20
182.85078125
 40
7.8338714079
100
AcDbArc
 50
277.035724314
 51
288.9979859361
  0
ARC
  5
38E
100
AcDbEntity
  8
0
100
AcDbCircle
 62
7
  6
CONTINUOUS
 10
323.1957962424
 20
182.8761341223
 40
7.8328953208
100
AcDbArc
 50
274.8456460973
 51
275.2036328878
  0
ARC
  5
38F
100
AcDbEntity
  8
0
100
AcDbCircle
 62
7
  6
CONTINUOUS
 10
322.8742502754
 20
180.7123475973
 40
5.7307441733
100
AcDbArc
 50
281.5069561451
 51
285.8687970096
  0
ARC
  5
390
100
AcDbEntity
  8
0
100
AcDbCircle
 62
7
  6
CONTINUOUS
 10
323.4345167903
 20
180.2340515999
 40
5.2406021028
100
AcDbArc
 50
258.396131834
 51
260.1162604875
  0
ARC
  5
391
100
AcDbEntity
  8
0
100
AcDbCircle
 62
7
  6
CONTINUOUS
 10
322.9787089503
 20
180.2288739653
 40
5.236153093
100
AcDbArc
 50
280.202830677
 51
281.4026023751
  0
ARC
  5
392
100
AcDbEntity
  8
0
100
AcDbCircle
 62
7
  6
CONTINUOUS
 10
323.4135399664
 20
180.2282163093
 40
5.2354840352
100
AcDbArc
 50
258.6065941212
 51
259.7972201016
  0
ARC
  5
393
100
AcDbEntity
  8
0
100
AcDbCircle
 62
7
  6
CONTINUOUS
 10
64.2967893419
 20
520.8
 40
86.2
100
AcDbArc
 50
346.803770566
 51
13.1962294688
  0
ARC
  5
394
100
AcDbEntity
  8
0
100
AcDbCircle
 62
7
  6
CONTINUOUS
 10
64.2967893419
 20
520.8
 40
86.1252835857
100
AcDbArc
 50
349.8142310223
 51
10.1857689777
  0
ARC
  5
395
100
AcDbEntity
  8
0
100
AcDbCircle
 62
7
  6
CONTINUOUS
 10
15.8067688314
 20
836.9480075887
 40
86.6500885316
100
AcDbArc
 50
23.2121520916
 51
23.6493412664
  0
ARC
  5
396
100
AcDbEntity
  8
0
100
AcDbCircle
 62
7
  6
CONTINUOUS
 10
98.7205631112
 20
910.229148652
 40
39.7828965369
100
AcDbArc
 50
250.4587150565
 51
250.9655580639
  0
ARC
  5
397
100
AcDbEntity
  8
0
100
AcDbCircle
 62
7
  6
CONTINUOUS
 10
66.7780670094
 20
866.5984593756
 40
20.4387736466
100
AcDbArc
 50
19.8859609037
 51
20.9833497908
  0
ARC
  5
398
100
AcDbEntity
  8
0
100
AcDbCircle
 62
7
  6
CONTINUOUS
 10
71.9838139447
 20
868.5893597298
 40
14.8653144933
100
AcDbArc
 50
21.0037299316
 51
21.8631674371
  0
ARC
  5
399
100
AcDbEntity
  8
0
100
AcDbCircle
 62
7
  6
CONTINUOUS
 10
79.0431167513
 20
871.5566856902
 40
7.2067671964
100
AcDbArc
 50
24.1155042486
 51
25.5306347645
  0
ARC
  5
39A
100
AcDbEntity
  8
0
100
AcDbCircle
 62
7
  6
CONTINUOUS
 10
86.4904060347
 20
878.1912413018
 40
5.4745898867
100
AcDbArc
 50
242.2299447533
 51
244.4991267029
  0
ARC
  5
39B
100
AcDbEntity
  8
0
100
AcDbCircle
 62
7
  6
CONTINUOUS
 10
87.168430847
 20
875.4473073734
 40
2.9540165627
100
AcDbArc
 50
225.9556827925
 51
227.8785287706
  0
ARC
  5
39C
100
AcDbEntity
  8
0
100
AcDbCircle
 62
7
  6
CONTINUOUS
 10
129.3992762577
 20
511.510944242
 40
20.214700399
100
AcDbArc
 50
50.7400501891
 51
50.8972153186
  0
ARC
  5
39D
100
AcDbEntity
  8
0
100
AcDbCircle
 62
7
  6
CONTINUOUS
 10
131.3998488637
 20
506.2899276667
 40
3.7619419307
100
AcDbArc
 50
279.1069545413
 51
280.0706626519
  0
ARC
  5
39E
100
AcDbEntity
  8
0
100
AcDbCircle
 62
7
  6
CONTINUOUS
 10
132.5922366156
 20
506.117141938
 40
3.5916875548
100
AcDbArc
 50
259.4691329693
 51
260.4327847086
  0
ARC
  5
39F
100
AcDbEntity
  8
0
100
AcDbCircle
 62
7
  6
CONTINUOUS
 10
121.92286863
 20
505.6094870304
 40
2.374728356
100
AcDbArc
 50
310.7350937439
 51
312.5794545428
  0
ARC
  5
3A0
100
AcDbEntity
  8
0
100
AcDbCircle
 62
7
  6
CONTINUOUS
 10
134.4946498997
 20
503.108640464
 40
0.8691431764
100
AcDbArc
 50
287.437911031
 51
305.7062487753
  0
ARC
  5
3A1
100
AcDbEntity
  8
0
100
AcDbCircle
 62
7
  6
CONTINUOUS
 10
134.4946764787
 20
503.0914378184
 40
0.8690630296
100
AcDbArc
 50
54.2365256875
 51
72.3991295577
  0
ARC
  5
3A2
100
AcDbEntity
  8
0
100
AcDbCircle
 62
7
  6
CONTINUOUS
 10
134.4963460812
 20
503.1062358442
 40
0.8663412343
100
AcDbArc
 50
278.0980658583
 51
287.3785458631
  0
ARC
  5
3A3
100
AcDbEntity
  8
0
100
AcDbCircle
 62
7
  6
CONTINUOUS
 10
134.4963442278
 20
503.0937770636
 40
0.8663294417
100
AcDbArc
 50
72.4574831708
 51
81.7389770387
  0
ARC
  5
3A4
100
AcDbEntity
  8
0
100
AcDbCircle
 62
7
  6
CONTINUOUS
 10
134.4949525125
 20
503.1037574808
 40
0.8652776987
100
AcDbArc
 50
319.2743424335
 51
337.2834350547
  0
ARC
  5
3A5
100
AcDbEntity
  8
0
100
AcDbCircle
 62
7
  6
CONTINUOUS
 10
134.4950506928
 20
503.0963071708
 40
0.8651629668
100
AcDbArc
 50
22.7517990115
 51
40.5902118934
  0
ARC
  5
3A6
100
AcDbEntity
  8
0
100
AcDbCircle
 62
7
  6
CONTINUOUS
 10
134.4966206978
 20
503.1043706123
 40
0.8644082168
100
AcDbArc
 50
261.7615644055
 51
267.811002724
  0
ARC
  5
3A7
100
AcDbEntity
  8
0
100
AcDbCircle
 62
7
  6
CONTINUOUS
 10
134.4966112976
 20
503.0957409681
 40
0.8642966761
100
AcDbArc
 50
92.168559252
 51
98.0757241124
  0
ARC
  5
3A8
100
AcDbEntity
  8
0
100
AcDbCircle
 62
7
  6
CONTINUOUS
 10
134.4965770649
 20
503.096292241
 40
0.8640141644
100
AcDbArc
 50
40.6568213398
 51
54.1506552708
  0
ARC
  5
3A9
100
AcDbEntity
  8
0
100
AcDbCircle
 62
7
  6
CONTINUOUS
 10
134.496606136
 20
503.1036807135
 40
0.86397503
100
AcDbArc
 50
305.7928684218
 51
319.2066525893
  0
ARC
  5
3AA
100
AcDbEntity
  8
0
100
AcDbCircle
 62
7
  6
CONTINUOUS
 10
129.9841657474
 20
512.2394867806
 40
19.2804430189
100
AcDbArc
 50
50.8805197671
 51
52.804290251
  0
ARC
  5
3AB
100
AcDbEntity
  8
0
100
AcDbCircle
 62
7
  6
CONTINUOUS
 10
130.2025770973
 20
513.664030337
 40
17.1299326756
100
AcDbArc
 50
49.5886003371
 51
51.6981837327
  0
ARC
  5
3AC
100
AcDbEntity
  8
0
100
AcDbCircle
 62
7
  6
CONTINUOUS
 10
123.6480034286
 20
514.3144265147
 40
12.6276106412
100
AcDbArc
 50
76.2926524501
 51
76.4281257027
  0
ARC
  5
3AD
100
AcDbEntity
  8
0
100
AcDbCircle
 62
7
  6
CONTINUOUS
 10
121.8330422236
 20
514.0065603152
 40
7.9926816899
100
AcDbArc
 50
275.6166980571
 51
276.3858730252
  0
ARC
  5
3AE
100
AcDbEntity
  8
0
100
AcDbCircle
 62
7
  6
CONTINUOUS
 10
133.7054368636
 20
518.9445868038
 40
4.1580671816
100
AcDbArc
 50
244.8135087438
 51
246.6540837547
  0
ARC
  5
3AF
100
AcDbEntity
  8
0
100
AcDbCircle
 62
7
  6
CONTINUOUS
 10
139.5943024111
 20
511.5109442606
 40
20.2147003751
100
AcDbArc
 50
129.1027846814
 51
129.259949811
  0
ARC
  5
3B0
100
AcDbEntity
  8
0
100
AcDbCircle
 62
7
  6
CONTINUOUS
 10
142.5947555051
 20
508.2182507315
 40
4.2550328946
100
AcDbArc
 50
261.092432681
 51
261.9808327723
  0
ARC
  5
3B1
100
AcDbEntity
  8
0
100
AcDbCircle
 62
7
  6
CONTINUOUS
 10
137.5936881679
 20
506.2897238076
 40
3.761745005
100
AcDbArc
 50
259.9294342821
 51
260.8924781732
  0
ARC
  5
3B2
100
AcDbEntity
  8
0
100
AcDbCircle
 62
7
  6
CONTINUOUS
 10
141.4027960514
 20
507.6609251073
 40
3.7047399862
100
AcDbArc
 50
279.2943272288
 51
280.1819858082
  0
ARC
  5
3B3
100
AcDbEntity
  8
0
100
AcDbCircle
 62
7
  6
CONTINUOUS
 10
136.4012777278
 20
506.1176916265
 40
3.5922390928
100
AcDbArc
 50
279.5660179679
 51
280.5295584706
  0
ARC
  5
3B4
100
AcDbEntity
  8
0
100
AcDbCircle
 62
7
  6
CONTINUOUS
 10
147.0718849197
 20
505.6112765201
 40
2.3768484235
100
AcDbArc
 50
227.428895496
 51
229.2712791524
  0
ARC
  5
3B5
100
AcDbEntity
  8
0
100
AcDbCircle
 62
7
  6
CONTINUOUS
 10
134.4989300113
 20
503.0913565421
 40
0.8691463314
100
AcDbArc
 50
107.4334799329
 51
125.7056284376
  0
ARC
  5
3B6
100
AcDbEntity
  8
0
100
AcDbCircle
 62
7
  6
CONTINUOUS
 10
134.4989015438
 20
503.1085592358
 40
0.8690601539
100
AcDbArc
 50
234.2299939958
 51
252.3906432282
  0
ARC
  5
3B7
100
AcDbEntity
  8
0
100
AcDbCircle
 62
7
  6
CONTINUOUS
 10
134.4967853477
 20
503.0919900267
 40
0.8680515178
100
AcDbArc
 50
87.8081007537
 51
92.1706708751
  0
ARC
  5
3B8
100
AcDbEntity
  8
0
100
AcDbCircle
 62
7
  6
CONTINUOUS
 10
134.4967933543
 20
503.1080099664
 40
0.8680515105
100
AcDbArc
 50
267.8087901039
 51
272.1703241705
  0
ARC
  5
3B9
100
AcDbEntity
  8
0
100
AcDbCircle
 62
7
  6
CONTINUOUS
 10
134.4972320547
 20
503.0937665094
 40
0.8663388253
100
AcDbArc
 50
98.0980267222
 51
107.3740942193
  0
ARC
  5
3BA
100
AcDbEntity
  8
0
100
AcDbCircle
 62
7
  6
CONTINUOUS
 10
134.4972355134
 20
503.1062276289
 40
0.8663342359
100
AcDbArc
 50
252.4490142198
 51
261.7389212246
  0
ARC
  5
3BB
100
AcDbEntity
  8
0
100
AcDbCircle
 62
7
  6
CONTINUOUS
 10
134.4986278927
 20
503.0962408376
 40
0.8652800194
100
AcDbArc
 50
139.268081926
 51
157.2782516393
  0
ARC
  5
3BC
100
AcDbEntity
  8
0
100
AcDbCircle
 62
7
  6
CONTINUOUS
 10
134.4985294375
 20
503.1036922118
 40
0.8651637946
100
AcDbArc
 50
202.735205353
 51
220.5800577983
  0
ARC
  5
3BD
100
AcDbEntity
  8
0
100
AcDbCircle
 62
7
  6
CONTINUOUS
 10
134.4969580664
 20
503.0956301474
 40
0.8644074551
100
AcDbArc
 50
81.7615937369
 51
87.8103126521
  0
ARC
  5
3BE
100
AcDbEntity
  8
0
100
AcDbCircle
 62
7
  6
CONTINUOUS
 10
134.4969673883
 20
503.1042591093
 40
0.864296754
100
AcDbArc
 50
272.1682118951
 51
278.0757485012
  0
ARC
  5
3BF
100
AcDbEntity
  8
0
100
AcDbCircle
 62
7
  6
CONTINUOUS
 10
134.4970037573
 20
503.1037094971
 40
0.8640168735
100
AcDbArc
 50
220.6467423135
 51
234.1441165951
  0
ARC
  5
3C0
100
AcDbEntity
  8
0
100
AcDbCircle
 62
7
  6
CONTINUOUS
 10
134.4969697715
 20
503.0963220881
 40
0.8639711282
100
AcDbArc
 50
125.7922534853
 51
139.2004130004
  0
ARC
  5
3C1
100
AcDbEntity
  8
0
100
AcDbCircle
 62
7
  6
CONTINUOUS
 10
134.4967893419
 20
520.8
 40
25.0
100
AcDbArc
 50
60.0421728638
 51
119.9578241461
  0
ARC
  5
3C2
100
AcDbEntity
  8
0
100
AcDbCircle
 62
7
  6
CONTINUOUS
 10
134.4967893419
 20
520.8
 40
25.0
100
AcDbArc
 50
240.0421758429
 51
299.957826877
  0
ARC
  5
3C3
100
AcDbEntity
  8
0
100
AcDbCircle
 62
7
  6
CONTINUOUS
 10
134.4967893419
 20
520.8
 40
24.970714909
100
AcDbArc
 50
62.2652678235
 51
117.7347329575
  0
ARC
  5
3C4
100
AcDbEntity
  8
0
100
AcDbCircle
 62
7
  6
CONTINUOUS
 10
134.4967893419
 20
520.8
 40
24.970714909
100
AcDbArc
 50
242.2652678227
 51
297.7347329543
  0
ARC
  5
3C5
100
AcDbEntity
  8
0
100
AcDbCircle
 62
7
  6
CONTINUOUS
 10
134.4967893419
 20
520.8
 40
24.7995674796
100
AcDbArc
 50
62.2650132426
 51
117.7350084943
  0
ARC
  5
3C6
100
AcDbEntity
  8
0
100
AcDbCircle
 62
7
  6
CONTINUOUS
 10
134.4967893419
 20
520.8
 40
24.7995674796
100
AcDbArc
 50
242.2650132428
 51
297.7350048841
  0
ARC
  5
3C7
100
AcDbEntity
  8
0
100
AcDbCircle
 62
7
  6
CONTINUOUS
 10
139.0049283187
 20
512.2451944003
 40
19.2731853426
100
AcDbArc
 50
127.1953474991
 51
129.1198424827
  0
ARC
  5
3C8
100
AcDbEntity
  8
0
100
AcDbCircle
 62
7
  6
CONTINUOUS
 10
138.9743880014
 20
513.4404270161
 40
17.4190713152
100
AcDbArc
 50
128.3193266521
 51
130.3938892781
  0
ARC
  5
3C9
100
AcDbEntity
  8
0
100
AcDbCircle
 62
7
  6
CONTINUOUS
 10
147.1604630268
 20
514.0096443231
 40
7.9957418546
100
AcDbArc
 50
263.6170915758
 51
264.3859259661
  0
ARC
  5
3CA
100
AcDbEntity
  8
0
100
AcDbCircle
 62
7
  6
CONTINUOUS
 10
134.4967893419
 20
520.7
 40
6.0034300864
100
AcDbArc
 50
188.8709388081
 51
351.1290611917
  0
ARC
  5
3CB
100
AcDbEntity
  8
0
100
AcDbCircle
 62
7
  6
CONTINUOUS
 10
134.4967893419
 20
520.7
 40
5.8034605474
100
AcDbArc
 50
194.3133472252
 51
345.686652784
  0
ARC
  5
3CC
100
AcDbEntity
  8
0
100
AcDbCircle
 62
7
  6
CONTINUOUS
 10
135.2881542564
 20
518.9445596969
 40
4.1580373657
100
AcDbArc
 50
293.3459069296
 51
295.1864750703
  0
ARC
  5
3CD
100
AcDbEntity
  8
0
100
AcDbCircle
 62
7
  6
CONTINUOUS
 10
118.8800643943
 20
525.6535477957
 40
8.2425062612
100
AcDbArc
 50
356.6919052736
 51
357.0874543804
  0
ARC
  5
3CE
100
AcDbEntity
  8
0
100
AcDbCircle
 62
7
  6
CONTINUOUS
 10
119.0988089095
 20
525.6432069542
 40
8.0234625366
100
AcDbArc
 50
2.5924070688
 51
2.9987542313
  0
ARC
  5
3CF
100
AcDbEntity
  8
0
100
AcDbCircle
 62
7
  6
CONTINUOUS
 10
121.833115657
 20
527.5903556766
 40
7.9957418549
100
AcDbArc
 50
83.6170915759
 51
84.3859259662
  0
ARC
  5
3D0
100
AcDbEntity
  8
0
100
AcDbCircle
 62
7
  6
CONTINUOUS
 10
124.5306650435
 20
525.6275651033
 40
2.6170884416
100
AcDbArc
 50
9.5762636657
 51
15.001243339
  0
ARC
  5
3D1
100
AcDbEntity
  8
0
100
AcDbCircle
 62
7
  6
CONTINUOUS
 10
124.5306650435
 20
525.6275651033
 40
2.6170884416
100
AcDbArc
 50
343.4731088633
 51
350.1067906473
  0
ARC
  5
3D2
100
AcDbEntity
  8
0
100
AcDbCircle
 62
7
  6
CONTINUOUS
 10
124.5306650435
 20
525.6275651033
 40
2.6109791689
100
AcDbArc
 50
351.3470907735
 51
8.3359635396
  0
ARC
  5
3D3
100
AcDbEntity
  8
0
100
AcDbCircle
 62
7
  6
CONTINUOUS
 10
126.4967893419
 20
525.6
 40
1.0
100
AcDbArc
 50
284.0980898366
 51
75.9019101634
  0
ARC
  5
3D4
100
AcDbEntity
  8
0
100
AcDbCircle
 62
7
  6
CONTINUOUS
 10
126.4967893419
 20
525.6
 40
0.9
100
AcDbArc
 50
284.0980908363
 51
77.7156572335
  0
ARC
  5
3D5
100
AcDbEntity
  8
0
100
AcDbCircle
 62
7
  6
CONTINUOUS
 10
129.7592967113
 20
527.5068521803
 40
0.7999355179
100
AcDbArc
 50
270.0021880058
 51
338.0744203921
  0
ARC
  5
3D6
100
AcDbEntity
  8
0
100
AcDbCircle
 62
7
  6
CONTINUOUS
 10
129.7592973537
 20
523.6931501476
 40
0.7999331663
100
AcDbArc
 50
21.9262182621
 51
89.99811823
  0
ARC
  5
3D7
100
AcDbEntity
  8
0
100
AcDbCircle
 62
7
  6
CONTINUOUS
 10
129.3902306473
 20
539.7001666556
 40
20.2290278195
100
AcDbArc
 50
309.1028179411
 51
309.2520534743
  0
ARC
  5
3D8
100
AcDbEntity
  8
0
100
AcDbCircle
 62
7
  6
CONTINUOUS
 10
129.988650365
 20
538.9548055999
 40
19.2731853428
100
AcDbArc
 50
307.1953474992
 51
309.1198424827
  0
ARC
  5
3D9
100
AcDbEntity
  8
0
100
AcDbCircle
 62
7
  6
CONTINUOUS
 10
130.0191906828
 20
537.7595729835
 40
17.4190713146
100
AcDbArc
 50
308.3193266521
 51
310.3938892781
  0
ARC
  5
3DA
100
AcDbEntity
  8
0
100
AcDbCircle
 62
7
  6
CONTINUOUS
 10
123.589032253
 20
537.1316510106
 40
12.880653054
100
AcDbArc
 50
283.5698978473
 51
283.7027939259
  0
ARC
  5
3DB
100
AcDbEntity
  8
0
100
AcDbCircle
 62
7
  6
CONTINUOUS
 10
126.3988231854
 20
533.3817493127
 40
4.2550328499
100
AcDbArc
 50
81.0924326778
 51
81.9808327782
  0
ARC
  5
3DC
100
AcDbEntity
  8
0
100
AcDbCircle
 62
7
  6
CONTINUOUS
 10
131.3998964584
 20
535.3103753699
 40
3.7616516173
100
AcDbArc
 50
79.9292603435
 51
80.8927415166
  0
ARC
  5
3DD
100
AcDbEntity
  8
0
100
AcDbCircle
 62
7
  6
CONTINUOUS
 10
127.5907826321
 20
533.9390748934
 40
3.7047399854
100
AcDbArc
 50
99.2943272248
 51
100.1819858044
  0
ARC
  5
3DE
100
AcDbEntity
  8
0
100
AcDbCircle
 62
7
  6
CONTINUOUS
 10
132.5922769648
 20
535.48244455
 40
3.5921010107
100
AcDbArc
 50
99.5664618957
 51
100.5297914595
  0
ARC
  5
3DF
100
AcDbEntity
  8
0
100
AcDbCircle
 62
7
  6
CONTINUOUS
 10
121.9216937639
 20
535.9887234796
 40
2.3768484239
100
AcDbArc
 50
47.4288954959
 51
49.271279152
  0
ARC
  5
3E0
100
AcDbEntity
  8
0
100
AcDbCircle
 62
7
  6
CONTINUOUS
 10
134.482031048
 20
525.5661972969
 40
8.3860587847
100
AcDbArc
 50
27.271994113
 51
43.6386662747
  0
ARC
  5
3E1
100
AcDbEntity
  8
0
100
AcDbCircle
 62
7
  6
CONTINUOUS
 10
133.5250808044
 20
525.1225806776
 40
7.2749970255
100
AcDbArc
 50
205.0784197333
 51
207.2532403838
  0
ARC
  5
3E2
100
AcDbEntity
  8
0
100
AcDbCircle
 62
7
  6
CONTINUOUS
 10
134.4577231667
 20
525.6000003103
 40
8.392790556
100
AcDbArc
 50
334.8943782608
 51
25.1056421721
  0
ARC
  5
3E3
100
AcDbEntity
  8
0
100
AcDbCircle
 62
7
  6
CONTINUOUS
 10
134.4820062584
 20
525.633825271
 40
8.3860922993
100
AcDbArc
 50
316.36133902
 51
332.728117893
  0
ARC
  5
3E4
100
AcDbEntity
  8
0
100
AcDbCircle
 62
7
  6
CONTINUOUS
 10
133.5251429655
 20
526.0773890721
 40
7.2750661386
100
AcDbArc
 50
152.7467720031
 51
154.9215957521
  0
ARC
  5
3E5
100
AcDbEntity
  8
0
100
AcDbCircle
 62
7
  6
CONTINUOUS
 10
134.5358552295
 20
525.5999996897
 40
8.392790556
100
AcDbArc
 50
154.8943774275
 51
205.1056430054
  0
ARC
  5
3E6
100
AcDbEntity
  8
0
100
AcDbCircle
 62
7
  6
CONTINUOUS
 10
134.5115724254
 20
525.566174729
 40
8.3860922994
100
AcDbArc
 50
136.36133902
 51
152.7281178931
  0
ARC
  5
3E7
100
AcDbEntity
  8
0
100
AcDbCircle
 62
7
  6
CONTINUOUS
 10
135.4684357186
 20
525.1226109278
 40
7.2750661382
100
AcDbArc
 50
332.746772003
 51
334.9215957521
  0
ARC
  5
3E8
100
AcDbEntity
  8
0
100
AcDbCircle
 62
7
  6
CONTINUOUS
 10
134.4967893419
 20
525.6
 40
8.470583972
100
AcDbArc
 50
228.4048141735
 51
311.5951858231
  0
ARC
  5
3E9
100
AcDbEntity
  8
0
100
AcDbCircle
 62
7
  6
CONTINUOUS
 10
134.4967893419
 20
525.6
 40
8.470583972
100
AcDbArc
 50
48.4048141735
 51
131.5951858231
  0
ARC
  5
3EA
100
AcDbEntity
  8
0
100
AcDbCircle
 62
7
  6
CONTINUOUS
 10
134.5115476358
 20
525.6338027031
 40
8.3860587847
100
AcDbArc
 50
207.271994113
 51
223.6386662747
  0
ARC
  5
3EB
100
AcDbEntity
  8
0
100
AcDbCircle
 62
7
  6
CONTINUOUS
 10
134.4967893419
 20
525.6
 40
8.270614433
100
AcDbArc
 50
228.4048138721
 51
311.5951861307
  0
ARC
  5
3EC
100
AcDbEntity
  8
0
100
AcDbCircle
 62
7
  6
CONTINUOUS
 10
134.4967893419
 20
525.6
 40
8.2706144331
100
AcDbArc
 50
48.404813526
 51
131.5951864786
  0
CIRCLE
  5
3ED
100
AcDbEntity
  8
0
100
AcDbCircle
 62
7
  6
CONTINUOUS
 10
134.4967893419
 20
525.6
 40
8.0384011428
  0
ARC
  5
3EE
100
AcDbEntity
  8
0
100
AcDbCircle
 62
7
  6
CONTINUOUS
 10
134.4967893419
 20
525.6
 40
7.9482849568
100
AcDbArc
 50
0.0
 51
172.84818545
  0
ARC
  5
3EF
100
AcDbEntity
  8
0
100
AcDbCircle
 62
7
  6
CONTINUOUS
 10
134.4967893419
 20
525.6
 40
7.9482849568
100
AcDbArc
 50
187.15181455
 51
359.6915368076
  0
ARC
  5
3F0
100
AcDbEntity
  8
0
100
AcDbCircle
 62
7
  6
CONTINUOUS
 10
134.4967893419
 20
525.6
 40
7.9168049133
100
AcDbArc
 50
187.1274017508
 51
172.8725982492
  0
ARC
  5
3F1
100
AcDbEntity
  8
0
100
AcDbCircle
 62
7
  6
CONTINUOUS
 10
134.4967893419
 20
525.6
 40
7.8522516364
100
AcDbArc
 50
11.4802759913
 51
168.5197240087
  0
ARC
  5
3F2
100
AcDbEntity
  8
0
100
AcDbCircle
 62
7
  6
CONTINUOUS
 10
134.4967893419
 20
525.6
 40
7.8504756666
100
AcDbArc
 50
191.4961352035
 51
348.5038647965
  0
ARC
  5
3F3
100
AcDbEntity
  8
0
100
AcDbCircle
 62
7
  6
CONTINUOUS
 10
134.4967893419
 20
525.6
 40
7.8172196534
100
AcDbArc
 50
191.7946063972
 51
348.2053936028
  0
ARC
  5
3F4
100
AcDbEntity
  8
0
100
AcDbCircle
 62
7
  6
CONTINUOUS
 10
134.4967893419
 20
525.6
 40
7.8172196534
100
AcDbArc
 50
11.7946063972
 51
168.2053936028
  0
ARC
  5
3F5
100
AcDbEntity
  8
0
100
AcDbCircle
 62
7
  6
CONTINUOUS
 10
134.4967893419
 20
525.6
 40
7.8168201438
100
AcDbArc
 50
168.5576307466
 51
172.8725982492
  0
ARC
  5
3F6
100
AcDbEntity
  8
0
100
AcDbCircle
 62
7
  6
CONTINUOUS
 10
134.4967893419
 20
525.6
 40
7.8168201438
100
AcDbArc
 50
187.1274017508
 51
191.4593070529
  0
ARC
  5
3F7
100
AcDbEntity
  8
0
100
AcDbCircle
 62
7
  6
CONTINUOUS
 10
134.4967893419
 20
525.6
 40
7.8168201438
100
AcDbArc
 50
348.9024197876
 51
11.4373741274
  0
ARC
  5
3F8
100
AcDbEntity
  8
0
100
AcDbCircle
 62
7
  6
CONTINUOUS
 10
134.4967893419
 20
525.6
 40
7.4172805753
100
AcDbArc
 50
15.6253091674
 51
164.3746908326
  0
ARC
  5
3F9
100
AcDbEntity
  8
0
100
AcDbCircle
 62
7
  6
CONTINUOUS
 10
134.4967893419
 20
525.6
 40
7.4172805753
100
AcDbArc
 50
195.6253091674
 51
344.3746908326
  0
ARC
  5
3FA
100
AcDbEntity
  8
0
100
AcDbCircle
 62
7
  6
CONTINUOUS
 10
134.4967893419
 20
525.6
 40
7.4
100
AcDbArc
 50
183.269825219
 51
184.6602275564
  0
ARC
  5
3FB
100
AcDbEntity
  8
0
100
AcDbCircle
 62
7
  6
CONTINUOUS
 10
134.4967893419
 20
525.6
 40
7.4
100
AcDbArc
 50
175.3028540097
 51
176.4132290941
  0
ARC
  5
3FC
100
AcDbEntity
  8
0
100
AcDbCircle
 62
7
  6
CONTINUOUS
 10
134.4967893419
 20
525.6
 40
7.3938907273
100
AcDbArc
 50
182.831518734
 51
185.7206380315
  0
ARC
  5
3FD
100
AcDbEntity
  8
0
100
AcDbCircle
 62
7
  6
CONTINUOUS
 10
134.4967893419
 20
525.6
 40
7.3938907273
100
AcDbArc
 50
174.4404377747
 51
176.8515355791
  0
ARC
  5
3FE
100
AcDbEntity
  8
0
100
AcDbCircle
 62
7
  6
CONTINUOUS
 10
134.4967893419
 20
525.6
 40
7.1061092727
100
AcDbArc
 50
179.871943523
 51
180.1278422938
  0
ARC
  5
3FF
100
AcDbEntity
  8
0
100
AcDbCircle
 62
7
  6
CONTINUOUS
 10
134.4967893419
 20
525.6
 40
6.9
100
AcDbArc
 50
166.9109766123
 51
170.7685303556
  0
ARC
  5
400
100
AcDbEntity
  8
0
100
AcDbCircle
 62
7
  6
CONTINUOUS
 10
134.4967893419
 20
525.6
 40
6.9
100
AcDbArc
 50
9.2314696444
 51
13.0908155314
  0
ARC
  5
401
100
AcDbEntity
  8
0
100
AcDbCircle
 62
7
  6
CONTINUOUS
 10
134.4967893419
 20
525.6
 40
6.9
100
AcDbArc
 50
346.9109766123
 51
350.7685303556
  0
ARC
  5
402
100
AcDbEntity
  8
0
100
AcDbCircle
 62
7
  6
CONTINUOUS
 10
134.4967893419
 20
525.6
 40
6.9
100
AcDbArc
 50
189.2314696444
 51
193.0908155314
  0
ARC
  5
403
100
AcDbEntity
  8
0
100
AcDbCircle
 62
7
  6
CONTINUOUS
 10
134.4967893419
 20
525.6
 40
6.5
100
AcDbArc
 50
13.4056240685
 51
13.8489172788
  0
ARC
  5
404
100
AcDbEntity
  8
0
100
AcDbCircle
 62
7
  6
CONTINUOUS
 10
134.4967893419
 20
525.6
 40
6.5
100
AcDbArc
 50
166.1510827212
 51
166.5943759315
  0
ARC
  5
405
100
AcDbEntity
  8
0
100
AcDbCircle
 62
7
  6
CONTINUOUS
 10
134.4967893419
 20
525.6
 40
6.5
100
AcDbArc
 50
193.4056240685
 51
193.8489172788
  0
ARC
  5
406
100
AcDbEntity
  8
0
100
AcDbCircle
 62
7
  6
CONTINUOUS
 10
134.4967893419
 20
525.6
 40
6.5
100
AcDbArc
 50
346.1510827212
 51
346.5943759315
  0
ARC
  5
407
100
AcDbEntity
  8
0
100
AcDbCircle
 62
7
  6
CONTINUOUS
 10
134.4967893419
 20
525.6
 40
5.1978092948
100
AcDbArc
 50
22.6037670359
 51
157.396232964
  0
ARC
  5
408
100
AcDbEntity
  8
0
100
AcDbCircle
 62
7
  6
CONTINUOUS
 10
134.4967893419
 20
525.6
 40
5.1978092948
100
AcDbArc
 50
202.6037670359
 51
337.396232964
  0
ARC
  5
409
100
AcDbEntity
  8
0
100
AcDbCircle
 62
7
  6
CONTINUOUS
 10
134.4967893419
 20
525.6
 40
4.7978702168
100
AcDbArc
 50
202.6037670358
 51
337.3962329642
  0
ARC
  5
40A
100
AcDbEntity
  8
0
100
AcDbCircle
 62
7
  6
CONTINUOUS
 10
134.4967893419
 20
525.6
 40
4.7978702168
100
AcDbArc
 50
22.6037670358
 51
157.3962329642
  0
ARC
  5
40B
100
AcDbEntity
  8
0
100
AcDbCircle
 62
7
  6
CONTINUOUS
 10
134.4967893419
 20
525.6
 40
4.7068601728
100
AcDbArc
 50
21.9244949664
 51
158.0755050342
  0
ARC
  5
40C
100
AcDbEntity
  8
0
100
AcDbCircle
 62
7
  6
CONTINUOUS
 10
134.4967893419
 20
525.6
 40
4.7068601728
100
AcDbArc
 50
201.9244949664
 51
338.0755050342
  0
ARC
  5
40D
100
AcDbEntity
  8
0
100
AcDbCircle
 62
7
  6
CONTINUOUS
 10
134.4967893419
 20
525.6
 40
4.3069210727
100
AcDbArc
 50
21.9246316815
 51
158.0752216784
  0
ARC
  5
40E
100
AcDbEntity
  8
0
100
AcDbCircle
 62
7
  6
CONTINUOUS
 10
134.4967893419
 20
525.6
 40
4.3069210727
100
AcDbArc
 50
201.9246341666
 51
338.0752191282
  0
CIRCLE
  5
40F
100
AcDbEntity
  8
0
100
AcDbCircle
 62
7
  6
CONTINUOUS
 10
134.4967893419
 20
525.6
 40
2.4826964218
  0
CIRCLE
  5
410
100
AcDbEntity
  8
0
100
AcDbCircle
 62
7
  6
CONTINUOUS
 10
134.4967893419
 20
525.6
 40
1.4828495677
  0
CIRCLE
  5
411
100
AcDbEntity
  8
0
100
AcDbCircle
 62
7
  6
CONTINUOUS
 10
134.4967893419
 20
525.6
 40
1.4021297831
  0
CIRCLE
  5
412
100
AcDbEntity
  8
0
100
AcDbCircle
 62
7
  6
CONTINUOUS
 10
134.4967893419
 20
525.6
 40
1.0021904046
  0
ARC
  5
413
100
AcDbEntity
  8
0
100
AcDbCircle
 62
7
  6
CONTINUOUS
 10
135.4684978797
 20
526.0774193225
 40
7.2749970252
100
AcDbArc
 50
25.0784197332
 51
27.2532403838
  0
ARC
  5
414
100
AcDbEntity
  8
0
100
AcDbCircle
 62
7
  6
CONTINUOUS
 10
139.2342820659
 20
523.6931476571
 40
0.7999356052
100
AcDbArc
 50
90.0021901569
 51
158.0744258158
  0
ARC
  5
415
100
AcDbEntity
  8
0
100
AcDbCircle
 62
7
  6
CONTINUOUS
 10
134.4967893419
 20
530.5
 40
6.0034300864
100
AcDbArc
 50
8.8709388081
 51
171.1290611917
  0
ARC
  5
416
100
AcDbEntity
  8
0
100
AcDbCircle
 62
7
  6
CONTINUOUS
 10
134.4967893419
 20
530.5
 40
5.8034605474
100
AcDbArc
 50
14.3133472252
 51
165.686652784
  0
ARC
  5
417
100
AcDbEntity
  8
0
100
AcDbCircle
 62
7
  6
CONTINUOUS
 10
139.2342812376
 20
527.5068496917
 40
0.7999330807
100
AcDbArc
 50
201.9262234406
 51
269.9981203245
  0
ARC
  5
418
100
AcDbEntity
  8
0
100
AcDbCircle
 62
7
  6
CONTINUOUS
 10
147.1605364588
 20
527.5934396987
 40
7.9926816759
100
AcDbArc
 50
95.6166980564
 51
96.3858730258
  0
ARC
  5
419
100
AcDbEntity
  8
0
100
AcDbCircle
 62
7
  6
CONTINUOUS
 10
139.6033481088
 20
539.7001667443
 40
20.2290279338
100
AcDbArc
 50
230.747946525
 51
230.8971820587
  0
ARC
  5
41A
100
AcDbEntity
  8
0
100
AcDbCircle
 62
7
  6
CONTINUOUS
 10
139.0094129359
 20
538.9605132188
 40
19.2804430181
100
AcDbArc
 50
230.8805197671
 51
232.8042902511
  0
ARC
  5
41B
100
AcDbEntity
  8
0
100
AcDbCircle
 62
7
  6
CONTINUOUS
 10
138.7910015877
 20
537.5359696644
 40
17.1299326773
100
AcDbArc
 50
229.5886003372
 51
231.6981837326
  0
ARC
  5
41C
100
AcDbEntity
  8
0
100
AcDbCircle
 62
7
  6
CONTINUOUS
 10
135.2881418199
 20
532.2554131953
 40
4.1580671825
100
AcDbArc
 50
64.8135087441
 51
66.6540837546
  0
ARC
  5
41D
100
AcDbEntity
  8
0
100
AcDbCircle
 62
7
  6
CONTINUOUS
 10
133.7054244273
 20
532.2554403032
 40
4.1580373656
100
AcDbArc
 50
113.3459069296
 51
115.1864750708
  0
ARC
  5
41E
100
AcDbEntity
  8
0
100
AcDbCircle
 62
7
  6
CONTINUOUS
 10
137.5936276327
 20
535.3107247899
 40
3.7612986526
100
AcDbArc
 50
99.1041595905
 51
100.0719922113
  0
ARC
  5
41F
100
AcDbEntity
  8
0
100
AcDbCircle
 62
7
  6
CONTINUOUS
 10
136.4012690208
 20
535.4824272186
 40
3.5921246416
100
AcDbArc
 50
79.4707866514
 51
80.4296309162
  0
ARC
  5
420
100
AcDbEntity
  8
0
100
AcDbCircle
 62
7
  6
CONTINUOUS
 10
147.0707100543
 20
535.9905129692
 40
2.3747283566
100
AcDbArc
 50
130.735093745
 51
132.5794545433
  0
ARC
  5
421
100
AcDbEntity
  8
0
100
AcDbCircle
 62
7
  6
CONTINUOUS
 10
204.6967893419
 20
520.8
 40
86.2
100
AcDbArc
 50
166.803770566
 51
193.1962294688
  0
ARC
  5
422
100
AcDbEntity
  8
0
100
AcDbCircle
 62
7
  6
CONTINUOUS
 10
204.6967893419
 20
520.8
 40
86.1252835857
100
AcDbArc
 50
169.8142310224
 51
190.1857689777
  0
ARC
  5
423
100
AcDbEntity
  8
0
100
AcDbCircle
 62
7
  6
CONTINUOUS
 10
443.1961840863
 20
93.0587293975
 40
82.3864995373
100
AcDbArc
 50
89.6418390353
 51
90.3581583057
  0
ARC
  5
424
100
AcDbEntity
  8
0
100
AcDbCircle
 62
7
  6
CONTINUOUS
 10
563.1961840863
 20
93.0587293963
 40
82.3864995385
100
AcDbArc
 50
89.6418390354
 51
90.3581583057
  0
ARC
  5
425
100
AcDbEntity
  8
0
100
AcDbCircle
 62
7
  6
CONTINUOUS
 10
442.4579841466
 20
179.0091102931
 40
3.9395392209
100
AcDbArc
 50
272.5799537912
 51
273.2479371573
  0
ARC
  5
426
100
AcDbEntity
  8
0
100
AcDbCircle
 62
7
  6
CONTINUOUS
 10
443.9343878492
 20
179.0091102929
 40
3.9395392207
100
AcDbArc
 50
266.7520628427
 51
267.4200462088
  0
ARC
  5
427
100
AcDbEntity
  8
0
100
AcDbCircle
 62
7
  6
CONTINUOUS
 10
443.9340553853
 20
179.0017568408
 40
3.9321782569
100
AcDbArc
 50
267.4200625648
 51
268.0888801678
  0
ARC
  5
428
100
AcDbEntity
  8
0
100
AcDbCircle
 62
7
  6
CONTINUOUS
 10
442.4583166106
 20
179.001756839
 40
3.9321782551
100
AcDbArc
 50
271.9111198321
 51
272.5799374353
  0
ARC
  5
429
100
AcDbEntity
  8
0
100
AcDbCircle
 62
7
  6
CONTINUOUS
 10
442.458535502
 20
178.9952307261
 40
3.9256484724
100
AcDbArc
 50
271.2415451737
 51
271.9111033492
  0
ARC
  5
42A
100
AcDbEntity
  8
0
100
AcDbCircle
 62
7
  6
CONTINUOUS
 10
443.9338364938
 20
178.9952307241
 40
3.9256484704
100
AcDbArc
 50
268.0888966507
 51
268.7584548265
  0
ARC
  5
42B
100
AcDbEntity
  8
0
100
AcDbCircle
 62
7
  6
CONTINUOUS
 10
442.4586192971
 20
178.975271926
 40
3.905687265
100
AcDbArc
 50
268.0850753047
 51
268.7569128361
  0
ARC
  5
42C
100
AcDbEntity
  8
0
100
AcDbCircle
 62
7
  6
CONTINUOUS
 10
443.9337526988
 20
178.975271924
 40
3.905687263
100
AcDbArc
 50
271.2430871637
 51
271.9149246957
  0
ARC
  5
42D
100
AcDbEntity
  8
0
100
AcDbCircle
 62
7
  6
CONTINUOUS
 10
442.4585550749
 20
178.9733165536
 40
3.9037308387
100
AcDbArc
 50
267.412995521
 51
268.0850583756
  0
ARC
  5
42E
100
AcDbEntity
  8
0
100
AcDbCircle
 62
7
  6
CONTINUOUS
 10
443.933816921
 20
178.9733165514
 40
3.9037308364
100
AcDbArc
 50
271.9149416245
 51
272.5870044794
  0
ARC
  5
42F
100
AcDbEntity
  8
0
100
AcDbCircle
 62
7
  6
CONTINUOUS
 10
443.9338664758
 20
178.9721941913
 40
3.9026073835
100
AcDbArc
 50
272.5870214369
 51
273.2592123876
  0
ARC
  5
430
100
AcDbEntity
  8
0
100
AcDbCircle
 62
7
  6
CONTINUOUS
 10
442.4585055201
 20
178.9721941915
 40
3.9026073837
100
AcDbArc
 50
266.7407876123
 51
267.4129785632
  0
ARC
  5
431
100
AcDbEntity
  8
0
100
AcDbCircle
 62
7
  6
CONTINUOUS
 10
442.9915309666
 20
178.0643848504
 40
3.0562125657
100
AcDbArc
 50
255.8091204359
 51
258.3409045559
  0
ARC
  5
432
100
AcDbEntity
  8
0
100
AcDbCircle
 62
7
  6
CONTINUOUS
 10
440.6565772597
 20
175.6350474859
 40
0.2011775954
100
AcDbArc
 50
250.6572469301
 51
266.5160034392
  0
ARC
  5
433
100
AcDbEntity
  8
0
100
AcDbCircle
 62
7
  6
CONTINUOUS
 10
445.73579582
 20
175.635047413
 40
0.2011775721
100
AcDbArc
 50
273.4826391236
 51
289.342468756
  0
ARC
  5
434
100
AcDbEntity
  8
0
100
AcDbCircle
 62
7
  6
CONTINUOUS
 10
440.656295898
 20
175.6313877619
 40
0.1975075457
100
AcDbArc
 50
266.5329568883
 51
268.3290818229
  0
ARC
  5
435
100
AcDbEntity
  8
0
100
AcDbCircle
 62
7
  6
CONTINUOUS
 10
445.736077566
 20
175.6313789677
 40
0.1974987952
100
AcDbArc
 50
271.6523233212
 51
273.4657021158
  0
ARC
  5
436
100
AcDbEntity
  8
0
100
AcDbCircle
 62
7
  6
CONTINUOUS
 10
445.7361542364
 20
175.6306730991
 40
0.1967910234
100
AcDbArc
 50
265.4301666768
 51
271.6292808231
  0
ARC
  5
437
100
AcDbEntity
  8
0
100
AcDbCircle
 62
7
  6
CONTINUOUS
 10
443.1961859979
 20
182.85078125
 40
7.85078125
100
AcDbArc
 50
289.3885361716
 51
292.3743000866
  0
ARC
  5
438
100
AcDbEntity
  8
0
100
AcDbCircle
 62
7
  6
CONTINUOUS
 10
443.1961859979
 20
182.85078125
 40
7.85078125
100
AcDbArc
 50
247.6256999134
 51
250.6114638284
  0
ARC
  5
439
100
AcDbEntity
  8
0
100
AcDbCircle
 62
7
  6
CONTINUOUS
 10
443.1961859979
 20
182.85078125
 40
7.8338714079
100
AcDbArc
 50
251.0020052255
 51
262.964275686
  0
ARC
  5
43A
100
AcDbEntity
  8
0
100
AcDbCircle
 62
7
  6
CONTINUOUS
 10
443.1961859979
 20
182.85078125
 40
7.8338714079
100
AcDbArc
 50
277.035724314
 51
288.9979859361
  0
ARC
  5
43B
100
AcDbEntity
  8
0
100
AcDbCircle
 62
7
  6
CONTINUOUS
 10
443.1957962424
 20
182.8761341229
 40
7.8328953213
100
AcDbArc
 50
274.8456460973
 51
275.2036328878
  0
ARC
  5
43C
100
AcDbEntity
  8
0
100
AcDbCircle
 62
7
  6
CONTINUOUS
 10
442.8742502753
 20
180.7123475974
 40
5.7307441734
100
AcDbArc
 50
281.5069561452
 51
285.8687970095
  0
ARC
  5
43D
100
AcDbEntity
  8
0
100
AcDbCircle
 62
7
  6
CONTINUOUS
 10
443.4345167903
 20
180.2340515999
 40
5.2406021028
100
AcDbArc
 50
258.396131834
 51
260.1162604875
  0
ARC
  5
43E
100
AcDbEntity
  8
0
100
AcDbCircle
 62
7
  6
CONTINUOUS
 10
442.9787089504
 20
180.2288739652
 40
5.2361530929
100
AcDbArc
 50
280.202830677
 51
281.4026023751
  0
ARC
  5
43F
100
AcDbEntity
  8
0
100
AcDbCircle
 62
7
  6
CONTINUOUS
 10
443.4135399664
 20
180.228216309
 40
5.2354840349
100
AcDbArc
 50
258.6065941212
 51
259.7972201016
  0
ARC
  5
440
100
AcDbEntity
  8
0
100
AcDbCircle
 62
7
  6
CONTINUOUS
 10
562.4579841466
 20
179.0091102929
 40
3.9395392207
100
AcDbArc
 50
272.5799537912
 51
273.2479371573
  0
ARC
  5
441
100
AcDbEntity
  8
0
100
AcDbCircle
 62
7
  6
CONTINUOUS
 10
563.9343878492
 20
179.0091102927
 40
3.9395392206
100
AcDbArc
 50
266.7520628426
 51
267.4200462088
  0
ARC
  5
442
100
AcDbEntity
  8
0
100
AcDbCircle
 62
7
  6
CONTINUOUS
 10
562.4583166105
 20
179.0017568408
 40
3.9321782569
100
AcDbArc
 50
271.9111198322
 51
272.5799374352
  0
ARC
  5
443
100
AcDbEntity
  8
0
100
AcDbCircle
 62
7
  6
CONTINUOUS
 10
563.9340553853
 20
179.0017568411
 40
3.9321782572
100
AcDbArc
 50
267.4200625649
 51
268.0888801677
  0
ARC
  5
444
100
AcDbEntity
  8
0
100
AcDbCircle
 62
7
  6
CONTINUOUS
 10
562.458535502
 20
178.9952307262
 40
3.9256484725
100
AcDbArc
 50
271.2415451737
 51
271.9111033492
  0
ARC
  5
445
100
AcDbEntity
  8
0
100
AcDbCircle
 62
7
  6
CONTINUOUS
 10
563.9338364939
 20
178.9952307262
 40
3.9256484725
100
AcDbArc
 50
268.0888966508
 51
268.7584548263
  0
ARC
  5
446
100
AcDbEntity
  8
0
100
AcDbCircle
 62
7
  6
CONTINUOUS
 10
562.4586192971
 20
178.975271926
 40
3.905687265
100
AcDbArc
 50
268.0850753046
 51
268.7569128362
  0
ARC
  5
447
100
AcDbEntity
  8
0
100
AcDbCircle
 62
7
  6
CONTINUOUS
 10
563.9337526987
 20
178.975271924
 40
3.9056872631
100
AcDbArc
 50
271.2430871637
 51
271.9149246955
  0
ARC
  5
448
100
AcDbEntity
  8
0
100
AcDbCircle
 62
7
  6
CONTINUOUS
 10
563.9338169209
 20
178.9733165535
 40
3.9037308385
100
AcDbArc
 50
271.9149416244
 51
272.587004479
  0
ARC
  5
449
100
AcDbEntity
  8
0
100
AcDbCircle
 62
7
  6
CONTINUOUS
 10
562.4585550748
 20
178.9733165514
 40
3.9037308364
100
AcDbArc
 50
267.4129955206
 51
268.0850583755
  0
ARC
  5
44A
100
AcDbEntity
  8
0
100
AcDbCircle
 62
7
  6
CONTINUOUS
 10
562.4585055202
 20
178.9721941932
 40
3.9026073854
100
AcDbArc
 50
266.7407876125
 51
267.4129785629
  0
ARC
  5
44B
100
AcDbEntity
  8
0
100
AcDbCircle
 62
7
  6
CONTINUOUS
 10
563.9338664758
 20
178.972194191
 40
3.9026073831
100
AcDbArc
 50
272.5870214368
 51
273.2592123877
  0
ARC
  5
44C
100
AcDbEntity
  8
0
100
AcDbCircle
 62
7
  6
CONTINUOUS
 10
562.9915309666
 20
178.0643848505
 40
3.0562125659
100
AcDbArc
 50
255.8091204359
 51
258.3409045559
  0
ARC
  5
44D
100
AcDbEntity
  8
0
100
AcDbCircle
 62
7
  6
CONTINUOUS
 10
560.6565772597
 20
175.6350474859
 40
0.2011775954
100
AcDbArc
 50
250.6572469306
 51
266.5160034391
  0
ARC
  5
44E
100
AcDbEntity
  8
0
100
AcDbCircle
 62
7
  6
CONTINUOUS
 10
565.73579582
 20
175.635047413
 40
0.2011775721
100
AcDbArc
 50
273.4826391236
 51
289.3424687562
  0
ARC
  5
44F
100
AcDbEntity
  8
0
100
AcDbCircle
 62
7
  6
CONTINUOUS
 10
560.656295898
 20
175.6313877619
 40
0.1975075457
100
AcDbArc
 50
266.5329568883
 51
268.3290818225
  0
ARC
  5
450
100
AcDbEntity
  8
0
100
AcDbCircle
 62
7
  6
CONTINUOUS
 10
565.736077566
 20
175.6313789681
 40
0.1974987955
100
AcDbArc
 50
271.6523233197
 51
273.4657021145
  0
ARC
  5
451
100
AcDbEntity
  8
0
100
AcDbCircle
 62
7
  6
CONTINUOUS
 10
565.7361542364
 20
175.6306730991
 40
0.1967910234
100
AcDbArc
 50
265.4301666767
 51
271.6292808228
  0
ARC
  5
452
100
AcDbEntity
  8
0
100
AcDbCircle
 62
7
  6
CONTINUOUS
 10
563.1961859979
 20
182.85078125
 40
7.85078125
100
AcDbArc
 50
289.3885361716
 51
292.3743000866
  0
ARC
  5
453
100
AcDbEntity
  8
0
100
AcDbCircle
 62
7
  6
CONTINUOUS
 10
563.1961859979
 20
182.85078125
 40
7.85078125
100
AcDbArc
 50
247.6256999134
 51
250.6114638284
  0
ARC
  5
454
100
AcDbEntity
  8
0
100
AcDbCircle
 62
7
  6
CONTINUOUS
 10
563.1961859979
 20
182.85078125
 40
7.8338714079
100
AcDbArc
 50
251.0020052255
 51
262.964275686
  0
ARC
  5
455
100
AcDbEntity
  8
0
100
AcDbCircle
 62
7
  6
CONTINUOUS
 10
563.1961859979
 20
182.85078125
 40
7.8338714079
100
AcDbArc
 50
277.035724314
 51
288.9979859361
  0
ARC
  5
456
100
AcDbEntity
  8
0
100
AcDbCircle
 62
7
  6
CONTINUOUS
 10
563.195796242
 20
182.8761341268
 40
7.8328953252
100
AcDbArc
 50
274.8456460974
 51
275.2036328878
  0
ARC
  5
457
100
AcDbEntity
  8
0
100
AcDbCircle
 62
7
  6
CONTINUOUS
 10
562.8742502753
 20
180.7123475974
 40
5.7307441734
100
AcDbArc
 50
281.5069561452
 51
285.8687970095
  0
ARC
  5
458
100
AcDbEntity
  8
0
100
AcDbCircle
 62
7
  6
CONTINUOUS
 10
563.4345167902
 20
180.2340515997
 40
5.2406021026
100
AcDbArc
 50
258.3961318339
 51
260.1162604875
  0
ARC
  5
459
100
AcDbEntity
  8
0
100
AcDbCircle
 62
7
  6
CONTINUOUS
 10
562.9787089503
 20
180.2288739655
 40
5.2361530932
100
AcDbArc
 50
280.2028306771
 51
281.4026023751
  0
ARC
  5
45A
100
AcDbEntity
  8
0
100
AcDbCircle
 62
7
  6
CONTINUOUS
 10
563.4135399665
 20
180.2282163096
 40
5.2354840355
100
AcDbArc
 50
258.6065941212
 51
259.7972201015
  0
ARC
  5
45B
100
AcDbEntity
  8
0
100
AcDbCircle
 62
7
  6
CONTINUOUS
 10
624.1961840863
 20
93.0587293999
 40
82.3864995348
100
AcDbArc
 50
89.6418390353
 51
90.3581583057
  0
ARC
  5
45C
100
AcDbEntity
  8
0
100
AcDbCircle
 62
7
  6
CONTINUOUS
 10
621.6565772597
 20
175.6350474859
 40
0.2011775954
100
AcDbArc
 50
250.6572469303
 51
266.516003439
  0
ARC
  5
45D
100
AcDbEntity
  8
0
100
AcDbCircle
 62
7
  6
CONTINUOUS
 10
626.73579582
 20
175.635047413
 40
0.2011775721
100
AcDbArc
 50
273.4826391236
 51
289.3424687559
  0
ARC
  5
45E
100
AcDbEntity
  8
0
100
AcDbCircle
 62
7
  6
CONTINUOUS
 10
621.656295898
 20
175.631387762
 40
0.1975075457
100
AcDbArc
 50
266.5329568887
 51
268.3290818206
  0
ARC
  5
45F
100
AcDbEntity
  8
0
100
AcDbCircle
 62
7
  6
CONTINUOUS
 10
626.736077566
 20
175.6313789678
 40
0.1974987953
100
AcDbArc
 50
271.6523233178
 51
273.465702116
  0
ARC
  5
460
100
AcDbEntity
  8
0
100
AcDbCircle
 62
7
  6
CONTINUOUS
 10
626.7361542364
 20
175.6306730991
 40
0.1967910234
100
AcDbArc
 50
265.4301666773
 51
271.6292808259
  0
ARC
  5
461
100
AcDbEntity
  8
0
100
AcDbCircle
 62
7
  6
CONTINUOUS
 10
624.1961859979
 20
182.85078125
 40
7.85078125
100
AcDbArc
 50
289.3885361716
 51
292.3743000866
  0
ARC
  5
462
100
AcDbEntity
  8
0
100
AcDbCircle
 62
7
  6
CONTINUOUS
 10
624.1961859979
 20
182.85078125
 40
7.85078125
100
AcDbArc
 50
247.6256999134
 51
250.6114638284
  0
ARC
  5
463
100
AcDbEntity
  8
0
100
AcDbCircle
 62
7
  6
CONTINUOUS
 10
624.1961859979
 20
182.85078125
 40
7.8338714079
100
AcDbArc
 50
251.0020052255
 51
262.964275686
  0
ARC
  5
464
100
AcDbEntity
  8
0
100
AcDbCircle
 62
7
  6
CONTINUOUS
 10
624.1961859979
 20
182.85078125
 40
7.8338714079
100
AcDbArc
 50
277.035724314
 51
288.9979859361
  0
ARC
  5
465
100
AcDbEntity
  8
0
100
AcDbCircle
 62
7
  6
CONTINUOUS
 10
624.1957962416
 20
182.8761341316
 40
7.8328953301
100
AcDbArc
 50
274.8456460975
 51
275.2036328876
  0
ARC
  5
466
100
AcDbEntity
  8
0
100
AcDbCircle
 62
7
  6
CONTINUOUS
 10
623.8742502754
 20
180.7123475973
 40
5.7307441734
100
AcDbArc
 50
281.5069561451
 51
285.8687970095
  0
ARC
  5
467
100
AcDbEntity
  8
0
100
AcDbCircle
 62
7
  6
CONTINUOUS
 10
624.4345167902
 20
180.2340515997
 40
5.2406021026
100
AcDbArc
 50
258.3961318339
 51
260.1162604875
  0
ARC
  5
468
100
AcDbEntity
  8
0
100
AcDbCircle
 62
7
  6
CONTINUOUS
 10
623.9787089504
 20
180.2288739652
 40
5.2361530929
100
AcDbArc
 50
280.202830677
 51
281.4026023751
  0
ARC
  5
469
100
AcDbEntity
  8
0
100
AcDbCircle
 62
7
  6
CONTINUOUS
 10
624.4135399665
 20
180.2282163096
 40
5.2354840355
100
AcDbArc
 50
258.6065941212
 51
259.7972201015
  0
ARC
  5
46A
100
AcDbEntity
  8
0
100
AcDbCircle
 62
7
  6
CONTINUOUS
 10
623.4579841466
 20
179.0091102929
 40
3.9395392207
100
AcDbArc
 50
272.5799537912
 51
273.2479371573
  0
ARC
  5
46B
100
AcDbEntity
  8
0
100
AcDbCircle
 62
7
  6
CONTINUOUS
 10
624.9343878492
 20
179.0091102927
 40
3.9395392206
100
AcDbArc
 50
266.7520628426
 51
267.4200462088
  0
ARC
  5
46C
100
AcDbEntity
  8
0
100
AcDbCircle
 62
7
  6
CONTINUOUS
 10
623.4583166105
 20
179.0017568408
 40
3.9321782569
100
AcDbArc
 50
271.9111198322
 51
272.5799374352
  0
ARC
  5
46D
100
AcDbEntity
  8
0
100
AcDbCircle
 62
7
  6
CONTINUOUS
 10
624.9340553853
 20
179.0017568411
 40
3.9321782572
100
AcDbArc
 50
267.4200625649
 51
268.0888801677
  0
ARC
  5
46E
100
AcDbEntity
  8
0
100
AcDbCircle
 62
7
  6
CONTINUOUS
 10
624.9338364939
 20
178.9952307262
 40
3.9256484725
100
AcDbArc
 50
268.0888966508
 51
268.7584548263
  0
ARC
  5
46F
100
AcDbEntity
  8
0
100
AcDbCircle
 62
7
  6
CONTINUOUS
 10
623.458535502
 20
178.9952307241
 40
3.9256484704
100
AcDbArc
 50
271.2415451735
 51
271.9111033493
  0
ARC
  5
470
100
AcDbEntity
  8
0
100
AcDbCircle
 62
7
  6
CONTINUOUS
 10
623.4586192971
 20
178.975271926
 40
3.905687265
100
AcDbArc
 50
268.0850753046
 51
268.7569128362
  0
ARC
  5
471
100
AcDbEntity
  8
0
100
AcDbCircle
 62
7
  6
CONTINUOUS
 10
624.9337526988
 20
178.975271924
 40
3.9056872631
100
AcDbArc
 50
271.2430871637
 51
271.9149246955
  0
ARC
  5
472
100
AcDbEntity
  8
0
100
AcDbCircle
 62
7
  6
CONTINUOUS
 10
624.9338169209
 20
178.9733165535
 40
3.9037308385
100
AcDbArc
 50
271.9149416244
 51
272.587004479
  0
ARC
  5
473
100
AcDbEntity
  8
0
100
AcDbCircle
 62
7
  6
CONTINUOUS
 10
623.4585550748
 20
178.9733165514
 40
3.9037308364
100
AcDbArc
 50
267.4129955206
 51
268.0850583755
  0
ARC
  5
474
100
AcDbEntity
  8
0
100
AcDbCircle
 62
7
  6
CONTINUOUS
 10
623.4585055202
 20
178.9721941932
 40
3.9026073854
100
AcDbArc
 50
266.7407876125
 51
267.4129785629
  0
ARC
  5
475
100
AcDbEntity
  8
0
100
AcDbCircle
 62
7
  6
CONTINUOUS
 10
624.9338664758
 20
178.972194191
 40
3.9026073831
100
AcDbArc
 50
272.5870214368
 51
273.2592123877
  0
ARC
  5
476
100
AcDbEntity
  8
0
100
AcDbCircle
 62
7
  6
CONTINUOUS
 10
623.9915309666
 20
178.0643848505
 40
3.0562125659
100
AcDbArc
 50
255.8091204359
 51
258.3409045559
  0
ARC
  5
477
100
AcDbEntity
  8
0
100
AcDbCircle
 62
7
  6
CONTINUOUS
 10
679.901965961
 20
173.008758698
 40
5.4745898869
100
AcDbArc
 50
62.2299447534
 51
64.499126703
  0
ARC
  5
478
100
AcDbEntity
  8
0
100
AcDbCircle
 62
7
  6
CONTINUOUS
 10
685.2326100356
 20
181.3776584034
 40
5.7927012064
100
AcDbArc
 50
216.2789235029
 51
217.8882849227
  0
ARC
  5
479
100
AcDbEntity
  8
0
100
AcDbCircle
 62
7
  6
CONTINUOUS
 10
684.4037766563
 20
180.7342550034
 40
4.7434486773
100
AcDbArc
 50
217.9030955973
 51
219.1991873871
  0
ARC
  5
47A
100
AcDbEntity
  8
0
100
AcDbCircle
 62
7
  6
CONTINUOUS
 10
693.2259516285
 20
182.1424043624
 40
13.5933966534
100
AcDbArc
 50
201.3080876612
 51
202.2245895778
  0
ARC
  5
47B
100
AcDbEntity
  8
0
100
AcDbCircle
 62
7
  6
CONTINUOUS
 10
689.809445556
 20
180.7381805206
 40
9.899580469
100
AcDbArc
 50
202.1803198512
 51
204.081541913
  0
ARC
  5
47C
100
AcDbEntity
  8
0
100
AcDbCircle
 62
7
  6
CONTINUOUS
 10
687.3492552436
 20
179.6433143093
 40
7.2067671953
100
AcDbArc
 50
204.1155042485
 51
205.5306347647
  0
ARC
  5
47D
100
AcDbEntity
  8
0
100
AcDbCircle
 62
7
  6
CONTINUOUS
 10
750.1868089542
 20
214.251992022
 40
86.6500875525
100
AcDbArc
 50
203.2121520892
 51
203.6493412688
  0
ARC
  5
47E
100
AcDbEntity
  8
0
100
AcDbCircle
 62
7
  6
CONTINUOUS
 10
752.7593130628
 20
203.185299799
 40
76.7402516181
100
AcDbArc
 50
198.6702952716
 51
199.0929572561
  0
ARC
  5
47F
100
AcDbEntity
  8
0
100
AcDbCircle
 62
7
  6
CONTINUOUS
 10
752.7595393225
 20
848.0146235274
 40
76.7404905164
100
AcDbArc
 50
160.9070459824
 51
161.3297045613
  0
ARC
  5
480
100
AcDbEntity
  8
0
100
AcDbCircle
 62
7
  6
CONTINUOUS
 10
686.3849007468
 20
865.114579464
 40
16.9056817786
100
AcDbArc
 50
154.3967154043
 51
154.8914701251
  0
ARC
  5
481
100
AcDbEntity
  8
0
100
AcDbCircle
 62
7
  6
CONTINUOUS
 10
676.3393108221
 20
886.414036628
 40
14.4383487634
100
AcDbArc
 50
290.871438786
 51
292.2026332514
  0
ARC
  5
482
100
AcDbEntity
  8
0
100
AcDbCircle
 62
7
  6
CONTINUOUS
 10
678.0580054774
 20
882.2132595578
 40
9.8995804686
100
AcDbArc
 50
292.1803198512
 51
294.0815419131
  0
ARC
  5
483
100
AcDbEntity
  8
0
100
AcDbCircle
 62
7
  6
CONTINUOUS
 10
664.4124626654
 20
876.7382428605
 40
8.2976473801
100
AcDbArc
 50
325.4099917809
 51
327.5080991406
  0
ARC
  5
484
100
AcDbEntity
  8
0
100
AcDbCircle
 62
7
  6
CONTINUOUS
 10
679.1528716885
 20
879.7530692457
 40
7.2067671955
100
AcDbArc
 50
294.1155042487
 51
295.5306347649
  0
ARC
  5
485
100
AcDbEntity
  8
0
100
AcDbCircle
 62
7
  6
CONTINUOUS
 10
677.3800419854
 20
877.6878647818
 40
5.8569425626
100
AcDbArc
 50
306.2846626642
 51
307.7356813825
  0
ARC
  5
486
100
AcDbEntity
  8
0
100
AcDbCircle
 62
7
  6
CONTINUOUS
 10
685.2325304349
 20
869.8224021044
 40
5.7926012212
100
AcDbArc
 50
142.1116602778
 51
143.7209271575
  0
ARC
  5
487
100
AcDbEntity
  8
0
100
AcDbCircle
 62
7
  6
CONTINUOUS
 10
685.7874273004
 20
872.3057799629
 40
5.4745898874
100
AcDbArc
 50
152.2299447538
 51
154.4991267031
  0
ARC
  5
488
100
AcDbEntity
  8
0
100
AcDbCircle
 62
7
  6
CONTINUOUS
 10
677.9973419043
 20
876.8888970165
 40
4.8472852383
100
AcDbArc
 50
307.7451013782
 51
309.0160875286
  0
SPLINE
  5
489
100
AcDbEntity
  8
0
100
AcDbSpline
 62
7
  6
CONTINUOUS
 70
0
 71
3
 72
9
 73
5
 74
0
 42
0.0000001
 43
0.0000001
 44
0.0000000001
 40
0.0
 40
0.0
 40
0.0
 40
0.0
 40
0.2449548199
 40
1.0
 40
1.0
 40
1.0
 40
1.0
 10
623.3752824642
 20
175.1016116142
 30
0.0
 10
623.3282578122
 20
175.1113095649
 30
0.0
 10
623.1368206701
 20
175.1534721629
 30
0.0
 10
622.947623895
 20
175.2056669168
 30
0.0
 10
622.806421517
 20
175.25
 30
0.0
  0
SPLINE
  5
48A
100
AcDbEntity
  8
0
100
AcDbSpline
 62
7
  6
CONTINUOUS
 70
0
 71
3
 72
9
 73
5
 74
0
 42
0.0000001
 43
0.0000001
 44
0.0000000001
 40
0.0
 40
0.0
 40
0.0
 40
0.0
 40
0.2462187459
 40
1.0
 40
1.0
 40
1.0
 40
1.0
 10
622.806421517
 20
175.25
 30
0.0
 10
622.8410651257
 20
175.2348325805
 30
0.0
 10
622.9830828774
 20
175.1762631175
 30
0.0
 10
623.130050319
 20
175.1298356492
 30
0.0
 10
623.2422910892
 20
175.1014344875
 30
0.0
  0
SPLINE
  5
48B
100
AcDbEntity
  8
0
100
AcDbSpline
 62
7
  6
CONTINUOUS
 70
0
 71
3
 72
9
 73
5
 74
0
 42
0.0000001
 43
0.0000001
 44
0.0000000001
 40
0.0
 40
0.0
 40
0.0
 40
0.0
 40
0.2542764768
 40
1.0
 40
1.0
 40
1.0
 40
1.0
 10
625.0183562261
 20
175.0755209049
 30
0.0
 10
625.0549069685
 20
175.0833692958
 30
0.0
 10
625.1980752076
 20
175.1168352109
 30
0.0
 10
625.3387994361
 20
175.1609308075
 30
0.0
 10
625.4412387076
 20
175.2
 30
0.0
  0
SPLINE
  5
48C
100
AcDbEntity
  8
0
100
AcDbSpline
 62
7
  6
CONTINUOUS
 70
0
 71
3
 72
9
 73
5
 74
0
 42
0.0000001
 43
0.0000001
 44
0.0000000001
 40
0.0
 40
0.0
 40
0.0
 40
0.0
 40
0.2449548199
 40
1.0
 40
1.0
 40
1.0
 40
1.0
 10
141.3752824642
 20
175.1016116142
 30
0.0
 10
141.3282578122
 20
175.1113095649
 30
0.0
 10
141.1368206701
 20
175.1534721629
 30
0.0
 10
140.947623895
 20
175.2056669168
 30
0.0
 10
140.806421517
 20
175.25
 30
0.0
  0
SPLINE
  5
48D
100
AcDbEntity
  8
0
100
AcDbSpline
 62
7
  6
CONTINUOUS
 70
0
 71
3
 72
9
 73
5
 74
0
 42
0.0000001
 43
0.0000001
 44
0.0000000001
 40
0.0
 40
0.0
 40
0.0
 40
0.0
 40
0.2462187459
 40
1.0
 40
1.0
 40
1.0
 40
1.0
 10
140.806421517
 20
175.25
 30
0.0
 10
140.8410651257
 20
175.2348325805
 30
0.0
 10
140.9830828774
 20
175.1762631175
 30
0.0
 10
141.130050319
 20
175.1298356492
 30
0.0
 10
141.2422910892
 20
175.1014344875
 30
0.0
  0
SPLINE
  5
48E
100
AcDbEntity
  8
0
100
AcDbSpline
 62
7
  6
CONTINUOUS
 70
0
 71
3
 72
9
 73
5
 74
0
 42
0.0000001
 43
0.0000001
 44
0.0000000001
 40
0.0
 40
0.0
 40
0.0
 40
0.0
 40
0.2542764768
 40
1.0
 40
1.0
 40
1.0
 40
1.0
 10
143.0183562261
 20
175.0755209049
 30
0.0
 10
143.0549069685
 20
175.0833692958
 30
0.0
 10
143.1980752076
 20
175.1168352109
 30
0.0
 10
143.3387994361
 20
175.1609308075
 30
0.0
 10
143.4412387076
 20
175.2
 30
0.0
  0
SPLINE
  5
48F
100
AcDbEntity
  8
0
100
AcDbSpline
 62
7
  6
CONTINUOUS
 70
0
 71
3
 72
9
 73
5
 74
0
 42
0.0000001
 43
0.0000001
 44
0.0000000001
 40
0.0
 40
0.0
 40
0.0
 40
0.0
 40
0.2449548199
 40
1.0
 40
1.0
 40
1.0
 40
1.0
 10
202.3752824642
 20
175.1016116142
 30
0.0
 10
202.3282578122
 20
175.1113095649
 30
0.0
 10
202.1368206701
 20
175.1534721629
 30
0.0
 10
201.947623895
 20
175.2056669168
 30
0.0
 10
201.806421517
 20
175.25
 30
0.0
  0
SPLINE
  5
490
100
AcDbEntity
  8
0
100
AcDbSpline
 62
7
  6
CONTINUOUS
 70
0
 71
3
 72
9
 73
5
 74
0
 42
0.0000001
 43
0.0000001
 44
0.0000000001
 40
0.0
 40
0.0
 40
0.0
 40
0.0
 40
0.2462187459
 40
1.0
 40
1.0
 40
1.0
 40
1.0
 10
201.806421517
 20
175.25
 30
0.0
 10
201.8410651257
 20
175.2348325805
 30
0.0
 10
201.9830828774
 20
175.1762631175
 30
0.0
 10
202.130050319
 20
175.1298356492
 30
0.0
 10
202.2422910892
 20
175.1014344875
 30
0.0
  0
SPLINE
  5
491
100
AcDbEntity
  8
0
100
AcDbSpline
 62
7
  6
CONTINUOUS
 70
0
 71
3
 72
9
 73
5
 74
0
 42
0.0000001
 43
0.0000001
 44
0.0000000001
 40
0.0
 40
0.0
 40
0.0
 40
0.0
 40
0.2542764768
 40
1.0
 40
1.0
 40
1.0
 40
1.0
 10
204.0183562261
 20
175.0755209049
 30
0.0
 10
204.0549069685
 20
175.0833692958
 30
0.0
 10
204.1980752076
 20
175.1168352109
 30
0.0
 10
204.3387994361
 20
175.1609308075
 30
0.0
 10
204.4412387076
 20
175.2
 30
0.0
  0
SPLINE
  5
492
100
AcDbEntity
  8
0
100
AcDbSpline
 62
7
  6
CONTINUOUS
 70
0
 71
3
 72
9
 73
5
 74
0
 42
0.0000001
 43
0.0000001
 44
0.0000000001
 40
0.0
 40
0.0
 40
0.0
 40
0.0
 40
0.2449548199
 40
1.0
 40
1.0
 40
1.0
 40
1.0
 10
322.3752824642
 20
175.1016116142
 30
0.0
 10
322.3282578122
 20
175.1113095649
 30
0.0
 10
322.1368206701
 20
175.1534721629
 30
0.0
 10
321.947623895
 20
175.2056669168
 30
0.0
 10
321.806421517
 20
175.25
 30
0.0
  0
SPLINE
  5
493
100
AcDbEntity
  8
0
100
AcDbSpline
 62
7
  6
CONTINUOUS
 70
0
 71
3
 72
9
 73
5
 74
0
 42
0.0000001
 43
0.0000001
 44
0.0000000001
 40
0.0
 40
0.0
 40
0.0
 40
0.0
 40
0.2462187459
 40
1.0
 40
1.0
 40
1.0
 40
1.0
 10
321.806421517
 20
175.25
 30
0.0
 10
321.8410651257
 20
175.2348325805
 30
0.0
 10
321.9830828774
 20
175.1762631175
 30
0.0
 10
322.130050319
 20
175.1298356492
 30
0.0
 10
322.2422910892
 20
175.1014344875
 30
0.0
  0
SPLINE
  5
494
100
AcDbEntity
  8
0
100
AcDbSpline
 62
7
  6
CONTINUOUS
 70
0
 71
3
 72
9
 73
5
 74
0
 42
0.0000001
 43
0.0000001
 44
0.0000000001
 40
0.0
 40
0.0
 40
0.0
 40
0.0
 40
0.2542764768
 40
1.0
 40
1.0
 40
1.0
 40
1.0
 10
324.0183562261
 20
175.0755209049
 30
0.0
 10
324.0549069685
 20
175.0833692958
 30
0.0
 10
324.1980752076
 20
175.1168352109
 30
0.0
 10
324.3387994361
 20
175.1609308075
 30
0.0
 10
324.4412387076
 20
175.2
 30
0.0
  0
SPLINE
  5
495
100
AcDbEntity
  8
0
100
AcDbSpline
 62
7
  6
CONTINUOUS
 70
0
 71
3
 72
9
 73
5
 74
0
 42
0.0000001
 43
0.0000001
 44
0.0000000001
 40
0.0
 40
0.0
 40
0.0
 40
0.0
 40
0.2449548199
 40
1.0
 40
1.0
 40
1.0
 40
1.0
 10
442.3752824642
 20
175.1016116142
 30
0.0
 10
442.3282578122
 20
175.1113095649
 30
0.0
 10
442.1368206701
 20
175.1534721629
 30
0.0
 10
441.947623895
 20
175.2056669168
 30
0.0
 10
441.806421517
 20
175.25
 30
0.0
  0
SPLINE
  5
496
100
AcDbEntity
  8
0
100
AcDbSpline
 62
7
  6
CONTINUOUS
 70
0
 71
3
 72
9
 73
5
 74
0
 42
0.0000001
 43
0.0000001
 44
0.0000000001
 40
0.0
 40
0.0
 40
0.0
 40
0.0
 40
0.2462187459
 40
1.0
 40
1.0
 40
1.0
 40
1.0
 10
441.806421517
 20
175.25
 30
0.0
 10
441.8410651257
 20
175.2348325805
 30
0.0
 10
441.9830828774
 20
175.1762631175
 30
0.0
 10
442.130050319
 20
175.1298356492
 30
0.0
 10
442.2422910892
 20
175.1014344875
 30
0.0
  0
SPLINE
  5
497
100
AcDbEntity
  8
0
100
AcDbSpline
 62
7
  6
CONTINUOUS
 70
0
 71
3
 72
9
 73
5
 74
0
 42
0.0000001
 43
0.0000001
 44
0.0000000001
 40
0.0
 40
0.0
 40
0.0
 40
0.0
 40
0.2542764768
 40
1.0
 40
1.0
 40
1.0
 40
1.0
 10
444.0183562261
 20
175.0755209049
 30
0.0
 10
444.0549069685
 20
175.0833692958
 30
0.0
 10
444.1980752076
 20
175.1168352109
 30
0.0
 10
444.3387994361
 20
175.1609308075
 30
0.0
 10
444.4412387076
 20
175.2
 30
0.0
  0
SPLINE
  5
498
100
AcDbEntity
  8
0
100
AcDbSpline
 62
7
  6
CONTINUOUS
 70
0
 71
3
 72
9
 73
5
 74
0
 42
0.0000001
 43
0.0000001
 44
0.0000000001
 40
0.0
 40
0.0
 40
0.0
 40
0.0
 40
0.2449548199
 40
1.0
 40
1.0
 40
1.0
 40
1.0
 10
562.3752824642
 20
175.1016116142
 30
0.0
 10
562.3282578122
 20
175.1113095649
 30
0.0
 10
562.1368206701
 20
175.1534721629
 30
0.0
 10
561.947623895
 20
175.2056669168
 30
0.0
 10
561.806421517
 20
175.25
 30
0.0
  0
SPLINE
  5
499
100
AcDbEntity
  8
0
100
AcDbSpline
 62
7
  6
CONTINUOUS
 70
0
 71
3
 72
9
 73
5
 74
0
 42
0.0000001
 43
0.0000001
 44
0.0000000001
 40
0.0
 40
0.0
 40
0.0
 40
0.0
 40
0.2462187459
 40
1.0
 40
1.0
 40
1.0
 40
1.0
 10
561.806421517
 20
175.25
 30
0.0
 10
561.8410651257
 20
175.2348325805
 30
0.0
 10
561.9830828774
 20
175.1762631175
 30
0.0
 10
562.130050319
 20
175.1298356492
 30
0.0
 10
562.2422910892
 20
175.1014344875
 30
0.0
  0
SPLINE
  5
49A
100
AcDbEntity
  8
0
100
AcDbSpline
 62
7
  6
CONTINUOUS
 70
0
 71
3
 72
9
 73
5
 74
0
 42
0.0000001
 43
0.0000001
 44
0.0000000001
 40
0.0
 40
0.0
 40
0.0
 40
0.0
 40
0.2542764768
 40
1.0
 40
1.0
 40
1.0
 40
1.0
 10
564.0183562261
 20
175.0755209049
 30
0.0
 10
564.0549069685
 20
175.0833692958
 30
0.0
 10
564.1980752076
 20
175.1168352109
 30
0.0
 10
564.3387994361
 20
175.1609308075
 30
0.0
 10
564.4412387076
 20
175.2
 30
0.0
  0
SPLINE
  5
49B
100
AcDbEntity
  8
0
100
AcDbSpline
 62
7
  6
CONTINUOUS
 70
0
 71
3
 72
9
 73
5
 74
0
 42
0.0000001
 43
0.0000001
 44
0.0000000001
 40
0.0
 40
0.0
 40
0.0
 40
0.0
 40
0.4999540173
 40
1.0
 40
1.0
 40
1.0
 40
1.0
 10
126.688073353
 20
524.7214887697
 30
0.0
 10
126.6645295513
 20
524.7162401935
 30
0.0
 10
126.6199312112
 20
524.6865241123
 30
0.0
 10
126.6081162794
 20
524.63449236
 30
0.0
 10
126.6112383006
 20
524.6105690405
 30
0.0
  0
SPLINE
  5
49C
100
AcDbEntity
  8
0
100
AcDbSpline
 62
7
  6
CONTINUOUS
 70
0
 71
3
 72
18
 73
14
 74
0
 42
0.0000001
 43
0.0000001
 44
0.0000000001
 40
0.0
 40
0.0
 40
0.0
 40
0.0
 40
0.0048642344
 40
0.0193850733
 40
0.043582735
 40
0.0772097452
 40
0.1198466737
 40
0.1710420339
 40
0.2966872571
 40
0.4487576895
 40
0.6210467786
 40
0.8071614162
 40
1.0
 40
1.0
 40
1.0
 40
1.0
 10
128.1857425618
 20
527.1558562078
 30
0.0
 10
128.1859016364
 20
527.1565014648
 30
0.0
 10
128.1815502526
 20
527.15654363
 30
0.0
 10
128.1773008369
 20
527.1575589898
 30
0.0
 10
128.1664810061
 20
527.1579358681
 30
0.0
 10
128.1531868428
 20
527.1586661936
 30
0.0
 10
128.13562422
 20
527.1592310413
 30
0.0
 10
128.1057222971
 20
527.1600757254
 30
0.0
 10
128.0607471533
 20
527.1609410381
 30
0.0
 10
127.9992890551
 20
527.1617689539
 30
0.0
 10
127.9295419466
 20
527.1623782927
 30
0.0
 10
127.8542311071
 20
527.1627541826
 30
0.0
 10
127.8024561396
 20
527.1628382337
 30
0.0
 10
127.7761095656
 20
527.1628382337
 30
0.0
  0
SPLINE
  5
49D
100
AcDbEntity
  8
0
100
AcDbSpline
 62
7
  6
CONTINUOUS
 70
0
 71
3
 72
18
 73
14
 74
0
 42
0.0000001
 43
0.0000001
 44
0.0000000001
 40
0.0
 40
0.0
 40
0.0
 40
0.0
 40
0.192838901
 40
0.3789539668
 40
0.5512429129
 40
0.7033131269
 40
0.828958438
 40
0.8801538743
 40
0.9227906964
 40
0.9564175325
 40
0.9806151288
 40
0.9951358394
 40
1.0
 40
1.0
 40
1.0
 40
1.0
 10
141.2174691182
 20
527.1628382337
 30
0.0
 10
141.1911225008
 20
527.1628382337
 30
0.0
 10
141.1393474312
 20
527.1627541815
 30
0.0
 10
141.0640365091
 20
527.1623782915
 30
0.0
 10
140.9942893912
 20
527.1617689514
 30
0.0
 10
140.9328313301
 20
527.1609410357
 30
0.0
 10
140.8878561935
 20
527.1600757196
 30
0.0
 10
140.8579542628
 20
527.1592310358
 30
0.0
 10
140.8403916684
 20
527.1586661859
 30
0.0
 10
140.82709755
 20
527.1579358617
 30
0.0
 10
140.8162777745
 20
527.1575589803
 30
0.0
 10
140.8120283782
 20
527.1565436424
 30
0.0
 10
140.8076770499
 20
527.156501455
 30
0.0
 10
140.807836122
 20
527.1558562078
 30
0.0
  0
SPLINE
  5
49E
100
AcDbEntity
  8
0
100
AcDbSpline
 62
7
  6
CONTINUOUS
 70
0
 71
3
 72
13
 73
9
 74
0
 42
0.0000001
 43
0.0000001
 44
0.0000000001
 40
0.0
 40
0.0
 40
0.0
 40
0.0
 40
0.0182367309
 40
0.0766918224
 40
0.170364272
 40
0.2952505451
 40
0.6198569101
 40
1.0
 40
1.0
 40
1.0
 40
1.0
 10
126.803772912
 20
524.0354150409
 30
0.0
 10
126.8032938012
 20
524.0358065215
 30
0.0
 10
126.8086014728
 20
524.0356514261
 30
0.0
 10
126.8117103072
 20
524.0363043529
 30
0.0
 10
126.8225587818
 20
524.0363749603
 30
0.0
 10
126.8401800865
 20
524.0368551151
 30
0.0
 10
126.8688637439
 20
524.0370607393
 30
0.0
 10
126.8926048548
 20
524.0371617663
 30
0.0
 10
126.9055018489
 20
524.0371617663
 30
0.0
  0
SPLINE
  5
49F
100
AcDbEntity
  8
0
100
AcDbSpline
 62
7
  6
CONTINUOUS
 70
0
 71
3
 72
13
 73
9
 74
0
 42
0.0000001
 43
0.0000001
 44
0.0000000001
 40
0.0
 40
0.0
 40
0.0
 40
0.0
 40
0.3801433716
 40
0.7047498137
 40
0.8296360748
 40
0.9233082665
 40
0.9817632028
 40
1.0
 40
1.0
 40
1.0
 40
1.0
 10
142.0880768349
 20
524.0371617663
 30
0.0
 10
142.1009738385
 20
524.0371617663
 30
0.0
 10
142.1247149613
 20
524.0370607384
 30
0.0
 10
142.1533986306
 20
524.0368551163
 30
0.0
 10
142.1710199289
 20
524.0363749581
 30
0.0
 10
142.1818683847
 20
524.0363043509
 30
0.0
 10
142.1849772154
 20
524.035651422
 30
0.0
 10
142.190284884
 20
524.0358065226
 30
0.0
 10
142.1898057714
 20
524.0354150406
 30
0.0
  0
SPLINE
  5
4A0
100
AcDbEntity
  8
0
100
AcDbSpline
 62
7
  6
CONTINUOUS
 70
0
 71
3
 72
18
 73
14
 74
0
 42
0.0000001
 43
0.0000001
 44
0.0000000001
 40
0.0
 40
0.0
 40
0.0
 40
0.0
 40
0.0048642344
 40
0.0193850733
 40
0.043582735
 40
0.0772097452
 40
0.1198466737
 40
0.1710420339
 40
0.2966872571
 40
0.4487576895
 40
0.6210467786
 40
0.8071614162
 40
1.0
 40
1.0
 40
1.0
 40
1.0
 10
140.807836122
 20
524.0441437922
 30
0.0
 10
140.8076770474
 20
524.0434985352
 30
0.0
 10
140.8120284312
 20
524.04345637
 30
0.0
 10
140.8162778469
 20
524.0424410102
 30
0.0
 10
140.8270976777
 20
524.0420641319
 30
0.0
 10
140.8403918411
 20
524.0413338064
 30
0.0
 10
140.8579544638
 20
524.0407689587
 30
0.0
 10
140.8878563867
 20
524.0399242746
 30
0.0
 10
140.9328315305
 20
524.0390589619
 30
0.0
 10
140.9942896287
 20
524.0382310462
 30
0.0
 10
141.0640367372
 20
524.0376217073
 30
0.0
 10
141.1393475767
 20
524.0372458174
 30
0.0
 10
141.1911225442
 20
524.0371617663
 30
0.0
 10
141.2174691182
 20
524.0371617663
 30
0.0
  0
SPLINE
  5
4A1
100
AcDbEntity
  8
0
100
AcDbSpline
 62
7
  6
CONTINUOUS
 70
0
 71
3
 72
18
 73
14
 74
0
 42
0.0000001
 43
0.0000001
 44
0.0000000001
 40
0.0
 40
0.0
 40
0.0
 40
0.0
 40
0.192838901
 40
0.3789539668
 40
0.5512429129
 40
0.7033131269
 40
0.828958438
 40
0.8801538743
 40
0.9227906964
 40
0.9564175325
 40
0.9806151288
 40
0.9951358394
 40
1.0
 40
1.0
 40
1.0
 40
1.0
 10
127.7761095656
 20
524.0371617663
 30
0.0
 10
127.802456183
 20
524.0371617663
 30
0.0
 10
127.8542312526
 20
524.0372458185
 30
0.0
 10
127.9295421747
 20
524.0376217086
 30
0.0
 10
127.9992892927
 20
524.0382310486
 30
0.0
 10
128.0607473537
 20
524.0390589644
 30
0.0
 10
128.1057224903
 20
524.0399242804
 30
0.0
 10
128.135624421
 20
524.0407689642
 30
0.0
 10
128.1531870155
 20
524.0413338141
 30
0.0
 10
128.1664811338
 20
524.0420641383
 30
0.0
 10
128.1773009093
 20
524.0424410197
 30
0.0
 10
128.1815503056
 20
524.0434563576
 30
0.0
 10
128.185901634
 20
524.043498545
 30
0.0
 10
128.1857425618
 20
524.0441437922
 30
0.0
  0
SPLINE
  5
4A2
100
AcDbEntity
  8
0
100
AcDbSpline
 62
7
  6
CONTINUOUS
 70
0
 71
3
 72
9
 73
5
 74
0
 42
0.0000001
 43
0.0000001
 44
0.0000000001
 40
0.0
 40
0.0
 40
0.0
 40
0.0
 40
0.500001724
 40
1.0
 40
1.0
 40
1.0
 40
1.0
 10
126.6880688835
 20
526.4784928108
 30
0.0
 10
126.6645515971
 20
526.4838653993
 30
0.0
 10
126.6199195786
 20
526.5134196923
 30
0.0
 10
126.6081448198
 20
526.5655068289
 30
0.0
 10
126.6112612078
 20
526.5894276894
 30
0.0
  0
SPLINE
  5
4A3
100
AcDbEntity
  8
0
100
AcDbSpline
 62
7
  6
CONTINUOUS
 70
0
 71
3
 72
9
 73
5
 74
0
 42
0.0000001
 43
0.0000001
 44
0.0000000001
 40
0.0
 40
0.0
 40
0.0
 40
0.0
 40
0.500005669
 40
1.0
 40
1.0
 40
1.0
 40
1.0
 10
129.6982555119
 20
527.1966778213
 30
0.0
 10
129.7755394185
 20
527.1968717671
 30
0.0
 10
129.9334970743
 20
527.2448112154
 30
0.0
 10
130.0368079994
 20
527.3731895412
 30
0.0
 10
130.0663627945
 20
527.4445974052
 30
0.0
  0
SPLINE
  5
4A4
100
AcDbEntity
  8
0
100
AcDbSpline
 62
7
  6
CONTINUOUS
 70
0
 71
3
 72
9
 73
5
 74
0
 42
0.0000001
 43
0.0000001
 44
0.0000000001
 40
0.0
 40
0.0
 40
0.0
 40
0.0
 40
0.4999585552
 40
1.0
 40
1.0
 40
1.0
 40
1.0
 10
126.6402724707
 20
524.6176126444
 30
0.0
 10
126.6374649992
 20
524.6410623438
 30
0.0
 10
126.6499900618
 20
524.6917220697
 30
0.0
 10
126.6932646855
 20
524.7206812953
 30
0.0
 10
126.716231244
 20
524.7262032928
 30
0.0
  0
SPLINE
  5
4A5
100
AcDbEntity
  8
0
100
AcDbSpline
 62
7
  6
CONTINUOUS
 70
0
 71
3
 72
9
 73
5
 74
0
 42
0.0000001
 43
0.0000001
 44
0.0000000001
 40
0.0
 40
0.0
 40
0.0
 40
0.0
 40
0.4999916758
 40
1.0
 40
1.0
 40
1.0
 40
1.0
 10
129.7593359321
 20
527.1068601971
 30
0.0
 10
129.8373818436
 20
527.1068457043
 30
0.0
 10
129.9971472534
 20
527.1547649068
 30
0.0
 10
130.1012421049
 20
527.2850955373
 30
0.0
 10
130.1303609614
 20
527.3575086739
 30
0.0
  0
SPLINE
  5
4A6
100
AcDbEntity
  8
0
100
AcDbSpline
 62
7
  6
CONTINUOUS
 70
0
 71
3
 72
8
 73
4
 74
0
 42
0.0000001
 43
0.0000001
 44
0.0000000001
 40
0.0
 40
0.0
 40
0.0
 40
0.0
 40
1.0
 40
1.0
 40
1.0
 40
1.0
 10
130.0663627945
 20
527.4445974052
 30
0.0
 10
130.0886338831
 20
527.4158471256
 30
0.0
 10
130.1091380667
 20
527.3857542965
 30
0.0
 10
130.131479482
 20
527.3570586325
 30
0.0
  0
SPLINE
  5
4A7
100
AcDbEntity
  8
0
100
AcDbSpline
 62
7
  6
CONTINUOUS
 70
0
 71
3
 72
8
 73
4
 74
0
 42
0.0000001
 43
0.0000001
 44
0.0000000001
 40
0.0
 40
0.0
 40
0.0
 40
0.0
 40
1.0
 40
1.0
 40
1.0
 40
1.0
 10
138.8621177765
 20
527.3570131337
 30
0.0
 10
138.8844643457
 20
527.3857155303
 30
0.0
 10
138.9049396189
 20
527.4158404241
 30
0.0
 10
138.9272158972
 20
527.4445974084
 30
0.0
  0
SPLINE
  5
4A8
100
AcDbEntity
  8
0
100
AcDbSpline
 62
7
  6
CONTINUOUS
 70
0
 71
3
 72
9
 73
5
 74
0
 42
0.0000001
 43
0.0000001
 44
0.0000000001
 40
0.0
 40
0.0
 40
0.0
 40
0.0
 40
0.4999914226
 40
1.0
 40
1.0
 40
1.0
 40
1.0
 10
138.8632359423
 20
527.3574632233
 30
0.0
 10
138.8923607072
 20
527.2850637161
 30
0.0
 10
138.9964525474
 20
527.154757024
 30
0.0
 10
139.1562020163
 20
527.1068450037
 30
0.0
 10
139.2342427635
 20
527.1068602497
 30
0.0
  0
SPLINE
  5
4A9
100
AcDbEntity
  8
0
100
AcDbSpline
 62
7
  6
CONTINUOUS
 70
0
 71
3
 72
9
 73
5
 74
0
 42
0.0000001
 43
0.0000001
 44
0.0000000001
 40
0.0
 40
0.0
 40
0.0
 40
0.0
 40
0.4999943311
 40
1.0
 40
1.0
 40
1.0
 40
1.0
 10
138.9272158972
 20
527.4445974084
 30
0.0
 10
138.956770691
 20
527.3731895439
 30
0.0
 10
139.0600816101
 20
527.2448112144
 30
0.0
 10
139.2180392653
 20
527.1968717603
 30
0.0
 10
139.2953231718
 20
527.1966778135
 30
0.0
  0
SPLINE
  5
4AA
100
AcDbEntity
  8
0
100
AcDbSpline
 62
7
  6
CONTINUOUS
 70
0
 71
3
 72
9
 73
5
 74
0
 42
0.0000001
 43
0.0000001
 44
0.0000000001
 40
0.0
 40
0.0
 40
0.0
 40
0.0
 40
0.4998529623
 40
1.0
 40
1.0
 40
1.0
 40
1.0
 10
126.7162304648
 20
526.4737931648
 30
0.0
 10
126.6932732565
 20
526.4793147637
 30
0.0
 10
126.6500013808
 20
526.5082677031
 30
0.0
 10
126.6374679561
 20
526.5589286495
 30
0.0
 10
126.6402765769
 20
526.5823868957
 30
0.0
  0
SPLINE
  5
4AB
100
AcDbEntity
  8
0
100
AcDbSpline
 62
7
  6
CONTINUOUS
 70
0
 71
3
 72
9
 73
5
 74
0
 42
0.0000001
 43
0.0000001
 44
0.0000000001
 40
0.0
 40
0.0
 40
0.0
 40
0.0
 40
0.500005669
 40
1.0
 40
1.0
 40
1.0
 40
1.0
 10
139.2953231719
 20
524.0033221787
 30
0.0
 10
139.2180392653
 20
524.0031282329
 30
0.0
 10
139.0600816095
 20
523.9551887846
 30
0.0
 10
138.9567706845
 20
523.8268104588
 30
0.0
 10
138.9272158894
 20
523.7554025948
 30
0.0
  0
SPLINE
  5
4AC
100
AcDbEntity
  8
0
100
AcDbSpline
 62
7
  6
CONTINUOUS
 70
0
 71
3
 72
9
 73
5
 74
0
 42
0.0000001
 43
0.0000001
 44
0.0000000001
 40
0.0
 40
0.0
 40
0.0
 40
0.0
 40
0.4999916758
 40
1.0
 40
1.0
 40
1.0
 40
1.0
 10
139.2342427517
 20
524.0931398029
 30
0.0
 10
139.1561968403
 20
524.0931542958
 30
0.0
 10
138.9964314304
 20
524.0452350932
 30
0.0
 10
138.8923365789
 20
523.9149044627
 30
0.0
 10
138.8632177225
 20
523.8424913261
 30
0.0
  0
SPLINE
  5
4AD
100
AcDbEntity
  8
0
100
AcDbSpline
 62
7
  6
CONTINUOUS
 70
0
 71
3
 72
8
 73
4
 74
0
 42
0.0000001
 43
0.0000001
 44
0.0000000001
 40
0.0
 40
0.0
 40
0.0
 40
0.0
 40
1.0
 40
1.0
 40
1.0
 40
1.0
 10
138.9272158894
 20
523.7554025948
 30
0.0
 10
138.9049448007
 20
523.7841528745
 30
0.0
 10
138.8844406171
 20
523.8142457035
 30
0.0
 10
138.8620992018
 20
523.8429413675
 30
0.0
  0
SPLINE
  5
4AE
100
AcDbEntity
  8
0
100
AcDbSpline
 62
7
  6
CONTINUOUS
 70
0
 71
3
 72
8
 73
4
 74
0
 42
0.0000001
 43
0.0000001
 44
0.0000000001
 40
0.0
 40
0.0
 40
0.0
 40
0.0
 40
1.0
 40
1.0
 40
1.0
 40
1.0
 10
130.1314609073
 20
523.8429868663
 30
0.0
 10
130.1091143381
 20
523.8142844697
 30
0.0
 10
130.0886390649
 20
523.7841595759
 30
0.0
 10
130.0663627867
 20
523.7554025916
 30
0.0
  0
SPLINE
  5
4AF
100
AcDbEntity
  8
0
100
AcDbSpline
 62
7
  6
CONTINUOUS
 70
0
 71
3
 72
9
 73
5
 74
0
 42
0.0000001
 43
0.0000001
 44
0.0000000001
 40
0.0
 40
0.0
 40
0.0
 40
0.0
 40
0.4999914226
 40
1.0
 40
1.0
 40
1.0
 40
1.0
 10
130.1303427416
 20
523.8425367768
 30
0.0
 10
130.1012179767
 20
523.9149362839
 30
0.0
 10
129.9971261364
 20
524.045242976
 30
0.0
 10
129.8373766676
 20
524.0931549963
 30
0.0
 10
129.7593359203
 20
524.0931397503
 30
0.0
  0
SPLINE
  5
4B0
100
AcDbEntity
  8
0
100
AcDbSpline
 62
7
  6
CONTINUOUS
 70
0
 71
3
 72
9
 73
5
 74
0
 42
0.0000001
 43
0.0000001
 44
0.0000000001
 40
0.0
 40
0.0
 40
0.0
 40
0.0
 40
0.4999943311
 40
1.0
 40
1.0
 40
1.0
 40
1.0
 10
130.0663627867
 20
523.7554025916
 30
0.0
 10
130.0368079928
 20
523.8268104561
 30
0.0
 10
129.9334970737
 20
523.9551887856
 30
0.0
 10
129.7755394185
 20
524.0031282397
 30
0.0
 10
129.698255512
 20
524.0033221865
 30
0.0
  0
SPLINE
  5
4B1
100
AcDbEntity
  8
0
100
AcDbSpline
 62
7
  6
CONTINUOUS
 70
0
 71
3
 72
11
 73
7
 74
0
 42
0.0000001
 43
0.0000001
 44
0.0000000001
 40
0.0
 40
0.0
 40
0.0
 40
0.0
 40
0.2500649777
 40
0.4999839457
 40
0.7498980878
 40
1.0
 40
1.0
 40
1.0
 40
1.0
 10
133.6344603776
 20
503.0999999905
 30
0.0
 10
133.6344603776
 20
502.9879536198
 30
0.0
 10
133.6793992094
 20
502.761489375
 30
0.0
 10
133.8713990144
 20
502.4753556046
 30
0.0
 10
134.1583435963
 20
502.2848040181
 30
0.0
 10
134.3847264221
 20
502.2399436635
 30
0.0
 10
134.4967893419
 20
502.2399436635
 30
0.0
  0
SPLINE
  5
4B2
100
AcDbEntity
  8
0
100
AcDbSpline
 62
7
  6
CONTINUOUS
 70
0
 71
3
 72
9
 73
5
 74
0
 42
0.0000001
 43
0.0000001
 44
0.0000000001
 40
0.0
 40
0.0
 40
0.0
 40
0.0
 40
0.5002545775
 40
1.0
 40
1.0
 40
1.0
 40
1.0
 10
134.4967893419
 20
503.9600563365
 30
0.0
 10
134.346053537
 20
503.9600563365
 30
0.0
 10
134.0391578372
 20
503.8782146253
 30
0.0
 10
133.817538471
 20
503.650673919
 30
0.0
 10
133.7438735301
 20
503.5193402529
 30
0.0
  0
SPLINE
  5
4B3
100
AcDbEntity
  8
0
100
AcDbSpline
 62
7
  6
CONTINUOUS
 70
0
 71
3
 72
8
 73
4
 74
0
 42
0.0000001
 43
0.0000001
 44
0.0000000001
 40
0.0
 40
0.0
 40
0.0
 40
0.0
 40
1.0
 40
1.0
 40
1.0
 40
1.0
 10
133.7438735301
 20
503.5193402529
 30
0.0
 10
133.6732038001
 20
503.3933466036
 30
0.0
 10
133.6344603776
 20
503.2444597095
 30
0.0
 10
133.6344603776
 20
503.0999999905
 30
0.0
  0
SPLINE
  5
4B4
100
AcDbEntity
  8
0
100
AcDbSpline
 62
7
  6
CONTINUOUS
 70
0
 71
3
 72
9
 73
5
 74
0
 42
0.0000001
 43
0.0000001
 44
0.0000000001
 40
0.0
 40
0.0
 40
0.0
 40
0.0
 40
0.5001605689
 40
1.0
 40
1.0
 40
1.0
 40
1.0
 10
135.3591159605
 20
503.1000000136
 30
0.0
 10
135.3591159605
 20
503.1727703792
 30
0.0
 10
135.3410799022
 20
503.318986942
 30
0.0
 10
135.2853949982
 20
503.4553830199
 30
0.0
 10
135.2498645931
 20
503.5188362972
 30
0.0
  0
SPLINE
  5
4B5
100
AcDbEntity
  8
0
100
AcDbSpline
 62
7
  6
CONTINUOUS
 70
0
 71
3
 72
11
 73
7
 74
0
 42
0.0000001
 43
0.0000001
 44
0.0000000001
 40
0.0
 40
0.0
 40
0.0
 40
0.0
 40
0.2498990897
 40
0.4997653517
 40
0.7498084314
 40
1.0
 40
1.0
 40
1.0
 40
1.0
 10
135.2498645931
 20
503.5188362972
 30
0.0
 10
135.2127268213
 20
503.5851601494
 30
0.0
 10
135.120958171
 20
503.7090675851
 30
0.0
 10
134.9383082383
 20
503.8500008936
 30
0.0
 10
134.7259098726
 20
503.9400140405
 30
0.0
 10
134.5728919078
 20
503.9600563365
 30
0.0
 10
134.4967893419
 20
503.9600563365
 30
0.0
  0
SPLINE
  5
4B6
100
AcDbEntity
  8
0
100
AcDbSpline
 62
7
  6
CONTINUOUS
 70
0
 71
3
 72
11
 73
7
 74
0
 42
0.0000001
 43
0.0000001
 44
0.0000000001
 40
0.0
 40
0.0
 40
0.0
 40
0.0
 40
0.2501242431
 40
0.5000144597
 40
0.7499104779
 40
1.0
 40
1.0
 40
1.0
 40
1.0
 10
134.4967893419
 20
502.2399436635
 30
0.0
 10
134.6088613808
 20
502.2399436635
 30
0.0
 10
134.8353113186
 20
502.2846633675
 30
0.0
 10
135.1219928931
 20
502.4755393634
 30
0.0
 10
135.3143060466
 20
502.761412818
 30
0.0
 10
135.3591159605
 20
502.9879435321
 30
0.0
 10
135.3591159605
 20
503.1000000136
 30
0.0
  0
SPLINE
  5
4B7
100
AcDbEntity
  8
0
100
AcDbSpline
 62
7
  6
CONTINUOUS
 70
0
 71
3
 72
9
 73
5
 74
0
 42
0.0000001
 43
0.0000001
 44
0.0000000001
 40
0.0
 40
0.0
 40
0.0
 40
0.0
 40
0.5000373777
 40
1.0
 40
1.0
 40
1.0
 40
1.0
 10
146.9808497428
 20
499.1401701118
 30
0.0
 10
147.1377509152
 20
499.2306029353
 30
0.0
 10
147.4298783188
 20
499.4523043235
 30
0.0
 10
147.6538345731
 20
499.743185979
 30
0.0
 10
147.7440626597
 20
499.9001737511
 30
0.0
  0
SPLINE
  5
4B8
100
AcDbEntity
  8
0
100
AcDbSpline
 62
7
  6
CONTINUOUS
 70
0
 71
3
 72
9
 73
5
 74
0
 42
0.0000001
 43
0.0000001
 44
0.0000000001
 40
0.0
 40
0.0
 40
0.0
 40
0.0
 40
0.4999627539
 40
1.0
 40
1.0
 40
1.0
 40
1.0
 10
121.2495036047
 20
499.9001914429
 30
0.0
 10
121.3397319078
 20
499.7431993704
 30
0.0
 10
121.5636933599
 20
499.4523117703
 30
0.0
 10
121.8558255
 20
499.2306041155
 30
0.0
 10
122.0127299162
 20
499.1401694271
 30
0.0
  0
SPLINE
  5
4B9
100
AcDbEntity
  8
0
100
AcDbSpline
 62
7
  6
CONTINUOUS
 70
0
 71
3
 72
9
 73
5
 74
0
 42
0.0000001
 43
0.0000001
 44
0.0000000001
 40
0.0
 40
0.0
 40
0.0
 40
0.0
 40
0.5000373815
 40
1.0
 40
1.0
 40
1.0
 40
1.0
 10
122.0127299204
 20
542.4598305753
 30
0.0
 10
121.8558286022
 20
542.3693976718
 30
0.0
 10
121.5637008356
 20
542.1476962318
 30
0.0
 10
121.3397442957
 20
541.8568143466
 30
0.0
 10
121.2495161372
 20
541.6998264273
 30
0.0
  0
SPLINE
  5
4BA
100
AcDbEntity
  8
0
100
AcDbSpline
 62
7
  6
CONTINUOUS
 70
0
 71
3
 72
9
 73
5
 74
0
 42
0.0000001
 43
0.0000001
 44
0.0000000001
 40
0.0
 40
0.0
 40
0.0
 40
0.0
 40
0.4999627583
 40
1.0
 40
1.0
 40
1.0
 40
1.0
 10
147.744074947
 20
541.6998087623
 30
0.0
 10
147.653846778
 20
541.856800618
 30
0.0
 10
147.4298856918
 20
542.147687828
 30
0.0
 10
147.1377540332
 20
542.3693952721
 30
0.0
 10
146.980849839
 20
542.4598298286
 30
0.0
  0
SPLINE
  5
4BB
100
AcDbEntity
  8
0
100
AcDbSpline
 62
7
  6
CONTINUOUS
 70
0
 71
3
 72
8
 73
4
 74
0
 42
0.0000001
 43
0.0000001
 44
0.0000000001
 40
0.0
 40
0.0
 40
0.0
 40
0.0
 40
1.0
 40
1.0
 40
1.0
 40
1.0
 10
148.2205859322
 20
540.4783221703
 30
0.0
 10
148.1208137904
 20
540.9038286516
 30
0.0
 10
147.9618541982
 20
541.3208860212
 30
0.0
 10
147.744074947
 20
541.6998087623
 30
0.0
  0
SPLINE
  5
4BC
100
AcDbEntity
  8
0
100
AcDbSpline
 62
7
  6
CONTINUOUS
 70
0
 71
3
 72
8
 73
4
 74
0
 42
0.0000001
 43
0.0000001
 44
0.0000000001
 40
0.0
 40
0.0
 40
0.0
 40
0.0
 40
1.0
 40
1.0
 40
1.0
 40
1.0
 10
147.7440626597
 20
499.9001737511
 30
0.0
 10
147.9618472863
 20
500.2791014029
 30
0.0
 10
148.1208122213
 20
500.6961646458
 30
0.0
 10
148.2205859465
 20
501.1216778802
 30
0.0
  0
SPLINE
  5
4BD
100
AcDbEntity
  8
0
100
AcDbSpline
 62
7
  6
CONTINUOUS
 70
0
 71
3
 72
8
 73
4
 74
0
 42
0.0000001
 43
0.0000001
 44
0.0000000001
 40
0.0
 40
0.0
 40
0.0
 40
0.0
 40
1.0
 40
1.0
 40
1.0
 40
1.0
 10
120.7729927517
 20
501.1216778298
 30
0.0
 10
120.8727648753
 20
500.696171426
 30
0.0
 10
121.0317244152
 20
500.2791141275
 30
0.0
 10
121.2495036047
 20
499.9001914429
 30
0.0
  0
SPLINE
  5
4BE
100
AcDbEntity
  8
0
100
AcDbSpline
 62
7
  6
CONTINUOUS
 70
0
 71
3
 72
8
 73
4
 74
0
 42
0.0000001
 43
0.0000001
 44
0.0000000001
 40
0.0
 40
0.0
 40
0.0
 40
0.0
 40
1.0
 40
1.0
 40
1.0
 40
1.0
 10
121.2495161372
 20
541.6998264273
 30
0.0
 10
121.0317314572
 20
541.3208987265
 30
0.0
 10
120.8727664783
 20
540.9038354215
 30
0.0
 10
120.7729927374
 20
540.4783221198
 30
0.0
  0
SPLINE
  5
4BF
100
AcDbEntity
  8
0
100
AcDbSpline
 62
7
  6
CONTINUOUS
 70
0
 71
3
 72
9
 73
5
 74
0
 42
0.0000001
 43
0.0000001
 44
0.0000000001
 40
0.0
 40
0.0
 40
0.0
 40
0.0
 40
0.4074311247
 40
1.0
 40
1.0
 40
1.0
 40
1.0
 10
121.2495056016
 20
541.6998324826
 30
0.0
 10
121.3546057221
 20
541.7997538794
 30
0.0
 10
121.6369308459
 20
542.0186747252
 30
0.0
 10
121.9380828919
 20
542.2090087697
 30
0.0
 10
122.1207418989
 20
542.3144642015
 30
0.0
  0
SPLINE
  5
4C0
100
AcDbEntity
  8
0
100
AcDbSpline
 62
7
  6
CONTINUOUS
 70
0
 71
3
 72
9
 73
5
 74
0
 42
0.0000001
 43
0.0000001
 44
0.0000000001
 40
0.0
 40
0.0
 40
0.0
 40
0.0
 40
0.2342809623
 40
1.0
 40
1.0
 40
1.0
 40
1.0
 10
122.1207418989
 20
542.3144642015
 30
0.0
 10
122.1844377985
 20
542.3512380715
 30
0.0
 10
122.4584160941
 20
542.5045252866
 30
0.0
 10
122.738051529
 20
542.6477913719
 30
0.0
 10
122.9555004645
 20
542.7502692703
 30
0.0
  0
SPLINE
  5
4C1
100
AcDbEntity
  8
0
100
AcDbSpline
 62
7
  6
CONTINUOUS
 70
0
 71
3
 72
9
 73
5
 74
0
 42
0.0000001
 43
0.0000001
 44
0.0000000001
 40
0.0
 40
0.0
 40
0.0
 40
0.0
 40
0.3660694203
 40
1.0
 40
1.0
 40
1.0
 40
1.0
 10
122.0127309733
 20
542.4598312153
 30
0.0
 10
122.1213753203
 20
542.5067696854
 30
0.0
 10
122.4085969784
 20
542.6560231795
 30
0.0
 10
122.6945482466
 20
542.8064897493
 30
0.0
 10
122.8759505921
 20
542.9018715797
 30
0.0
  0
SPLINE
  5
4C2
100
AcDbEntity
  8
0
100
AcDbSpline
 62
7
  6
CONTINUOUS
 70
0
 71
3
 72
9
 73
5
 74
0
 42
0.0000001
 43
0.0000001
 44
0.0000000001
 40
0.0
 40
0.0
 40
0.0
 40
0.0
 40
0.6339306089
 40
1.0
 40
1.0
 40
1.0
 40
1.0
 10
146.1176277894
 20
542.9018717359
 30
0.0
 10
146.2990302081
 20
542.8064898541
 30
0.0
 10
146.5849816013
 20
542.6560232576
 30
0.0
 10
146.8722033478
 20
542.5067696521
 30
0.0
 10
146.980847742
 20
542.4598311996
 30
0.0
  0
SPLINE
  5
4C3
100
AcDbEntity
  8
0
100
AcDbSpline
 62
7
  6
CONTINUOUS
 70
0
 71
3
 72
10
 73
6
 74
0
 42
0.0000001
 43
0.0000001
 44
0.0000000001
 40
0.0
 40
0.0
 40
0.0
 40
0.0
 40
0.2486475136
 40
0.498607571
 40
1.0
 40
1.0
 40
1.0
 40
1.0
 10
123.529595836
 20
537.7391609292
 30
0.0
 10
123.3993150709
 20
537.5915206165
 30
0.0
 10
123.1832541995
 20
537.2553929286
 30
0.0
 10
122.8814999151
 20
536.5214461401
 30
0.0
 10
122.7629286895
 20
535.9314681723
 30
0.0
 10
122.7219905615
 20
535.5365338349
 30
0.0
  0
SPLINE
  5
4C4
100
AcDbEntity
  8
0
100
AcDbSpline
 62
7
  6
CONTINUOUS
 70
0
 71
3
 72
13
 73
9
 74
0
 42
0.0000001
 43
0.0000001
 44
0.0000000001
 40
0.0
 40
0.0
 40
0.0
 40
0.0
 40
0.249946894
 40
0.3749683432
 40
0.4999999425
 40
0.6250315785
 40
0.750053063
 40
1.0
 40
1.0
 40
1.0
 40
1.0
 10
122.7220218707
 20
535.5365304909
 30
0.0
 10
122.4684522572
 20
533.091267539
 30
0.0
 10
122.2526218283
 20
529.4056546534
 30
0.0
 10
122.1440738117
 20
524.4892848589
 30
0.0
 10
122.1195004795
 20
520.8000006952
 30
0.0
 10
122.1440737116
 20
517.1107161908
 30
0.0
 10
122.2526193405
 20
512.1943452142
 30
0.0
 10
122.4684510455
 20
508.5087315423
 30
0.0
 10
122.722022029
 20
506.0634683078
 30
0.0
  0
SPLINE
  5
4C5
100
AcDbEntity
  8
0
100
AcDbSpline
 62
7
  6
CONTINUOUS
 70
0
 71
3
 72
10
 73
6
 74
0
 42
0.0000001
 43
0.0000001
 44
0.0000000001
 40
0.0
 40
0.0
 40
0.0
 40
0.0
 40
0.5013918729
 40
0.7513513705
 40
1.0
 40
1.0
 40
1.0
 40
1.0
 10
122.7219911705
 20
506.0634650067
 30
0.0
 10
122.7629298152
 20
505.6685314041
 30
0.0
 10
122.8814995962
 20
505.0785545088
 30
0.0
 10
123.1832541814
 20
504.3446081841
 30
0.0
 10
123.3993153515
 20
504.0084806406
 30
0.0
 10
123.5295960575
 20
503.8608392541
 30
0.0
  0
SPLINE
  5
4C6
100
AcDbEntity
  8
0
100
AcDbSpline
 62
7
  6
CONTINUOUS
 70
0
 71
3
 72
15
 73
11
 74
0
 42
0.0000001
 43
0.0000001
 44
0.0000000001
 40
0.0
 40
0.0
 40
0.0
 40
0.0
 40
0.1264474128
 40
0.2527110151
 40
0.3787850131
 40
0.5039993186
 40
0.6276386452
 40
0.7502439747
 40
0.874142826
 40
1.0
 40
1.0
 40
1.0
 40
1.0
 10
123.5296520934
 20
503.8608885874
 30
0.0
 10
123.6538336664
 20
503.7202247999
 30
0.0
 10
123.9182647822
 20
503.4527150205
 30
0.0
 10
124.3666423886
 20
503.1103634991
 30
0.0
 10
124.8655679643
 20
502.8480366127
 30
0.0
 10
125.4092110707
 20
502.7035458257
 30
0.0
 10
125.9731323813
 20
502.7348615654
 30
0.0
 10
126.4745051381
 20
503.0054602591
 30
0.0
 10
126.8040367425
 20
503.4681106501
 30
0.0
 10
126.9065519434
 20
503.8300602992
 30
0.0
 10
126.9359198674
 20
504.0144971998
 30
0.0
  0
SPLINE
  5
4C7
100
AcDbEntity
  8
0
100
AcDbSpline
 62
7
  6
CONTINUOUS
 70
0
 71
3
 72
15
 73
11
 74
0
 42
0.0000001
 43
0.0000001
 44
0.0000000001
 40
0.0
 40
0.0
 40
0.0
 40
0.0
 40
0.1258795041
 40
0.2497795692
 40
0.3723809259
 40
0.4960104928
 40
0.6212138966
 40
0.7472725838
 40
0.8735347089
 40
1.0
 40
1.0
 40
1.0
 40
1.0
 10
126.9359104935
 20
537.5854784441
 30
0.0
 10
126.906516866
 20
537.7699449034
 30
0.0
 10
126.8039953778
 20
538.1319226035
 30
0.0
 10
126.4744561398
 20
538.5946174455
 30
0.0
 10
125.9730567279
 20
538.8651348305
 30
0.0
 10
125.4091813814
 20
538.8964330688
 30
0.0
 10
124.8655886079
 20
538.7519546038
 30
0.0
 10
124.3667018156
 20
538.4896461148
 30
0.0
 10
123.9183037423
 20
538.1473201043
 30
0.0
 10
123.6538450118
 20
537.8798006051
 30
0.0
 10
123.5296501132
 20
537.7391130615
 30
0.0
  0
SPLINE
  5
4C8
100
AcDbEntity
  8
0
100
AcDbSpline
 62
7
  6
CONTINUOUS
 70
0
 71
3
 72
14
 73
10
 74
0
 42
0.0000001
 43
0.0000001
 44
0.0000000001
 40
0.0
 40
0.0
 40
0.0
 40
0.0
 40
0.1254208594
 40
0.2493722091
 40
0.3725089959
 40
0.4967321669
 40
0.6223093986
 40
0.7484698823
 40
1.0
 40
1.0
 40
1.0
 40
1.0
 10
126.9924311005
 20
537.5952601314
 30
0.0
 10
126.9603754361
 20
537.7837723866
 30
0.0
 10
126.8514395802
 20
538.1538902262
 30
0.0
 10
126.5113399781
 20
538.6273693101
 30
0.0
 10
125.9981421957
 20
538.9105385747
 30
0.0
 10
125.4173908124
 20
538.9532076722
 30
0.0
 10
124.854577749
 20
538.813858648
 30
0.0
 10
124.1665107893
 20
538.4647405667
 30
0.0
 10
123.7279013025
 20
538.0756241387
 30
0.0
 10
123.4723462339
 20
537.7896989404
 30
0.0
  0
SPLINE
  5
4C9
100
AcDbEntity
  8
0
100
AcDbSpline
 62
7
  6
CONTINUOUS
 70
0
 71
3
 72
10
 73
6
 74
0
 42
0.0000001
 43
0.0000001
 44
0.0000000001
 40
0.0
 40
0.0
 40
0.0
 40
0.0
 40
0.2497651371
 40
0.499859872
 40
1.0
 40
1.0
 40
1.0
 40
1.0
 10
123.4725402187
 20
537.7899214729
 30
0.0
 10
123.3342131179
 20
537.6418633808
 30
0.0
 10
123.1042389177
 20
537.3015775078
 30
0.0
 10
122.7822758642
 20
536.554890195
 30
0.0
 10
122.657619771
 20
535.9512751532
 30
0.0
 10
122.6153095574
 20
535.5477489267
 30
0.0
  0
SPLINE
  5
4CA
100
AcDbEntity
  8
0
100
AcDbSpline
 62
7
  6
CONTINUOUS
 70
0
 71
3
 72
13
 73
9
 74
0
 42
0.0000001
 43
0.0000001
 44
0.0000000001
 40
0.0
 40
0.0
 40
0.0
 40
0.0
 40
0.2499604034
 40
0.3749786686
 40
0.4999999998
 40
0.6250213309
 40
0.7500395958
 40
1.0
 40
1.0
 40
1.0
 40
1.0
 10
122.6153180408
 20
535.5477455089
 30
0.0
 10
122.3643732915
 20
533.1003678258
 30
0.0
 10
122.1571621037
 20
529.4115027133
 30
0.0
 10
122.0569607197
 20
524.4916023082
 30
0.0
 10
122.0349359969
 20
520.7999991225
 30
0.0
 10
122.0569600949
 20
517.1083959312
 30
0.0
 10
122.1571601564
 20
512.188495519
 30
0.0
 10
122.3643712439
 20
508.4996302679
 30
0.0
 10
122.6153182103
 20
506.0522528048
 30
0.0
  0
SPLINE
  5
4CB
100
AcDbEntity
  8
0
100
AcDbSpline
 62
7
  6
CONTINUOUS
 70
0
 71
3
 72
10
 73
6
 74
0
 42
0.0000001
 43
0.0000001
 44
0.0000000001
 40
0.0
 40
0.0
 40
0.0
 40
0.0
 40
0.5001355929
 40
0.7502293062
 40
1.0
 40
1.0
 40
1.0
 40
1.0
 10
122.6153092544
 20
506.0522543123
 30
0.0
 10
122.6576096254
 20
505.6487314546
 30
0.0
 10
122.782284709
 20
505.045127916
 30
0.0
 10
123.1042237065
 20
504.2984293362
 30
0.0
 10
123.3342126502
 20
503.9581527333
 30
0.0
 10
123.4725317335
 20
503.8100814592
 30
0.0
  0
SPLINE
  5
4CC
100
AcDbEntity
  8
0
100
AcDbSpline
 62
7
  6
CONTINUOUS
 70
0
 71
3
 72
8
 73
4
 74
0
 42
0.0000001
 43
0.0000001
 44
0.0000000001
 40
0.0
 40
0.0
 40
0.0
 40
0.0
 40
1.0
 40
1.0
 40
1.0
 40
1.0
 10
126.9359106636
 20
504.0145082255
 30
0.0
 10
126.9544835448
 20
504.0114811226
 30
0.0
 10
126.9746520048
 20
504.0108616439
 30
0.0
 10
126.9907552508
 20
504.001125077
 30
0.0
  0
SPLINE
  5
4CD
100
AcDbEntity
  8
0
100
AcDbSpline
 62
7
  6
CONTINUOUS
 70
0
 71
3
 72
19
 73
15
 74
0
 42
0.0000001
 43
0.0000001
 44
0.0000000001
 40
0.0
 40
0.0
 40
0.0
 40
0.0
 40
0.0627599569
 40
0.1251496249
 40
0.1872238568
 40
0.2492655277
 40
0.3115719338
 40
0.3742337793
 40
0.499543008
 40
0.6247575021
 40
0.7494930562
 40
0.8119955572
 40
0.8745773408
 40
1.0
 40
1.0
 40
1.0
 40
1.0
 10
131.9359050666
 20
502.5860135238
 30
0.0
 10
131.909280388
 20
502.434936933
 30
0.0
 10
131.8306453747
 20
502.1368177739
 30
0.0
 10
131.6138747552
 20
501.7287372136
 30
0.0
 10
131.3043373025
 20
501.3873725096
 30
0.0
 10
130.9176180766
 20
501.1365219019
 30
0.0
 10
130.4782410787
 20
500.9937137491
 30
0.0
 10
129.8635559467
 20
500.9457156323
 30
0.0
 10
129.1002692566
 20
501.1319517673
 30
0.0
 10
128.3163307797
 20
501.6313337911
 30
0.0
 10
127.7993572658
 20
502.2053973202
 30
0.0
 10
127.4768135703
 20
502.7249992942
 30
0.0
 10
127.2143330628
 20
503.2800812602
 30
0.0
 10
127.1056289277
 20
503.7315855648
 30
0.0
 10
127.0554766077
 20
504.0340272463
 30
0.0
  0
SPLINE
  5
4CE
100
AcDbEntity
  8
0
100
AcDbSpline
 62
7
  6
CONTINUOUS
 70
0
 71
3
 72
8
 73
4
 74
0
 42
0.0000001
 43
0.0000001
 44
0.0000000001
 40
0.0
 40
0.0
 40
0.0
 40
0.0
 40
1.0
 40
1.0
 40
1.0
 40
1.0
 10
127.0439917309
 20
504.0145349415
 30
0.0
 10
127.0269150545
 20
504.0079569361
 30
0.0
 10
127.0083708696
 20
504.0060821937
 30
0.0
 10
126.9907552508
 20
504.001125077
 30
0.0
  0
SPLINE
  5
4CF
100
AcDbEntity
  8
0
100
AcDbSpline
 62
7
  6
CONTINUOUS
 70
0
 71
3
 72
17
 73
13
 74
0
 42
0.0000001
 43
0.0000001
 44
0.0000000001
 40
0.0
 40
0.0
 40
0.0
 40
0.0
 40
0.3134547501
 40
0.4665296334
 40
0.6142260774
 40
0.7524958375
 40
0.8161026613
 40
0.8740832361
 40
0.9242516291
 40
0.9641119671
 40
0.9907570856
 40
1.0
 40
1.0
 40
1.0
 40
1.0
 10
129.0062312743
 20
519.4147889927
 30
0.0
 10
128.9531059735
 20
519.4619320395
 30
0.0
 10
128.8748588644
 20
519.5330232232
 30
0.0
 10
128.7733787687
 20
519.6282940572
 30
0.0
 10
128.7015655679
 20
519.6970917407
 30
0.0
 10
128.6448072345
 20
519.7524916558
 30
0.0
 10
128.6029548713
 20
519.7936408563
 30
0.0
 10
128.575028136
 20
519.8214398075
 30
0.0
 10
128.5519169291
 20
519.8436973192
 30
0.0
 10
128.5310863139
 20
519.8656311837
 30
0.0
 10
128.5225477875
 20
519.8707348685
 30
0.0
 10
128.5122455805
 20
519.8836198709
 30
0.0
 10
128.5121715463
 20
519.8815268044
 30
0.0
  0
SPLINE
  5
4D0
100
AcDbEntity
  8
0
100
AcDbSpline
 62
7
  6
CONTINUOUS
 70
0
 71
3
 72
9
 73
5
 74
0
 42
0.0000001
 43
0.0000001
 44
0.0000000001
 40
0.0
 40
0.0
 40
0.0
 40
0.0
 40
0.2633392811
 40
1.0
 40
1.0
 40
1.0
 40
1.0
 10
128.5121611886
 20
519.8815166128
 30
0.0
 10
128.51948349
 20
519.8738547615
 30
0.0
 10
128.5448058227
 20
519.8424693022
 30
0.0
 10
128.5605976188
 20
519.8035042514
 30
0.0
 10
128.5651739113
 20
519.7742125926
 30
0.0
  0
SPLINE
  5
4D1
100
AcDbEntity
  8
0
100
AcDbSpline
 62
7
  6
CONTINUOUS
 70
0
 71
3
 72
15
 73
11
 74
0
 42
0.0000001
 43
0.0000001
 44
0.0000000001
 40
0.0
 40
0.0
 40
0.0
 40
0.0
 40
0.1252988508
 40
0.249762022
 40
0.3744352133
 40
0.4999998306
 40
0.6255649583
 40
0.7502379857
 40
0.8747010464
 40
1.0
 40
1.0
 40
1.0
 40
1.0
 10
131.9953386741
 20
502.5754401355
 30
0.0
 10
132.0412829138
 20
502.2766052346
 30
0.0
 10
132.2361283546
 20
501.6920849082
 30
0.0
 10
132.7997256768
 20
500.9640038535
 30
0.0
 10
133.5847656442
 20
500.4755583703
 30
0.0
 10
134.4967763512
 20
500.3037281925
 30
0.0
 10
135.4087929521
 20
500.475541668
 30
0.0
 10
136.1938304661
 20
500.9639884588
 30
0.0
 10
136.7574462359
 20
501.6920600689
 30
0.0
 10
136.95227038
 20
502.276583165
 30
0.0
 10
136.9982354204
 20
502.5754151181
 30
0.0
  0
SPLINE
  5
4D2
100
AcDbEntity
  8
0
100
AcDbSpline
 62
7
  6
CONTINUOUS
 70
0
 71
3
 72
19
 73
15
 74
0
 42
0.0000001
 43
0.0000001
 44
0.0000000001
 40
0.0
 40
0.0
 40
0.0
 40
0.0
 40
0.0026440993
 40
0.0103833858
 40
0.022715802
 40
0.0391181309
 40
0.0820384225
 40
0.1349772604
 40
0.1942883617
 40
0.2583815102
 40
0.396608972
 40
0.5422038753
 40
0.6923055702
 40
1.0
 40
1.0
 40
1.0
 40
1.0
 10
140.4284066166
 20
519.7742126033
 30
0.0
 10
140.4280323765
 20
519.7745801702
 30
0.0
 10
140.4267870822
 20
519.7711594184
 30
0.0
 10
140.4244994656
 20
519.768933251
 30
0.0
 10
140.4207575045
 20
519.7618495099
 30
0.0
 10
140.4136152268
 20
519.7500486746
 30
0.0
 10
140.4024983201
 20
519.7304223519
 30
0.0
 10
140.3871866698
 20
519.7038523084
 30
0.0
 10
140.3697192997
 20
519.6734969283
 30
0.0
 10
140.3436907304
 20
519.6286067992
 30
0.0
 10
140.3087805901
 20
519.5690541001
 30
0.0
 10
140.2645397779
 20
519.4952078896
 30
0.0
 10
140.202012351
 20
519.3931281285
 30
0.0
 10
140.1533562267
 20
519.3164293538
 30
0.0
 10
140.1201008529
 20
519.2652403049
 30
0.0
  0
SPLINE
  5
4D3
100
AcDbEntity
  8
0
100
AcDbSpline
 62
7
  6
CONTINUOUS
 70
0
 71
3
 72
19
 73
15
 74
0
 42
0.0000001
 43
0.0000001
 44
0.0000000001
 40
0.0
 40
0.0
 40
0.0
 40
0.0
 40
0.3076907013
 40
0.4577913317
 40
0.6033889215
 40
0.7416225788
 40
0.8057173827
 40
0.8650273298
 40
0.9179630146
 40
0.9608896713
 40
0.9773016417
 40
0.9896414308
 40
0.9973775295
 40
1.0
 40
1.0
 40
1.0
 40
1.0
 10
128.8734770668
 20
519.2652398465
 30
0.0
 10
128.840222625
 20
519.3164278037
 30
0.0
 10
128.7915674453
 20
519.393124822
 30
0.0
 10
128.7290408939
 20
519.4952031149
 30
0.0
 10
128.6847999871
 20
519.5690497964
 30
0.0
 10
128.649889013
 20
519.6286039892
 30
0.0
 10
128.6238606872
 20
519.6734942775
 30
0.0
 10
128.6063922045
 20
519.7038501837
 30
0.0
 10
128.5910852312
 20
519.7304160665
 30
0.0
 10
128.5799555924
 20
519.7500545139
 30
0.0
 10
128.5728287326
 20
519.7618440951
 30
0.0
 10
128.5690542229
 20
519.7689580831
 30
0.0
 10
128.5668268104
 20
519.7711323336
 30
0.0
 10
128.5655225171
 20
519.7745935076
 30
0.0
 10
128.5651750334
 20
519.7742063038
 30
0.0
  0
SPLINE
  5
4D4
100
AcDbEntity
  8
0
100
AcDbSpline
 62
7
  6
CONTINUOUS
 70
0
 71
3
 72
11
 73
7
 74
0
 42
0.0000001
 43
0.0000001
 44
0.0000000001
 40
0.0
 40
0.0
 40
0.0
 40
0.0
 40
0.1691442809
 40
0.409370273
 40
0.6932384323
 40
1.0
 40
1.0
 40
1.0
 40
1.0
 10
148.2205863345
 20
540.4783203494
 30
0.0
 10
148.2625379419
 20
540.226533537
 30
0.0
 10
148.3802898629
 20
539.6199663119
 30
0.0
 10
148.5823295756
 20
538.5935443105
 30
0.0
 10
148.820833645
 20
537.3625548985
 30
0.0
 10
148.982833902
 20
536.4860609909
 30
0.0
 10
149.0646982979
 20
536.0304190161
 30
0.0
  0
SPLINE
  5
4D5
100
AcDbEntity
  8
0
100
AcDbSpline
 62
7
  6
CONTINUOUS
 70
0
 71
3
 72
16
 73
12
 74
0
 42
0.0000001
 43
0.0000001
 44
0.0000000001
 40
0.0
 40
0.0
 40
0.0
 40
0.0
 40
0.1246977144
 40
0.186904958
 40
0.2490673715
 40
0.3115065772
 40
0.3743411961
 40
0.5000775529
 40
0.6256961281
 40
0.7508504877
 40
1.0
 40
1.0
 40
1.0
 40
1.0
 10
136.9982354204
 20
502.5754151181
 30
0.0
 10
137.0496730583
 20
502.2690540826
 30
0.0
 10
137.2240504162
 20
501.8154143755
 30
0.0
 10
137.6424725828
 20
501.3499273164
 30
0.0
 10
138.0353455072
 20
501.0905705329
 30
0.0
 10
138.4818704679
 20
500.9384034172
 30
0.0
 10
139.1093382833
 20
500.8798259411
 30
0.0
 10
139.8928385223
 20
501.0561883143
 30
0.0
 10
140.7026565072
 20
501.5565269645
 30
0.0
 10
141.5529306786
 20
502.4792689268
 30
0.0
 10
141.9210039229
 20
503.3892500038
 30
0.0
 10
142.0011475834
 20
504.0047398686
 30
0.0
  0
SPLINE
  5
4D6
100
AcDbEntity
  8
0
100
AcDbSpline
 62
7
  6
CONTINUOUS
 70
0
 71
3
 72
17
 73
13
 74
0
 42
0.0000001
 43
0.0000001
 44
0.0000000001
 40
0.0
 40
0.0
 40
0.0
 40
0.0
 40
0.0092153391
 40
0.0358787389
 40
0.0757166877
 40
0.125871985
 40
0.1838700188
 40
0.2474936177
 40
0.3857697036
 40
0.5334626778
 40
0.6865392891
 40
1.0
 40
1.0
 40
1.0
 40
1.0
 10
140.4814071379
 20
519.8815268047
 30
0.0
 10
140.4814327965
 20
519.8836147747
 30
0.0
 10
140.4708940127
 20
519.870739563
 30
0.0
 10
140.4625837947
 20
519.8656411801
 30
0.0
 10
140.4416435086
 20
519.8437118205
 30
0.0
 10
140.41857789
 20
519.8214571467
 30
0.0
 10
140.3906336716
 20
519.7936542372
 30
0.0
 10
140.3487806604
 20
519.7524983674
 30
0.0
 10
140.2920161053
 20
519.6970952784
 30
0.0
 10
140.2202031026
 20
519.6282969603
 30
0.0
 10
140.1187223337
 20
519.5330249632
 30
0.0
 10
140.0404723511
 20
519.4619345102
 30
0.0
 10
139.9873474099
 20
519.4147889929
 30
0.0
  0
SPLINE
  5
4D7
100
AcDbEntity
  8
0
100
AcDbSpline
 62
7
  6
CONTINUOUS
 70
0
 71
3
 72
14
 73
10
 74
0
 42
0.0000001
 43
0.0000001
 44
0.0000000001
 40
0.0
 40
0.0
 40
0.0
 40
0.0
 40
0.1254208594
 40
0.2493722091
 40
0.3725089959
 40
0.4967321669
 40
0.6223093986
 40
0.7484698823
 40
1.0
 40
1.0
 40
1.0
 40
1.0
 10
142.0011475834
 20
504.0047398686
 30
0.0
 10
142.0332032478
 20
503.8162276134
 30
0.0
 10
142.1421391037
 20
503.4461097738
 30
0.0
 10
142.4822387057
 20
502.9726306899
 30
0.0
 10
142.9954364881
 20
502.6894614253
 30
0.0
 10
143.5761878714
 20
502.6467923278
 30
0.0
 10
144.1390009348
 20
502.7861413521
 30
0.0
 10
144.8270678945
 20
503.1352594333
 30
0.0
 10
145.2656773813
 20
503.5243758613
 30
0.0
 10
145.5212324499
 20
503.8103010596
 30
0.0
  0
SPLINE
  5
4D8
100
AcDbEntity
  8
0
100
AcDbSpline
 62
7
  6
CONTINUOUS
 70
0
 71
3
 72
10
 73
6
 74
0
 42
0.0000001
 43
0.0000001
 44
0.0000000001
 40
0.0
 40
0.0
 40
0.0
 40
0.0
 40
0.2497651371
 40
0.499859872
 40
1.0
 40
1.0
 40
1.0
 40
1.0
 10
145.5210384651
 20
503.8100785272
 30
0.0
 10
145.659365566
 20
503.9581366192
 30
0.0
 10
145.8893397662
 20
504.2984224922
 30
0.0
 10
146.2113028197
 20
505.045109805
 30
0.0
 10
146.3359589129
 20
505.6487248468
 30
0.0
 10
146.3782691264
 20
506.0522510733
 30
0.0
  0
SPLINE
  5
4D9
100
AcDbEntity
  8
0
100
AcDbSpline
 62
7
  6
CONTINUOUS
 70
0
 71
3
 72
13
 73
9
 74
0
 42
0.0000001
 43
0.0000001
 44
0.0000000001
 40
0.0
 40
0.0
 40
0.0
 40
0.0
 40
0.2499604034
 40
0.3749786686
 40
0.4999999998
 40
0.6250213309
 40
0.7500395958
 40
1.0
 40
1.0
 40
1.0
 40
1.0
 10
146.378260643
 20
506.0522544911
 30
0.0
 10
146.6292053923
 20
508.4996321742
 30
0.0
 10
146.8364165802
 20
512.1884972867
 30
0.0
 10
146.9366179642
 20
517.1083976918
 30
0.0
 10
146.9586426869
 20
520.8000008775
 30
0.0
 10
146.9366185889
 20
524.4916040688
 30
0.0
 10
146.8364185274
 20
529.411504481
 30
0.0
 10
146.6292074399
 20
533.1003697322
 30
0.0
 10
146.3782604736
 20
535.5477471952
 30
0.0
  0
SPLINE
  5
4DA
100
AcDbEntity
  8
0
100
AcDbSpline
 62
7
  6
CONTINUOUS
 70
0
 71
3
 72
9
 73
5
 74
0
 42
0.0000001
 43
0.0000001
 44
0.0000000001
 40
0.0
 40
0.0
 40
0.0
 40
0.0
 40
0.2633359447
 40
1.0
 40
1.0
 40
1.0
 40
1.0
 10
140.4814109027
 20
519.8815230154
 30
0.0
 10
140.4740895382
 20
519.8738602161
 30
0.0
 10
140.4487704955
 20
519.842471261
 30
0.0
 10
140.4329819131
 20
519.8035047436
 30
0.0
 10
140.4284067227
 20
519.7742122885
 30
0.0
  0
SPLINE
  5
4DB
100
AcDbEntity
  8
0
100
AcDbSpline
 62
7
  6
CONTINUOUS
 70
0
 71
3
 72
11
 73
7
 74
0
 42
0.0000001
 43
0.0000001
 44
0.0000000001
 40
0.0
 40
0.0
 40
0.0
 40
0.0
 40
0.3067615725
 40
0.5906297294
 40
0.8308557195
 40
1.0
 40
1.0
 40
1.0
 40
1.0
 10
149.0646982975
 20
505.569580984
 30
0.0
 10
148.9828339005
 20
505.1139390021
 30
0.0
 10
148.8208336431
 20
504.2374450909
 30
0.0
 10
148.5823295734
 20
503.0064556782
 30
0.0
 10
148.3802898622
 20
501.9800336839
 30
0.0
 10
148.2625379417
 20
501.3734664623
 30
0.0
 10
148.2205863345
 20
501.1216796506
 30
0.0
  0
SPLINE
  5
4DC
100
AcDbEntity
  8
0
100
AcDbSpline
 62
7
  6
CONTINUOUS
 70
0
 71
3
 72
10
 73
6
 74
0
 42
0.0000001
 43
0.0000001
 44
0.0000000001
 40
0.0
 40
0.0
 40
0.0
 40
0.0
 40
0.5001355929
 40
0.7502293062
 40
1.0
 40
1.0
 40
1.0
 40
1.0
 10
146.3782694294
 20
535.5477456877
 30
0.0
 10
146.3359690584
 20
535.9512685454
 30
0.0
 10
146.2112939749
 20
536.5548720841
 30
0.0
 10
145.8893549773
 20
537.3015706638
 30
0.0
 10
145.6593660337
 20
537.6418472667
 30
0.0
 10
145.5210469503
 20
537.7899185408
 30
0.0
  0
SPLINE
  5
4DD
100
AcDbEntity
  8
0
100
AcDbSpline
 62
7
  6
CONTINUOUS
 70
0
 71
3
 72
9
 73
5
 74
0
 42
0.0000001
 43
0.0000001
 44
0.0000000001
 40
0.0
 40
0.0
 40
0.0
 40
0.0
 40
0.6339306117
 40
1.0
 40
1.0
 40
1.0
 40
1.0
 10
122.875950893
 20
498.6981282622
 30
0.0
 10
122.6945484734
 20
498.7935101299
 30
0.0
 10
122.408597104
 20
498.9439767533
 30
0.0
 10
122.1213753466
 20
499.0932303063
 30
0.0
 10
122.0127309695
 20
499.1401687865
 30
0.0
  0
SPLINE
  5
4DE
100
AcDbEntity
  8
0
100
AcDbSpline
 62
7
  6
CONTINUOUS
 70
0
 71
3
 72
9
 73
5
 74
0
 42
0.0000001
 43
0.0000001
 44
0.0000000001
 40
0.0
 40
0.0
 40
0.0
 40
0.0
 40
0.3660694171
 40
1.0
 40
1.0
 40
1.0
 40
1.0
 10
146.9808476827
 20
499.1401687707
 30
0.0
 10
146.8722033528
 20
499.0932302728
 30
0.0
 10
146.5849816833
 20
498.9439768312
 30
0.0
 10
146.2990304384
 20
498.7935102341
 30
0.0
 10
146.1176280917
 20
498.6981284176
 30
0.0
  0
SPLINE
  5
4DF
100
AcDbEntity
  8
0
100
AcDbSpline
 62
7
  6
CONTINUOUS
 70
0
 71
3
 72
8
 73
4
 74
0
 42
0.0000001
 43
0.0000001
 44
0.0000000001
 40
0.0
 40
0.0
 40
0.0
 40
0.0
 40
1.0
 40
1.0
 40
1.0
 40
1.0
 10
142.0576680202
 20
537.5854917746
 30
0.0
 10
142.039095139
 20
537.5885188774
 30
0.0
 10
142.0189266791
 20
537.5891383561
 30
0.0
 10
142.002823433
 20
537.598874923
 30
0.0
  0
SPLINE
  5
4E0
100
AcDbEntity
  8
0
100
AcDbSpline
 62
7
  6
CONTINUOUS
 70
0
 71
3
 72
19
 73
15
 74
0
 42
0.0000001
 43
0.0000001
 44
0.0000000001
 40
0.0
 40
0.0
 40
0.0
 40
0.0
 40
0.0627599568
 40
0.1251496248
 40
0.1872238566
 40
0.2492655275
 40
0.3115719334
 40
0.3742337788
 40
0.4995430074
 40
0.6247575014
 40
0.7494930549
 40
0.8119955564
 40
0.8745773402
 40
1.0
 40
1.0
 40
1.0
 40
1.0
 10
137.0576736172
 20
539.0139864762
 30
0.0
 10
137.0842982949
 20
539.1650630617
 30
0.0
 10
137.1629333046
 20
539.4631822106
 30
0.0
 10
137.3797039113
 20
539.8712627592
 30
0.0
 10
137.6892413454
 20
540.212627458
 30
0.0
 10
138.0759605495
 20
540.4634780691
 30
0.0
 10
138.5153375259
 20
540.6062862342
 30
0.0
 10
139.1300226342
 20
540.6542843761
 30
0.0
 10
139.8933093048
 20
540.4680482813
 30
0.0
 10
140.6772477829
 20
539.9686663182
 30
0.0
 10
141.1942212891
 20
539.3946028159
 30
0.0
 10
141.5167650131
 20
538.8750008908
 30
0.0
 10
141.7792456568
 20
538.3199189985
 30
0.0
 10
141.8879494048
 20
537.8684145576
 30
0.0
 10
141.9381013517
 20
537.5659728232
 30
0.0
  0
SPLINE
  5
4E1
100
AcDbEntity
  8
0
100
AcDbSpline
 62
7
  6
CONTINUOUS
 70
0
 71
3
 72
8
 73
4
 74
0
 42
0.0000001
 43
0.0000001
 44
0.0000000001
 40
0.0
 40
0.0
 40
0.0
 40
0.0
 40
1.0
 40
1.0
 40
1.0
 40
1.0
 10
141.9495869529
 20
537.5854650585
 30
0.0
 10
141.9666636293
 20
537.5920430639
 30
0.0
 10
141.9852078142
 20
537.5939178063
 30
0.0
 10
142.002823433
 20
537.598874923
 30
0.0
  0
SPLINE
  5
4E2
100
AcDbEntity
  8
0
100
AcDbSpline
 62
7
  6
CONTINUOUS
 70
0
 71
3
 72
8
 73
4
 74
0
 42
0.0000001
 43
0.0000001
 44
0.0000000001
 40
0.0
 40
0.0
 40
0.0
 40
0.0
 40
1.0
 40
1.0
 40
1.0
 40
1.0
 10
133.7005009225
 20
503.4304606029
 30
0.0
 10
133.6572211673
 20
503.3267894064
 30
0.0
 10
133.6342930847
 20
503.2123425752
 30
0.0
 10
133.6342930847
 20
503.1
 30
0.0
  0
SPLINE
  5
4E3
100
AcDbEntity
  8
0
100
AcDbSpline
 62
7
  6
CONTINUOUS
 70
0
 71
3
 72
9
 73
5
 74
0
 42
0.0000001
 43
0.0000001
 44
0.0000000001
 40
0.0
 40
0.0
 40
0.0
 40
0.0
 40
0.4074300409
 40
1.0
 40
1.0
 40
1.0
 40
1.0
 10
147.7440732095
 20
499.9001676876
 30
0.0
 10
147.6389722588
 20
499.8002459792
 30
0.0
 10
147.3566447267
 20
499.5813235343
 30
0.0
 10
147.0554906524
 20
499.3909870982
 30
0.0
 10
146.8728296219
 20
499.2855309029
 30
0.0
  0
SPLINE
  5
4E4
100
AcDbEntity
  8
0
100
AcDbSpline
 62
7
  6
CONTINUOUS
 70
0
 71
3
 72
9
 73
5
 74
0
 42
0.0000001
 43
0.0000001
 44
0.0000000001
 40
0.0
 40
0.0
 40
0.0
 40
0.0
 40
0.2342809339
 40
1.0
 40
1.0
 40
1.0
 40
1.0
 10
146.8728296219
 20
499.2855309029
 30
0.0
 10
146.809134112
 20
499.248757399
 30
0.0
 10
146.5351571754
 20
499.0954722225
 30
0.0
 10
146.2555237318
 20
498.9522071213
 30
0.0
 10
146.03807639
 20
498.8497297436
 30
0.0
  0
SPLINE
  5
4E5
100
AcDbEntity
  8
0
100
AcDbSpline
 62
7
  6
CONTINUOUS
 70
0
 71
3
 72
8
 73
4
 74
0
 42
0.0000001
 43
0.0000001
 44
0.0000000001
 40
0.0
 40
0.0
 40
0.0
 40
0.0
 40
1.0
 40
1.0
 40
1.0
 40
1.0
 10
133.6342930847
 20
503.1
 30
0.0
 10
133.6342930847
 20
502.9875832442
 30
0.0
 10
133.65725271
 20
502.873058236
 30
0.0
 10
133.7005881813
 20
502.7693299183
 30
0.0
  0
SPLINE
  5
4E6
100
AcDbEntity
  8
0
100
AcDbSpline
 62
7
  6
CONTINUOUS
 70
0
 71
3
 72
8
 73
4
 74
0
 42
0.0000001
 43
0.0000001
 44
0.0000000001
 40
0.0
 40
0.0
 40
0.0
 40
0.0
 40
1.0
 40
1.0
 40
1.0
 40
1.0
 10
135.2931075748
 20
502.7696108178
 30
0.0
 10
135.3363682499
 20
502.8732625683
 30
0.0
 10
135.3592855992
 20
502.9876827199
 30
0.0
 10
135.3592855992
 20
503.1
 30
0.0
  0
SPLINE
  5
4E7
100
AcDbEntity
  8
0
100
AcDbSpline
 62
7
  6
CONTINUOUS
 70
0
 71
3
 72
9
 73
5
 74
0
 42
0.0000001
 43
0.0000001
 44
0.0000000001
 40
0.0
 40
0.0
 40
0.0
 40
0.0
 40
0.499999957
 40
1.0
 40
1.0
 40
1.0
 40
1.0
 10
136.9359061639
 20
515.1269441947
 30
0.0
 10
136.1736623972
 20
514.7979801592
 30
0.0
 10
134.4967901629
 20
514.4483180088
 30
0.0
 10
132.8199177094
 20
514.7979796608
 30
0.0
 10
132.0576738125
 20
515.1269437552
 30
0.0
  0
SPLINE
  5
4E8
100
AcDbEntity
  8
0
100
AcDbSpline
 62
7
  6
CONTINUOUS
 70
0
 71
3
 72
15
 73
11
 74
0
 42
0.0000001
 43
0.0000001
 44
0.0000000001
 40
0.0
 40
0.0
 40
0.0
 40
0.0
 40
0.1256235979
 40
0.2502471105
 40
0.374768729
 40
0.4998838131
 40
0.6250005297
 40
0.7495132121
 40
0.8741872856
 40
1.0
 40
1.0
 40
1.0
 40
1.0
 10
132.0576678031
 20
502.5859740131
 30
0.0
 10
132.1035710699
 20
502.2941389833
 30
0.0
 10
132.2956944085
 20
501.724107368
 30
0.0
 10
132.8459849774
 20
501.0146354748
 30
0.0
 10
133.6096564267
 20
500.5385378513
 30
0.0
 10
134.49593011
 20
500.3707943341
 30
0.0
 10
135.3823072727
 20
500.5379002564
 30
0.0
 10
136.1463925351
 20
501.0135249567
 30
0.0
 10
136.6974755949
 20
501.7231088835
 30
0.0
 10
136.8899065305
 20
502.2936819368
 30
0.0
 10
136.9359131492
 20
502.5859509123
 30
0.0
  0
SPLINE
  5
4E9
100
AcDbEntity
  8
0
100
AcDbSpline
 62
7
  6
CONTINUOUS
 70
0
 71
3
 72
15
 73
11
 74
0
 42
0.0000001
 43
0.0000001
 44
0.0000000001
 40
0.0
 40
0.0
 40
0.0
 40
0.0
 40
0.125296524
 40
0.2497539728
 40
0.3744371337
 40
0.5000198437
 40
0.6255925275
 40
0.7502574673
 40
0.8747045703
 40
1.0
 40
1.0
 40
1.0
 40
1.0
 10
136.9982393154
 20
539.0245466933
 30
0.0
 10
136.9523361271
 20
539.3233815405
 30
0.0
 10
136.7574648597
 20
539.907881235
 30
0.0
 10
136.1938858496
 20
540.6359684059
 30
0.0
 10
135.408785732
 20
541.1244340685
 30
0.0
 10
134.4966786327
 20
541.2962262757
 30
0.0
 10
133.584631266
 20
541.1243707739
 30
0.0
 10
132.7996439479
 20
540.6359118356
 30
0.0
 10
132.2361267661
 20
539.907876229
 30
0.0
 10
132.0412501015
 20
539.3234076052
 30
0.0
 10
131.9953476807
 20
539.0245753116
 30
0.0
  0
SPLINE
  5
4EA
100
AcDbEntity
  8
0
100
AcDbSpline
 62
7
  6
CONTINUOUS
 70
0
 71
3
 72
9
 73
5
 74
0
 42
0.0000001
 43
0.0000001
 44
0.0000000001
 40
0.0
 40
0.0
 40
0.0
 40
0.0
 40
0.5000001079
 40
1.0
 40
1.0
 40
1.0
 40
1.0
 10
132.0576735213
 20
536.0730561458
 30
0.0
 10
132.8199174048
 20
536.4020202338
 30
0.0
 10
134.4967895527
 20
536.7516819517
 30
0.0
 10
136.1736616105
 20
536.402020091
 30
0.0
 10
136.9359051651
 20
536.0730561449
 30
0.0
  0
SPLINE
  5
4EB
100
AcDbEntity
  8
0
100
AcDbSpline
 62
7
  6
CONTINUOUS
 70
0
 71
3
 72
15
 73
11
 74
0
 42
0.0000001
 43
0.0000001
 44
0.0000000001
 40
0.0
 40
0.0
 40
0.0
 40
0.0
 40
0.1257738315
 40
0.2504594606
 40
0.3749523941
 40
0.5000000648
 40
0.6250476031
 40
0.7495404816
 40
0.8742262008
 40
1.0
 40
1.0
 40
1.0
 40
1.0
 10
136.9358836032
 20
539.0140277789
 30
0.0
 10
136.8899486086
 20
539.3062125954
 30
0.0
 10
136.6974893332
 20
539.876700321
 30
0.0
 10
136.1466034364
 20
540.5862810624
 30
0.0
 10
135.3827043065
 20
541.0618197892
 30
0.0
 10
134.4967891694
 20
541.2291736893
 30
0.0
 10
133.6108742654
 20
541.0618196742
 30
0.0
 10
132.8469752226
 20
540.586281178
 30
0.0
 10
132.2960896115
 20
539.876700259
 30
0.0
 10
132.1036298852
 20
539.3062125148
 30
0.0
 10
132.0576950987
 20
539.0140277425
 30
0.0
  0
LINE
  5
4EC
100
AcDbEntity
  8
0
100
AcDbLine
 62
7
  6
CONTINUOUS
 10
128.4950150268
 20
531.4596269118
 11
128.5652788393
 21
531.4257709786
  0
LINE
  5
4ED
100
AcDbEntity
  8
0
100
AcDbLine
 62
7
  6
CONTINUOUS
 10
140.4282998079
 20
531.4257709739
 11
140.4985635679
 21
531.4596303814
  0
SPLINE
  5
4EE
100
AcDbEntity
  8
0
100
AcDbSpline
 62
7
  6
CONTINUOUS
 70
0
 71
3
 72
9
 73
5
 74
0
 42
0.0000001
 43
0.0000001
 44
0.0000000001
 40
0.0
 40
0.0
 40
0.0
 40
0.0
 40
0.2633359447
 40
1.0
 40
1.0
 40
1.0
 40
1.0
 10
128.5121677811
 20
531.3184769846
 30
0.0
 10
128.5194891456
 20
531.3261397839
 30
0.0
 10
128.5448081884
 20
531.357528739
 30
0.0
 10
128.5605967707
 20
531.3964952564
 30
0.0
 10
128.5651719611
 20
531.4257877115
 30
0.0
  0
SPLINE
  5
4EF
100
AcDbEntity
  8
0
100
AcDbSpline
 62
7
  6
CONTINUOUS
 70
0
 71
3
 72
17
 73
13
 74
0
 42
0.0000001
 43
0.0000001
 44
0.0000000001
 40
0.0
 40
0.0
 40
0.0
 40
0.0
 40
0.0092153387
 40
0.0358787376
 40
0.0757166853
 40
0.1258719815
 40
0.1838700144
 40
0.2474936128
 40
0.3857696983
 40
0.5334626729
 40
0.6865392852
 40
1.0
 40
1.0
 40
1.0
 40
1.0
 10
128.5121715459
 20
531.3184731953
 30
0.0
 10
128.5121458874
 20
531.3163852256
 30
0.0
 10
128.5226846701
 20
531.3292604358
 30
0.0
 10
128.5309948871
 20
531.3343588181
 30
0.0
 10
128.5519351712
 20
531.3562881755
 30
0.0
 10
128.5750007876
 20
531.3785428471
 30
0.0
 10
128.6029450035
 20
531.4063457542
 30
0.0
 10
128.6447980113
 20
531.4475016207
 30
0.0
 10
128.7015625621
 20
531.5029047056
 30
0.0
 10
128.7733755594
 20
531.571703019
 30
0.0
 10
128.8748563214
 20
531.6669750102
 30
0.0
 10
128.9531062988
 20
531.7380654591
 30
0.0
 10
129.0062312364
 20
531.7852109738
 30
0.0
  0
SPLINE
  5
4F0
100
AcDbEntity
  8
0
100
AcDbSpline
 62
7
  6
CONTINUOUS
 70
0
 71
3
 72
19
 73
15
 74
0
 42
0.0000001
 43
0.0000001
 44
0.0000000001
 40
0.0
 40
0.0
 40
0.0
 40
0.0
 40
0.0026440993
 40
0.0103833858
 40
0.022715802
 40
0.0391181309
 40
0.0820384225
 40
0.1349772603
 40
0.1942883617
 40
0.2583815102
 40
0.3966089719
 40
0.5422038753
 40
0.6923055702
 40
1.0
 40
1.0
 40
1.0
 40
1.0
 10
128.5651720673
 20
531.4257873967
 30
0.0
 10
128.5655463073
 20
531.4254198298
 30
0.0
 10
128.5667916016
 20
531.4288405816
 30
0.0
 10
128.5690792182
 20
531.431066749
 30
0.0
 10
128.5728211793
 20
531.4381504902
 30
0.0
 10
128.579963457
 20
531.4499513254
 30
0.0
 10
128.5910803637
 20
531.4695776481
 30
0.0
 10
128.6063920141
 20
531.4961476916
 30
0.0
 10
128.6238593841
 20
531.5265030717
 30
0.0
 10
128.6498879534
 20
531.5713932008
 30
0.0
 10
128.6847980937
 20
531.6309458999
 30
0.0
 10
128.7290389059
 20
531.7047921104
 30
0.0
 10
128.7915663329
 20
531.8068718715
 30
0.0
 10
128.8402224571
 20
531.8835706462
 30
0.0
 10
128.873477831
 20
531.9347596951
 30
0.0
  0
SPLINE
  5
4F1
100
AcDbEntity
  8
0
100
AcDbSpline
 62
7
  6
CONTINUOUS
 70
0
 71
3
 72
19
 73
15
 74
0
 42
0.0000001
 43
0.0000001
 44
0.0000000001
 40
0.0
 40
0.0
 40
0.0
 40
0.0
 40
0.3076907013
 40
0.4577913317
 40
0.6033889215
 40
0.7416225788
 40
0.8057173827
 40
0.8650273298
 40
0.9179630146
 40
0.9608896713
 40
0.9773016417
 40
0.9896414308
 40
0.9973775295
 40
1.0
 40
1.0
 40
1.0
 40
1.0
 10
140.120101617
 20
531.9347601536
 30
0.0
 10
140.1533560588
 20
531.8835721963
 30
0.0
 10
140.2020112385
 20
531.806875178
 30
0.0
 10
140.2645377899
 20
531.7047968851
 30
0.0
 10
140.3087786967
 20
531.6309502036
 30
0.0
 10
140.3436896708
 20
531.5713960108
 30
0.0
 10
140.3697179966
 20
531.5265057225
 30
0.0
 10
140.3871864793
 20
531.4961498164
 30
0.0
 10
140.4024934526
 20
531.4695839335
 30
0.0
 10
140.4136230915
 20
531.4499454861
 30
0.0
 10
140.4207499512
 20
531.4381559049
 30
0.0
 10
140.424524461
 20
531.4310419169
 30
0.0
 10
140.4267518734
 20
531.4288676664
 30
0.0
 10
140.4280561667
 20
531.4254064924
 30
0.0
 10
140.4284036505
 20
531.4257936962
 30
0.0
  0
SPLINE
  5
4F2
100
AcDbEntity
  8
0
100
AcDbSpline
 62
7
  6
CONTINUOUS
 70
0
 71
3
 72
17
 73
13
 74
0
 42
0.0000001
 43
0.0000001
 44
0.0000000001
 40
0.0
 40
0.0
 40
0.0
 40
0.0
 40
0.313454754
 40
0.4665296383
 40
0.6142260826
 40
0.7524958424
 40
0.8161026656
 40
0.8740832396
 40
0.9242516315
 40
0.9641119684
 40
0.990757086
 40
1.0
 40
1.0
 40
1.0
 40
1.0
 10
139.987347447
 20
531.7852109742
 30
0.0
 10
140.0404727442
 20
531.73806793
 30
0.0
 10
140.118719848
 20
531.6669767504
 30
0.0
 10
140.2201999368
 20
531.5717059222
 30
0.0
 10
140.2920131324
 20
531.5029082434
 30
0.0
 10
140.3487714614
 20
531.4475083324
 30
0.0
 10
140.3906238212
 20
531.4063591351
 30
0.0
 10
140.418550554
 20
531.3785601864
 30
0.0
 10
140.4416617587
 20
531.3563026768
 30
0.0
 10
140.462492372
 20
531.3343688145
 30
0.0
 10
140.4710308974
 20
531.3292651303
 30
0.0
 10
140.4813331034
 20
531.3163801294
 30
0.0
 10
140.4814071375
 20
531.3184731956
 30
0.0
  0
SPLINE
  5
4F3
100
AcDbEntity
  8
0
100
AcDbSpline
 62
7
  6
CONTINUOUS
 70
0
 71
3
 72
9
 73
5
 74
0
 42
0.0000001
 43
0.0000001
 44
0.0000000001
 40
0.0
 40
0.0
 40
0.0
 40
0.0
 40
0.2633392811
 40
1.0
 40
1.0
 40
1.0
 40
1.0
 10
140.4814174953
 20
531.3184833872
 30
0.0
 10
140.4740951938
 20
531.3261452385
 30
0.0
 10
140.4487728612
 20
531.3575306978
 30
0.0
 10
140.432981065
 20
531.3964957486
 30
0.0
 10
140.4284047726
 20
531.4257874074
 30
0.0
  0
SPLINE
  5
4F4
100
AcDbEntity
  8
0
100
AcDbSpline
 62
7
  6
CONTINUOUS
 70
0
 71
3
 72
11
 73
7
 74
0
 42
0.0000001
 43
0.0000001
 44
0.0000000001
 40
0.0
 40
0.0
 40
0.0
 40
0.0
 40
0.2464321028
 40
0.4972986235
 40
0.7486610002
 40
1.0
 40
1.0
 40
1.0
 40
1.0
 10
137.0576736172
 20
536.0181620371
 30
0.0
 10
137.498348861
 20
535.8109423281
 30
0.0
 10
138.3412182809
 20
535.2848372668
 30
0.0
 10
139.3830377029
 20
534.2145075647
 30
0.0
 10
140.1403218994
 20
532.9155751946
 30
0.0
 10
140.4198705857
 20
531.9500143822
 30
0.0
 10
140.4984566566
 20
531.4596099937
 30
0.0
  0
SPLINE
  5
4F5
100
AcDbEntity
  8
0
100
AcDbSpline
 62
7
  6
CONTINUOUS
 70
0
 71
3
 72
8
 73
4
 74
0
 42
0.0000001
 43
0.0000001
 44
0.0000000001
 40
0.0
 40
0.0
 40
0.0
 40
0.0
 40
1.0
 40
1.0
 40
1.0
 40
1.0
 10
140.4984566566
 20
531.4596099937
 30
0.0
 10
140.5046357621
 20
531.4206118867
 30
0.0
 10
140.5238792755
 20
531.382110312
 30
0.0
 10
140.5510746579
 20
531.3534843644
 30
0.0
  0
SPLINE
  5
4F6
100
AcDbEntity
  8
0
100
AcDbSpline
 62
7
  6
CONTINUOUS
 70
0
 71
3
 72
10
 73
6
 74
0
 42
0.0000001
 43
0.0000001
 44
0.0000000001
 40
0.0
 40
0.0
 40
0.0
 40
0.0
 40
0.2486475136
 40
0.498607571
 40
1.0
 40
1.0
 40
1.0
 40
1.0
 10
145.4639828478
 20
503.8608390708
 30
0.0
 10
145.5942636129
 20
504.0084793835
 30
0.0
 10
145.8103244843
 20
504.3446070714
 30
0.0
 10
146.1120787687
 20
505.0785538599
 30
0.0
 10
146.2306499944
 20
505.6685318277
 30
0.0
 10
146.2715881224
 20
506.0634661651
 30
0.0
  0
SPLINE
  5
4F7
100
AcDbEntity
  8
0
100
AcDbSpline
 62
7
  6
CONTINUOUS
 70
0
 71
3
 72
13
 73
9
 74
0
 42
0.0000001
 43
0.0000001
 44
0.0000000001
 40
0.0
 40
0.0
 40
0.0
 40
0.0
 40
0.249946894
 40
0.3749683432
 40
0.4999999425
 40
0.6250315785
 40
0.750053063
 40
1.0
 40
1.0
 40
1.0
 40
1.0
 10
146.2715568131
 20
506.0634695091
 30
0.0
 10
146.5251264266
 20
508.508732461
 30
0.0
 10
146.7409568555
 20
512.1943453466
 30
0.0
 10
146.8495048721
 20
517.1107151411
 30
0.0
 10
146.8740782043
 20
520.7999993048
 30
0.0
 10
146.8495049722
 20
524.4892838092
 30
0.0
 10
146.7409593433
 20
529.4056547858
 30
0.0
 10
146.5251276383
 20
533.0912684577
 30
0.0
 10
146.2715566548
 20
535.5365316922
 30
0.0
  0
SPLINE
  5
4F8
100
AcDbEntity
  8
0
100
AcDbSpline
 62
7
  6
CONTINUOUS
 70
0
 71
3
 72
10
 73
6
 74
0
 42
0.0000001
 43
0.0000001
 44
0.0000000001
 40
0.0
 40
0.0
 40
0.0
 40
0.0
 40
0.5013918729
 40
0.7513513705
 40
1.0
 40
1.0
 40
1.0
 40
1.0
 10
146.2715875133
 20
535.5365349933
 30
0.0
 10
146.2306488687
 20
535.9314685959
 30
0.0
 10
146.1120790877
 20
536.5214454912
 30
0.0
 10
145.8103245025
 20
537.2553918159
 30
0.0
 10
145.5942633323
 20
537.5915193594
 30
0.0
 10
145.4639826264
 20
537.7391607459
 30
0.0
  0
SPLINE
  5
4F9
100
AcDbEntity
  8
0
100
AcDbSpline
 62
7
  6
CONTINUOUS
 70
0
 71
3
 72
15
 73
11
 74
0
 42
0.0000001
 43
0.0000001
 44
0.0000000001
 40
0.0
 40
0.0
 40
0.0
 40
0.0
 40
0.1264474128
 40
0.2527110151
 40
0.3787850131
 40
0.5039993186
 40
0.6276386452
 40
0.7502439747
 40
0.874142826
 40
1.0
 40
1.0
 40
1.0
 40
1.0
 10
145.4639265905
 20
537.7391114127
 30
0.0
 10
145.3397450174
 20
537.8797752001
 30
0.0
 10
145.0753139016
 20
538.1472849795
 30
0.0
 10
144.6269362952
 20
538.4896365009
 30
0.0
 10
144.1280107195
 20
538.7519633873
 30
0.0
 10
143.5843676131
 20
538.8964541743
 30
0.0
 10
143.0204463026
 20
538.8651384346
 30
0.0
 10
142.5190735457
 20
538.5945397409
 30
0.0
 10
142.1895419413
 20
538.1318893499
 30
0.0
 10
142.0870267404
 20
537.7699397008
 30
0.0
 10
142.0576588165
 20
537.5855028003
 30
0.0
  0
SPLINE
  5
4FA
100
AcDbEntity
  8
0
100
AcDbSpline
 62
7
  6
CONTINUOUS
 70
0
 71
3
 72
15
 73
11
 74
0
 42
0.0000001
 43
0.0000001
 44
0.0000000001
 40
0.0
 40
0.0
 40
0.0
 40
0.0
 40
0.1258795041
 40
0.2497795692
 40
0.3723809259
 40
0.4960104928
 40
0.6212138966
 40
0.7472725838
 40
0.8735347089
 40
1.0
 40
1.0
 40
1.0
 40
1.0
 10
142.0576681904
 20
504.0145215559
 30
0.0
 10
142.0870618179
 20
503.8300550967
 30
0.0
 10
142.189583306
 20
503.4680773966
 30
0.0
 10
142.519122544
 20
503.0053825546
 30
0.0
 10
143.0205219559
 20
502.7348651695
 30
0.0
 10
143.5843973024
 20
502.7035669312
 30
0.0
 10
144.1279900759
 20
502.8480453962
 30
0.0
 10
144.6268768682
 20
503.1103538852
 30
0.0
 10
145.0752749415
 20
503.4526798957
 30
0.0
 10
145.339733672
 20
503.7201993949
 30
0.0
 10
145.4639285706
 20
503.8608869385
 30
0.0
  0
SPLINE
  5
4FB
100
AcDbEntity
  8
0
100
AcDbSpline
 62
7
  6
CONTINUOUS
 70
0
 71
3
 72
8
 73
4
 74
0
 42
0.0000001
 43
0.0000001
 44
0.0000000001
 40
0.0
 40
0.0
 40
0.0
 40
0.0
 40
1.0
 40
1.0
 40
1.0
 40
1.0
 10
140.5510746579
 20
519.8465156356
 30
0.0
 10
140.523879176
 20
519.8178897826
 30
0.0
 10
140.5046365393
 20
519.7793879902
 30
0.0
 10
140.4984566566
 20
519.7403900063
 30
0.0
  0
SPLINE
  5
4FC
100
AcDbEntity
  8
0
100
AcDbSpline
 62
7
  6
CONTINUOUS
 70
0
 71
3
 72
11
 73
7
 74
0
 42
0.0000001
 43
0.0000001
 44
0.0000000001
 40
0.0
 40
0.0
 40
0.0
 40
0.0
 40
0.2513397841
 40
0.5027022547
 40
0.753568575
 40
1.0
 40
1.0
 40
1.0
 40
1.0
 10
140.4984566566
 20
519.7403900063
 30
0.0
 10
140.419870322
 20
519.2499839717
 30
0.0
 10
140.1403216387
 20
518.2844207725
 30
0.0
 10
139.38303263
 20
516.9854893996
 30
0.0
 10
138.3412155901
 20
515.9151592513
 30
0.0
 10
137.498346437
 20
515.3890564001
 30
0.0
 10
137.0576723019
 20
515.1818372109
 30
0.0
  0
SPLINE
  5
4FD
100
AcDbEntity
  8
0
100
AcDbSpline
 62
7
  6
CONTINUOUS
 70
0
 71
3
 72
16
 73
12
 74
0
 42
0.0000001
 43
0.0000001
 44
0.0000000001
 40
0.0
 40
0.0
 40
0.0
 40
0.0
 40
0.1249334758
 40
0.1870906576
 40
0.249077184
 40
0.3112487335
 40
0.373781548
 40
0.4990284052
 40
0.6244884354
 40
0.7498206404
 40
1.0
 40
1.0
 40
1.0
 40
1.0
 10
137.0576726222
 20
502.5859478729
 30
0.0
 10
137.1070035969
 20
502.2862638563
 30
0.0
 10
137.2768511022
 20
501.8424470115
 30
0.0
 10
137.6868135622
 20
501.3894522369
 30
0.0
 10
138.0709270999
 20
501.1394749831
 30
0.0
 10
138.5063307198
 20
500.9955152439
 30
0.0
 10
139.1166688639
 20
500.9450113489
 30
0.0
 10
139.8768911171
 20
501.1249347057
 30
0.0
 10
140.6617623034
 20
501.6189242478
 30
0.0
 10
141.4892774904
 20
502.5243726573
 30
0.0
 10
141.8522232451
 20
503.4121259531
 30
0.0
 10
141.9359067496
 20
504.0145348902
 30
0.0
  0
LINE
  5
4FE
100
AcDbEntity
  8
0
100
AcDbLine
 62
7
  6
CONTINUOUS
 10
140.498563657
 20
519.7403730882
 11
140.4282998445
 21
519.7742290214
  0
LINE
  5
4FF
100
AcDbEntity
  8
0
100
AcDbLine
 62
7
  6
CONTINUOUS
 10
128.565278876
 20
519.7742290262
 11
128.4950151159
 21
519.7403696186
  0
SPLINE
  5
500
100
AcDbEntity
  8
0
100
AcDbSpline
 62
7
  6
CONTINUOUS
 70
0
 71
3
 72
10
 73
6
 74
0
 42
0.0000001
 43
0.0000001
 44
0.0000000001
 40
0.0
 40
0.0
 40
0.0
 40
0.0
 40
0.1774014111
 40
0.4125251865
 40
1.0
 40
1.0
 40
1.0
 40
1.0
 10
146.0380621862
 20
542.750343239
 30
0.0
 10
146.0109209166
 20
542.4566486744
 30
0.0
 10
145.9535919965
 20
541.7731750118
 30
0.0
 10
145.8056458526
 20
540.1172075567
 30
0.0
 10
145.6531769357
 20
538.7575849735
 30
0.0
 10
145.5211403118
 20
537.7898202383
 30
0.0
  0
SPLINE
  5
501
100
AcDbEntity
  8
0
100
AcDbSpline
 62
7
  6
CONTINUOUS
 70
0
 71
3
 72
9
 73
5
 74
0
 42
0.0000001
 43
0.0000001
 44
0.0000000001
 40
0.0
 40
0.0
 40
0.0
 40
0.0
 40
0.3915450767
 40
1.0
 40
1.0
 40
1.0
 40
1.0
 10
147.7440681177
 20
541.6998048373
 30
0.0
 10
147.5518478227
 20
541.8780501424
 30
0.0
 10
147.0007304386
 20
542.266367322
 30
0.0
 10
146.4050692967
 20
542.5735043221
 30
0.0
 10
146.0380592552
 20
542.7502906032
 30
0.0
  0
SPLINE
  5
502
100
AcDbEntity
  8
0
100
AcDbSpline
 62
7
  6
CONTINUOUS
 70
0
 71
3
 72
10
 73
6
 74
0
 42
0.0000001
 43
0.0000001
 44
0.0000000001
 40
0.0
 40
0.0
 40
0.0
 40
0.0
 40
0.5874767149
 40
0.8226000437
 40
1.0
 40
1.0
 40
1.0
 40
1.0
 10
145.5212324499
 20
503.8103010596
 30
0.0
 10
145.6532700906
 20
502.8425117135
 30
0.0
 10
145.8056297518
 20
501.4828439856
 30
0.0
 10
145.9535899174
 20
499.8268417872
 30
0.0
 10
146.010922832
 20
499.1433565308
 30
0.0
 10
146.0380644454
 20
498.8496579489
 30
0.0
  0
SPLINE
  5
503
100
AcDbEntity
  8
0
100
AcDbSpline
 62
7
  6
CONTINUOUS
 70
0
 71
3
 72
14
 73
10
 74
0
 42
0.0000001
 43
0.0000001
 44
0.0000000001
 40
0.0
 40
0.0
 40
0.0
 40
0.0
 40
0.1253969576
 40
0.2493219537
 40
0.3724683803
 40
0.4967151773
 40
0.6223046192
 40
0.7484668337
 40
1.0
 40
1.0
 40
1.0
 40
1.0
 10
126.990025748
 20
503.9906459402
 30
0.0
 10
126.9577822473
 20
503.8028073767
 30
0.0
 10
126.8455254803
 20
503.4347928258
 30
0.0
 10
126.5031313837
 20
502.9654756042
 30
0.0
 10
125.9893090964
 20
502.6873474861
 30
0.0
 10
125.4103462699
 20
502.6477029092
 30
0.0
 10
124.8496919791
 20
502.7881808097
 30
0.0
 10
124.1642754498
 20
503.1371493256
 30
0.0
 10
123.7272098923
 20
503.5251514311
 30
0.0
 10
123.472438372
 20
503.8101797617
 30
0.0
  0
SPLINE
  5
504
100
AcDbEntity
  8
0
100
AcDbSpline
 62
7
  6
CONTINUOUS
 70
0
 71
3
 72
19
 73
15
 74
0
 42
0.0000001
 43
0.0000001
 44
0.0000000001
 40
0.0
 40
0.0
 40
0.0
 40
0.0
 40
0.0627859503
 40
0.1251701927
 40
0.1872390879
 40
0.249257168
 40
0.3115437392
 40
0.3742037516
 40
0.4995565013
 40
0.6247973981
 40
0.7495216211
 40
0.8120081134
 40
0.8745728693
 40
1.0
 40
1.0
 40
1.0
 40
1.0
 10
131.9953386741
 20
502.5754401355
 30
0.0
 10
131.9663845398
 20
502.4215552288
 30
0.0
 10
131.886871245
 20
502.1173905017
 30
0.0
 10
131.6660401365
 20
501.7007154937
 30
0.0
 10
131.3520705483
 20
501.3511783949
 30
0.0
 10
130.9603856005
 20
501.0914285087
 30
0.0
 10
130.5144977318
 20
500.9392776006
 30
0.0
 10
129.8883215554
 20
500.8794650069
 30
0.0
 10
129.1058656026
 20
501.0545626417
 30
0.0
 10
128.2972073732
 20
501.5509776031
 30
0.0
 10
127.7622581691
 20
502.1304056833
 30
0.0
 10
127.429338797
 20
502.6581465857
 30
0.0
 10
127.1584161856
 20
503.2228195695
 30
0.0
 10
127.0423836853
 20
503.6822496649
 30
0.0
 10
126.990025748
 20
503.9906459402
 30
0.0
  0
SPLINE
  5
505
100
AcDbEntity
  8
0
100
AcDbSpline
 62
7
  6
CONTINUOUS
 70
0
 71
3
 72
10
 73
6
 74
0
 42
0.0000001
 43
0.0000001
 44
0.0000000001
 40
0.0
 40
0.0
 40
0.0
 40
0.0
 40
0.1774014111
 40
0.4125251865
 40
1.0
 40
1.0
 40
1.0
 40
1.0
 10
122.9555164977
 20
498.849656761
 30
0.0
 10
122.9826577673
 20
499.1433513256
 30
0.0
 10
123.0399866873
 20
499.8268249882
 30
0.0
 10
123.1879328313
 20
501.4827924433
 30
0.0
 10
123.3404017481
 20
502.8424150265
 30
0.0
 10
123.472438372
 20
503.8101797617
 30
0.0
  0
SPLINE
  5
506
100
AcDbEntity
  8
0
100
AcDbSpline
 62
7
  6
CONTINUOUS
 70
0
 71
3
 72
9
 73
5
 74
0
 42
0.0000001
 43
0.0000001
 44
0.0000000001
 40
0.0
 40
0.0
 40
0.0
 40
0.0
 40
0.3915453797
 40
1.0
 40
1.0
 40
1.0
 40
1.0
 10
121.2495104441
 20
499.9001953738
 30
0.0
 10
121.4417381591
 20
499.7219577194
 30
0.0
 10
121.9928420311
 20
499.3336254641
 30
0.0
 10
122.5885101384
 20
499.026496899
 30
0.0
 10
122.9555194287
 20
498.8497093968
 30
0.0
  0
SPLINE
  5
507
100
AcDbEntity
  8
0
100
AcDbSpline
 62
7
  6
CONTINUOUS
 70
0
 71
3
 72
11
 73
7
 74
0
 42
0.0000001
 43
0.0000001
 44
0.0000000001
 40
0.0
 40
0.0
 40
0.0
 40
0.0
 40
0.1691442809
 40
0.409370273
 40
0.6932384323
 40
1.0
 40
1.0
 40
1.0
 40
1.0
 10
120.7729923494
 20
501.1216796506
 30
0.0
 10
120.7310407419
 20
501.373466463
 30
0.0
 10
120.6132888209
 20
501.9800336881
 30
0.0
 10
120.4112491083
 20
503.0064556895
 30
0.0
 10
120.1727450389
 20
504.2374451015
 30
0.0
 10
120.0107447819
 20
505.1139390092
 30
0.0
 10
119.9288803859
 20
505.5695809839
 30
0.0
  0
SPLINE
  5
508
100
AcDbEntity
  8
0
100
AcDbSpline
 62
7
  6
CONTINUOUS
 70
0
 71
3
 72
10
 73
6
 74
0
 42
0.0000001
 43
0.0000001
 44
0.0000000001
 40
0.0
 40
0.0
 40
0.0
 40
0.0
 40
0.5874767149
 40
0.8226000437
 40
1.0
 40
1.0
 40
1.0
 40
1.0
 10
123.4723462339
 20
537.7896989404
 30
0.0
 10
123.3403085933
 20
538.7574882865
 30
0.0
 10
123.1879489314
 20
540.1171560144
 30
0.0
 10
123.0399887672
 20
541.7731582127
 30
0.0
 10
122.982655851
 20
542.4566434689
 30
0.0
 10
122.9555142377
 20
542.7503420507
 30
0.0
  0
SPLINE
  5
509
100
AcDbEntity
  8
0
100
AcDbSpline
 62
7
  6
CONTINUOUS
 70
0
 71
3
 72
11
 73
7
 74
0
 42
0.0000001
 43
0.0000001
 44
0.0000000001
 40
0.0
 40
0.0
 40
0.0
 40
0.0
 40
0.3067615725
 40
0.5906297294
 40
0.8308557195
 40
1.0
 40
1.0
 40
1.0
 40
1.0
 10
119.9288803863
 20
536.030419016
 30
0.0
 10
120.0107447834
 20
536.4860609979
 30
0.0
 10
120.1727450408
 20
537.3625549091
 30
0.0
 10
120.4112491105
 20
538.5935443218
 30
0.0
 10
120.6132888217
 20
539.6199663161
 30
0.0
 10
120.7310407421
 20
540.2265335377
 30
0.0
 10
120.7729923494
 20
540.4783203494
 30
0.0
  0
SPLINE
  5
50A
100
AcDbEntity
  8
0
100
AcDbSpline
 62
7
  6
CONTINUOUS
 70
0
 71
3
 72
14
 73
10
 74
0
 42
0.0000001
 43
0.0000001
 44
0.0000000001
 40
0.0
 40
0.0
 40
0.0
 40
0.0
 40
0.1253969576
 40
0.2493219537
 40
0.3724683803
 40
0.4967151773
 40
0.6223046192
 40
0.7484668337
 40
1.0
 40
1.0
 40
1.0
 40
1.0
 10
142.0035529358
 20
537.6093540598
 30
0.0
 10
142.0357964366
 20
537.7971926233
 30
0.0
 10
142.1480532035
 20
538.1652071742
 30
0.0
 10
142.4904473002
 20
538.6345243958
 30
0.0
 10
143.0042695875
 20
538.9126525139
 30
0.0
 10
143.5832324139
 20
538.9522970908
 30
0.0
 10
144.1438867048
 20
538.8118191903
 30
0.0
 10
144.8293032341
 20
538.4628506744
 30
0.0
 10
145.2663687915
 20
538.0748485689
 30
0.0
 10
145.5211403118
 20
537.7898202383
 30
0.0
  0
SPLINE
  5
50B
100
AcDbEntity
  8
0
100
AcDbSpline
 62
7
  6
CONTINUOUS
 70
0
 71
3
 72
19
 73
15
 74
0
 42
0.0000001
 43
0.0000001
 44
0.0000000001
 40
0.0
 40
0.0
 40
0.0
 40
0.0
 40
0.0627859658
 40
0.1251702207
 40
0.1872391262
 40
0.2492571986
 40
0.3115437564
 40
0.3742037602
 40
0.4995565061
 40
0.6247974016
 40
0.7495216318
 40
0.8120081206
 40
0.8745728769
 40
1.0
 40
1.0
 40
1.0
 40
1.0
 10
136.9982393154
 20
539.0245466933
 30
0.0
 10
137.0271920418
 20
539.1784321771
 30
0.0
 10
137.1067027397
 20
539.4825982873
 30
0.0
 10
137.3275320486
 20
539.8992753624
 30
0.0
 10
137.6415002702
 20
540.2488147772
 30
0.0
 10
138.0331843932
 20
540.5085673465
 30
0.0
 10
138.4790722655
 20
540.6607206317
 30
0.0
 10
139.1052492435
 20
540.7205358133
 30
0.0
 10
139.8877071438
 20
540.545440064
 30
0.0
 10
140.6963676662
 20
540.0490255983
 30
0.0
 10
141.2313184911
 20
539.469597111
 30
0.0
 10
141.5642387407
 20
538.9418554696
 30
0.0
 10
141.8351620583
 20
538.3771817077
 30
0.0
 10
141.9511954649
 20
537.9177509382
 30
0.0
 10
142.0035529358
 20
537.6093540598
 30
0.0
  0
SPLINE
  5
50C
100
AcDbEntity
  8
0
100
AcDbSpline
 62
7
  6
CONTINUOUS
 70
0
 71
3
 72
16
 73
12
 74
0
 42
0.0000001
 43
0.0000001
 44
0.0000000001
 40
0.0
 40
0.0
 40
0.0
 40
0.0
 40
0.1246977851
 40
0.1869050281
 40
0.2490674355
 40
0.3115066313
 40
0.3743412413
 40
0.5000775858
 40
0.6256961556
 40
0.7508505086
 40
1.0
 40
1.0
 40
1.0
 40
1.0
 10
131.9953476807
 20
539.0245753116
 30
0.0
 10
131.9439098753
 20
539.3309369436
 30
0.0
 10
131.7695328896
 20
539.7845772811
 30
0.0
 10
131.3511125098
 20
540.2500672954
 30
0.0
 10
130.9582401277
 20
540.5094261181
 30
0.0
 10
130.5117151765
 20
540.6615951758
 30
0.0
 10
129.8842467009
 20
540.720174732
 30
0.0
 10
129.1007449125
 20
540.5438138533
 30
0.0
 10
128.2909250867
 20
540.0434756205
 30
0.0
 10
127.4406489399
 20
539.1207331243
 30
0.0
 10
127.0725748677
 20
538.2107508161
 30
0.0
 10
126.9924311005
 20
537.5952601314
 30
0.0
  0
SPLINE
  5
50D
100
AcDbEntity
  8
0
100
AcDbSpline
 62
7
  6
CONTINUOUS
 70
0
 71
3
 72
16
 73
12
 74
0
 42
0.0000001
 43
0.0000001
 44
0.0000000001
 40
0.0
 40
0.0
 40
0.0
 40
0.0
 40
0.1249334758
 40
0.1870906576
 40
0.249077184
 40
0.3112487335
 40
0.3737815481
 40
0.4990284052
 40
0.6244884354
 40
0.7498206404
 40
1.0
 40
1.0
 40
1.0
 40
1.0
 10
131.9359060615
 20
539.014052127
 30
0.0
 10
131.8865750873
 20
539.3137361437
 30
0.0
 10
131.7167275814
 20
539.7575529883
 30
0.0
 10
131.3067651217
 20
540.210547763
 30
0.0
 10
130.9226515839
 20
540.4605250168
 30
0.0
 10
130.4872479641
 20
540.604484756
 30
0.0
 10
129.87690982
 20
540.654988651
 30
0.0
 10
129.1166875669
 20
540.4750652941
 30
0.0
 10
128.3318163805
 20
539.9810757521
 30
0.0
 10
127.5043011935
 20
539.0756273426
 30
0.0
 10
127.1413554389
 20
538.1878740469
 30
0.0
 10
127.0576719343
 20
537.5854651098
 30
0.0
  0
SPLINE
  5
50E
100
AcDbEntity
  8
0
100
AcDbSpline
 62
7
  6
CONTINUOUS
 70
0
 71
3
 72
11
 73
7
 74
0
 42
0.0000001
 43
0.0000001
 44
0.0000000001
 40
0.0
 40
0.0
 40
0.0
 40
0.0
 40
0.2513397841
 40
0.5027022547
 40
0.753568575
 40
1.0
 40
1.0
 40
1.0
 40
1.0
 10
128.4951220272
 20
531.4596099937
 30
0.0
 10
128.5737083619
 20
531.9500160283
 30
0.0
 10
128.8532570451
 20
532.9155792275
 30
0.0
 10
129.6105460538
 20
534.2145106004
 30
0.0
 10
130.6523630937
 20
535.2848407487
 30
0.0
 10
131.4952322468
 20
535.8109435999
 30
0.0
 10
131.9359063819
 20
536.0181627891
 30
0.0
  0
SPLINE
  5
50F
100
AcDbEntity
  8
0
100
AcDbSpline
 62
7
  6
CONTINUOUS
 70
0
 71
3
 72
8
 73
4
 74
0
 42
0.0000001
 43
0.0000001
 44
0.0000000001
 40
0.0
 40
0.0
 40
0.0
 40
0.0
 40
1.0
 40
1.0
 40
1.0
 40
1.0
 10
128.442504026
 20
531.3534843644
 30
0.0
 10
128.4696995078
 20
531.3821102174
 30
0.0
 10
128.4889421445
 20
531.4206120099
 30
0.0
 10
128.4951220272
 20
531.4596099937
 30
0.0
  0
LINE
  5
510
100
AcDbEntity
  8
0
100
AcDbLine
 62
7
  6
CONTINUOUS
 10
128.4425816883
 20
519.8465891818
 11
128.5120933103
 21
519.8814517882
  0
LINE
  5
511
100
AcDbEntity
  8
0
100
AcDbLine
 62
7
  6
CONTINUOUS
 10
128.5120928351
 20
531.3185486675
 11
128.4425817411
 21
531.3534107677
  0
SPLINE
  5
512
100
AcDbEntity
  8
0
100
AcDbSpline
 62
7
  6
CONTINUOUS
 70
0
 71
3
 72
11
 73
7
 74
0
 42
0.0000001
 43
0.0000001
 44
0.0000000001
 40
0.0
 40
0.0
 40
0.0
 40
0.0
 40
0.2464321028
 40
0.4972986235
 40
0.7486610002
 40
1.0
 40
1.0
 40
1.0
 40
1.0
 10
131.9359050666
 20
515.1818379629
 30
0.0
 10
131.4952298228
 20
515.3890576719
 30
0.0
 10
130.6523604029
 20
515.9151627332
 30
0.0
 10
129.610540981
 20
516.9854924353
 30
0.0
 10
128.8532567844
 20
518.2844248054
 30
0.0
 10
128.5737080981
 20
519.2499856178
 30
0.0
 10
128.4951220272
 20
519.7403900063
 30
0.0
  0
SPLINE
  5
513
100
AcDbEntity
  8
0
100
AcDbSpline
 62
7
  6
CONTINUOUS
 70
0
 71
3
 72
8
 73
4
 74
0
 42
0.0000001
 43
0.0000001
 44
0.0000000001
 40
0.0
 40
0.0
 40
0.0
 40
0.0
 40
1.0
 40
1.0
 40
1.0
 40
1.0
 10
128.4951220272
 20
519.7403900063
 30
0.0
 10
128.4889429217
 20
519.7793881133
 30
0.0
 10
128.4696994083
 20
519.817889688
 30
0.0
 10
128.442504026
 20
519.8465156356
 30
0.0
  0
LINE
  5
514
100
AcDbEntity
  8
0
100
AcDbLine
 62
7
  6
CONTINUOUS
 10
140.5509969955
 20
531.3534108182
 11
140.4814853736
 21
531.3185482118
  0
LINE
  5
515
100
AcDbEntity
  8
0
100
AcDbLine
 62
7
  6
CONTINUOUS
 10
140.4814858488
 20
519.8814513325
 11
140.5509969428
 21
519.8465892323
  0
SPLINE
  5
516
100
AcDbEntity
  8
0
100
AcDbSpline
 62
7
  6
CONTINUOUS
 70
0
 71
3
 72
9
 73
5
 74
0
 42
0.0000001
 43
0.0000001
 44
0.0000000001
 40
0.0
 40
0.0
 40
0.0
 40
0.0
 40
0.1989450573
 40
1.0
 40
1.0
 40
1.0
 40
1.0
 10
681.6961859979
 20
177.1
 30
0.0
 10
681.6961859979
 20
177.1962017651
 30
0.0
 10
681.5799845533
 20
177.6808680844
 30
0.0
 10
681.1583170088
 20
178.0039474888
 30
0.0
 10
680.8461790055
 20
178.2333289465
 30
0.0
  0
SPLINE
  5
517
100
AcDbEntity
  8
0
100
AcDbSpline
 62
7
  6
CONTINUOUS
 70
0
 71
3
 72
8
 73
4
 74
0
 42
0.0000001
 43
0.0000001
 44
0.0000000001
 40
0.0
 40
0.0
 40
0.0
 40
0.0
 40
1.0
 40
1.0
 40
1.0
 40
1.0
 10
680.8461790055
 20
178.2333289465
 30
0.0
 10
680.6526173168
 20
178.3755719987
 30
0.0
 10
680.4517693483
 20
178.5078034341
 30
0.0
 10
680.2498276429
 20
178.6378755712
 30
0.0
  0
SPLINE
  5
518
100
AcDbEntity
  8
0
100
AcDbSpline
 62
7
  6
CONTINUOUS
 70
0
 71
3
 72
8
 73
4
 74
0
 42
0.0000001
 43
0.0000001
 44
0.0000000001
 40
0.0
 40
0.0
 40
0.0
 40
0.0
 40
1.0
 40
1.0
 40
1.0
 40
1.0
 10
680.3065852625
 20
872.5987828406
 30
0.0
 10
680.4892875095
 20
872.7171327212
 30
0.0
 10
680.6707515994
 20
872.8377550566
 30
0.0
 10
680.8461654892
 20
872.9666611177
 30
0.0
  0
SPLINE
  5
519
100
AcDbEntity
  8
0
100
AcDbSpline
 62
7
  6
CONTINUOUS
 70
0
 71
3
 72
9
 73
5
 74
0
 42
0.0000001
 43
0.0000001
 44
0.0000000001
 40
0.0
 40
0.0
 40
0.0
 40
0.0
 40
0.3074136762
 40
1.0
 40
1.0
 40
1.0
 40
1.0
 10
681.0488949388
 20
873.1227055371
 30
0.0
 10
681.1435461475
 20
873.1994446033
 30
0.0
 10
681.4374844942
 20
873.4537207906
 30
0.0
 10
681.6961859979
 20
873.8254756706
 30
0.0
 10
681.6961859979
 20
874.1
 30
0.0
  0
SPLINE
  5
51A
100
AcDbEntity
  8
0
100
AcDbSpline
 62
7
  6
CONTINUOUS
 70
0
 71
3
 72
8
 73
4
 74
0
 42
0.0000001
 43
0.0000001
 44
0.0000000001
 40
0.0
 40
0.0
 40
0.0
 40
0.0
 40
1.0
 40
1.0
 40
1.0
 40
1.0
 10
85.9952785358
 20
873.0153143028
 30
0.0
 10
85.9412804921
 20
873.0944063213
 30
0.0
 10
85.8862350474
 20
873.1728089461
 30
0.0
 10
85.8295248802
 20
873.2499794913
 30
0.0
  0
SPLINE
  5
51B
100
AcDbEntity
  8
0
100
AcDbSpline
 62
7
  6
CONTINUOUS
 70
0
 71
3
 72
8
 73
4
 74
0
 42
0.0000001
 43
0.0000001
 44
0.0000000001
 40
0.0
 40
0.0
 40
0.0
 40
0.0
 40
1.0
 40
1.0
 40
1.0
 40
1.0
 10
85.8295248802
 20
873.2499794913
 30
0.0
 10
85.7411287606
 20
873.3702679173
 30
0.0
 10
85.6486733554
 20
873.4879362691
 30
0.0
 10
85.5489611474
 20
873.5990247698
 30
0.0
  0
SPLINE
  5
51C
100
AcDbEntity
  8
0
100
AcDbSpline
 62
7
  6
CONTINUOUS
 70
0
 71
3
 72
8
 73
4
 74
0
 42
0.0000001
 43
0.0000001
 44
0.0000000001
 40
0.0
 40
0.0
 40
0.0
 40
0.0
 40
1.0
 40
1.0
 40
1.0
 40
1.0
 10
85.5489611474
 20
873.5990247698
 30
0.0
 10
85.4608757166
 20
873.6971599797
 30
0.0
 10
85.3666852772
 20
873.7909498553
 30
0.0
 10
85.2628570514
 20
873.8722472235
 30
0.0
  0
SPLINE
  5
51D
100
AcDbEntity
  8
0
100
AcDbSpline
 62
7
  6
CONTINUOUS
 70
0
 71
3
 72
9
 73
5
 74
0
 42
0.0000001
 43
0.0000001
 44
0.0000000001
 40
0.0
 40
0.0
 40
0.0
 40
0.0
 40
0.2799015315
 40
1.0
 40
1.0
 40
1.0
 40
1.0
 10
85.2628570514
 20
873.8722472235
 30
0.0
 10
85.2175607174
 20
873.9077141952
 30
0.0
 10
85.0502071871
 20
874.0256717318
 30
0.0
 10
84.8441917395
 20
874.1
 30
0.0
 10
84.6961859979
 20
874.1
 30
0.0
  0
SPLINE
  5
51E
100
AcDbEntity
  8
0
100
AcDbSpline
 62
7
  6
CONTINUOUS
 70
0
 71
3
 72
9
 73
5
 74
0
 42
0.0000001
 43
0.0000001
 44
0.0000000001
 40
0.0
 40
0.0
 40
0.0
 40
0.0
 40
0.2036764141
 40
1.0
 40
1.0
 40
1.0
 40
1.0
 10
681.6961859979
 20
874.1
 30
0.0
 10
681.608626189
 20
874.1
 30
0.0
 10
681.1771431597
 20
874.0072125754
 30
0.0
 10
680.8713458907
 20
873.6498384294
 30
0.0
 10
680.6609569438
 20
873.3797810163
 30
0.0
  0
SPLINE
  5
51F
100
AcDbEntity
  8
0
100
AcDbSpline
 62
7
  6
CONTINUOUS
 70
0
 71
3
 72
8
 73
4
 74
0
 42
0.0000001
 43
0.0000001
 44
0.0000000001
 40
0.0
 40
0.0
 40
0.0
 40
0.0
 40
1.0
 40
1.0
 40
1.0
 40
1.0
 10
680.5628570514
 20
873.2499930076
 30
0.0
 10
680.4194092523
 20
873.0547919218
 30
0.0
 10
680.2861365221
 20
872.8521880474
 30
0.0
 10
680.1550050311
 20
872.6485087234
 30
0.0
  0
SPLINE
  5
520
100
AcDbEntity
  8
0
100
AcDbSpline
 62
7
  6
CONTINUOUS
 70
0
 71
3
 72
9
 73
5
 74
0
 42
0.0000001
 43
0.0000001
 44
0.0000000001
 40
0.0
 40
0.0
 40
0.0
 40
0.0
 40
0.2176129509
 40
1.0
 40
1.0
 40
1.0
 40
1.0
 10
84.6961859979
 20
874.1
 30
0.0
 10
84.6961859979
 20
874.0349321151
 30
0.0
 10
84.742252064
 20
873.734742586
 30
0.0
 10
84.9466779273
 20
873.4866729915
 30
0.0
 10
85.1147555268
 20
873.3239535329
 30
0.0
  0
SPLINE
  5
521
100
AcDbEntity
  8
0
100
AcDbSpline
 62
7
  6
CONTINUOUS
 70
0
 71
3
 72
8
 73
4
 74
0
 42
0.0000001
 43
0.0000001
 44
0.0000000001
 40
0.0
 40
0.0
 40
0.0
 40
0.0
 40
1.0
 40
1.0
 40
1.0
 40
1.0
 10
85.1871582831
 20
873.2562407655
 30
0.0
 10
85.3011516844
 20
873.1530655751
 30
0.0
 10
85.4222977391
 20
873.0577181962
 30
0.0
 10
85.5461929903
 20
872.9666710535
 30
0.0
  0
SPLINE
  5
522
100
AcDbEntity
  8
0
100
AcDbSpline
 62
7
  6
CONTINUOUS
 70
0
 71
3
 72
8
 73
4
 74
0
 42
0.0000001
 43
0.0000001
 44
0.0000000001
 40
0.0
 40
0.0
 40
0.0
 40
0.0
 40
1.0
 40
1.0
 40
1.0
 40
1.0
 10
85.5461929903
 20
872.9666710535
 30
0.0
 10
85.648383346
 20
872.8915742294
 30
0.0
 10
85.7527113765
 20
872.8193714159
 30
0.0
 10
85.8580131794
 20
872.7487036573
 30
0.0
  0
SPLINE
  5
523
100
AcDbEntity
  8
0
100
AcDbSpline
 62
7
  6
CONTINUOUS
 70
0
 71
3
 72
8
 73
4
 74
0
 42
0.0000001
 43
0.0000001
 44
0.0000000001
 40
0.0
 40
0.0
 40
0.0
 40
0.0
 40
1.0
 40
1.0
 40
1.0
 40
1.0
 10
85.9826996807
 20
178.5340138029
 30
0.0
 10
85.8350069058
 20
178.4370525866
 30
0.0
 10
85.6885751615
 20
178.3379610564
 30
0.0
 10
85.5462065066
 20
178.2333388823
 30
0.0
  0
SPLINE
  5
524
100
AcDbEntity
  8
0
100
AcDbSpline
 62
7
  6
CONTINUOUS
 70
0
 71
3
 72
8
 73
4
 74
0
 42
0.0000001
 43
0.0000001
 44
0.0000000001
 40
0.0
 40
0.0
 40
0.0
 40
0.0
 40
1.0
 40
1.0
 40
1.0
 40
1.0
 10
85.5462065066
 20
178.2333388823
 30
0.0
 10
85.4223079492
 20
178.1422897925
 30
0.0
 10
85.3011586209
 20
178.0469403718
 30
0.0
 10
85.1871622151
 20
177.9437628125
 30
0.0
  0
SPLINE
  5
525
100
AcDbEntity
  8
0
100
AcDbSpline
 62
7
  6
CONTINUOUS
 70
0
 71
3
 72
9
 73
5
 74
0
 42
0.0000001
 43
0.0000001
 44
0.0000000001
 40
0.0
 40
0.0
 40
0.0
 40
0.0
 40
0.2952541588
 40
1.0
 40
1.0
 40
1.0
 40
1.0
 10
85.1147527466
 20
177.8760437983
 30
0.0
 10
85.0515895355
 20
177.8148939918
 30
0.0
 10
84.8485417847
 20
177.6013992321
 30
0.0
 10
84.6961859979
 20
177.3098432788
 30
0.0
 10
84.6961859979
 20
177.1
 30
0.0
  0
SPLINE
  5
526
100
AcDbEntity
  8
0
100
AcDbSpline
 62
7
  6
CONTINUOUS
 70
0
 71
3
 72
8
 73
4
 74
0
 42
0.0000001
 43
0.0000001
 44
0.0000000001
 40
0.0
 40
0.0
 40
0.0
 40
0.0
 40
1.0
 40
1.0
 40
1.0
 40
1.0
 10
680.1277976551
 20
178.593825303
 30
0.0
 10
680.2676660218
 20
178.3758334056
 30
0.0
 10
680.4094727104
 20
178.1587306407
 30
0.0
 10
680.5628471156
 20
177.9500205087
 30
0.0
  0
SPLINE
  5
527
100
AcDbEntity
  8
0
100
AcDbSpline
 62
7
  6
CONTINUOUS
 70
0
 71
3
 72
9
 73
5
 74
0
 42
0.0000001
 43
0.0000001
 44
0.0000000001
 40
0.0
 40
0.0
 40
0.0
 40
0.0
 40
0.3069447438
 40
1.0
 40
1.0
 40
1.0
 40
1.0
 10
680.7278247268
 20
177.7363085785
 30
0.0
 10
680.8038611406
 20
177.6431355643
 30
0.0
 10
681.0563410918
 20
177.3533559519
 30
0.0
 10
681.4246464741
 20
177.1
 30
0.0
 10
681.6961859979
 20
177.1
 30
0.0
  0
SPLINE
  5
528
100
AcDbEntity
  8
0
100
AcDbSpline
 62
7
  6
CONTINUOUS
 70
0
 71
3
 72
9
 73
5
 74
0
 42
0.0000001
 43
0.0000001
 44
0.0000000001
 40
0.0
 40
0.0
 40
0.0
 40
0.0
 40
0.1989450573
 40
1.0
 40
1.0
 40
1.0
 40
1.0
 10
84.6961859979
 20
177.1
 30
0.0
 10
84.792387763
 20
177.1
 30
0.0
 10
85.2770540823
 20
177.2162014446
 30
0.0
 10
85.6001334867
 20
177.6378689891
 30
0.0
 10
85.8295149444
 20
177.9500069924
 30
0.0
  0
SPLINE
  5
529
100
AcDbEntity
  8
0
100
AcDbSpline
 62
7
  6
CONTINUOUS
 70
0
 71
3
 72
8
 73
4
 74
0
 42
0.0000001
 43
0.0000001
 44
0.0000000001
 40
0.0
 40
0.0
 40
0.0
 40
0.0
 40
1.0
 40
1.0
 40
1.0
 40
1.0
 10
85.8295149444
 20
177.9500069924
 30
0.0
 10
85.8862286121
 20
178.0271818922
 30
0.0
 10
85.9412773241
 20
178.1055890506
 30
0.0
 10
85.9952785154
 20
178.1846856788
 30
0.0
  0
SPLINE
  5
52A
100
AcDbEntity
  8
0
100
AcDbSpline
 62
7
  6
CONTINUOUS
 70
0
 71
3
 72
9
 73
5
 74
0
 42
0.0000001
 43
0.0000001
 44
0.0000000001
 40
0.0
 40
0.0
 40
0.0
 40
0.0
 40
0.3758367205
 40
1.0
 40
1.0
 40
1.0
 40
1.0
 10
83.1961859979
 20
177.1
 30
0.0
 10
83.1961859979
 20
177.2632827415
 30
0.0
 10
83.5068393524
 20
177.6495761586
 30
0.0
 10
83.8887977535
 20
177.8329987454
 30
0.0
 10
84.1334295726
 20
177.9499929561
 30
0.0
  0
SPLINE
  5
52B
100
AcDbEntity
  8
0
100
AcDbSpline
 62
7
  6
CONTINUOUS
 70
0
 71
3
 72
8
 73
4
 74
0
 42
0.0000001
 43
0.0000001
 44
0.0000000001
 40
0.0
 40
0.0
 40
0.0
 40
0.0
 40
1.0
 40
1.0
 40
1.0
 40
1.0
 10
84.5690619825
 20
178.1422677091
 30
0.0
 10
84.8474542448
 20
178.2569482638
 30
0.0
 10
85.1300285005
 20
178.3614684081
 30
0.0
 10
85.4137375582
 20
178.4622803714
 30
0.0
  0
SPLINE
  5
52C
100
AcDbEntity
  8
0
100
AcDbSpline
 62
7
  6
CONTINUOUS
 70
0
 71
3
 72
8
 73
4
 74
0
 42
0.0000001
 43
0.0000001
 44
0.0000000001
 40
0.0
 40
0.0
 40
0.0
 40
0.0
 40
1.0
 40
1.0
 40
1.0
 40
1.0
 10
85.4137411575
 20
872.7377183465
 30
0.0
 10
85.1395317791
 20
872.8351546989
 30
0.0
 10
84.8664081348
 20
872.936087562
 30
0.0
 10
84.5970560524
 20
873.0462423699
 30
0.0
  0
SPLINE
  5
52D
100
AcDbEntity
  8
0
100
AcDbSpline
 62
7
  6
CONTINUOUS
 70
0
 71
3
 72
8
 73
4
 74
0
 42
0.0000001
 43
0.0000001
 44
0.0000000001
 40
0.0
 40
0.0
 40
0.0
 40
0.0
 40
1.0
 40
1.0
 40
1.0
 40
1.0
 10
84.5970560524
 20
873.0462423699
 30
0.0
 10
84.4408180342
 20
873.1101378064
 30
0.0
 10
84.2857392036
 20
873.1771665051
 30
0.0
 10
84.1334590237
 20
873.2499929561
 30
0.0
  0
SPLINE
  5
52E
100
AcDbEntity
  8
0
100
AcDbSpline
 62
7
  6
CONTINUOUS
 70
0
 71
3
 72
9
 73
5
 74
0
 42
0.0000001
 43
0.0000001
 44
0.0000000001
 40
0.0
 40
0.0
 40
0.0
 40
0.0
 40
0.3430032484
 40
1.0
 40
1.0
 40
1.0
 40
1.0
 10
83.9396617705
 20
873.3471894724
 30
0.0
 10
83.8308218265
 20
873.4046432068
 30
0.0
 10
83.5330907759
 20
873.574609243
 30
0.0
 10
83.1961859979
 20
873.8642621958
 30
0.0
 10
83.1961859979
 20
874.1
 30
0.0
  0
SPLINE
  5
52F
100
AcDbEntity
  8
0
100
AcDbSpline
 62
7
  6
CONTINUOUS
 70
0
 71
3
 72
8
 73
4
 74
0
 42
0.0000001
 43
0.0000001
 44
0.0000000001
 40
0.0
 40
0.0
 40
0.0
 40
0.0
 40
1.0
 40
1.0
 40
1.0
 40
1.0
 10
85.749943628
 20
177.0008700545
 30
0.0
 10
85.6860481915
 20
176.8446320363
 30
0.0
 10
85.6190194929
 20
176.6895532057
 30
0.0
 10
85.5461930419
 20
176.5372730258
 30
0.0
  0
SPLINE
  5
530
100
AcDbEntity
  8
0
100
AcDbSpline
 62
7
  6
CONTINUOUS
 70
0
 71
3
 72
9
 73
5
 74
0
 42
0.0000001
 43
0.0000001
 44
0.0000000001
 40
0.0
 40
0.0
 40
0.0
 40
0.0
 40
0.3430032484
 40
1.0
 40
1.0
 40
1.0
 40
1.0
 10
85.4489965255
 20
176.3434757726
 30
0.0
 10
85.3915427912
 20
176.2346358286
 30
0.0
 10
85.2215767549
 20
175.936904778
 30
0.0
 10
84.9319238021
 20
175.6
 30
0.0
 10
84.6961859979
 20
175.6
 30
0.0
  0
SPLINE
  5
531
100
AcDbEntity
  8
0
100
AcDbSpline
 62
7
  6
CONTINUOUS
 70
0
 71
3
 72
9
 73
5
 74
0
 42
0.0000001
 43
0.0000001
 44
0.0000000001
 40
0.0
 40
0.0
 40
0.0
 40
0.0
 40
0.3758367205
 40
1.0
 40
1.0
 40
1.0
 40
1.0
 10
681.6961859979
 20
175.6
 30
0.0
 10
681.5329032564
 20
175.6
 30
0.0
 10
681.1466098394
 20
175.9106533545
 30
0.0
 10
680.9631872525
 20
176.2926117556
 30
0.0
 10
680.8461930419
 20
176.5372435747
 30
0.0
  0
SPLINE
  5
532
100
AcDbEntity
  8
0
100
AcDbSpline
 62
7
  6
CONTINUOUS
 70
0
 71
3
 72
8
 73
4
 74
0
 42
0.0000001
 43
0.0000001
 44
0.0000000001
 40
0.0
 40
0.0
 40
0.0
 40
0.0
 40
1.0
 40
1.0
 40
1.0
 40
1.0
 10
680.5618003438
 20
177.2027986275
 30
0.0
 10
680.4481660955
 20
177.4938617568
 30
0.0
 10
680.3430415681
 20
177.7882378264
 30
0.0
 10
680.2406097312
 20
178.0834296393
 30
0.0
  0
SPLINE
  5
533
100
AcDbEntity
  8
0
100
AcDbSpline
 62
7
  6
CONTINUOUS
 70
0
 71
3
 72
9
 73
5
 74
0
 42
0.0000001
 43
0.0000001
 44
0.0000000001
 40
0.0
 40
0.0
 40
0.0
 40
0.0
 40
0.2626896561
 40
1.0
 40
1.0
 40
1.0
 40
1.0
 10
680.2406088157
 20
873.1165677322
 30
0.0
 10
680.2737576404
 20
873.2120972466
 30
0.0
 10
680.4011633526
 20
873.5753120784
 30
0.0
 10
680.5349961584
 20
873.9364351992
 30
0.0
 10
680.6424283678
 20
874.1991299455
 30
0.0
  0
SPLINE
  5
534
100
AcDbEntity
  8
0
100
AcDbSpline
 62
7
  6
CONTINUOUS
 70
0
 71
3
 72
8
 73
4
 74
0
 42
0.0000001
 43
0.0000001
 44
0.0000000001
 40
0.0
 40
0.0
 40
0.0
 40
0.0
 40
1.0
 40
1.0
 40
1.0
 40
1.0
 10
680.6424283678
 20
874.1991299455
 30
0.0
 10
680.7063238043
 20
874.3553679637
 30
0.0
 10
680.773352503
 20
874.5104467943
 30
0.0
 10
680.846178954
 20
874.6627269742
 30
0.0
  0
SPLINE
  5
535
100
AcDbEntity
  8
0
100
AcDbSpline
 62
7
  6
CONTINUOUS
 70
0
 71
3
 72
9
 73
5
 74
0
 42
0.0000001
 43
0.0000001
 44
0.0000000001
 40
0.0
 40
0.0
 40
0.0
 40
0.0
 40
0.3430032484
 40
1.0
 40
1.0
 40
1.0
 40
1.0
 10
680.9433754703
 20
874.8565242274
 30
0.0
 10
681.0008292047
 20
874.9653641714
 30
0.0
 10
681.1707952409
 20
875.263095222
 30
0.0
 10
681.4604481937
 20
875.6
 30
0.0
 10
681.6961859979
 20
875.6
 30
0.0
  0
SPLINE
  5
536
100
AcDbEntity
  8
0
100
AcDbSpline
 62
7
  6
CONTINUOUS
 70
0
 71
3
 72
9
 73
5
 74
0
 42
0.0000001
 43
0.0000001
 44
0.0000000001
 40
0.0
 40
0.0
 40
0.0
 40
0.0
 40
0.3758367205
 40
1.0
 40
1.0
 40
1.0
 40
1.0
 10
84.6961859979
 20
875.6
 30
0.0
 10
84.8594687394
 20
875.6
 30
0.0
 10
85.2457621565
 20
875.2893466455
 30
0.0
 10
85.4291847433
 20
874.9073882444
 30
0.0
 10
85.546178954
 20
874.6627564253
 30
0.0
  0
SPLINE
  5
537
100
AcDbEntity
  8
0
100
AcDbSpline
 62
7
  6
CONTINUOUS
 70
0
 71
3
 72
8
 73
4
 74
0
 42
0.0000001
 43
0.0000001
 44
0.0000000001
 40
0.0
 40
0.0
 40
0.0
 40
0.0
 40
1.0
 40
1.0
 40
1.0
 40
1.0
 10
85.620903608
 20
874.5012083155
 30
0.0
 10
85.6765839652
 20
874.3769898623
 30
0.0
 10
85.7292229523
 20
874.2513936423
 30
0.0
 10
85.779953138
 20
874.1250727233
 30
0.0
  0
SPLINE
  5
538
100
AcDbEntity
  8
0
100
AcDbSpline
 62
7
  6
CONTINUOUS
 70
0
 71
3
 72
9
 73
5
 74
0
 42
0.0000001
 43
0.0000001
 44
0.0000000001
 40
0.0
 40
0.0
 40
0.0
 40
0.0
 40
0.3758367205
 40
1.0
 40
1.0
 40
1.0
 40
1.0
 10
683.1961859979
 20
874.1
 30
0.0
 10
683.1961859979
 20
873.9367172585
 30
0.0
 10
682.8855326434
 20
873.5504238414
 30
0.0
 10
682.5035742423
 20
873.3670012546
 30
0.0
 10
682.2589424232
 20
873.2500070439
 30
0.0
  0
SPLINE
  5
539
100
AcDbEntity
  8
0
100
AcDbSpline
 62
7
  6
CONTINUOUS
 70
0
 71
3
 72
8
 73
4
 74
0
 42
0.0000001
 43
0.0000001
 44
0.0000000001
 40
0.0
 40
0.0
 40
0.0
 40
0.0
 40
1.0
 40
1.0
 40
1.0
 40
1.0
 10
681.4832940537
 20
872.9231007254
 30
0.0
 10
681.1884807466
 20
872.8104546786
 30
0.0
 10
680.8907297733
 20
872.7055260308
 30
0.0
 10
680.592314
 20
872.6028028877
 30
0.0
  0
SPLINE
  5
53A
100
AcDbEntity
  8
0
100
AcDbSpline
 62
7
  6
CONTINUOUS
 70
0
 71
3
 72
9
 73
5
 74
0
 42
0.0000001
 43
0.0000001
 44
0.0000000001
 40
0.0
 40
0.0
 40
0.0
 40
0.0
 40
0.2630943164
 40
1.0
 40
1.0
 40
1.0
 40
1.0
 10
680.5617864678
 20
178.6076961109
 30
0.0
 10
680.6708073071
 20
178.5702348629
 30
0.0
 10
681.0847290589
 20
178.4266114607
 30
0.0
 10
681.4964593654
 20
178.2759786601
 30
0.0
 10
681.7953159434
 20
178.1537576301
 30
0.0
  0
SPLINE
  5
53B
100
AcDbEntity
  8
0
100
AcDbSpline
 62
7
  6
CONTINUOUS
 70
0
 71
3
 72
8
 73
4
 74
0
 42
0.0000001
 43
0.0000001
 44
0.0000000001
 40
0.0
 40
0.0
 40
0.0
 40
0.0
 40
1.0
 40
1.0
 40
1.0
 40
1.0
 10
681.7953159434
 20
178.1537576301
 30
0.0
 10
681.9515539617
 20
178.0898621936
 30
0.0
 10
682.1066327922
 20
178.022833495
 30
0.0
 10
682.2589129721
 20
177.9500070439
 30
0.0
  0
SPLINE
  5
53C
100
AcDbEntity
  8
0
100
AcDbSpline
 62
7
  6
CONTINUOUS
 70
0
 71
3
 72
9
 73
5
 74
0
 42
0.0000001
 43
0.0000001
 44
0.0000000001
 40
0.0
 40
0.0
 40
0.0
 40
0.0
 40
0.3430032484
 40
1.0
 40
1.0
 40
1.0
 40
1.0
 10
682.4527102253
 20
177.8528105276
 30
0.0
 10
682.5615501693
 20
177.7953567932
 30
0.0
 10
682.8592812199
 20
177.625390757
 30
0.0
 10
683.1961859979
 20
177.3357378042
 30
0.0
 10
683.1961859979
 20
177.1
 30
0.0
  0
SPLINE
  5
53D
100
AcDbEntity
  8
0
100
AcDbSpline
 62
7
  6
CONTINUOUS
 70
0
 71
3
 72
8
 73
4
 74
0
 42
0.0000001
 43
0.0000001
 44
0.0000000001
 40
0.0
 40
0.0
 40
0.0
 40
0.0
 40
1.0
 40
1.0
 40
1.0
 40
1.0
 10
671.4112576299
 20
178.9190905452
 30
0.0
 10
671.2388152247
 20
179.1903965968
 30
0.0
 10
671.0487188661
 20
179.4504077531
 30
0.0
 10
670.8542194968
 20
179.706363515
 30
0.0
  0
SPLINE
  5
53E
100
AcDbEntity
  8
0
100
AcDbSpline
 62
7
  6
CONTINUOUS
 70
0
 71
3
 72
8
 73
4
 74
0
 42
0.0000001
 43
0.0000001
 44
0.0000000001
 40
0.0
 40
0.0
 40
0.0
 40
0.0
 40
1.0
 40
1.0
 40
1.0
 40
1.0
 10
670.5508929754
 20
871.1
 30
0.0
 10
670.7874460135
 20
871.4048656255
 30
0.0
 10
671.0246040352
 20
871.7098026614
 30
0.0
 10
671.243379576
 20
872.0276668654
 30
0.0
  0
SPLINE
  5
53F
100
AcDbEntity
  8
0
100
AcDbSpline
 62
7
  6
CONTINUOUS
 70
0
 71
3
 72
8
 73
4
 74
0
 42
0.0000001
 43
0.0000001
 44
0.0000000001
 40
0.0
 40
0.0
 40
0.0
 40
0.0
 40
1.0
 40
1.0
 40
1.0
 40
1.0
 10
672.045892505
 20
178.8525318633
 30
0.0
 10
672.2110705754
 20
178.7802314113
 30
0.0
 10
672.3822338919
 20
178.7195071155
 30
0.0
 10
672.5572485866
 20
178.6761365386
 30
0.0
  0
SPLINE
  5
540
100
AcDbEntity
  8
0
100
AcDbSpline
 62
7
  6
CONTINUOUS
 70
0
 71
3
 72
8
 73
4
 74
0
 42
0.0000001
 43
0.0000001
 44
0.0000000001
 40
0.0
 40
0.0
 40
0.0
 40
0.0
 40
1.0
 40
1.0
 40
1.0
 40
1.0
 10
672.5572485866
 20
178.6761365386
 30
0.0
 10
672.7557629238
 20
178.6269424904
 30
0.0
 10
672.9615442297
 20
178.6
 30
0.0
 10
673.1660631688
 20
178.6
 30
0.0
  0
SPLINE
  5
541
100
AcDbEntity
  8
0
100
AcDbSpline
 62
7
  6
CONTINUOUS
 70
0
 71
3
 72
9
 73
5
 74
0
 42
0.0000001
 43
0.0000001
 44
0.0000000001
 40
0.0
 40
0.0
 40
0.0
 40
0.0
 40
0.7394395297
 40
1.0
 40
1.0
 40
1.0
 40
1.0
 10
92.8275155152
 20
178.6
 30
0.0
 10
93.1116432464
 20
178.6
 30
0.0
 10
93.4984454887
 20
178.6720248871
 30
0.0
 10
93.8559679395
 20
178.8123856735
 30
0.0
 10
93.9476861789
 20
178.8525318633
 30
0.0
  0
SPLINE
  5
542
100
AcDbEntity
  8
0
100
AcDbSpline
 62
7
  6
CONTINUOUS
 70
0
 71
3
 72
9
 73
5
 74
0
 42
0.0000001
 43
0.0000001
 44
0.0000000001
 40
0.0
 40
0.0
 40
0.0
 40
0.0
 40
0.7613309911
 40
1.0
 40
1.0
 40
1.0
 40
1.0
 10
670.5508929754
 20
180.1
 30
0.0
 10
670.7441885442
 20
179.8754401211
 30
0.0
 10
670.9977385483
 20
179.5796999268
 30
0.0
 10
671.2723330944
 20
179.3036680161
 30
0.0
 10
671.3396194225
 20
179.2396353455
 30
0.0
  0
SPLINE
  5
543
100
AcDbEntity
  8
0
100
AcDbSpline
 62
7
  6
CONTINUOUS
 70
0
 71
3
 72
8
 73
4
 74
0
 42
0.0000001
 43
0.0000001
 44
0.0000000001
 40
0.0
 40
0.0
 40
0.0
 40
0.0
 40
1.0
 40
1.0
 40
1.0
 40
1.0
 10
94.582321054
 20
872.2809094548
 30
0.0
 10
94.7547634593
 20
872.0096034032
 30
0.0
 10
94.9448598178
 20
871.7495922469
 30
0.0
 10
95.1393591871
 20
871.493636485
 30
0.0
  0
SPLINE
  5
544
100
AcDbEntity
  8
0
100
AcDbSpline
 62
7
  6
CONTINUOUS
 70
0
 71
3
 72
8
 73
4
 74
0
 42
0.0000001
 43
0.0000001
 44
0.0000000001
 40
0.0
 40
0.0
 40
0.0
 40
0.0
 40
1.0
 40
1.0
 40
1.0
 40
1.0
 10
95.4426857086
 20
180.1
 30
0.0
 10
95.2061326703
 20
179.7951343746
 30
0.0
 10
94.9689746487
 20
179.4901973386
 30
0.0
 10
94.750199108
 20
179.1723331346
 30
0.0
  0
SPLINE
  5
545
100
AcDbEntity
  8
0
100
AcDbSpline
 62
7
  6
CONTINUOUS
 70
0
 71
3
 72
8
 73
4
 74
0
 42
0.0000001
 43
0.0000001
 44
0.0000000001
 40
0.0
 40
0.0
 40
0.0
 40
0.0
 40
1.0
 40
1.0
 40
1.0
 40
1.0
 10
93.9476861789
 20
872.3474681367
 30
0.0
 10
93.7825081085
 20
872.4197685888
 30
0.0
 10
93.611344792
 20
872.4804928846
 30
0.0
 10
93.4363300973
 20
872.5238634615
 30
0.0
  0
SPLINE
  5
546
100
AcDbEntity
  8
0
100
AcDbSpline
 62
7
  6
CONTINUOUS
 70
0
 71
3
 72
8
 73
4
 74
0
 42
0.0000001
 43
0.0000001
 44
0.0000000001
 40
0.0
 40
0.0
 40
0.0
 40
0.0
 40
1.0
 40
1.0
 40
1.0
 40
1.0
 10
93.4363300973
 20
872.5238634615
 30
0.0
 10
93.2378157601
 20
872.5730575096
 30
0.0
 10
93.0320344542
 20
872.6
 30
0.0
 10
92.8275155152
 20
872.6
 30
0.0
  0
SPLINE
  5
547
100
AcDbEntity
  8
0
100
AcDbSpline
 62
7
  6
CONTINUOUS
 70
0
 71
3
 72
9
 73
5
 74
0
 42
0.0000001
 43
0.0000001
 44
0.0000000001
 40
0.0
 40
0.0
 40
0.0
 40
0.0
 40
0.7394395297
 40
1.0
 40
1.0
 40
1.0
 40
1.0
 10
673.1660631688
 20
872.6
 30
0.0
 10
672.8819354375
 20
872.6
 30
0.0
 10
672.4951331952
 20
872.527975113
 30
0.0
 10
672.1376107445
 20
872.3876143266
 30
0.0
 10
672.0458925051
 20
872.3474681367
 30
0.0
  0
SPLINE
  5
548
100
AcDbEntity
  8
0
100
AcDbSpline
 62
7
  6
CONTINUOUS
 70
0
 71
3
 72
9
 73
5
 74
0
 42
0.0000001
 43
0.0000001
 44
0.0000000001
 40
0.0
 40
0.0
 40
0.0
 40
0.0
 40
0.7613309911
 40
1.0
 40
1.0
 40
1.0
 40
1.0
 10
95.4426857086
 20
871.1
 30
0.0
 10
95.2493901397
 20
871.3245598789
 30
0.0
 10
94.9958401356
 20
871.6203000732
 30
0.0
 10
94.7212455895
 20
871.8963319839
 30
0.0
 10
94.6539592615
 20
871.9603646545
 30
0.0
  0
SPLINE
  5
549
100
AcDbEntity
  8
0
100
AcDbSpline
 62
7
  6
CONTINUOUS
 70
0
 71
3
 72
8
 73
4
 74
0
 42
0.0000001
 43
0.0000001
 44
0.0000000001
 40
0.0
 40
0.0
 40
0.0
 40
0.0
 40
1.0
 40
1.0
 40
1.0
 40
1.0
 10
670.5508929754
 20
180.1
 30
0.0
 10
670.7535236265
 20
179.9694264917
 30
0.0
 10
670.9561705065
 20
179.8388645534
 30
0.0
 10
671.1575460181
 20
179.7063635151
 30
0.0
  0
SPLINE
  5
54A
100
AcDbEntity
  8
0
100
AcDbSpline
 62
7
  6
CONTINUOUS
 70
0
 71
3
 72
8
 73
4
 74
0
 42
0.0000001
 43
0.0000001
 44
0.0000000001
 40
0.0
 40
0.0
 40
0.0
 40
0.0
 40
1.0
 40
1.0
 40
1.0
 40
1.0
 10
671.1575460181
 20
179.7063635151
 30
0.0
 10
671.35310289
 20
179.5776910247
 30
0.0
 10
671.5475206311
 20
179.4472045207
 30
0.0
 10
671.739131968
 20
179.3127270301
 30
0.0
  0
SPLINE
  5
54B
100
AcDbEntity
  8
0
100
AcDbSpline
 62
7
  6
CONTINUOUS
 70
0
 71
3
 72
8
 73
4
 74
0
 42
0.0000001
 43
0.0000001
 44
0.0000000001
 40
0.0
 40
0.0
 40
0.0
 40
0.0
 40
1.0
 40
1.0
 40
1.0
 40
1.0
 10
671.739131968
 20
179.3127270301
 30
0.0
 10
671.9198060527
 20
179.1859255687
 30
0.0
 10
672.0981377142
 20
179.0555633974
 30
0.0
 10
672.2716222844
 20
178.9190905452
 30
0.0
  0
SPLINE
  5
54C
100
AcDbEntity
  8
0
100
AcDbSpline
 62
7
  6
CONTINUOUS
 70
0
 71
3
 72
8
 73
4
 74
0
 42
0.0000001
 43
0.0000001
 44
0.0000000001
 40
0.0
 40
0.0
 40
0.0
 40
0.0
 40
1.0
 40
1.0
 40
1.0
 40
1.0
 10
670.5508929754
 20
871.1
 30
0.0
 10
670.7221205465
 20
871.4978450501
 30
0.0
 10
670.89287639
 20
871.8960597661
 30
0.0
 10
671.0767106068
 20
872.2882389927
 30
0.0
  0
SPLINE
  5
54D
100
AcDbEntity
  8
0
100
AcDbSpline
 62
7
  6
CONTINUOUS
 70
0
 71
3
 72
8
 73
4
 74
0
 42
0.0000001
 43
0.0000001
 44
0.0000000001
 40
0.0
 40
0.0
 40
0.0
 40
0.0
 40
1.0
 40
1.0
 40
1.0
 40
1.0
 10
671.1392258197
 20
872.4201576352
 30
0.0
 10
671.2037589564
 20
872.5547906881
 30
0.0
 10
671.2701774879
 20
872.6885612253
 30
0.0
 10
671.3396194225
 20
872.8207293091
 30
0.0
  0
SPLINE
  5
54E
100
AcDbEntity
  8
0
100
AcDbSpline
 62
7
  6
CONTINUOUS
 70
0
 71
3
 72
9
 73
5
 74
0
 42
0.0000001
 43
0.0000001
 44
0.0000000001
 40
0.0
 40
0.0
 40
0.0
 40
0.0
 40
0.2354077177
 40
1.0
 40
1.0
 40
1.0
 40
1.0
 10
94.6539592615
 20
872.8207293091
 30
0.0
 10
94.6989272294
 20
872.7351422616
 30
0.0
 10
94.8844446803
 20
872.3686736902
 30
0.0
 10
95.053440372
 20
871.9941334034
 30
0.0
 10
95.1797768929
 20
871.7066530428
 30
0.0
  0
SPLINE
  5
54F
100
AcDbEntity
  8
0
100
AcDbSpline
 62
7
  6
CONTINUOUS
 70
0
 71
3
 72
9
 73
5
 74
0
 42
0.0000001
 43
0.0000001
 44
0.0000000001
 40
0.0
 40
0.0
 40
0.0
 40
0.0
 40
0.2228549253
 40
1.0
 40
1.0
 40
1.0
 40
1.0
 10
92.8275155152
 20
874.1
 30
0.0
 10
92.9296973019
 20
874.1
 30
0.0
 10
93.3899734773
 20
874.0391791972
 30
0.0
 10
93.7857645403
 20
873.7506941831
 30
0.0
 10
94.0451446793
 20
873.5063714916
 30
0.0
  0
SPLINE
  5
550
100
AcDbEntity
  8
0
100
AcDbSpline
 62
7
  6
CONTINUOUS
 70
0
 71
3
 72
9
 73
5
 74
0
 42
0.0000001
 43
0.0000001
 44
0.0000000001
 40
0.0
 40
0.0
 40
0.0
 40
0.0
 40
0.233846505
 40
1.0
 40
1.0
 40
1.0
 40
1.0
 10
94.0451446793
 20
873.5063714916
 30
0.0
 10
94.0972036857
 20
873.4573345969
 30
0.0
 10
94.3139961919
 20
873.2414400719
 30
0.0
 10
94.5105123984
 20
873.0060016488
 30
0.0
 10
94.6539592615
 20
872.8207293091
 30
0.0
  0
SPLINE
  5
551
100
AcDbEntity
  8
0
100
AcDbSpline
 62
7
  6
CONTINUOUS
 70
0
 71
3
 72
9
 73
5
 74
0
 42
0.0000001
 43
0.0000001
 44
0.0000000001
 40
0.0
 40
0.0
 40
0.0
 40
0.0
 40
0.2655836724
 40
1.0
 40
1.0
 40
1.0
 40
1.0
 10
671.3396194225
 20
872.8207293091
 30
0.0
 10
671.3893391828
 20
872.8849460938
 30
0.0
 10
671.5798092219
 20
873.1240870586
 30
0.0
 10
671.7849558595
 20
873.3523835241
 30
0.0
 10
671.9484340046
 20
873.5063714916
 30
0.0
  0
SPLINE
  5
552
100
AcDbEntity
  8
0
100
AcDbSpline
 62
7
  6
CONTINUOUS
 70
0
 71
3
 72
8
 73
4
 74
0
 42
0.0000001
 43
0.0000001
 44
0.0000000001
 40
0.0
 40
0.0
 40
0.0
 40
0.0
 40
1.0
 40
1.0
 40
1.0
 40
1.0
 10
671.9484340046
 20
873.5063714916
 30
0.0
 10
672.0635054494
 20
873.614762848
 30
0.0
 10
672.1855968263
 20
873.7167484971
 30
0.0
 10
672.3162520267
 20
873.805739183
 30
0.0
  0
SPLINE
  5
553
100
AcDbEntity
  8
0
100
AcDbSpline
 62
7
  6
CONTINUOUS
 70
0
 71
3
 72
9
 73
5
 74
0
 42
0.0000001
 43
0.0000001
 44
0.0000000001
 40
0.0
 40
0.0
 40
0.0
 40
0.0
 40
0.2733173187
 40
1.0
 40
1.0
 40
1.0
 40
1.0
 10
672.3162520267
 20
873.805739183
 30
0.0
 10
672.3845175866
 20
873.8522356025
 30
0.0
 10
672.6418211339
 20
874.0096270294
 30
0.0
 10
672.9464609029
 20
874.1
 30
0.0
 10
673.1660631688
 20
874.1
 30
0.0
  0
SPLINE
  5
554
100
AcDbEntity
  8
0
100
AcDbSpline
 62
7
  6
CONTINUOUS
 70
0
 71
3
 72
8
 73
4
 74
0
 42
0.0000001
 43
0.0000001
 44
0.0000000001
 40
0.0
 40
0.0
 40
0.0
 40
0.0
 40
1.0
 40
1.0
 40
1.0
 40
1.0
 10
95.4426857086
 20
180.1
 30
0.0
 10
95.2714581374
 20
179.7021549499
 30
0.0
 10
95.1007022945
 20
179.3039402336
 30
0.0
 10
94.9168680772
 20
178.9117610073
 30
0.0
  0
SPLINE
  5
555
100
AcDbEntity
  8
0
100
AcDbSpline
 62
7
  6
CONTINUOUS
 70
0
 71
3
 72
8
 73
4
 74
0
 42
0.0000001
 43
0.0000001
 44
0.0000000001
 40
0.0
 40
0.0
 40
0.0
 40
0.0
 40
1.0
 40
1.0
 40
1.0
 40
1.0
 10
94.8543528639
 20
178.7798423649
 30
0.0
 10
94.7898197269
 20
178.6452093122
 30
0.0
 10
94.7234011951
 20
178.5114387752
 30
0.0
 10
94.6539592615
 20
178.3792706909
 30
0.0
  0
SPLINE
  5
556
100
AcDbEntity
  8
0
100
AcDbSpline
 62
7
  6
CONTINUOUS
 70
0
 71
3
 72
9
 73
5
 74
0
 42
0.0000001
 43
0.0000001
 44
0.0000000001
 40
0.0
 40
0.0
 40
0.0
 40
0.0
 40
0.2354077177
 40
1.0
 40
1.0
 40
1.0
 40
1.0
 10
671.3396194225
 20
178.3792706909
 30
0.0
 10
671.2946514545
 20
178.4648577384
 30
0.0
 10
671.1091340036
 20
178.8313263098
 30
0.0
 10
670.9401383119
 20
179.2058665966
 30
0.0
 10
670.8138017911
 20
179.4933469572
 30
0.0
  0
SPLINE
  5
557
100
AcDbEntity
  8
0
100
AcDbSpline
 62
7
  6
CONTINUOUS
 70
0
 71
3
 72
9
 73
5
 74
0
 42
0.0000001
 43
0.0000001
 44
0.0000000001
 40
0.0
 40
0.0
 40
0.0
 40
0.0
 40
0.2228549253
 40
1.0
 40
1.0
 40
1.0
 40
1.0
 10
673.1660631688
 20
177.1
 30
0.0
 10
673.063881382
 20
177.1
 30
0.0
 10
672.6036052066
 20
177.1608208029
 30
0.0
 10
672.2078141436
 20
177.449305817
 30
0.0
 10
671.9484340046
 20
177.6936285084
 30
0.0
  0
SPLINE
  5
558
100
AcDbEntity
  8
0
100
AcDbSpline
 62
7
  6
CONTINUOUS
 70
0
 71
3
 72
9
 73
5
 74
0
 42
0.0000001
 43
0.0000001
 44
0.0000000001
 40
0.0
 40
0.0
 40
0.0
 40
0.0
 40
0.233846505
 40
1.0
 40
1.0
 40
1.0
 40
1.0
 10
671.9484340046
 20
177.6936285084
 30
0.0
 10
671.8963749982
 20
177.7426654031
 30
0.0
 10
671.679582492
 20
177.9585599281
 30
0.0
 10
671.4830662855
 20
178.1939983512
 30
0.0
 10
671.3396194225
 20
178.3792706909
 30
0.0
  0
SPLINE
  5
559
100
AcDbEntity
  8
0
100
AcDbSpline
 62
7
  6
CONTINUOUS
 70
0
 71
3
 72
9
 73
5
 74
0
 42
0.0000001
 43
0.0000001
 44
0.0000000001
 40
0.0
 40
0.0
 40
0.0
 40
0.0
 40
0.2655836724
 40
1.0
 40
1.0
 40
1.0
 40
1.0
 10
94.6539592615
 20
178.3792706909
 30
0.0
 10
94.6042395011
 20
178.3150539062
 30
0.0
 10
94.413769462
 20
178.0759129414
 30
0.0
 10
94.2086228244
 20
177.8476164759
 30
0.0
 10
94.0451446793
 20
177.6936285084
 30
0.0
  0
SPLINE
  5
55A
100
AcDbEntity
  8
0
100
AcDbSpline
 62
7
  6
CONTINUOUS
 70
0
 71
3
 72
8
 73
4
 74
0
 42
0.0000001
 43
0.0000001
 44
0.0000000001
 40
0.0
 40
0.0
 40
0.0
 40
0.0
 40
1.0
 40
1.0
 40
1.0
 40
1.0
 10
94.0451446793
 20
177.6936285084
 30
0.0
 10
93.9300732345
 20
177.585237152
 30
0.0
 10
93.8079818576
 20
177.4832515029
 30
0.0
 10
93.6773266572
 20
177.394260817
 30
0.0
  0
SPLINE
  5
55B
100
AcDbEntity
  8
0
100
AcDbSpline
 62
7
  6
CONTINUOUS
 70
0
 71
3
 72
9
 73
5
 74
0
 42
0.0000001
 43
0.0000001
 44
0.0000000001
 40
0.0
 40
0.0
 40
0.0
 40
0.0
 40
0.2733173187
 40
1.0
 40
1.0
 40
1.0
 40
1.0
 10
93.6773266572
 20
177.394260817
 30
0.0
 10
93.6090610973
 20
177.3477643975
 30
0.0
 10
93.35175755
 20
177.1903729706
 30
0.0
 10
93.047117781
 20
177.1
 30
0.0
 10
92.8275155152
 20
177.1
 30
0.0
  0
SPLINE
  5
55C
100
AcDbEntity
  8
0
100
AcDbSpline
 62
7
  6
CONTINUOUS
 70
0
 71
3
 72
8
 73
4
 74
0
 42
0.0000001
 43
0.0000001
 44
0.0000000001
 40
0.0
 40
0.0
 40
0.0
 40
0.0
 40
1.0
 40
1.0
 40
1.0
 40
1.0
 10
95.4426857086
 20
871.1
 30
0.0
 10
95.2400550575
 20
871.2305735083
 30
0.0
 10
95.0374081774
 20
871.3611354466
 30
0.0
 10
94.8360326658
 20
871.4936364849
 30
0.0
  0
SPLINE
  5
55D
100
AcDbEntity
  8
0
100
AcDbSpline
 62
7
  6
CONTINUOUS
 70
0
 71
3
 72
8
 73
4
 74
0
 42
0.0000001
 43
0.0000001
 44
0.0000000001
 40
0.0
 40
0.0
 40
0.0
 40
0.0
 40
1.0
 40
1.0
 40
1.0
 40
1.0
 10
94.8360326658
 20
871.4936364849
 30
0.0
 10
94.6404757939
 20
871.6223089753
 30
0.0
 10
94.4460580528
 20
871.7527954793
 30
0.0
 10
94.2544467159
 20
871.8872729699
 30
0.0
  0
SPLINE
  5
55E
100
AcDbEntity
  8
0
100
AcDbSpline
 62
7
  6
CONTINUOUS
 70
0
 71
3
 72
8
 73
4
 74
0
 42
0.0000001
 43
0.0000001
 44
0.0000000001
 40
0.0
 40
0.0
 40
0.0
 40
0.0
 40
1.0
 40
1.0
 40
1.0
 40
1.0
 10
94.2544467159
 20
871.8872729699
 30
0.0
 10
94.0737726312
 20
872.0140744313
 30
0.0
 10
93.8954409697
 20
872.1444366026
 30
0.0
 10
93.7219563995
 20
872.2809094548
 30
0.0
  0
SPLINE
  5
55F
100
AcDbEntity
  8
0
100
AcDbSpline
 62
7
  6
CONTINUOUS
 70
0
 71
3
 72
9
 73
5
 74
0
 42
0.0000001
 43
0.0000001
 44
0.0000000001
 40
0.0
 40
0.0
 40
0.0
 40
0.0
 40
0.2381409913
 40
1.0
 40
1.0
 40
1.0
 40
1.0
 10
93.7219563995
 20
178.9190905452
 30
0.0
 10
93.8070830678
 20
178.986056035
 30
0.0
 10
94.1695570813
 20
179.260907161
 30
0.0
 10
94.5465697213
 20
179.5159027167
 30
0.0
 10
94.8360326658
 20
179.7063635151
 30
0.0
  0
SPLINE
  5
560
100
AcDbEntity
  8
0
100
AcDbSpline
 62
7
  6
CONTINUOUS
 70
0
 71
3
 72
8
 73
4
 74
0
 42
0.0000001
 43
0.0000001
 44
0.0000000001
 40
0.0
 40
0.0
 40
0.0
 40
0.0
 40
1.0
 40
1.0
 40
1.0
 40
1.0
 10
94.8360326658
 20
179.7063635151
 30
0.0
 10
95.0374081774
 20
179.8388645534
 30
0.0
 10
95.2400550574
 20
179.9694264917
 30
0.0
 10
95.4426857086
 20
180.1
 30
0.0
  0
SPLINE
  5
561
100
AcDbEntity
  8
0
100
AcDbSpline
 62
7
  6
CONTINUOUS
 70
0
 71
3
 72
9
 73
5
 74
0
 42
0.0000001
 43
0.0000001
 44
0.0000000001
 40
0.0
 40
0.0
 40
0.0
 40
0.0
 40
0.2381409913
 40
1.0
 40
1.0
 40
1.0
 40
1.0
 10
672.2716222844
 20
872.2809094548
 30
0.0
 10
672.1864956161
 20
872.213943965
 30
0.0
 10
671.8240216026
 20
871.939092839
 30
0.0
 10
671.4470089626
 20
871.6840972833
 30
0.0
 10
671.1575460181
 20
871.4936364849
 30
0.0
  0
SPLINE
  5
562
100
AcDbEntity
  8
0
100
AcDbSpline
 62
7
  6
CONTINUOUS
 70
0
 71
3
 72
8
 73
4
 74
0
 42
0.0000001
 43
0.0000001
 44
0.0000000001
 40
0.0
 40
0.0
 40
0.0
 40
0.0
 40
1.0
 40
1.0
 40
1.0
 40
1.0
 10
671.1575460181
 20
871.4936364849
 30
0.0
 10
670.9561705065
 20
871.3611354466
 30
0.0
 10
670.7535236264
 20
871.2305735083
 30
0.0
 10
670.5508929754
 20
871.1
 30
0.0
  0
ENDSEC
  0
SECTION
  2
OBJECTS
  0
DICTIONARY
  5
C
100
AcDbDictionary
280
0
281
1
  3
ACAD_GROUP
350
D
  3
ACAD_MLINESTYLE
350
17
  3
ACAD_LAYOUT
350
1A
  3
ACAD_PLOTSETTINGS
350
19
  3
ACAD_PLOTSTYLENAME
350
E
  0
DICTIONARY
  5
D
102
{ACAD_REACTORS
330
C
102
}
100
AcDbDictionary
280
0
281
1
  0
ACDBDICTIONARYWDFLT
  5
E
102
{ACAD_REACTORS
330
C
102
}
100
AcDbDictionary
281
1
  3
Normal
350
F
100
AcDbDictionaryWithDefault
340
F
  0
DICTIONARY
  5
17
102
{ACAD_REACTORS
330
C
102
}
100
AcDbDictionary
280
0
281
1
  3
Standard
350
18
  0
DICTIONARY
  5
19
102
{ACAD_REACTORS
330
C
102
}
100
AcDbDictionary
281
1
  0
DICTIONARY
  5
1A
102
{ACAD_REACTORS
330
C
102
}
100
AcDbDictionary
281
1
  3
Model
350
563
  3
Layout1
350
564
  0
ACDBPLACEHOLDER
  5
F
102
{ACAD_REACTORS
330
E
102
}
  0
MLINESTYLE
  5
18
102
{ACAD_REACTORS
330
17
102
}
100
AcDbMlineStyle
  2
STANDARD
 70
0
  3

 62
256
 51
90.0
 52
90.0
 71
2
 49
0.5
 62
256
  6
BYLAYER
 49
-0.5
 62
256
  6
BYLAYER
  0
LAYOUT
  5
563
102
{ACAD_REACTORS
330
1A
102
}
100
AcDbPlotSettings
  1

  2
none_device
  4

  6

 40
0.0
 41
0.0
 42
0.0
 43
0.0
 44
210.0
 45
297.0
 46
0.0
 47
0.0
 48
0.0
 49
0.0
140
0.0
141
0.0
142
1.0
143
1.0
 70
1024
 72
1
 73
0
 74
0
  7

 75
0
147
1.0
148
0.0
149
0.0
100
AcDbLayout
  1
Model
 70
0
 71
0
 10
0.0
 20
0.0
 11
210.0
 21
297.0
 12
0.0
 22
0.0
 32
0.0
 14
0.0
 24
0.0
 34
0.0
 15
0.0
 25
0.0
 35
0.0
146
0.0
 13
0.0
 23
0.0
 33
0.0
 16
1.0
 26
0.0
 36
0.0
 17
0.0
 27
1.0
 37
0.0
 76
0
330
210
345
0
346
0
  0
LAYOUT
  5
564
102
{ACAD_REACTORS
330
1A
102
}
100
AcDbPlotSettings
  1

  2
none_device
  4

  6

 40
0.0
 41
0.0
 42
0.0
 43
0.0
 44
210.0
 45
297.0
 46
0.0
 47
0.0
 48
0.0
 49
0.0
140
0.0
141
0.0
142
1.0
143
1.0
 70
0
 72
1
 73
0
 74
0
  7

 75
0
147
1.0
148
0.0
149
0.0
100
AcDbLayout
  1
Layout1
 70
0
 71
1
 10
0.0
 20
0.0
 11
210.0
 21
297.0
 12
0.0
 22
0.0
 32
0.0
 14
0.0
 24
0.0
 34
0.0
 15
0.0
 25
0.0
 35
0.0
146
0.0
 13
0.0
 23
0.0
 33
0.0
 16
1.0
 26
0.0
 36
0.0
 17
0.0
 27
1.0
 37
0.0
 76
0
330
211
345
0
346
0
  0
ENDSEC
  0
EOF
