999
DXF file: C:\Users\sesa63760\Dev\_Creo\CAD\MCADID0005488_3D-CAD\drw0001_5.dxf
999
Pro/ENGINEER 2019471 by Parametric Technology Corporation
  0
SECTION
  2
HEADER
  9
$ACADVER
  1
AC1024
  9
$DWGCODEPAGE
  3
ANSI_1252
  9
$EXTMAX
 10
91.0471835157
 20
128.7667309722
 30
0.0
  9
$EXTMIN
 10
0.0
 20
0.0
 30
0.0
  9
$LIMMIN
 10
0.0
 20
0.0
  9
$LIMMAX
 10
91.0471835157
 20
128.7667309722
  9
$VIEWCTR
 10
45.5235917578
 20
64.3833654861
  9
$VIEWSIZE
 40
128.7667309722
  9
$CLAYER
  8
0
  9
$LTSCALE
 40
8.3936832041
  9
$CELTYPE
  6
BYLAYER
  9
$DIMSCALE
 40
1.0
  9
$DIMASZ
 40
1.0838950419
  9
$DIMEXO
 40
1.0
  9
$DIMDLI
 40
5.7992720319
  9
$DIMEXE
 40
1.0
  9
$DIMCEN
 40
1.373511797
  9
$DIMLFAC
 40
1.0
  9
$DIMBLK
  1
_FILLED
  9
$DIMALT
 70
0
  9
$DIMALTF
 40
0.0393700787
  9
$DIMTXT
 40
1.5174530586
  9
$DIMTOL
 70
1
  9
$DIMLIM
 70
0
  9
$DIMTFAC
 40
1.0
  9
$DIMTP
 40
0.01
  9
$DIMTM
 40
0.01
  9
$DIMGAP
 40
0.625
  9
$DIMDSEP
 70
46
  9
$AUNITS
 70
0
  9
$PDMODE
 70
3
  9
$PDSIZE
 40
0.3125
  9
$HANDSEED
  5
295
  9
$TILEMODE
 70
1
  9
$MEASUREMENT
 70
1
  9
$INSUNITS
 70
4
  0
ENDSEC
  0
SECTION
  2
CLASSES
  0
CLASS
  1
ACDBDICTIONARYWDFLT
  2
AcDbDictionaryWithDefault
  3
AutoCAD 2000
 90
0
 91
1
280
0
281
0
  0
CLASS
  1
ACDBPLACEHOLDER
  2
AcDbPlaceHolder
  3
AutoCAD 2000
 90
0
 91
1
280
0
281
0
  0
CLASS
  1
LAYOUT
  2
AcDbLayout
  3
AutoCAD 2000
 90
0
 91
0
280
0
281
0
  0
ENDSEC
  0
SECTION
  2
TABLES
  0
TABLE
  2
VPORT
  5
8
100
AcDbSymbolTable
 70
2
  0
VPORT
  5
1F4
100
AcDbSymbolTableRecord
100
AcDbViewportTableRecord
  2
*ACTIVE
 70
0
 10
0.0
 20
0.0
 11
1.0
 21
1.0
 12
45.5235917578
 22
64.3833654861
 13
0.0
 23
0.0
 14
1.0
 24
1.0
 15
0.0
 25
0.0
 16
0.0
 26
0.0
 36
1.0
 17
0.0
 27
0.0
 37
0.0
 40
128.7667309722
 41
0.7070707071
 42
50.0
 43
0.0
 44
0.0
 50
0.0
 51
0.0
 71
0
 72
100
 73
1
 74
1
 75
0
 76
0
 77
0
 78
0
  0
ENDTAB
  0
TABLE
  2
LTYPE
  5
5
100
AcDbSymbolTable
 70
6
  0
LTYPE
  5
14
100
AcDbSymbolTableRecord
100
AcDbLinetypeTableRecord
  2
BYBLOCK
 70
0
  3

 72
65
 73
0
 40
0.0
  0
LTYPE
  5
15
100
AcDbSymbolTableRecord
100
AcDbLinetypeTableRecord
  2
BYLAYER
 70
0
  3

 72
65
 73
0
 40
0.0
  0
LTYPE
  5
16
100
AcDbSymbolTableRecord
100
AcDbLinetypeTableRecord
  2
CONTINUOUS
 70
64
  3
Solid line
 72
65
 73
0
 40
0.0
  0
LTYPE
  5
1F5
100
AcDbSymbolTableRecord
100
AcDbLinetypeTableRecord
  2
CENTER
 70
64
  3
____ _ ____ _ ____ _ ____ _ ____ _ ____ _ ____
 72
65
 73
4
 40
0.6
 49
0.375
 74
0
 49
-0.075
 74
0
 49
0.075
 74
0
 49
-0.075
 74
0
  0
LTYPE
  5
1F6
100
AcDbSymbolTableRecord
100
AcDbLinetypeTableRecord
  2
HIDDEN
 70
64
  3
- - - - - - - - - - - - - - - - - - - -
 72
65
 73
2
 40
0.2
 49
0.1
 74
0
 49
-0.1
 74
0
  0
LTYPE
  5
1F7
100
AcDbSymbolTableRecord
100
AcDbLinetypeTableRecord
  2
PHANTOM
 70
64
  3
_____ _ _ _____ _ _ _____ _ _ _____
 72
65
 73
6
 40
0.8
 49
0.45
 74
0
 49
-0.05
 74
0
 49
0.1
 74
0
 49
-0.05
 74
0
 49
0.1
 74
0
 49
-0.05
 74
0
  0
LTYPE
  5
1F8
100
AcDbSymbolTableRecord
100
AcDbLinetypeTableRecord
  2
DOT
 70
64
  3
. . . . . . . . . . . . . . . . . . . .
 72
65
 73
2
 40
0.2
 49
0.1
 74
0
 49
-0.1
 74
0
  0
LTYPE
  5
1F9
100
AcDbSymbolTableRecord
100
AcDbLinetypeTableRecord
  2
DASHED
 70
64
  3
- - - - - - - - - - - - - - - - - - - -
 72
65
 73
2
 40
0.2
 49
0.1
 74
0
 49
-0.1
 74
0
  0
ENDTAB
  0
TABLE
  2
LAYER
  5
2
100
AcDbSymbolTable
 70
36
  0
LAYER
  5
10
100
AcDbSymbolTableRecord
100
AcDbLayerTableRecord
  2
0
 70
0
 62
7
  6
CONTINUOUS
370
-3
390
F
  0
LAYER
  5
1FA
100
AcDbSymbolTableRecord
100
AcDbLayerTableRecord
  2
DEFAULT_1
 70
0
 62
7
  6
CENTER
370
-3
390
F
  0
LAYER
  5
1FB
100
AcDbSymbolTableRecord
100
AcDbLayerTableRecord
  2
DEFAULT_2
 70
0
 62
7
  6
HIDDEN
370
-3
390
F
  0
LAYER
  5
1FC
100
AcDbSymbolTableRecord
100
AcDbLayerTableRecord
  2
DEFAULT_3
 70
0
 62
7
  6
PHANTOM
370
-3
390
F
  0
LAYER
  5
1FD
100
AcDbSymbolTableRecord
100
AcDbLayerTableRecord
  2
00_COMPONENTS
 70
0
 62
7
  6
CONTINUOUS
370
-3
390
F
  0
LAYER
  5
1FE
100
AcDbSymbolTableRecord
100
AcDbLayerTableRecord
  2
01_1_DEFAULT_DATUMS
 70
0
 62
7
  6
CONTINUOUS
370
-3
390
F
  0
LAYER
  5
1FF
100
AcDbSymbolTableRecord
100
AcDbLayerTableRecord
  2
01_PLANES
 70
0
 62
7
  6
CONTINUOUS
370
-3
390
F
  0
LAYER
  5
200
100
AcDbSymbolTableRecord
100
AcDbLayerTableRecord
  2
02_COORD_SYS
 70
0
 62
7
  6
CONTINUOUS
370
-3
390
F
  0
LAYER
  5
201
100
AcDbSymbolTableRecord
100
AcDbLayerTableRecord
  2
03_AXES
 70
0
 62
7
  6
CONTINUOUS
370
-3
390
F
  0
LAYER
  5
202
100
AcDbSymbolTableRecord
100
AcDbLayerTableRecord
  2
04_POINTS
 70
0
 62
7
  6
CONTINUOUS
370
-3
390
F
  0
LAYER
  5
203
100
AcDbSymbolTableRecord
100
AcDbLayerTableRecord
  2
05_CURVES
 70
0
 62
7
  6
CONTINUOUS
370
-3
390
F
  0
LAYER
  5
204
100
AcDbSymbolTableRecord
100
AcDbLayerTableRecord
  2
06_SURFS
 70
0
 62
7
  6
CONTINUOUS
370
-3
390
F
  0
LAYER
  5
205
100
AcDbSymbolTableRecord
100
AcDbLayerTableRecord
  2
07_COSMETICS
 70
0
 62
7
  6
CONTINUOUS
370
-3
390
F
  0
LAYER
  5
206
100
AcDbSymbolTableRecord
100
AcDbLayerTableRecord
  2
10_NOTES
 70
0
 62
7
  6
CONTINUOUS
370
-3
390
F
  0
LAYER
  5
207
100
AcDbSymbolTableRecord
100
AcDbLayerTableRecord
  2
11_NOTES_PUB
 70
0
 62
7
  6
CONTINUOUS
370
-3
390
F
  0
LAYER
  5
208
100
AcDbSymbolTableRecord
100
AcDbLayerTableRecord
  2
13_REF_GTOL
 70
0
 62
7
  6
CONTINUOUS
370
-3
390
F
  0
LAYER
  5
209
100
AcDbSymbolTableRecord
100
AcDbLayerTableRecord
  2
16_MISC
 70
0
 62
7
  6
CONTINUOUS
370
-3
390
F
  0
LAYER
  5
20A
100
AcDbSymbolTableRecord
100
AcDbLayerTableRecord
  2
17_NO_PRINT
 70
0
 62
7
  6
CONTINUOUS
370
-3
390
F
  0
LAYER
  5
20B
100
AcDbSymbolTableRecord
100
AcDbLayerTableRecord
  2
18_DATUM_CAMS_JOINTS
 70
0
 62
7
  6
CONTINUOUS
370
-3
390
F
  0
LAYER
  5
20C
100
AcDbSymbolTableRecord
100
AcDbLayerTableRecord
  2
19_DATUM_FUNCTIONAL
 70
0
 62
7
  6
CONTINUOUS
370
-3
390
F
  0
LAYER
  5
20D
100
AcDbSymbolTableRecord
100
AcDbLayerTableRecord
  2
20_DATUM_KINEMATIC_SCHEME
 70
0
 62
7
  6
CONTINUOUS
370
-3
390
F
  0
ENDTAB
  0
TABLE
  2
STYLE
  5
3
100
AcDbSymbolTable
 70
1
  0
STYLE
  5
11
100
AcDbSymbolTableRecord
100
AcDbTextStyleTableRecord
  2
STANDARD
 70
0
 40
0.0
 41
1.0
 50
0.0
 71
0
 42
0.2
  3
ARIAL.TTF
  4

  0
STYLE
  5
20E
100
AcDbSymbolTableRecord
100
AcDbTextStyleTableRecord
  2
TEXTSTYLE_1
 70
0
 40
0.0
 41
0.8
 50
0.0
 71
0
 42
0.2
  3
gdt
  4

  0
ENDTAB
  0
TABLE
  2
VIEW
  5
6
100
AcDbSymbolTable
 70
0
  0
ENDTAB
  0
TABLE
  2
UCS
  5
7
100
AcDbSymbolTable
 70
0
  0
ENDTAB
  0
TABLE
  2
APPID
  5
9
100
AcDbSymbolTable
 70
1
  0
APPID
  5
20F
100
AcDbSymbolTableRecord
100
AcDbRegAppTableRecord
  2
ACAD
 70
0
  0
ENDTAB
  0
TABLE
  2
BLOCK_RECORD
  5
1
100
AcDbSymbolTable
 70
0
  0
BLOCK_RECORD
  5
210
100
AcDbSymbolTableRecord
100
AcDbBlockTableRecord
  2
*Model_Space
  0
BLOCK_RECORD
  5
211
100
AcDbSymbolTableRecord
100
AcDbBlockTableRecord
  2
*Paper_Space
  0
BLOCK_RECORD
  5
212
100
AcDbSymbolTableRecord
100
AcDbBlockTableRecord
  2
_FILLED
  0
ENDTAB
  0
TABLE
  2
DIMSTYLE
  5
A
100
AcDbSymbolTable
 70
1
100
AcDbDimStyleTable
 71
0
  0
DIMSTYLE
105
213
100
AcDbSymbolTableRecord
100
AcDbDimStyleTableRecord
  2
STANDARD
 70
0
  3

  4

 40
1.0
 41
1.0838950419
 42
1.0
 43
0.38
 44
1.0
 45
0.0
 46
0.0
 47
0.01
 48
0.01
140
1.5174530586
141
0.09
142
0.0
143
25.4
144
1.0
145
0.0
146
1.0
147
0.625
 71
1
 72
0
 73
0
 74
0
 75
0
 76
0
 77
1
 78
8
 79
2
170
0
171
1
172
0
173
0
174
0
175
0
176
0
177
0
178
0
270
2
179
2
271
2
272
2
273
2
274
2
275
0
280
0
281
0
282
0
283
1
284
8
285
0
286
0
287
3
288
0
340
11
278
46
341
212
342
212
343
212
344
212
  0
ENDTAB
  0
ENDSEC
  0
SECTION
  2
BLOCKS
  0
BLOCK
  5
20
100
AcDbEntity
  8
0
100
AcDbBlockBegin
  2
*Model_Space
 70
0
 10
0.0
 20
0.0
 30
0.0
  3
*Model_Space
  1

  0
ENDBLK
  5
21
100
AcDbEntity
  8
0
100
AcDbBlockEnd
  0
BLOCK
  5
1C
100
AcDbEntity
  8
0
100
AcDbBlockBegin
  2
*Paper_Space
 70
0
 10
0.0
 20
0.0
 30
0.0
  3
*Paper_Space
  1

  0
ENDBLK
  5
1D
100
AcDbEntity
  8
0
100
AcDbBlockEnd
  0
BLOCK
  5
214
100
AcDbEntity
  8
0
100
AcDbBlockBegin
  2
_FILLED
 70
64
 10
0.0
 20
0.0
  3
_FILLED
  1

  0
SOLID
  5
215
100
AcDbEntity
  8
0
  6
BYBLOCK
 62
0
100
AcDbTrace
 10
0.0
 20
0.0
 11
-1.0
 21
0.25
 12
-1.0
 22
-0.25
 13
-1.0
 23
-0.25
  0
ENDBLK
  5
216
100
AcDbEntity
  8
0
  6
BYBLOCK
 62
0
100
AcDbBlockEnd
  0
ENDSEC
  0
SECTION
  2
ENTITIES
  0
LINE
  5
217
100
AcDbEntity
  8
0
100
AcDbLine
 62
7
  6
BYLAYER
 10
30.9168362377
 20
10.6118396048
 11
45.9080712915
 21
10.4810130784
  0
LINE
  5
218
100
AcDbEntity
  8
0
100
AcDbLine
 62
7
  6
BYLAYER
 10
45.9080712915
 20
11.3596592728
 11
30.9168362377
 21
11.4904857995
  0
LINE
  5
219
100
AcDbEntity
  8
0
100
AcDbLine
 62
7
  6
BYLAYER
 10
30.4168552762
 20
11.8471244859
 11
30.9168362377
 21
11.4904857995
  0
LINE
  5
21A
100
AcDbEntity
  8
0
100
AcDbLine
 62
7
  6
BYLAYER
 10
30.9168362377
 20
10.6118396048
 11
30.4168552761
 21
11.1162028725
  0
LINE
  5
21B
100
AcDbEntity
  8
0
100
AcDbLine
 62
7
  6
BYLAYER
 10
45.9080712915
 20
19.7235615399
 11
46.4168552761
 21
19.7235615402
  0
LINE
  5
21C
100
AcDbEntity
  8
0
100
AcDbLine
 62
7
  6
BYLAYER
 10
30.4168552761
 20
19.7777516622
 11
30.9168362377
 21
19.7777516626
  0
LINE
  5
21D
100
AcDbEntity
  8
0
100
AcDbLine
 62
7
  6
BYLAYER
 10
30.9168362377
 20
17.6565121011
 11
45.9080712915
 21
17.6023219793
  0
LINE
  5
21E
100
AcDbEntity
  8
0
100
AcDbLine
 62
7
  6
BYLAYER
 10
45.9080712915
 20
19.7235615399
 11
30.9168362377
 21
19.7777516626
  0
LINE
  5
21F
100
AcDbEntity
  8
0
100
AcDbLine
 62
7
  6
BYLAYER
 10
30.9168362377
 20
17.6565121011
 11
30.4168552762
 21
18.0131507884
  0
LINE
  5
220
100
AcDbEntity
  8
0
100
AcDbLine
 62
7
  6
BYLAYER
 10
46.4168552761
 20
22.4809364218
 11
30.4168552761
 21
22.4809364218
  0
LINE
  5
221
100
AcDbEntity
  8
0
100
AcDbLine
 62
7
  6
BYLAYER
 10
30.4168552761
 20
22.6309364218
 11
46.4168552761
 21
22.6309364218
  0
LINE
  5
222
100
AcDbEntity
  8
0
100
AcDbLine
 62
7
  6
BYLAYER
 10
58.5253338907
 20
97.5256503122
 11
56.8385509991
 21
96.4510510955
  0
LINE
  5
223
100
AcDbEntity
  8
0
100
AcDbLine
 62
7
  6
BYLAYER
 10
30.4168552761
 20
74.7009363294
 11
30.4168552761
 21
22.6309364218
  0
LINE
  5
224
100
AcDbEntity
  8
0
100
AcDbLine
 62
7
  6
BYLAYER
 10
30.4168552761
 20
22.4809364218
 11
30.4168552761
 21
11.1162028725
  0
LINE
  5
225
100
AcDbEntity
  8
0
100
AcDbLine
 62
7
  6
BYLAYER
 10
30.479601343
 20
74.7009364218
 11
30.479601343
 21
91.697974502
  0
LINE
  5
226
100
AcDbEntity
  8
0
100
AcDbLine
 62
7
  6
BYLAYER
 10
30.9168362377
 20
22.4809364218
 11
30.9168362377
 21
17.656512101
  0
LINE
  5
227
100
AcDbEntity
  8
0
100
AcDbLine
 62
7
  6
BYLAYER
 10
30.9168362377
 20
17.6565121011
 11
30.9168362377
 21
10.6118396048
  0
LINE
  5
228
100
AcDbEntity
  8
0
100
AcDbLine
 62
7
  6
BYLAYER
 10
30.9168552761
 20
74.2009364218
 11
30.9168552761
 21
22.6309364218
  0
LINE
  5
229
100
AcDbEntity
  8
0
100
AcDbLine
 62
7
  6
BYLAYER
 10
30.9165184214
 20
10.8401943544
 11
30.9168253503
 21
11.4904858943
  0
LINE
  5
22A
100
AcDbEntity
  8
0
100
AcDbLine
 62
7
  6
BYLAYER
 10
30.4168552761
 20
73.7009364218
 11
30.9168552761
 21
74.2009364218
  0
LINE
  5
22B
100
AcDbEntity
  8
0
100
AcDbLine
 62
7
  6
BYLAYER
 10
50.5216187527
 20
99.4830841884
 11
51.3668552761
 21
101.2956997624
  0
LINE
  5
22C
100
AcDbEntity
  8
0
100
AcDbLine
 62
7
  6
BYLAYER
 10
38.4168552761
 20
22.4809364218
 11
38.4168552361
 21
22.6309364218
  0
LINE
  5
22D
100
AcDbEntity
  8
0
100
AcDbLine
 62
7
  6
BYLAYER
 10
38.4168552762
 20
92.5473253664
 11
38.4168552761
 21
80.5953851463
  0
LINE
  5
22E
100
AcDbEntity
  8
0
100
AcDbLine
 62
7
  6
BYLAYER
 10
45.9080818778
 20
10.4810129861
 11
45.9080712915
 21
17.6023219793
  0
LINE
  5
22F
100
AcDbEntity
  8
0
100
AcDbLine
 62
7
  6
BYLAYER
 10
45.9080712915
 20
19.7235615399
 11
45.9080712915
 21
22.4809364218
  0
LINE
  5
230
100
AcDbEntity
  8
0
100
AcDbLine
 62
7
  6
BYLAYER
 10
45.9168552761
 20
74.2009364218
 11
45.9168552761
 21
22.6309364218
  0
LINE
  5
231
100
AcDbEntity
  8
0
100
AcDbLine
 62
7
  6
BYLAYER
 10
46.4168552761
 20
10.9853763462
 11
46.4168552761
 21
22.4809364218
  0
LINE
  5
232
100
AcDbEntity
  8
0
100
AcDbLine
 62
7
  6
BYLAYER
 10
46.4168552761
 20
22.6309364218
 11
46.4168552761
 21
75.2009364218
  0
LINE
  5
233
100
AcDbEntity
  8
0
100
AcDbLine
 62
7
  6
BYLAYER
 10
47.8668552761
 20
112.6509301977
 11
47.8668552761
 21
108.5509426458
  0
LINE
  5
234
100
AcDbEntity
  8
0
100
AcDbLine
 62
7
  6
BYLAYER
 10
49.3668552761
 20
115.1009300244
 11
49.3668552761
 21
101.2956997624
  0
LINE
  5
235
100
AcDbEntity
  8
0
100
AcDbLine
 62
7
  6
BYLAYER
 10
51.3668552761
 20
101.6142348928
 11
51.3668552761
 21
115.1009300244
  0
LINE
  5
236
100
AcDbEntity
  8
0
100
AcDbLine
 62
7
  6
BYLAYER
 10
51.4168552761
 20
115.3509364218
 11
51.4168552761
 21
105.8509364218
  0
LINE
  5
237
100
AcDbEntity
  8
0
100
AcDbLine
 62
7
  6
BYLAYER
 10
51.6668552761
 20
118.6009364218
 11
51.6668552761
 21
102.6009364218
  0
LINE
  5
238
100
AcDbEntity
  8
0
100
AcDbLine
 62
7
  6
BYLAYER
 10
45.9168552761
 20
74.2009364218
 11
46.4168552761
 21
73.7009364218
  0
LINE
  5
239
100
AcDbEntity
  8
0
100
AcDbLine
 62
7
  6
BYLAYER
 10
56.4168552761
 20
75.2011988901
 11
56.4168552761
 21
93.2006887477
  0
LINE
  5
23A
100
AcDbEntity
  8
0
100
AcDbLine
 62
7
  6
BYLAYER
 10
56.9168552761
 20
96.1824012914
 11
56.9168552761
 21
76.2009364218
  0
LINE
  5
23B
100
AcDbEntity
  8
0
100
AcDbLine
 62
7
  6
BYLAYER
 10
57.1668552761
 20
102.6009364238
 11
57.1668552761
 21
118.6009364218
  0
LINE
  5
23C
100
AcDbEntity
  8
0
100
AcDbLine
 62
7
  6
BYLAYER
 10
57.9371719249
 20
114.8509364218
 11
57.9371719249
 21
106.3509364474
  0
LINE
  5
23D
100
AcDbEntity
  8
0
100
AcDbLine
 62
7
  6
BYLAYER
 10
58.0268552761
 20
106.4759364218
 11
58.0268552761
 21
114.7259364218
  0
LINE
  5
23E
100
AcDbEntity
  8
0
100
AcDbLine
 62
7
  6
BYLAYER
 10
58.2668552761
 20
109.6009364218
 11
58.2668552761
 21
111.6009364218
  0
LINE
  5
23F
100
AcDbEntity
  8
0
100
AcDbLine
 62
7
  6
BYLAYER
 10
30.4168552761
 20
73.7009364218
 11
46.4168552761
 21
73.7009364218
  0
LINE
  5
240
100
AcDbEntity
  8
0
100
AcDbLine
 62
7
  6
BYLAYER
 10
30.9168552761
 20
74.2009364218
 11
45.9168552761
 21
74.2009364218
  0
LINE
  5
241
100
AcDbEntity
  8
0
100
AcDbLine
 62
7
  6
BYLAYER
 10
46.4168490957
 20
74.7009364218
 11
30.4168341211
 21
74.7009364218
  0
LINE
  5
242
100
AcDbEntity
  8
0
100
AcDbLine
 62
7
  6
BYLAYER
 10
46.4168552761
 20
75.2009364218
 11
56.4168552761
 21
75.2009364218
  0
LINE
  5
243
100
AcDbEntity
  8
0
100
AcDbLine
 62
7
  6
BYLAYER
 10
56.9168552761
 20
76.2009364218
 11
58.9168552761
 21
76.2009364218
  0
LINE
  5
244
100
AcDbEntity
  8
0
100
AcDbLine
 62
7
  6
BYLAYER
 10
58.9168552761
 20
76.2009364218
 11
58.9168552761
 21
96.1824012914
  0
LINE
  5
245
100
AcDbEntity
  8
0
100
AcDbLine
 62
7
  6
BYLAYER
 10
59.1168552761
 20
82.2009364218
 11
59.1168552761
 21
86.2009364218
  0
LINE
  5
246
100
AcDbEntity
  8
0
100
AcDbLine
 62
7
  6
BYLAYER
 10
59.2668552761
 20
85.9409364218
 11
59.2668552761
 21
82.4609364218
  0
LINE
  5
247
100
AcDbEntity
  8
0
100
AcDbLine
 62
7
  6
BYLAYER
 10
59.9668552761
 20
82.4609364218
 11
59.9668552761
 21
85.9407065917
  0
LINE
  5
248
100
AcDbEntity
  8
0
100
AcDbLine
 62
7
  6
BYLAYER
 10
60.1168552761
 20
88.2009364218
 11
60.1168552761
 21
80.2009364218
  0
LINE
  5
249
100
AcDbEntity
  8
0
100
AcDbLine
 62
7
  6
BYLAYER
 10
61.8403306591
 20
80.2009364218
 11
61.8403306591
 21
88.2009364218
  0
LINE
  5
24A
100
AcDbEntity
  8
0
100
AcDbLine
 62
7
  6
BYLAYER
 10
62.0168552761
 20
83.6009364218
 11
62.0168552761
 21
84.8009364218
  0
LINE
  5
24B
100
AcDbEntity
  8
0
100
AcDbLine
 62
7
  6
BYLAYER
 10
40.5357615054
 20
79.565230511
 11
56.4168552761
 21
79.565230511
  0
LINE
  5
24C
100
AcDbEntity
  8
0
100
AcDbLine
 62
7
  6
BYLAYER
 10
62.8457179669
 20
86.3658941853
 11
62.8457179669
 21
86.3098309021
  0
LINE
  5
24D
100
AcDbEntity
  8
0
100
AcDbLine
 62
7
  6
BYLAYER
 10
62.8457179669
 20
82.0920419414
 11
62.8457179669
 21
82.0359786582
  0
LINE
  5
24E
100
AcDbEntity
  8
0
100
AcDbLine
 62
7
  6
BYLAYER
 10
61.8403306591
 20
80.2009364218
 11
60.1168552761
 21
80.2009364218
  0
LINE
  5
24F
100
AcDbEntity
  8
0
100
AcDbLine
 62
7
  6
BYLAYER
 10
38.4168552761
 20
80.5953851463
 11
56.4168552761
 21
80.5953851463
  0
LINE
  5
250
100
AcDbEntity
  8
0
100
AcDbLine
 62
7
  6
BYLAYER
 10
59.1168552761
 20
82.2009364218
 11
58.9168552761
 21
82.2009364218
  0
LINE
  5
251
100
AcDbEntity
  8
0
100
AcDbLine
 62
7
  6
BYLAYER
 10
56.9168552761
 20
82.2009364218
 11
56.4168552761
 21
82.2009364218
  0
LINE
  5
252
100
AcDbEntity
  8
0
100
AcDbLine
 62
7
  6
BYLAYER
 10
59.9668552761
 20
82.4609364218
 11
59.2668552761
 21
82.4609364218
  0
LINE
  5
253
100
AcDbEntity
  8
0
100
AcDbLine
 62
7
  6
BYLAYER
 10
63.1368109399
 20
84.8302634929
 11
62.0168552761
 21
84.8009364218
  0
LINE
  5
254
100
AcDbEntity
  8
0
100
AcDbLine
 62
7
  6
BYLAYER
 10
58.9168552761
 20
85.0777969364
 11
56.9168552761
 21
85.0777969364
  0
LINE
  5
255
100
AcDbEntity
  8
0
100
AcDbLine
 62
7
  6
BYLAYER
 10
59.9668552761
 20
85.9409364218
 11
59.2668552761
 21
85.9409364218
  0
LINE
  5
256
100
AcDbEntity
  8
0
100
AcDbLine
 62
7
  6
BYLAYER
 10
59.1168552761
 20
86.2009364218
 11
58.9168552761
 21
86.2009364218
  0
LINE
  5
257
100
AcDbEntity
  8
0
100
AcDbLine
 62
7
  6
BYLAYER
 10
56.9168552761
 20
86.2009364218
 11
56.4168552761
 21
86.2009364218
  0
LINE
  5
258
100
AcDbEntity
  8
0
100
AcDbLine
 62
7
  6
BYLAYER
 10
62.0168552761
 20
83.6009364218
 11
63.1368109724
 21
83.5716093497
  0
LINE
  5
259
100
AcDbEntity
  8
0
100
AcDbLine
 62
7
  6
BYLAYER
 10
61.8403306591
 20
88.2009364218
 11
60.1168552761
 21
88.2009364218
  0
LINE
  5
25A
100
AcDbEntity
  8
0
100
AcDbLine
 62
7
  6
BYLAYER
 10
56.4168552761
 20
90.588562657
 11
38.4168552762
 21
90.588562657
  0
LWPOLYLINE
  5
25B
100
AcDbEntity
  8
0
100
AcDbPolyline
 62
7
  6
BYLAYER
 90
5
 70
0
 10
32.4168553122
 20
93.2009364032
 10
32.0617815635
 20
93.1691647011
 10
31.1895850245
 20
92.7801158211
 10
30.8479583056
 20
92.4413243161
 10
30.479601343
 20
91.6979746898
  0
LINE
  5
25C
100
AcDbEntity
  8
0
100
AcDbLine
 62
7
  6
BYLAYER
 10
56.4168552761
 20
92.5473253664
 11
38.4168552761
 21
92.5473253664
  0
LINE
  5
25D
100
AcDbEntity
  8
0
100
AcDbLine
 62
7
  6
BYLAYER
 10
32.4168553111
 20
93.2009364218
 11
56.4168552761
 21
93.2009364218
  0
LINE
  5
25E
100
AcDbEntity
  8
0
100
AcDbLine
 62
7
  6
BYLAYER
 10
50.5216187527
 20
99.4830841884
 11
56.628164407
 21
96.6355551849
  0
LINE
  5
25F
100
AcDbEntity
  8
0
100
AcDbLine
 62
7
  6
BYLAYER
 10
46.4168552761
 20
10.9853763462
 11
45.9080712915
 21
10.4810130784
  0
LINE
  5
260
100
AcDbEntity
  8
0
100
AcDbLine
 62
7
  6
BYLAYER
 10
46.4168552761
 20
17.9589606666
 11
45.9080712915
 21
17.6023219793
  0
LINE
  5
261
100
AcDbEntity
  8
0
100
AcDbLine
 62
7
  6
BYLAYER
 10
49.3668552761
 20
101.2956997624
 11
51.3668552761
 21
101.2956997624
  0
LINE
  5
262
100
AcDbEntity
  8
0
100
AcDbLine
 62
7
  6
BYLAYER
 10
51.6668552761
 20
102.6009364218
 11
57.1668552761
 21
102.6009364218
  0
LINE
  5
263
100
AcDbEntity
  8
0
100
AcDbLine
 62
7
  6
BYLAYER
 10
57.4734009305
 20
98.4481707589
 11
51.3668552761
 21
101.2956997624
  0
LINE
  5
264
100
AcDbEntity
  8
0
100
AcDbLine
 62
7
  6
BYLAYER
 10
51.6668552761
 20
105.8509364218
 11
51.4168552761
 21
105.8509364218
  0
LINE
  5
265
100
AcDbEntity
  8
0
100
AcDbLine
 62
7
  6
BYLAYER
 10
45.9080712915
 20
11.3596592728
 11
46.4168552761
 21
11.716297959
  0
LINE
  5
266
100
AcDbEntity
  8
0
100
AcDbLine
 62
7
  6
BYLAYER
 10
57.9371719249
 20
106.4759364218
 11
58.0268552761
 21
106.4759364218
  0
LINE
  5
267
100
AcDbEntity
  8
0
100
AcDbLine
 62
7
  6
BYLAYER
 10
51.4168552761
 20
107.6259364218
 11
51.3668552761
 21
107.6259364218
  0
LINE
  5
268
100
AcDbEntity
  8
0
100
AcDbLine
 62
7
  6
BYLAYER
 10
49.3668552761
 20
108.5509364218
 11
47.8668552761
 21
108.5509364218
  0
LINE
  5
269
100
AcDbEntity
  8
0
100
AcDbLine
 62
7
  6
BYLAYER
 10
51.3668552761
 20
111.0941704612
 11
49.3668552761
 21
111.0941704612
  0
LINE
  5
26A
100
AcDbEntity
  8
0
100
AcDbLine
 62
7
  6
BYLAYER
 10
49.3668552761
 20
112.6509364218
 11
47.8668552761
 21
112.6509364218
  0
LINE
  5
26B
100
AcDbEntity
  8
0
100
AcDbLine
 62
7
  6
BYLAYER
 10
51.4168552761
 20
113.5759364218
 11
51.3668552761
 21
113.5759364218
  0
LINE
  5
26C
100
AcDbEntity
  8
0
100
AcDbLine
 62
7
  6
BYLAYER
 10
57.9371719249
 20
114.7259364218
 11
58.0268552761
 21
114.7259364218
  0
LINE
  5
26D
100
AcDbEntity
  8
0
100
AcDbLine
 62
7
  6
BYLAYER
 10
49.3668552761
 20
115.1009364218
 11
51.3668552761
 21
115.1009364218
  0
LINE
  5
26E
100
AcDbEntity
  8
0
100
AcDbLine
 62
7
  6
BYLAYER
 10
51.6668552761
 20
115.3509364218
 11
51.4168552761
 21
115.3509364218
  0
LINE
  5
26F
100
AcDbEntity
  8
0
100
AcDbLine
 62
7
  6
BYLAYER
 10
51.6668552761
 20
118.6009364218
 11
57.1668552761
 21
118.6009364218
  0
ARC
  5
270
100
AcDbEntity
  8
0
100
AcDbCircle
 62
7
  6
BYLAYER
 10
27.7347299706
 20
110.6009364218
 40
30.5
100
AcDbArc
 50
344.7937121277
 51
351.990096728
  0
ARC
  5
271
100
AcDbEntity
  8
0
100
AcDbCircle
 62
7
  6
BYLAYER
 10
27.7347299706
 20
110.6009364218
 40
30.5
100
AcDbArc
 50
8.0099033102
 51
15.2062878759
  0
ARC
  5
272
100
AcDbEntity
  8
0
100
AcDbCircle
 62
7
  6
BYLAYER
 10
27.776574923
 20
110.8309988903
 40
30.499999997
100
AcDbArc
 50
1.4465135261
 51
7.3368438986
  0
ARC
  5
273
100
AcDbEntity
  8
0
100
AcDbCircle
 62
7
  6
BYLAYER
 10
27.7765749229
 20
110.3708739532
 40
30.499999997
100
AcDbArc
 50
352.6631561014
 51
358.5534864739
  0
ARC
  5
274
100
AcDbEntity
  8
0
100
AcDbCircle
 62
7
  6
BYLAYER
 10
56.7168552761
 20
84.2009364218
 40
6.5
100
AcDbArc
 50
322.0201275551
 51
340.5447558631
  0
ARC
  5
275
100
AcDbEntity
  8
0
100
AcDbCircle
 62
7
  6
BYLAYER
 10
56.7168552761
 20
84.2009364218
 40
6.5
100
AcDbArc
 50
19.4552441369
 51
37.9798724449
  0
ARC
  5
276
100
AcDbEntity
  8
0
100
AcDbCircle
 62
7
  6
BYLAYER
 10
56.7168552761
 20
84.2009364218
 40
6.4815425488
100
AcDbArc
 50
7.5500830799
 51
18.98794591
  0
ARC
  5
277
100
AcDbEntity
  8
0
100
AcDbCircle
 62
7
  6
BYLAYER
 10
56.7168552761
 20
84.2009364218
 40
6.4815425488
100
AcDbArc
 50
341.01205409
 51
352.4499169201
  0
ARC
  5
278
100
AcDbEntity
  8
0
100
AcDbCircle
 62
7
  6
BYLAYER
 10
60.3397429126
 20
84.3319737499
 40
2.8756776586
100
AcDbArc
 50
12.0437900974
 51
14.3870640283
  0
ARC
  5
279
100
AcDbEntity
  8
0
100
AcDbCircle
 62
7
  6
BYLAYER
 10
60.3458453951
 20
84.0685639951
 40
2.8694407418
100
AcDbArc
 50
345.593377536
 51
347.9557953462
  0
ARC
  5
27A
100
AcDbEntity
  8
0
100
AcDbCircle
 62
7
  6
BYLAYER
 10
56.4168552761
 20
96.1824012914
 40
2.5
100
AcDbArc
 50
0.0
 51
65.0
  0
ARC
  5
27B
100
AcDbEntity
  8
0
100
AcDbCircle
 62
7
  6
BYLAYER
 10
51.3668552761
 20
101.2956997624
 40
2.0
100
AcDbArc
 50
180.0
 51
245.0000000001
  0
ARC
  5
27C
100
AcDbEntity
  8
0
100
AcDbCircle
 62
7
  6
BYLAYER
 10
51.8668552761
 20
101.6142348928
 40
0.5
100
AcDbArc
 50
180.0
 51
245.0000000001
  0
ARC
  5
27D
100
AcDbEntity
  8
0
100
AcDbCircle
 62
7
  6
BYLAYER
 10
56.4168552761
 20
96.1824012914
 40
0.5
100
AcDbArc
 50
0.0
 51
65.0
  0
ARC
  5
27E
100
AcDbEntity
  8
0
100
AcDbCircle
 62
7
  6
BYLAYER
 10
45.8318552761
 20
22.9809364218
 40
0.5
100
AcDbArc
 50
225.216814728
 51
270.0
  0
ARC
  5
27F
100
AcDbEntity
  8
0
100
AcDbCircle
 62
7
  6
BYLAYER
 10
31.0018552761
 20
22.9809364218
 40
0.5
100
AcDbArc
 50
270.0
 51
314.783185272
  0
ARC
  5
280
100
AcDbEntity
  8
0
100
AcDbCircle
 62
7
  6
BYLAYER
 10
59.9668552761
 20
86.0909364218
 40
0.15
100
AcDbArc
 50
270.0
 51
360.0
  0
ARC
  5
281
100
AcDbEntity
  8
0
100
AcDbCircle
 62
7
  6
BYLAYER
 10
59.9668552761
 20
82.3109364218
 40
0.15
100
AcDbArc
 50
0.0
 51
90.0
  0
ARC
  5
282
100
AcDbEntity
  8
0
100
AcDbCircle
 62
7
  6
BYLAYER
 10
59.2668552761
 20
86.0909364218
 40
0.15
100
AcDbArc
 50
180.0
 51
270.0
  0
ARC
  5
283
100
AcDbEntity
  8
0
100
AcDbCircle
 62
7
  6
BYLAYER
 10
59.2668552761
 20
82.3109364218
 40
0.15
100
AcDbArc
 50
90.0
 51
180.0
  0
SPLINE
  5
284
100
AcDbEntity
  8
0
100
AcDbSpline
 62
7
  6
BYLAYER
 70
0
 71
3
 72
9
 73
5
 74
0
 42
0.0000001
 43
0.0000001
 44
0.0000000001
 40
0.0
 40
0.0
 40
0.0
 40
0.0
 40
0.5060015719
 40
1.0
 40
1.0
 40
1.0
 40
1.0
 10
62.7167082625
 20
85.9689591972
 30
0.0
 10
62.8147420898
 20
85.7886026135
 30
0.0
 10
62.9840648912
 20
85.4182140148
 30
0.0
 10
63.0966266952
 20
85.0266015144
 30
0.0
 10
63.1368102789
 20
84.8302627533
 30
0.0
  0
SPLINE
  5
285
100
AcDbEntity
  8
0
100
AcDbSpline
 62
7
  6
BYLAYER
 70
0
 71
3
 72
9
 73
5
 74
0
 42
0.0000001
 43
0.0000001
 44
0.0000000001
 40
0.0
 40
0.0
 40
0.0
 40
0.0
 40
0.4939564438
 40
1.0
 40
1.0
 40
1.0
 40
1.0
 10
63.1368216616
 20
83.5716172527
 30
0.0
 10
63.0966405999
 20
83.3752795123
 30
0.0
 10
62.9840525763
 20
82.983641574
 30
0.0
 10
62.8147206319
 20
82.6132231208
 30
0.0
 10
62.7166689306
 20
82.4328387619
 30
0.0
  0
SPLINE
  5
286
100
AcDbEntity
  8
0
100
AcDbSpline
 62
7
  6
BYLAYER
 70
0
 71
3
 72
9
 73
5
 74
0
 42
0.0000001
 43
0.0000001
 44
0.0000000001
 40
0.0
 40
0.0
 40
0.0
 40
0.0
 40
0.2597300712
 40
1.0
 40
1.0
 40
1.0
 40
1.0
 10
63.1521208568
 20
83.4698631628
 30
0.0
 10
63.1490703395
 20
83.4716832267
 30
0.0
 10
63.1372081137
 20
83.4784888047
 30
0.0
 10
63.1248536306
 20
83.4844636295
 30
0.0
 10
63.1154508735
 20
83.4882174371
 30
0.0
  0
SPLINE
  5
287
100
AcDbEntity
  8
0
100
AcDbSpline
 62
7
  6
BYLAYER
 70
0
 71
3
 72
9
 73
5
 74
0
 42
0.0000001
 43
0.0000001
 44
0.0000000001
 40
0.0
 40
0.0
 40
0.0
 40
0.0
 40
0.5598105982
 40
1.0
 40
1.0
 40
1.0
 40
1.0
 10
63.1422053643
 20
83.3493085359
 30
0.0
 10
63.1451724629
 20
83.3716946594
 30
0.0
 10
63.1495944063
 20
83.4117908781
 30
0.0
 10
63.1521542913
 20
83.4521066298
 30
0.0
 10
63.1521208568
 20
83.4698631628
 30
0.0
  0
SPLINE
  5
288
100
AcDbEntity
  8
0
100
AcDbSpline
 62
7
  6
BYLAYER
 70
0
 71
3
 72
9
 73
5
 74
0
 42
0.0000001
 43
0.0000001
 44
0.0000000001
 40
0.0
 40
0.0
 40
0.0
 40
0.0
 40
0.2393115306
 40
1.0
 40
1.0
 40
1.0
 40
1.0
 10
63.1128941741
 20
84.912654222
 30
0.0
 10
63.1161540157
 20
84.9139056615
 30
0.0
 10
63.1296403167
 20
84.9194865061
 30
0.0
 10
63.1425892507
 20
84.926322734
 30
0.0
 10
63.1521208526
 20
84.9320096767
 30
0.0
  0
SPLINE
  5
289
100
AcDbEntity
  8
0
100
AcDbSpline
 62
7
  6
BYLAYER
 70
0
 71
3
 72
9
 73
5
 74
0
 42
0.0000001
 43
0.0000001
 44
0.0000000001
 40
0.0
 40
0.0
 40
0.0
 40
0.0
 40
0.440189279
 40
1.0
 40
1.0
 40
1.0
 40
1.0
 10
63.1521208526
 20
84.9320096767
 30
0.0
 10
63.1521546392
 20
84.9497662045
 30
0.0
 10
63.1495941417
 20
84.9900819558
 30
0.0
 10
63.1451724636
 20
85.0301781787
 30
0.0
 10
63.1422053643
 20
85.0525643076
 30
0.0
  0
SPLINE
  5
28A
100
AcDbEntity
  8
0
100
AcDbSpline
 62
7
  6
BYLAYER
 70
0
 71
3
 72
9
 73
5
 74
0
 42
0.0000001
 43
0.0000001
 44
0.0000000001
 40
0.0
 40
0.0
 40
0.0
 40
0.0
 40
0.491423618
 40
1.0
 40
1.0
 40
1.0
 40
1.0
 10
63.1252372623
 20
85.0464968247
 30
0.0
 10
63.0840481984
 20
85.2070957962
 30
0.0
 10
62.9717493603
 20
85.5271294526
 30
0.0
 10
62.8095665151
 20
85.8246735853
 30
0.0
 10
62.7167082625
 20
85.9689591972
 30
0.0
  0
SPLINE
  5
28B
100
AcDbEntity
  8
0
100
AcDbSpline
 62
7
  6
BYLAYER
 70
0
 71
3
 72
9
 73
5
 74
0
 42
0.0000001
 43
0.0000001
 44
0.0000000001
 40
0.0
 40
0.0
 40
0.0
 40
0.0
 40
0.5086201416
 40
1.0
 40
1.0
 40
1.0
 40
1.0
 10
62.7166689306
 20
82.4328387619
 30
0.0
 10
62.8094779254
 20
82.5770387567
 30
0.0
 10
62.9715630347
 20
82.8743801498
 30
0.0
 10
63.0838432595
 20
83.1941770478
 30
0.0
 10
63.1250548802
 20
83.3546418644
 30
0.0
  0
SPLINE
  5
28C
100
AcDbEntity
  8
0
100
AcDbSpline
 62
7
  6
BYLAYER
 70
0
 71
3
 72
9
 73
5
 74
0
 42
0.0000001
 43
0.0000001
 44
0.0000000001
 40
0.0
 40
0.0
 40
0.0
 40
0.0
 40
0.275899088
 40
1.0
 40
1.0
 40
1.0
 40
1.0
 10
45.9080712916
 20
19.7235615452
 30
0.0
 10
45.9079529163
 20
19.5284788799
 30
0.0
 10
45.9075425155
 20
18.8213991056
 30
0.0
 10
45.9076427855
 20
18.1143189564
 30
0.0
 10
45.9080821462
 20
17.6023219402
 30
0.0
  0
SPLINE
  5
28D
100
AcDbEntity
  8
0
100
AcDbSpline
 62
7
  6
BYLAYER
 70
0
 71
3
 72
18
 73
14
 74
0
 42
0.0000001
 43
0.0000001
 44
0.0000000001
 40
0.0
 40
0.0
 40
0.0
 40
0.0
 40
0.2249946958
 40
0.4245119059
 40
0.5966086645
 40
0.7398025527
 40
0.8526425524
 40
0.8972805999
 40
0.9339550126
 40
0.9626050922
 40
0.9831736782
 40
0.9956165005
 40
1.0
 40
1.0
 40
1.0
 40
1.0
 10
33.4831170198
 20
22.6265910744
 30
0.0
 10
33.4830212063
 20
22.6156613609
 30
0.0
 10
33.4828241185
 20
22.5950395493
 30
0.0
 10
33.4824862455
 20
22.5660591421
 30
0.0
 10
33.4821281196
 20
22.541050765
 30
0.0
 10
33.4817501486
 20
22.5202607876
 30
0.0
 10
33.4814130498
 20
22.5056463948
 30
0.0
 10
33.4811119405
 20
22.4962371553
 30
0.0
 10
33.4809238738
 20
22.4908608559
 30
0.0
 10
33.4806803919
 20
22.4867922339
 30
0.0
 10
33.4805754721
 20
22.4835770007
 30
0.0
 10
33.4802281854
 20
22.4821708984
 30
0.0
 10
33.4802518857
 20
22.4809364218
 30
0.0
 10
33.4800389374
 20
22.4809364218
 30
0.0
  0
SPLINE
  5
28E
100
AcDbEntity
  8
0
100
AcDbSpline
 62
7
  6
BYLAYER
 70
0
 71
3
 72
25
 73
21
 74
0
 42
0.0000001
 43
0.0000001
 44
0.0000000001
 40
0.0
 40
0.0
 40
0.0
 40
0.0
 40
0.0014538218
 40
0.0032693825
 40
0.0058049576
 40
0.0130133965
 40
0.023019536
 40
0.0357406646
 40
0.0510780652
 40
0.0891406135
 40
0.1362085541
 40
0.191231782
 40
0.2531888503
 40
0.3211366575
 40
0.3942339632
 40
0.4717462743
 40
0.6375683673
 40
0.8145911931
 40
0.9063961895
 40
1.0
 40
1.0
 40
1.0
 40
1.0
 10
46.4168517995
 20
75.2009399697
 30
0.0
 10
46.4143623526
 20
75.2034847024
 30
0.0
 10
46.4081081135
 20
75.2085192636
 30
0.0
 10
46.3976225917
 20
75.2181079078
 30
0.0
 10
46.3763812553
 20
75.2368228215
 30
0.0
 10
46.3402721969
 20
75.2689892681
 30
0.0
 10
46.2853937933
 20
75.3175878419
 30
0.0
 10
46.2156069412
 20
75.3793723626
 30
0.0
 10
46.0942436596
 20
75.4865418253
 30
0.0
 10
45.9095072433
 20
75.6490053428
 30
0.0
 10
45.6509794272
 20
75.8747104038
 30
0.0
 10
45.3471335009
 20
76.1374667712
 30
0.0
 10
45.0028307754
 20
76.4315933705
 30
0.0
 10
44.6224236775
 20
76.7515752943
 30
0.0
 10
44.2095799705
 20
77.0921360964
 30
0.0
 10
43.6059016703
 20
77.5779085753
 30
0.0
 10
42.7889855902
 20
78.2043915114
 30
0.0
 10
41.9121209746
 20
78.8094047863
 30
0.0
 10
41.1489515504
 20
79.2630685751
 30
0.0
 10
40.7442214814
 20
79.4699470982
 30
0.0
 10
40.5357615054
 20
79.565230511
 30
0.0
  0
SPLINE
  5
28F
100
AcDbEntity
  8
0
100
AcDbSpline
 62
7
  6
BYLAYER
 70
0
 71
3
 72
18
 73
14
 74
0
 42
0.0000001
 43
0.0000001
 44
0.0000000001
 40
0.0
 40
0.0
 40
0.0
 40
0.0
 40
0.0043834995
 40
0.0168263218
 40
0.0373949078
 40
0.0660449874
 40
0.1027194001
 40
0.1473574476
 40
0.2601974473
 40
0.4033913355
 40
0.5754880941
 40
0.7750053042
 40
1.0
 40
1.0
 40
1.0
 40
1.0
 10
43.3536716149
 20
22.4809364218
 30
0.0
 10
43.3534586666
 20
22.4809364218
 30
0.0
 10
43.3534823668
 20
22.4821708984
 30
0.0
 10
43.3531350802
 20
22.4835770007
 30
0.0
 10
43.3530301604
 20
22.4867922339
 30
0.0
 10
43.3527866785
 20
22.4908608559
 30
0.0
 10
43.3525986118
 20
22.4962371553
 30
0.0
 10
43.3522975025
 20
22.5056463948
 30
0.0
 10
43.3519604037
 20
22.5202607876
 30
0.0
 10
43.3515824327
 20
22.541050765
 30
0.0
 10
43.3512243068
 20
22.5660591421
 30
0.0
 10
43.3508864338
 20
22.5950395493
 30
0.0
 10
43.350689346
 20
22.6156613609
 30
0.0
 10
43.3505935325
 20
22.6265910744
 30
0.0
  0
SPLINE
  5
290
100
AcDbEntity
  8
0
100
AcDbSpline
 62
7
  6
BYLAYER
 70
0
 71
3
 72
14
 73
10
 74
0
 42
0.0000001
 43
0.0000001
 44
0.0000000001
 40
0.0
 40
0.0
 40
0.0
 40
0.0
 40
0.1956481317
 40
0.3835955934
 40
0.5563318443
 40
0.7075770736
 40
0.8315751587
 40
0.9238679751
 40
1.0
 40
1.0
 40
1.0
 40
1.0
 10
38.4168552764
 20
92.5473267698
 30
0.0
 10
38.0225186301
 20
92.5473370681
 30
0.0
 10
37.2492862638
 20
92.5649464085
 30
0.0
 10
36.129920788
 20
92.635748197
 30
0.0
 10
35.1033959759
 20
92.7425962795
 30
0.0
 10
34.2088892863
 20
92.8665753783
 30
0.0
 10
33.4781737595
 20
92.9888658925
 30
0.0
 10
32.899313111
 20
93.0998777511
 30
0.0
 10
32.5667199564
 20
93.1679699023
 30
0.0
 10
32.4168558967
 20
93.2009364029
 30
0.0
  0
SPLINE
  5
291
100
AcDbEntity
  8
0
100
AcDbSpline
 62
7
  6
BYLAYER
 70
0
 71
3
 72
11
 73
7
 74
0
 42
0.0000001
 43
0.0000001
 44
0.0000000001
 40
0.0
 40
0.0
 40
0.0
 40
0.0
 40
0.3555343477
 40
0.6653837666
 40
0.8900744582
 40
1.0
 40
1.0
 40
1.0
 40
1.0
 10
38.4168552761
 20
90.588562657
 30
0.0
 10
37.4726850473
 20
90.5885906733
 30
0.0
 10
35.7052649148
 20
90.6370563504
 30
0.0
 10
33.3479844137
 20
90.8218291577
 30
0.0
 10
31.6480002806
 20
91.0225130639
 30
0.0
 10
30.7682851322
 20
91.1482249875
 30
0.0
 10
30.479598649
 20
91.1915698344
 30
0.0
  0
SPLINE
  5
292
100
AcDbEntity
  8
0
100
AcDbSpline
 62
7
  6
BYLAYER
 70
0
 71
3
 72
9
 73
5
 74
0
 42
0.0000001
 43
0.0000001
 44
0.0000000001
 40
0.0
 40
0.0
 40
0.0
 40
0.0
 40
0.5037176684
 40
1.0
 40
1.0
 40
1.0
 40
1.0
 10
38.4168552761
 20
80.5953851463
 30
0.0
 10
38.7706980946
 20
80.418463737
 30
0.0
 10
39.473139166
 20
80.0672161138
 30
0.0
 10
40.1812630998
 20
79.7272658043
 30
0.0
 10
40.5357559716
 20
79.5652334429
 30
0.0
  0
ENDSEC
  0
SECTION
  2
OBJECTS
  0
DICTIONARY
  5
C
100
AcDbDictionary
280
0
281
1
  3
ACAD_GROUP
350
D
  3
ACAD_MLINESTYLE
350
17
  3
ACAD_LAYOUT
350
1A
  3
ACAD_PLOTSETTINGS
350
19
  3
ACAD_PLOTSTYLENAME
350
E
  0
DICTIONARY
  5
D
102
{ACAD_REACTORS
330
C
102
}
100
AcDbDictionary
280
0
281
1
  0
ACDBDICTIONARYWDFLT
  5
E
102
{ACAD_REACTORS
330
C
102
}
100
AcDbDictionary
281
1
  3
Normal
350
F
100
AcDbDictionaryWithDefault
340
F
  0
DICTIONARY
  5
17
102
{ACAD_REACTORS
330
C
102
}
100
AcDbDictionary
280
0
281
1
  3
Standard
350
18
  0
DICTIONARY
  5
19
102
{ACAD_REACTORS
330
C
102
}
100
AcDbDictionary
281
1
  0
DICTIONARY
  5
1A
102
{ACAD_REACTORS
330
C
102
}
100
AcDbDictionary
281
1
  3
Model
350
293
  3
Layout1
350
294
  0
ACDBPLACEHOLDER
  5
F
102
{ACAD_REACTORS
330
E
102
}
  0
MLINESTYLE
  5
18
102
{ACAD_REACTORS
330
17
102
}
100
AcDbMlineStyle
  2
STANDARD
 70
0
  3

 62
256
 51
90.0
 52
90.0
 71
2
 49
0.5
 62
256
  6
BYLAYER
 49
-0.5
 62
256
  6
BYLAYER
  0
LAYOUT
  5
293
102
{ACAD_REACTORS
330
1A
102
}
100
AcDbPlotSettings
  1

  2
none_device
  4

  6

 40
0.0
 41
0.0
 42
0.0
 43
0.0
 44
210.0
 45
297.0
 46
0.0
 47
0.0
 48
0.0
 49
0.0
140
0.0
141
0.0
142
1.0
143
1.0
 70
1024
 72
1
 73
0
 74
0
  7

 75
0
147
1.0
148
0.0
149
0.0
100
AcDbLayout
  1
Model
 70
0
 71
0
 10
0.0
 20
0.0
 11
210.0
 21
297.0
 12
0.0
 22
0.0
 32
0.0
 14
0.0
 24
0.0
 34
0.0
 15
0.0
 25
0.0
 35
0.0
146
0.0
 13
0.0
 23
0.0
 33
0.0
 16
1.0
 26
0.0
 36
0.0
 17
0.0
 27
1.0
 37
0.0
 76
0
330
210
345
0
346
0
  0
LAYOUT
  5
294
102
{ACAD_REACTORS
330
1A
102
}
100
AcDbPlotSettings
  1

  2
none_device
  4

  6

 40
0.0
 41
0.0
 42
0.0
 43
0.0
 44
210.0
 45
297.0
 46
0.0
 47
0.0
 48
0.0
 49
0.0
140
0.0
141
0.0
142
1.0
143
1.0
 70
0
 72
1
 73
0
 74
0
  7

 75
0
147
1.0
148
0.0
149
0.0
100
AcDbLayout
  1
Layout1
 70
0
 71
1
 10
0.0
 20
0.0
 11
210.0
 21
297.0
 12
0.0
 22
0.0
 32
0.0
 14
0.0
 24
0.0
 34
0.0
 15
0.0
 25
0.0
 35
0.0
146
0.0
 13
0.0
 23
0.0
 33
0.0
 16
1.0
 26
0.0
 36
0.0
 17
0.0
 27
1.0
 37
0.0
 76
0
330
211
345
0
346
0
  0
ENDSEC
  0
EOF
