  0
SECTION
  2
HEADER
  9
$ACADVER
  1
AC1012
  9
$DWGCODEPAGE
  3
ANSI_1252
  9
$INSBASE
 10
402.590624
 20
-1.041018
 30
0.0
  9
$EXTMIN
 10
-23.981927
 20
29.293136
 30
-0.001526
  9
$EXTMAX
 10
69.337071
 20
187.80154
 30
0.0
  9
$LIMMIN
 10
-407.970438
 20
-367.832444
  9
$LIMMAX
 10
429.804077
 20
234.370848
  9
$ORTHOMODE
 70
     1
  9
$REGENMODE
 70
     1
  9
$FILLMODE
 70
     1
  9
$QTEXTMODE
 70
     0
  9
$MIRRTEXT
 70
     1
  9
$DRAGMODE
 70
     2
  9
$LTSCALE
 40
10.0
  9
$OSMODE
 70
    39
  9
$ATTMODE
 70
     1
  9
$TEXTSIZE
 40
6.0
  9
$TRACEWID
 40
1.0
  9
$TEXTSTYLE
  7
ROMANS
  9
$CLAYER
  8
ALPHA
  9
$CELTYPE
  6
BYLAYER
  9
$CECOLOR
 62
   256
  9
$CELTSCALE
 40
1.0
  9
$DELOBJ
 70
     1
  9
$DISPSILH
 70
     0
  9
$DIMSCALE
 40
1.0
  9
$DIMASZ
 40
5.0
  9
$DIMEXO
 40
2.0
  9
$DIMDLI
 40
0.38
  9
$DIMRND
 40
0.0
  9
$DIMDLE
 40
0.0
  9
$DIMEXE
 40
2.5
  9
$DIMTP
 40
0.0
  9
$DIMTM
 40
0.0
  9
$DIMTXT
 40
2.5
  9
$DIMCEN
 40
0.0
  9
$DIMTSZ
 40
0.0
  9
$DIMTOL
 70
     0
  9
$DIMLIM
 70
     0
  9
$DIMTIH
 70
     1
  9
$DIMTOH
 70
     1
  9
$DIMSE1
 70
     0
  9
$DIMSE2
 70
     0
  9
$DIMTAD
 70
     1
  9
$DIMZIN
 70
    12
  9
$DIMBLK
  1
OPEN30
  9
$DIMASO
 70
     1
  9
$DIMSHO
 70
     1
  9
$DIMPOST
  1

  9
$DIMAPOST
  1

  9
$DIMALT
 70
     0
  9
$DIMALTD
 70
     2
  9
$DIMALTF
 40
25.4
  9
$DIMLFAC
 40
1.0
  9
$DIMTOFL
 70
     0
  9
$DIMTVP
 40
0.0
  9
$DIMTIX
 70
     0
  9
$DIMSOXD
 70
     0
  9
$DIMSAH
 70
     0
  9
$DIMBLK1
  1

  9
$DIMBLK2
  1

  9
$DIMSTYLE
  2
SC_DEFAUT
  9
$DIMCLRD
 70
     0
  9
$DIMCLRE
 70
     0
  9
$DIMCLRT
 70
     0
  9
$DIMTFAC
 40
1.0
  9
$DIMGAP
 40
2.0
  9
$DIMJUST
 70
     0
  9
$DIMSD1
 70
     0
  9
$DIMSD2
 70
     0
  9
$DIMTOLJ
 70
     1
  9
$DIMTZIN
 70
    12
  9
$DIMALTZ
 70
    12
  9
$DIMALTTZ
 70
    12
  9
$DIMFIT
 70
     5
  9
$DIMUPT
 70
     0
  9
$DIMUNIT
 70
     2
  9
$DIMDEC
 70
     1
  9
$DIMTDEC
 70
     1
  9
$DIMALTU
 70
     2
  9
$DIMALTTD
 70
     2
  9
$DIMTXSTY
  7
ROMANS
  9
$DIMAUNIT
 70
     0
  9
$LUNITS
 70
     2
  9
$LUPREC
 70
     1
  9
$SKETCHINC
 40
0.1
  9
$FILLETRAD
 40
0.0
  9
$AUNITS
 70
     0
  9
$AUPREC
 70
     0
  9
$MENU
  1
acad
  9
$ELEVATION
 40
0.0
  9
$PELEVATION
 40
0.0
  9
$THICKNESS
 40
0.0
  9
$LIMCHECK
 70
     0
  9
$BLIPMODE
 70
     0
  9
$CHAMFERA
 40
0.0
  9
$CHAMFERB
 40
0.0
  9
$CHAMFERC
 40
0.0
  9
$CHAMFERD
 40
0.0
  9
$SKPOLY
 70
     0
  9
$TDCREATE
 40
2450373.687919444
  9
$TDUPDATE
 40
2453511.385953623
  9
$TDINDWG
 40
0.9619561111
  9
$TDUSRTIMER
 40
0.9619561111
  9
$USRTIMER
 70
     1
  9
$ANGBASE
 50
0.0
  9
$ANGDIR
 70
     0
  9
$PDMODE
 70
    32
  9
$PDSIZE
 40
0.0
  9
$PLINEWID
 40
0.0
  9
$COORDS
 70
     0
  9
$SPLFRAME
 70
     0
  9
$SPLINETYPE
 70
     6
  9
$SPLINESEGS
 70
     8
  9
$ATTDIA
 70
     0
  9
$ATTREQ
 70
     1
  9
$HANDLING
 70
     1
  9
$HANDSEED
  5
D29E
  9
$SURFTAB1
 70
     6
  9
$SURFTAB2
 70
     6
  9
$SURFTYPE
 70
     6
  9
$SURFU
 70
     6
  9
$SURFV
 70
     6
  9
$UCSNAME
  2

  9
$UCSORG
 10
0.0
 20
0.0
 30
0.0
  9
$UCSXDIR
 10
1.0
 20
0.0
 30
0.0
  9
$UCSYDIR
 10
0.0
 20
1.0
 30
0.0
  9
$PUCSNAME
  2

  9
$PUCSORG
 10
0.0
 20
0.0
 30
0.0
  9
$PUCSXDIR
 10
1.0
 20
0.0
 30
0.0
  9
$PUCSYDIR
 10
0.0
 20
1.0
 30
0.0
  9
$USERI1
 70
     0
  9
$USERI2
 70
     0
  9
$USERI3
 70
     0
  9
$USERI4
 70
     0
  9
$USERI5
 70
     0
  9
$USERR1
 40
0.0
  9
$USERR2
 40
0.0
  9
$USERR3
 40
0.0
  9
$USERR4
 40
0.0
  9
$USERR5
 40
0.0
  9
$WORLDVIEW
 70
     1
  9
$SHADEDGE
 70
     3
  9
$SHADEDIF
 70
    70
  9
$TILEMODE
 70
     1
  9
$MAXACTVP
 70
    16
  9
$PINSBASE
 10
0.0
 20
0.0
 30
0.0
  9
$PLIMCHECK
 70
     0
  9
$PEXTMIN
 10
1.000000E+20
 20
1.000000E+20
 30
1.000000E+20
  9
$PEXTMAX
 10
-1.000000E+20
 20
-1.000000E+20
 30
-1.000000E+20
  9
$PLIMMIN
 10
0.0
 20
0.0
  9
$PLIMMAX
 10
12.0
 20
9.0
  9
$UNITMODE
 70
     0
  9
$VISRETAIN
 70
     0
  9
$PLINEGEN
 70
     0
  9
$PSLTSCALE
 70
     0
  9
$TREEDEPTH
 70
  3020
  9
$PICKSTYLE
 70
     1
  9
$CMLSTYLE
  2
STANDARD
  9
$CMLJUST
 70
     0
  9
$CMLSCALE
 40
1.0
  9
$SAVEIMAGES
 70
     1
  0
ENDSEC
  0
SECTION
  2
CLASSES
  0
CLASS
  1
ACDBDICTIONARYWDFLT
  2
AcDbDictionaryWithDefault
  3
AutoCAD 2000
 90
    32768
280
     0
281
     0
  0
CLASS
  1
ACDBPLACEHOLDER
  2
AcDbPlaceHolder
  3
AutoCAD 2000
 90
    32768
280
     0
281
     0
  0
CLASS
  1
LAYOUT
  2
AcDbLayout
  3
AutoCAD 2000
 90
    32768
280
     0
281
     0
  0
CLASS
  1
DICTIONARYVAR
  2
AcDbDictionaryVar
  3
"AutoCAD"
 90
    32768
280
     0
281
     0
  0
CLASS
  1
LONG_TRANSACTION
  2
AcDbLongTransaction
  3
AutoCAD 2000
 90
    32768
280
     0
281
     0
  0
CLASS
  1
LWPOLYLINE
  2
AcDbPolyline
  3
"AutoCAD"
 90
    32768
280
     0
281
     1
  0
CLASS
  1
HATCH
  2
AcDbHatch
  3
"ACAD_SEDONA"
 90
    32768
280
     0
281
     1
  0
CLASS
  1
XRECORD
  2
AcDbXrecord
  3
"<Built In>"
 90
    32768
280
     0
281
     0
  0
CLASS
  1
LONG_TRANSACTION
  2
AcDbLongTransaction
  3
AutoCAD 2000
 90
    32768
280
     0
281
     0
  0
CLASS
  1
LWPOLYLINE
  2
AcDbPolyline
  3
"AutoCAD"
 90
    32768
280
     0
281
     1
  0
CLASS
  1
HATCH
  2
AcDbHatch
  3
"ACAD_SEDONA"
 90
    32768
280
     0
281
     1
  0
CLASS
  1
XRECORD
  2
AcDbXrecord
  3
"<Built In>"
 90
    32768
280
     0
281
     0
  0
CLASS
  1
LONG_TRANSACTION
  2
AcDbLongTransaction
  3
AutoCAD 2000
 90
    32768
280
     0
281
     0
  0
CLASS
  1
LWPOLYLINE
  2
AcDbPolyline
  3
"AutoCAD"
 90
    32768
280
     0
281
     1
  0
CLASS
  1
HATCH
  2
AcDbHatch
  3
"ACAD_SEDONA"
 90
    32768
280
     0
281
     1
  0
CLASS
  1
XRECORD
  2
AcDbXrecord
  3
"<Built In>"
 90
    32768
280
     0
281
     0
  0
CLASS
  1
LONG_TRANSACTION
  2
AcDbLongTransaction
  3
AutoCAD 2000
 90
    32768
280
     0
281
     0
  0
CLASS
  1
LWPOLYLINE
  2
AcDbPolyline
  3
"AutoCAD"
 90
    32768
280
     0
281
     1
  0
CLASS
  1
HATCH
  2
AcDbHatch
  3
"ACAD_SEDONA"
 90
    32768
280
     0
281
     1
  0
CLASS
  1
XRECORD
  2
AcDbXrecord
  3
"<Built In>"
 90
    32768
280
     0
281
     0
  0
CLASS
  1
LONG_TRANSACTION
  2
AcDbLongTransaction
  3
AutoCAD 2000
 90
    32768
280
     0
281
     0
  0
CLASS
  1
LWPOLYLINE
  2
AcDbPolyline
  3
"AutoCAD"
 90
    32768
280
     0
281
     1
  0
CLASS
  1
HATCH
  2
AcDbHatch
  3
"ACAD_SEDONA"
 90
    32768
280
     0
281
     1
  0
CLASS
  1
XRECORD
  2
AcDbXrecord
  3
"<Built In>"
 90
    32768
280
     0
281
     0
  0
CLASS
  1
LONG_TRANSACTION
  2
AcDbLongTransaction
  3
AutoCAD 2000
 90
    32768
280
     0
281
     0
  0
CLASS
  1
LWPOLYLINE
  2
AcDbPolyline
  3
"AutoCAD"
 90
    32768
280
     0
281
     1
  0
CLASS
  1
HATCH
  2
AcDbHatch
  3
"ACAD_SEDONA"
 90
    32768
280
     0
281
     1
  0
CLASS
  1
XRECORD
  2
AcDbXrecord
  3
"<Built In>"
 90
    32768
280
     0
281
     0
  0
CLASS
  1
LONG_TRANSACTION
  2
AcDbLongTransaction
  3
AutoCAD 2000
 90
    32768
280
     0
281
     0
  0
CLASS
  1
LWPOLYLINE
  2
AcDbPolyline
  3
"AutoCAD"
 90
    32768
280
     0
281
     1
  0
CLASS
  1
HATCH
  2
AcDbHatch
  3
"ACAD_SEDONA"
 90
    32768
280
     0
281
     1
  0
CLASS
  1
XRECORD
  2
AcDbXrecord
  3
"<Built In>"
 90
    32768
280
     0
281
     0
  0
CLASS
  1
LONG_TRANSACTION
  2
AcDbLongTransaction
  3
AutoCAD 2000
 90
    32768
280
     0
281
     0
  0
CLASS
  1
LWPOLYLINE
  2
AcDbPolyline
  3
"AutoCAD"
 90
    32768
280
     0
281
     1
  0
CLASS
  1
HATCH
  2
AcDbHatch
  3
"ACAD_SEDONA"
 90
    32768
280
     0
281
     1
  0
CLASS
  1
XRECORD
  2
AcDbXrecord
  3
"<Built In>"
 90
    32768
280
     0
281
     0
  0
CLASS
  1
LONG_TRANSACTION
  2
AcDbLongTransaction
  3
AutoCAD 2000
 90
    32768
280
     0
281
     0
  0
CLASS
  1
LWPOLYLINE
  2
AcDbPolyline
  3
"AutoCAD"
 90
    32768
280
     0
281
     1
  0
CLASS
  1
HATCH
  2
AcDbHatch
  3
"ACAD_SEDONA"
 90
    32768
280
     0
281
     1
  0
CLASS
  1
XRECORD
  2
AcDbXrecord
  3
"<Built In>"
 90
    32768
280
     0
281
     0
  0
CLASS
  1
LONG_TRANSACTION
  2
AcDbLongTransaction
  3
AutoCAD 2000
 90
    32768
280
     0
281
     0
  0
CLASS
  1
LWPOLYLINE
  2
AcDbPolyline
  3
"AutoCAD"
 90
    32768
280
     0
281
     1
  0
CLASS
  1
HATCH
  2
AcDbHatch
  3
"ACAD_SEDONA"
 90
    32768
280
     0
281
     1
  0
CLASS
  1
XRECORD
  2
AcDbXrecord
  3
"<Built In>"
 90
    32768
280
     0
281
     0
  0
CLASS
  1
LONG_TRANSACTION
  2
AcDbLongTransaction
  3
AutoCAD 2000
 90
    32768
280
     0
281
     0
  0
CLASS
  1
LWPOLYLINE
  2
AcDbPolyline
  3
"AutoCAD"
 90
    32768
280
     0
281
     1
  0
CLASS
  1
HATCH
  2
AcDbHatch
  3
"ACAD_SEDONA"
 90
    32768
280
     0
281
     1
  0
CLASS
  1
XRECORD
  2
AcDbXrecord
  3
"<Built In>"
 90
    32768
280
     0
281
     0
  0
CLASS
  1
LONG_TRANSACTION
  2
AcDbLongTransaction
  3
AutoCAD 2000
 90
    32768
280
     0
281
     0
  0
CLASS
  1
LWPOLYLINE
  2
AcDbPolyline
  3
"AutoCAD"
 90
    32768
280
     0
281
     1
  0
CLASS
  1
HATCH
  2
AcDbHatch
  3
"ACAD_SEDONA"
 90
    32768
280
     0
281
     1
  0
CLASS
  1
XRECORD
  2
AcDbXrecord
  3
"<Built In>"
 90
    32768
280
     0
281
     0
  0
CLASS
  1
LONG_TRANSACTION
  2
AcDbLongTransaction
  3
AutoCAD 2000
 90
    32768
280
     0
281
     0
  0
CLASS
  1
LWPOLYLINE
  2
AcDbPolyline
  3
"AutoCAD"
 90
    32768
280
     0
281
     1
  0
CLASS
  1
HATCH
  2
AcDbHatch
  3
"ACAD_SEDONA"
 90
    32768
280
     0
281
     1
  0
CLASS
  1
XRECORD
  2
AcDbXrecord
  3
"<Built In>"
 90
    32768
280
     0
281
     0
  0
CLASS
  1
LONG_TRANSACTION
  2
AcDbLongTransaction
  3
AutoCAD 2000
 90
    32768
280
     0
281
     0
  0
CLASS
  1
LWPOLYLINE
  2
AcDbPolyline
  3
"AutoCAD"
 90
    32768
280
     0
281
     1
  0
CLASS
  1
HATCH
  2
AcDbHatch
  3
"ACAD_SEDONA"
 90
    32768
280
     0
281
     1
  0
CLASS
  1
XRECORD
  2
AcDbXrecord
  3
"<Built In>"
 90
    32768
280
     0
281
     0
  0
CLASS
  1
LONG_TRANSACTION
  2
AcDbLongTransaction
  3
AutoCAD 2000
 90
    32768
280
     0
281
     0
  0
CLASS
  1
LWPOLYLINE
  2
AcDbPolyline
  3
"AutoCAD"
 90
    32768
280
     0
281
     1
  0
CLASS
  1
HATCH
  2
AcDbHatch
  3
"ACAD_SEDONA"
 90
    32768
280
     0
281
     1
  0
CLASS
  1
XRECORD
  2
AcDbXrecord
  3
"<Built In>"
 90
    32768
280
     0
281
     0
  0
CLASS
  1
LONG_TRANSACTION
  2
AcDbLongTransaction
  3
AutoCAD 2000
 90
    32768
280
     0
281
     0
  0
CLASS
  1
LWPOLYLINE
  2
AcDbPolyline
  3
"AutoCAD"
 90
    32768
280
     0
281
     1
  0
CLASS
  1
HATCH
  2
AcDbHatch
  3
"ACAD_SEDONA"
 90
    32768
280
     0
281
     1
  0
CLASS
  1
XRECORD
  2
AcDbXrecord
  3
"<Built In>"
 90
    32768
280
     0
281
     0
  0
CLASS
  1
LONG_TRANSACTION
  2
AcDbLongTransaction
  3
AutoCAD 2000
 90
    32768
280
     0
281
     0
  0
CLASS
  1
LWPOLYLINE
  2
AcDbPolyline
  3
"AutoCAD"
 90
    32768
280
     0
281
     1
  0
CLASS
  1
HATCH
  2
AcDbHatch
  3
"ACAD_SEDONA"
 90
    32768
280
     0
281
     1
  0
CLASS
  1
XRECORD
  2
AcDbXrecord
  3
"<Built In>"
 90
    32768
280
     0
281
     0
  0
ENDSEC
  0
SECTION
  2
TABLES
  0
TABLE
  2
VPORT
  5
7CF0
100
AcDbSymbolTable
 70
     2
  0
VPORT
  5
D29D
100
AcDbSymbolTableRecord
100
AcDbViewportTableRecord
  2
*ACTIVE
 70
     0
 10
0.0
 20
0.0
 11
1.0
 21
1.0
 12
22.677572
 22
108.547338
 13
0.0
 23
0.0
 14
1.0
 24
1.0
 15
10.0
 25
10.0
 16
0.0
 26
0.0
 36
1.0
 17
0.0
 27
0.0
 37
0.0
 40
159.921555
 41
1.625
 42
50.0
 43
0.0
 44
0.0
 50
0.0
 51
0.0
 71
     0
 72
   100
 73
     1
 74
     0
 75
     0
 76
     0
 77
     0
 78
     0
  0
ENDTAB
  0
TABLE
  2
LTYPE
  5
7CED
100
AcDbSymbolTable
 70
     2
  0
LTYPE
  5
7CFB
102
{ACAD_XDICTIONARY
360
CC3B
102
}
100
AcDbSymbolTableRecord
100
AcDbLinetypeTableRecord
  2
BYBLOCK
 70
     0
  3

 72
    65
 73
     0
 40
0.0
  0
LTYPE
  5
7CFC
102
{ACAD_XDICTIONARY
360
CC3D
102
}
100
AcDbSymbolTableRecord
100
AcDbLinetypeTableRecord
  2
BYLAYER
 70
     0
  3

 72
    65
 73
     0
 40
0.0
  0
LTYPE
  5
7CFD
100
AcDbSymbolTableRecord
100
AcDbLinetypeTableRecord
  2
CONTINUOUS
 70
     0
  3
Solid line
 72
    65
 73
     0
 40
0.0
  0
LTYPE
  5
7D15
100
AcDbSymbolTableRecord
100
AcDbLinetypeTableRecord
  2
AXES2
 70
     0
  3
___ _ ___ _ ___ _ ___ _ ___ _ ___ _ ___ _ ___ _
 72
    65
 73
     4
 40
1.125
 49
0.75
 74
     0
 49
-0.125
 74
     0
 49
0.125
 74
     0
 49
-0.125
 74
     0
  0
ENDTAB
  0
TABLE
  2
LAYER
  5
7CEA
100
AcDbSymbolTable
 70
     6
  0
LAYER
  5
7CF8
100
AcDbSymbolTableRecord
100
AcDbLayerTableRecord
  2
0
 70
     0
 62
   255
  6
CONTINUOUS
  0
LAYER
  5
7D1C
100
AcDbSymbolTableRecord
100
AcDbLayerTableRecord
  2
COTATION1
 70
     0
 62
     2
  6
CONTINUOUS
  0
LAYER
  5
7D1D
100
AcDbSymbolTableRecord
100
AcDbLayerTableRecord
  2
AXE
 70
     0
 62
    80
  6
AXES2
  0
LAYER
  5
7D1E
102
{ACAD_XDICTIONARY
360
CC70
102
}
100
AcDbSymbolTableRecord
100
AcDbLayerTableRecord
  2
DEFPOINTS
 70
     0
 62
     7
  6
CONTINUOUS
  0
LAYER
  5
7D1F
100
AcDbSymbolTableRecord
100
AcDbLayerTableRecord
  2
ALPHA
 70
     0
 62
   254
  6
CONTINUOUS
  0
LAYER
  5
BF6A
100
AcDbSymbolTableRecord
100
AcDbLayerTableRecord
  2
TEXTE
 70
     0
 62
   130
  6
CONTINUOUS
  0
ENDTAB
  0
TABLE
  2
STYLE
  5
7CEB
100
AcDbSymbolTable
 70
     2
  0
STYLE
  5
7CF9
100
AcDbSymbolTableRecord
100
AcDbTextStyleTableRecord
  2
ROMANS
 70
     0
 40
0.0
 41
1.0
 50
0.0
 71
     0
 42
6.0
  3
romans
  4

  0
STYLE
  5
7D14
100
AcDbSymbolTableRecord
100
AcDbTextStyleTableRecord
  2
STANDARD
 70
     0
 40
0.0
 41
1.0
 50
0.0
 71
     0
 42
0.2
  3
txt
  4

  0
ENDTAB
  0
TABLE
  2
VIEW
  5
7CEE
100
AcDbSymbolTable
 70
     0
  0
ENDTAB
  0
TABLE
  2
UCS
  5
7CEF
100
AcDbSymbolTable
 70
     0
  0
ENDTAB
  0
TABLE
  2
APPID
  5
7CF1
100
AcDbSymbolTable
 70
     1
  0
APPID
  5
7CFA
100
AcDbSymbolTableRecord
100
AcDbRegAppTableRecord
  2
ACAD
 70
     0
  0
ENDTAB
  0
TABLE
  2
DIMSTYLE
  5
7CF2
100
AcDbSymbolTable
 70
     2
  0
DIMSTYLE
105
7D18
102
{ACAD_XDICTIONARY
360
CC6C
102
}
100
AcDbSymbolTableRecord
100
AcDbDimStyleTableRecord
  2
SC_DEFAUT
 70
     0
  3

  4

  5
OPEN30
  6

  7

 40
1.0
 41
5.0
 42
2.0
 43
0.38
 44
2.5
 45
0.0
 46
0.0
 47
0.0
 48
0.0
140
2.5
141
0.0
142
0.0
143
25.4
144
1.0
145
0.0
146
1.0
147
2.0
 71
     0
 72
     0
 73
     1
 74
     1
 75
     0
 76
     0
 77
     1
 78
    12
170
     0
171
     2
172
     0
173
     0
174
     0
175
     0
176
     0
177
     0
178
     0
270
     2
271
     1
272
     1
273
     2
274
     2
340
7CF9
275
     0
280
     0
281
     0
282
     0
283
     1
284
    12
285
    12
286
    12
287
     5
288
     0
  0
DIMSTYLE
105
7D19
102
{ACAD_XDICTIONARY
360
CC6E
102
}
100
AcDbSymbolTableRecord
100
AcDbDimStyleTableRecord
  2
STANDARD
 70
     0
  3

  4

  5

  6

  7

 40
1.0
 41
0.18
 42
0.0625
 43
0.38
 44
0.18
 45
0.0
 46
0.0
 47
0.0
 48
0.0
140
0.18
141
0.09
142
0.0
143
25.4
144
1.0
145
0.0
146
1.0
147
0.09
 71
     0
 72
     0
 73
     1
 74
     1
 75
     0
 76
     0
 77
     0
 78
     0
170
     0
171
     2
172
     0
173
     0
174
     0
175
     0
176
     0
177
     0
178
     0
270
     2
271
     1
272
     1
273
     2
274
     2
340
7CF9
275
     0
280
     0
281
     0
282
     0
283
     1
284
    12
285
    12
286
    12
287
     5
288
     0
  0
ENDTAB
  0
TABLE
  2
BLOCK_RECORD
  5
7CE9
100
AcDbSymbolTable
 70
     3
  0
BLOCK_RECORD
  5
7D06
102
{ACAD_XDICTIONARY
360
800F
102
}
100
AcDbSymbolTableRecord
100
AcDbBlockTableRecord
  2
*MODEL_SPACE
  0
BLOCK_RECORD
  5
7D02
102
{ACAD_XDICTIONARY
360
8011
102
}
100
AcDbSymbolTableRecord
100
AcDbBlockTableRecord
  2
*PAPER_SPACE
  0
BLOCK_RECORD
  5
7D0A
100
AcDbSymbolTableRecord
100
AcDbBlockTableRecord
  2
COTE
  0
BLOCK_RECORD
  5
7D0B
100
AcDbSymbolTableRecord
100
AcDbBlockTableRecord
  2
FOND
  0
BLOCK_RECORD
  5
7D0C
100
AcDbSymbolTableRecord
100
AcDbBlockTableRecord
  2
_OPEN30
  0
ENDTAB
  0
ENDSEC
  0
SECTION
  2
BLOCKS
  0
BLOCK
  5
7D24
100
AcDbEntity
  8
0
100
AcDbBlockBegin
  2
*MODEL_SPACE
 70
     0
 10
0.0
 20
0.0
 30
0.0
  3
*MODEL_SPACE
  1

  0
ENDBLK
  5
7D25
100
AcDbEntity
  8
0
100
AcDbBlockEnd
  0
BLOCK
  5
7D22
100
AcDbEntity
 67
     1
  8
0
100
AcDbBlockBegin
  2
*PAPER_SPACE
 70
     0
 10
0.0
 20
0.0
 30
0.0
  3
*PAPER_SPACE
  1

  0
ENDBLK
  5
7D23
100
AcDbEntity
 67
     1
  8
0
100
AcDbBlockEnd
  0
BLOCK
  5
E
100
AcDbEntity
  8
0
100
AcDbBlockBegin
  2
COTE
 70
     0
 10
0.0
 20
0.0
 30
0.0
  3
COTE
  1

  0
ENDBLK
  5
F
100
AcDbEntity
  8
0
100
AcDbBlockEnd
  0
BLOCK
  5
74
100
AcDbEntity
  8
0
100
AcDbBlockBegin
  2
FOND
 70
     0
 10
0.0
 20
0.0
 30
0.0
  3
FOND
  1

  0
ENDBLK
  5
75
100
AcDbEntity
  8
0
100
AcDbBlockEnd
  0
BLOCK
  5
4B08
100
AcDbEntity
  8
0
100
AcDbBlockBegin
  2
_OPEN30
 70
     0
 10
0.0
 20
0.0
 30
0.0
  3
_OPEN30
  1

  0
LINE
  5
4B05
100
AcDbEntity
  8
COTATION1
 62
     0
100
AcDbLine
 10
-1.0
 20
0.267949
 30
0.0
 11
0.0
 21
0.0
 31
0.0
1001
ACAD
1000
RTLwPs
1070
   158
  0
LINE
  5
4B06
100
AcDbEntity
  8
COTATION1
 62
     0
100
AcDbLine
 10
0.0
 20
0.0
 30
0.0
 11
-1.0
 21
-0.267949
 31
0.0
1001
ACAD
1000
RTLwPs
1070
   158
  0
LINE
  5
4B07
100
AcDbEntity
  8
COTATION1
 62
     0
100
AcDbLine
 10
0.0
 20
0.0
 30
0.0
 11
-1.0
 21
0.0
 31
0.0
1001
ACAD
1000
RTLwPs
1070
   158
  0
ENDBLK
  5
4B09
100
AcDbEntity
  8
0
100
AcDbBlockEnd
  0
ENDSEC
  0
SECTION
  2
ENTITIES
  0
INSERT
  5
A
100
AcDbEntity
  8
0
100
AcDbBlockReference
  2
COTE
 10
0.0
 20
0.0
 30
0.0
  0
INSERT
  5
17
100
AcDbEntity
  8
0
100
AcDbBlockReference
  2
COTE
 10
284.010391
 20
6.373258
 30
0.0
  0
INSERT
  5
72
100
AcDbEntity
  8
0
100
AcDbBlockReference
  2
FOND
 10
0.0
 20
0.0
 30
0.0
  0
ARC
  5
C9D5
100
AcDbEntity
  8
ALPHA
100
AcDbCircle
 10
24.311716
 20
139.071329
 30
0.0
 40
43.75
100
AcDbArc
 50
39.268026
 51
87.654763
  0
LINE
  5
C9D6
100
AcDbEntity
  8
ALPHA
100
AcDbLine
 10
58.182683
 20
166.762845
 30
0.0
 11
-9.559252
 21
166.762845
 31
0.0
  0
LINE
  5
C9D7
100
AcDbEntity
  8
ALPHA
100
AcDbLine
 10
59.311716
 20
163.5981
 30
0.0
 11
-10.688284
 21
163.5981
 31
0.0
  0
LINE
  5
C9D8
100
AcDbEntity
  8
ALPHA
100
AcDbLine
 10
-12.263207
 20
115.321329
 30
0.0
 11
60.886638
 21
115.321329
 31
0.0
  0
LINE
  5
C9D9
100
AcDbEntity
  8
ALPHA
100
AcDbLine
 10
-13.685173
 20
113.802217
 30
0.0
 11
62.308605
 21
113.802217
 31
0.0
  0
LINE
  5
C9DA
100
AcDbEntity
  8
ALPHA
100
AcDbLine
 10
-13.685173
 20
95.840441
 30
0.0
 11
62.308605
 21
95.840441
 31
0.0
  0
LINE
  5
C9DB
100
AcDbEntity
  8
ALPHA
100
AcDbLine
 10
60.87199
 20
94.321329
 30
0.0
 11
15.937063
 21
94.321329
 31
0.0
  0
LINE
  5
C9DC
100
AcDbEntity
  8
ALPHA
100
AcDbLine
 10
-10.638284
 20
46.321329
 30
0.0
 11
59.261716
 21
46.321329
 31
0.0
  0
LINE
  5
C9DD
100
AcDbEntity
  8
ALPHA
100
AcDbLine
 10
-8.637898
 20
44.321329
 30
0.0
 11
57.26133
 21
44.321329
 31
0.0
  0
LINE
  5
C9DE
100
AcDbEntity
  8
ALPHA
100
AcDbLine
 10
-5.795426
 20
93.471329
 30
0.0
 11
-5.795426
 21
86.471329
 31
0.0
  0
LINE
  5
C9DF
100
AcDbEntity
  8
ALPHA
100
AcDbLine
 10
-6.143169
 20
93.471329
 30
0.0
 11
-6.143169
 21
86.471329
 31
0.0
  0
LINE
  5
C9E0
100
AcDbEntity
  8
ALPHA
100
AcDbLine
 10
-6.429137
 20
92.971329
 30
0.0
 11
-6.429137
 21
86.971329
 31
0.0
  0
LINE
  5
C9E1
100
AcDbEntity
  8
ALPHA
100
AcDbLine
 10
-10.638284
 20
92.971329
 30
0.0
 11
-10.638284
 21
86.971329
 31
0.0
  0
LINE
  5
C9E2
100
AcDbEntity
  8
ALPHA
100
AcDbLine
 10
-10.638284
 20
46.321329
 30
0.0
 11
-8.638284
 21
44.321329
 31
0.0
  0
LINE
  5
C9E3
100
AcDbEntity
  8
ALPHA
100
AcDbLine
 10
-10.638284
 20
46.321329
 30
0.0
 11
-10.638284
 21
76.821329
 31
0.0
  0
LINE
  5
C9E4
100
AcDbEntity
  8
ALPHA
100
AcDbLine
 10
-10.992386
 20
47.021329
 30
0.0
 11
-10.992386
 21
75.021329
 31
0.0
  0
LINE
  5
C9E5
100
AcDbEntity
  8
ALPHA
100
AcDbLine
 10
-12.429859
 20
48.312903
 30
0.0
 11
-12.429859
 21
73.729755
 31
0.0
  0
LINE
  5
C9E6
100
AcDbEntity
  8
ALPHA
100
AcDbLine
 10
-12.638284
 20
48.513194
 30
0.0
 11
-12.638284
 21
73.529464
 31
0.0
  0
LINE
  5
C9E7
100
AcDbEntity
  8
ALPHA
100
AcDbLine
 10
-11.138284
 20
47.021329
 30
0.0
 11
-10.938284
 21
47.021329
 31
0.0
  0
LINE
  5
C9E8
100
AcDbEntity
  8
ALPHA
100
AcDbLine
 10
-11.138284
 20
47.021329
 30
0.0
 11
-12.638361
 21
48.521405
 31
0.0
  0
LINE
  5
C9E9
100
AcDbEntity
  8
ALPHA
100
AcDbLine
 10
-10.938284
 20
47.021329
 30
0.0
 11
-10.638284
 21
47.321329
 31
0.0
  0
LINE
  5
C9EA
100
AcDbEntity
  8
ALPHA
100
AcDbLine
 10
-10.625371
 20
49.511329
 30
0.0
 11
-10.625371
 21
48.671329
 31
0.0
  0
LINE
  5
C9EB
100
AcDbEntity
  8
ALPHA
100
AcDbLine
 10
-10.625371
 20
50.571329
 30
0.0
 11
-10.625371
 21
49.731329
 31
0.0
  0
LINE
  5
C9EC
100
AcDbEntity
  8
ALPHA
100
AcDbLine
 10
-10.638284
 20
49.731329
 30
0.0
 11
-10.625371
 21
49.731329
 31
0.0
  0
LINE
  5
C9ED
100
AcDbEntity
  8
ALPHA
100
AcDbLine
 10
-10.638284
 20
49.621329
 30
0.0
 11
-10.625371
 21
49.621329
 31
0.0
  0
LINE
  5
C9EE
100
AcDbEntity
  8
ALPHA
100
AcDbLine
 10
-10.638284
 20
49.511329
 30
0.0
 11
-10.625371
 21
49.511329
 31
0.0
  0
LINE
  5
C9EF
100
AcDbEntity
  8
ALPHA
100
AcDbLine
 10
-10.625371
 20
56.271329
 30
0.0
 11
-10.625371
 21
54.371329
 31
0.0
  0
LINE
  5
C9F0
100
AcDbEntity
  8
ALPHA
100
AcDbLine
 10
-10.625371
 20
61.971329
 30
0.0
 11
-10.625371
 21
60.071329
 31
0.0
  0
LINE
  5
C9F1
100
AcDbEntity
  8
ALPHA
100
AcDbLine
 10
-10.625371
 20
67.671329
 30
0.0
 11
-10.625371
 21
65.771329
 31
0.0
  0
ARC
  5
C9F2
100
AcDbEntity
  8
ALPHA
100
AcDbCircle
 10
-5.738284
 20
81.321329
 30
0.0
 40
6.472248
100
AcDbArc
 50
184.43068
 51
211.812037
  0
LINE
  5
C9F3
100
AcDbEntity
  8
ALPHA
100
AcDbLine
 10
-10.455275
 20
84.045895
 30
0.0
 11
-10.455275
 21
78.596754
 31
0.0
  0
LINE
  5
C9F4
100
AcDbEntity
  8
ALPHA
100
AcDbLine
 10
-11.117309
 20
84.970452
 30
0.0
 11
-11.117309
 21
77.672206
 31
0.0
  0
POLYLINE
  5
C9F5
100
AcDbEntity
  8
ALPHA
100
AcDb2dPolyline
 66
     1
 10
0.0
 20
0.0
 30
0.0
  0
VERTEX
  5
CF8A
100
AcDbEntity
  8
ALPHA
100
AcDbVertex
100
AcDb2dVertex
 10
-10.583361
 20
85.372737
 30
0.0
  0
VERTEX
  5
CF8B
100
AcDbEntity
  8
ALPHA
100
AcDbVertex
100
AcDb2dVertex
 10
-10.524981
 20
84.834582
 30
0.0
  0
VERTEX
  5
CF8C
100
AcDbEntity
  8
ALPHA
100
AcDbVertex
100
AcDb2dVertex
 10
-10.461361
 20
84.134582
 30
0.0
  0
VERTEX
  5
CF8D
100
AcDbEntity
  8
ALPHA
100
AcDbVertex
100
AcDb2dVertex
 10
-10.402502
 20
83.276947
 30
0.0
  0
VERTEX
  5
CF8E
100
AcDbEntity
  8
ALPHA
100
AcDbVertex
100
AcDb2dVertex
 10
-10.3616
 20
82.314473
 30
0.0
  0
VERTEX
  5
CF8F
100
AcDbEntity
  8
ALPHA
100
AcDbVertex
100
AcDb2dVertex
 10
-10.347374
 20
81.321768
 30
0.0
  0
VERTEX
  5
CF90
100
AcDbEntity
  8
ALPHA
100
AcDbVertex
100
AcDb2dVertex
 10
-10.3616
 20
80.328204
 30
0.0
  0
VERTEX
  5
CF91
100
AcDbEntity
  8
ALPHA
100
AcDbVertex
100
AcDb2dVertex
 10
-10.402552
 20
79.364824
 30
0.0
  0
VERTEX
  5
CF92
100
AcDbEntity
  8
ALPHA
100
AcDbVertex
100
AcDb2dVertex
 10
-10.461365
 20
78.508027
 30
0.0
  0
VERTEX
  5
CF93
100
AcDbEntity
  8
ALPHA
100
AcDbVertex
100
AcDb2dVertex
 10
-10.524939
 20
77.808491
 30
0.0
  0
SEQEND
  5
CF94
100
AcDbEntity
  8
ALPHA
  0
LINE
  5
C9F6
100
AcDbEntity
  8
ALPHA
100
AcDbLine
 10
-12.638361
 20
73.521252
 30
0.0
 11
-11.138284
 21
75.021329
 31
0.0
  0
LINE
  5
C9F7
100
AcDbEntity
  8
ALPHA
100
AcDbLine
 10
-10.625371
 20
72.311329
 30
0.0
 11
-10.625371
 21
71.471329
 31
0.0
  0
LINE
  5
C9F8
100
AcDbEntity
  8
ALPHA
100
AcDbLine
 10
-10.625371
 20
73.371329
 30
0.0
 11
-10.625371
 21
72.531329
 31
0.0
  0
LINE
  5
C9F9
100
AcDbEntity
  8
ALPHA
100
AcDbLine
 10
-10.638284
 20
72.531329
 30
0.0
 11
-10.625371
 21
72.531329
 31
0.0
  0
LINE
  5
C9FA
100
AcDbEntity
  8
ALPHA
100
AcDbLine
 10
-10.638284
 20
72.421329
 30
0.0
 11
-10.625371
 21
72.421329
 31
0.0
  0
LINE
  5
C9FB
100
AcDbEntity
  8
ALPHA
100
AcDbLine
 10
-10.638284
 20
72.311329
 30
0.0
 11
-10.625371
 21
72.311329
 31
0.0
  0
ARC
  5
C9FC
100
AcDbEntity
  8
ALPHA
100
AcDbCircle
 10
-10.455275
 20
78.121329
 30
0.0
 40
0.8
100
AcDbArc
 50
214.152915
 51
261.254331
  0
LINE
  5
C9FD
100
AcDbEntity
  8
ALPHA
100
AcDbLine
 10
-11.138284
 20
75.021329
 30
0.0
 11
-10.938284
 21
75.021329
 31
0.0
  0
LINE
  5
C9FE
100
AcDbEntity
  8
ALPHA
100
AcDbLine
 10
-11.238284
 20
77.909584
 30
0.0
 11
-11.238284
 21
77.857227
 31
0.0
  0
LINE
  5
C9FF
100
AcDbEntity
  8
ALPHA
100
AcDbLine
 10
-11.238284
 20
77.857227
 30
0.0
 11
-11.117309
 21
77.672206
 31
0.0
  0
POLYLINE
  5
CA00
100
AcDbEntity
  8
ALPHA
100
AcDb2dPolyline
 66
     1
 10
0.0
 20
0.0
 30
0.0
  0
VERTEX
  5
CF95
100
AcDbEntity
  8
ALPHA
100
AcDbVertex
100
AcDb2dVertex
 10
-10.524939
 20
77.808491
 30
0.0
  0
VERTEX
  5
CF96
100
AcDbEntity
  8
ALPHA
100
AcDbVertex
100
AcDb2dVertex
 10
-10.583424
 20
77.269378
 30
0.0
  0
VERTEX
  5
CF97
100
AcDbEntity
  8
ALPHA
100
AcDbVertex
100
AcDb2dVertex
 10
-10.624155
 20
76.932416
 30
0.0
  0
VERTEX
  5
CF98
100
AcDbEntity
  8
ALPHA
100
AcDbVertex
100
AcDb2dVertex
 10
-10.638284
 20
76.821329
 30
0.0
  0
SEQEND
  5
CF99
100
AcDbEntity
  8
ALPHA
  0
LINE
  5
CA01
100
AcDbEntity
  8
ALPHA
100
AcDbLine
 10
-10.938284
 20
75.021329
 30
0.0
 11
-10.638284
 21
74.721329
 31
0.0
  0
LINE
  5
CA02
100
AcDbEntity
  8
ALPHA
100
AcDbLine
 10
-6.429137
 20
86.971329
 30
0.0
 11
-10.938284
 21
86.971329
 31
0.0
  0
LINE
  5
CA03
100
AcDbEntity
  8
ALPHA
100
AcDbLine
 10
-5.795426
 20
86.471329
 30
0.0
 11
-10.938284
 21
86.471329
 31
0.0
  0
POLYLINE
  5
CA04
100
AcDbEntity
  8
ALPHA
100
AcDb2dPolyline
 66
     1
 10
0.0
 20
0.0
 30
0.0
  0
VERTEX
  5
CF9A
100
AcDbEntity
  8
ALPHA
100
AcDbVertex
100
AcDb2dVertex
 10
-10.638284
 20
85.821329
 30
0.0
  0
VERTEX
  5
CF9B
100
AcDbEntity
  8
ALPHA
100
AcDbVertex
100
AcDb2dVertex
 10
-10.624118
 20
85.709951
 30
0.0
  0
VERTEX
  5
CF9C
100
AcDbEntity
  8
ALPHA
100
AcDbVertex
100
AcDb2dVertex
 10
-10.583361
 20
85.372737
 30
0.0
  0
SEQEND
  5
CF9D
100
AcDbEntity
  8
ALPHA
  0
ARC
  5
CA05
100
AcDbEntity
  8
ALPHA
100
AcDbCircle
 10
-10.455275
 20
84.521329
 30
0.0
 40
0.8
100
AcDbArc
 50
98.745382
 51
145.847085
  0
ARC
  5
CA06
100
AcDbEntity
  8
ALPHA
100
AcDbCircle
 10
-5.738284
 20
81.321329
 30
0.0
 40
6.472248
100
AcDbArc
 50
148.187963
 51
175.56932
  0
LINE
  5
CA07
100
AcDbEntity
  8
ALPHA
100
AcDbLine
 10
-11.238284
 20
84.78543
 30
0.0
 11
-11.117309
 21
84.970452
 31
0.0
  0
LINE
  5
CA08
100
AcDbEntity
  8
ALPHA
100
AcDbLine
 10
-12.191191
 20
81.821329
 30
0.0
 11
-11.855436
 21
81.821329
 31
0.0
  0
LINE
  5
CA09
100
AcDbEntity
  8
ALPHA
100
AcDbLine
 10
-12.191191
 20
80.821329
 30
0.0
 11
-11.855436
 21
80.821329
 31
0.0
  0
LINE
  5
CA0A
100
AcDbEntity
  8
ALPHA
100
AcDbLine
 10
-11.238284
 20
84.78543
 30
0.0
 11
-11.238284
 21
84.733073
 31
0.0
  0
POLYLINE
  5
CA0B
100
AcDbEntity
  8
ALPHA
100
AcDb2dPolyline
 66
     1
 10
0.0
 20
0.0
 30
0.0
  0
VERTEX
  5
CF9E
100
AcDbEntity
  8
ALPHA
100
AcDbVertex
100
AcDb2dVertex
 10
-11.855436
 20
80.821329
 30
0.0
  0
VERTEX
  5
CF9F
100
AcDbEntity
  8
ALPHA
100
AcDbVertex
100
AcDb2dVertex
 10
-11.870517
 20
81.154255
 30
0.0
  0
VERTEX
  5
CFA0
100
AcDbEntity
  8
ALPHA
100
AcDbVertex
100
AcDb2dVertex
 10
-11.870517
 20
81.488403
 30
0.0
  0
VERTEX
  5
CFA1
100
AcDbEntity
  8
ALPHA
100
AcDbVertex
100
AcDb2dVertex
 10
-11.855436
 20
81.821329
 30
0.0
  0
SEQEND
  5
CFA2
100
AcDbEntity
  8
ALPHA
  0
LINE
  5
CA0C
100
AcDbEntity
  8
ALPHA
100
AcDbLine
 10
-10.638284
 20
86.471329
 30
0.0
 11
-10.638284
 21
85.821329
 31
0.0
  0
LINE
  5
CA0D
100
AcDbEntity
  8
ALPHA
100
AcDbLine
 10
-10.938284
 20
86.971329
 30
0.0
 11
-10.938284
 21
86.471329
 31
0.0
  0
ARC
  5
CA0E
100
AcDbEntity
  8
ALPHA
100
AcDbCircle
 10
24.311716
 20
139.071329
 30
0.0
 40
43.75
100
AcDbArc
 50
92.345237
 51
140.731974
  0
LINE
  5
CA0F
100
AcDbEntity
  8
TEXTE
100
AcDbLine
 10
-6.015541
 20
103.821329
 30
0.0
 11
-4.803569
 21
103.821329
 31
0.0
  0
POLYLINE
  5
CA10
100
AcDbEntity
  8
ALPHA
100
AcDb2dPolyline
 66
     1
 10
0.0
 20
0.0
 30
0.0
  0
VERTEX
  5
CFA3
100
AcDbEntity
  8
ALPHA
100
AcDbVertex
100
AcDb2dVertex
 10
-1.571859
 20
107.821329
 30
0.0
  0
VERTEX
  5
CFA4
100
AcDbEntity
  8
ALPHA
100
AcDbVertex
100
AcDb2dVertex
 10
-2.806499
 20
107.032675
 30
0.0
  0
VERTEX
  5
CFA5
100
AcDbEntity
  8
ALPHA
100
AcDbVertex
100
AcDb2dVertex
 10
-4.002245
 20
106.199198
 30
0.0
  0
VERTEX
  5
CFA6
100
AcDbEntity
  8
ALPHA
100
AcDbVertex
100
AcDb2dVertex
 10
-5.154713
 20
105.321329
 30
0.0
  0
SEQEND
  5
CFA7
100
AcDbEntity
  8
ALPHA
  0
POLYLINE
  5
CA11
100
AcDbEntity
  8
ALPHA
100
AcDb2dPolyline
 66
     1
 10
0.0
 20
0.0
 30
0.0
  0
VERTEX
  5
CFA8
100
AcDbEntity
  8
ALPHA
100
AcDbVertex
100
AcDb2dVertex
 10
-1.99959
 20
107.821329
 30
0.0
  0
VERTEX
  5
CFA9
100
AcDbEntity
  8
ALPHA
100
AcDbVertex
100
AcDb2dVertex
 10
-3.217163
 20
107.031543
 30
0.0
  0
VERTEX
  5
CFAA
100
AcDbEntity
  8
ALPHA
100
AcDbVertex
100
AcDb2dVertex
 10
-4.396176
 20
106.19806
 30
0.0
  0
VERTEX
  5
CFAB
100
AcDbEntity
  8
ALPHA
100
AcDbVertex
100
AcDb2dVertex
 10
-5.532396
 20
105.321329
 30
0.0
  0
SEQEND
  5
CFAC
100
AcDbEntity
  8
ALPHA
  0
LINE
  5
CA12
100
AcDbEntity
  8
TEXTE
100
AcDbLine
 10
-4.8087
 20
103.37452
 30
0.0
 11
-5.827345
 21
103.37452
 31
0.0
  0
LINE
  5
CA13
100
AcDbEntity
  8
TEXTE
100
AcDbLine
 10
-5.89243
 20
100.768138
 30
0.0
 11
-4.875974
 21
100.768138
 31
0.0
  0
LINE
  5
CA14
100
AcDbEntity
  8
TEXTE
100
AcDbLine
 10
-4.893903
 20
100.321329
 30
0.0
 11
-6.102401
 21
100.321329
 31
0.0
  0
POLYLINE
  5
CA15
100
AcDbEntity
  8
ALPHA
100
AcDb2dPolyline
 66
     1
 10
0.0
 20
0.0
 30
0.0
  0
VERTEX
  5
CFAD
100
AcDbEntity
  8
ALPHA
100
AcDbVertex
100
AcDb2dVertex
 10
-5.671192
 20
110.321329
 30
0.0
  0
VERTEX
  5
CFAE
100
AcDbEntity
  8
ALPHA
100
AcDbVertex
100
AcDb2dVertex
 10
-4.487593
 20
109.443058
 30
0.0
  0
VERTEX
  5
CFAF
100
AcDbEntity
  8
ALPHA
100
AcDbVertex
100
AcDb2dVertex
 10
-3.262317
 20
108.609627
 30
0.0
  0
VERTEX
  5
CFB0
100
AcDbEntity
  8
ALPHA
100
AcDbVertex
100
AcDb2dVertex
 10
-1.99959
 20
107.821329
 30
0.0
  0
SEQEND
  5
CFB1
100
AcDbEntity
  8
ALPHA
  0
POLYLINE
  5
CA16
100
AcDbEntity
  8
ALPHA
100
AcDb2dPolyline
 66
     1
 10
0.0
 20
0.0
 30
0.0
  0
VERTEX
  5
CFB2
100
AcDbEntity
  8
ALPHA
100
AcDbVertex
100
AcDb2dVertex
 10
-5.293843
 20
110.321329
 30
0.0
  0
VERTEX
  5
CFB3
100
AcDbEntity
  8
ALPHA
100
AcDbVertex
100
AcDb2dVertex
 10
-4.093875
 20
109.441909
 30
0.0
  0
VERTEX
  5
CFB4
100
AcDbEntity
  8
ALPHA
100
AcDbVertex
100
AcDb2dVertex
 10
-2.851757
 20
108.608484
 30
0.0
  0
VERTEX
  5
CFB5
100
AcDbEntity
  8
ALPHA
100
AcDbVertex
100
AcDb2dVertex
 10
-1.571859
 20
107.821329
 30
0.0
  0
SEQEND
  5
CFB6
100
AcDbEntity
  8
ALPHA
  0
LINE
  5
CA17
100
AcDbEntity
  8
ALPHA
100
AcDbLine
 10
7.832055
 20
94.321329
 30
0.0
 11
-12.263274
 21
94.321329
 31
0.0
  0
LINE
  5
CA18
100
AcDbEntity
  8
ALPHA
100
AcDbLine
 10
-10.688284
 20
163.5981
 30
0.0
 11
-10.688284
 21
115.321329
 31
0.0
  0
ARC
  5
CA19
100
AcDbEntity
  8
ALPHA
100
AcDbCircle
 10
-12.263284
 20
113.896329
 30
0.0
 40
1.425
100
AcDbArc
 50
90.0
 51
183.786772
  0
ARC
  5
CA1A
100
AcDbEntity
  8
ALPHA
100
AcDbCircle
 10
-12.263284
 20
95.746329
 30
0.0
 40
1.425
100
AcDbArc
 50
176.213228
 51
270.0
  0
LINE
  5
CA1B
100
AcDbEntity
  8
ALPHA
100
AcDbLine
 10
-9.799672
 20
108.921329
 30
0.0
 11
-13.327394
 21
108.921329
 31
0.0
  0
LINE
  5
CA1C
100
AcDbEntity
  8
ALPHA
100
AcDbLine
 10
-13.848247
 20
108.421329
 30
0.0
 11
-10.342528
 21
108.421329
 31
0.0
  0
LINE
  5
CA1D
100
AcDbEntity
  8
ALPHA
100
AcDbLine
 10
-10.342528
 20
101.221329
 30
0.0
 11
-13.549532
 21
101.221329
 31
0.0
  0
LINE
  5
CA1E
100
AcDbEntity
  8
ALPHA
100
AcDbLine
 10
-9.799672
 20
100.721329
 30
0.0
 11
-13.587868
 21
100.721329
 31
0.0
  0
POLYLINE
  5
CA1F
100
AcDbEntity
  8
ALPHA
100
AcDb2dPolyline
 66
     1
 10
0.0
 20
0.0
 30
0.0
  0
VERTEX
  5
CFB7
100
AcDbEntity
  8
ALPHA
100
AcDbVertex
100
AcDb2dVertex
 10
-13.024658
 20
108.921329
 30
0.0
  0
VERTEX
  5
CFB8
100
AcDbEntity
  8
ALPHA
100
AcDbVertex
100
AcDb2dVertex
 10
-13.081477
 20
110.488717
 30
0.0
  0
VERTEX
  5
CFB9
100
AcDbEntity
  8
ALPHA
100
AcDbVertex
100
AcDb2dVertex
 10
-13.156531
 20
112.055462
 30
0.0
  0
VERTEX
  5
CFBA
100
AcDbEntity
  8
ALPHA
100
AcDbVertex
100
AcDb2dVertex
 10
-13.24981
 20
113.621329
 30
0.0
  0
SEQEND
  5
CFBB
100
AcDbEntity
  8
ALPHA
  0
LINE
  5
CA20
100
AcDbEntity
  8
ALPHA
100
AcDbLine
 10
-13.488284
 20
101.221329
 30
0.0
 11
-13.488284
 21
108.421329
 31
0.0
  0
POLYLINE
  5
CA21
100
AcDbEntity
  8
ALPHA
100
AcDb2dPolyline
 66
     1
 10
0.0
 20
0.0
 30
0.0
  0
VERTEX
  5
CFBC
100
AcDbEntity
  8
ALPHA
100
AcDbVertex
100
AcDb2dVertex
 10
-13.655502
 20
96.021329
 30
0.0
  0
VERTEX
  5
CFBD
100
AcDbEntity
  8
ALPHA
100
AcDbVertex
100
AcDb2dVertex
 10
-13.531973
 20
97.574108
 30
0.0
  0
VERTEX
  5
CFBE
100
AcDbEntity
  8
ALPHA
100
AcDbVertex
100
AcDb2dVertex
 10
-13.409139
 20
99.140777
 30
0.0
  0
VERTEX
  5
CFBF
100
AcDbEntity
  8
ALPHA
100
AcDbVertex
100
AcDb2dVertex
 10
-13.286925
 20
100.721329
 30
0.0
  0
SEQEND
  5
CFC0
100
AcDbEntity
  8
ALPHA
  0
LINE
  5
CA22
100
AcDbEntity
  8
ALPHA
100
AcDbLine
 10
-13.830109
 20
101.021329
 30
0.0
 11
-13.871985
 21
96.221329
 31
0.0
  0
LINE
  5
CA23
100
AcDbEntity
  8
ALPHA
100
AcDbLine
 10
-13.892928
 20
96.221329
 30
0.0
 11
-13.934823
 21
101.021329
 31
0.0
  0
ARC
  5
CA24
100
AcDbEntity
  8
ALPHA
100
AcDbCircle
 10
-149.372659
 20
104.821329
 30
0.0
 40
135.984375
100
AcDbArc
 50
356.213228
 51
356.289595
  0
LINE
  5
CA25
100
AcDbEntity
  8
ALPHA
100
AcDbLine
 10
-13.871985
 20
96.221329
 30
0.0
 11
-13.892928
 21
96.221329
 31
0.0
  0
LINE
  5
CA26
100
AcDbEntity
  8
ALPHA
100
AcDbLine
 10
-13.673761
 20
96.021329
 30
0.0
 11
-13.655502
 21
96.021329
 31
0.0
  0
LINE
  5
CA27
100
AcDbEntity
  8
ALPHA
100
AcDbLine
 10
-13.871985
 20
96.221329
 30
0.0
 11
-13.673761
 21
96.021329
 31
0.0
  0
LINE
  5
CA28
100
AcDbEntity
  8
ALPHA
100
AcDbLine
 10
-13.892928
 20
96.221329
 30
0.0
 11
-13.691213
 21
96.021329
 31
0.0
  0
LINE
  5
CA29
100
AcDbEntity
  8
ALPHA
100
AcDbLine
 10
-13.736599
 20
101.221329
 30
0.0
 11
-13.549674
 21
101.221329
 31
0.0
  0
LINE
  5
CA2A
100
AcDbEntity
  8
ALPHA
100
AcDbLine
 10
-13.934823
 20
101.021329
 30
0.0
 11
-13.830109
 21
101.021329
 31
0.0
  0
LINE
  5
CA2B
100
AcDbEntity
  8
ALPHA
100
AcDbLine
 10
-13.830109
 20
101.021329
 30
0.0
 11
-13.628394
 21
101.221329
 31
0.0
  0
LINE
  5
CA2C
100
AcDbEntity
  8
ALPHA
100
AcDbLine
 10
-13.934823
 20
101.021329
 30
0.0
 11
-13.736599
 21
101.221329
 31
0.0
  0
LINE
  5
CA2D
100
AcDbEntity
  8
ALPHA
100
AcDbLine
 10
-13.587868
 20
100.721329
 30
0.0
 11
-13.549674
 21
101.221329
 31
0.0
  0
LINE
  5
CA2E
100
AcDbEntity
  8
ALPHA
100
AcDbLine
 10
-13.627973
 20
113.421329
 30
0.0
 11
-13.627973
 21
108.621329
 31
0.0
  0
LINE
  5
CA2F
100
AcDbEntity
  8
ALPHA
100
AcDbLine
 10
-14.048284
 20
113.421329
 30
0.0
 11
-14.048284
 21
108.621329
 31
0.0
  0
POLYLINE
  5
CA30
100
AcDbEntity
  8
ALPHA
100
AcDb2dPolyline
 66
     1
 10
0.0
 20
0.0
 30
0.0
  0
VERTEX
  5
CFC1
100
AcDbEntity
  8
ALPHA
100
AcDbVertex
100
AcDb2dVertex
 10
-13.313079
 20
108.421329
 30
0.0
  0
VERTEX
  5
CFC2
100
AcDbEntity
  8
ALPHA
100
AcDbVertex
100
AcDb2dVertex
 10
-13.320004
 20
108.671335
 30
0.0
  0
VERTEX
  5
CFC3
100
AcDbEntity
  8
ALPHA
100
AcDbVertex
100
AcDb2dVertex
 10
-13.327394
 20
108.921329
 30
0.0
  0
SEQEND
  5
CFC4
100
AcDbEntity
  8
ALPHA
  0
LINE
  5
CA31
100
AcDbEntity
  8
ALPHA
100
AcDbLine
 10
-13.627973
 20
108.621329
 30
0.0
 11
-14.048284
 21
108.621329
 31
0.0
  0
LINE
  5
CA32
100
AcDbEntity
  8
ALPHA
100
AcDbLine
 10
-14.048284
 20
108.621329
 30
0.0
 11
-13.848284
 21
108.421329
 31
0.0
  0
LINE
  5
CA33
100
AcDbEntity
  8
ALPHA
100
AcDbLine
 10
-13.426274
 20
108.421329
 30
0.0
 11
-13.627973
 21
108.621329
 31
0.0
  0
LINE
  5
CA34
100
AcDbEntity
  8
ALPHA
100
AcDbLine
 10
-13.848247
 20
113.621329
 30
0.0
 11
-13.24981
 21
113.621329
 31
0.0
  0
LINE
  5
CA35
100
AcDbEntity
  8
ALPHA
100
AcDbLine
 10
-13.627973
 20
113.421329
 30
0.0
 11
-14.048284
 21
113.421329
 31
0.0
  0
LINE
  5
CA36
100
AcDbEntity
  8
ALPHA
100
AcDbLine
 10
-13.426274
 20
113.621329
 30
0.0
 11
-13.627973
 21
113.421329
 31
0.0
  0
LINE
  5
CA37
100
AcDbEntity
  8
ALPHA
100
AcDbLine
 10
-13.848284
 20
113.621329
 30
0.0
 11
-14.048284
 21
113.421329
 31
0.0
  0
LINE
  5
CA38
100
AcDbEntity
  8
ALPHA
100
AcDbLine
 10
-13.673322
 20
113.621329
 30
0.0
 11
-13.685173
 21
113.802217
 31
0.0
  0
LINE
  5
CA39
100
AcDbEntity
  8
TEXTE
100
AcDbLine
 10
-8.396789
 20
103.151116
 30
0.0
 11
-8.449691
 21
102.927712
 31
0.0
  0
POLYLINE
  5
CA3A
100
AcDbEntity
  8
TEXTE
100
AcDb2dPolyline
 66
     1
 10
0.0
 20
0.0
 30
0.0
  0
VERTEX
  5
CFC5
100
AcDbEntity
  8
TEXTE
100
AcDbVertex
100
AcDb2dVertex
 10
-8.595417
 20
103.00218
 30
0.0
  0
VERTEX
  5
CFC6
100
AcDbEntity
  8
TEXTE
100
AcDbVertex
100
AcDb2dVertex
 10
-8.568939
 20
103.151194
 30
0.0
  0
VERTEX
  5
CFC7
100
AcDbEntity
  8
TEXTE
100
AcDbVertex
100
AcDb2dVertex
 10
-8.542596
 20
103.300052
 30
0.0
  0
SEQEND
  5
CFC8
100
AcDbEntity
  8
TEXTE
  0
POLYLINE
  5
CA3B
100
AcDbEntity
  8
TEXTE
100
AcDb2dPolyline
 66
     1
 10
0.0
 20
0.0
 30
0.0
  0
VERTEX
  5
CFC9
100
AcDbEntity
  8
TEXTE
100
AcDbVertex
100
AcDb2dVertex
 10
-6.102401
 20
100.321329
 30
0.0
  0
VERTEX
  5
CFCA
100
AcDbEntity
  8
TEXTE
100
AcDbVertex
100
AcDb2dVertex
 10
-6.087287
 20
100.710382
 30
0.0
  0
VERTEX
  5
CFCB
100
AcDbEntity
  8
TEXTE
100
AcDbVertex
100
AcDb2dVertex
 10
-6.073539
 20
101.099398
 30
0.0
  0
VERTEX
  5
CFCC
100
AcDbEntity
  8
TEXTE
100
AcDbVertex
100
AcDb2dVertex
 10
-6.061157
 20
101.48838
 30
0.0
  0
VERTEX
  5
CFCD
100
AcDbEntity
  8
TEXTE
100
AcDbVertex
100
AcDb2dVertex
 10
-6.050141
 20
101.877328
 30
0.0
  0
VERTEX
  5
CFCE
100
AcDbEntity
  8
TEXTE
100
AcDbVertex
100
AcDb2dVertex
 10
-6.040491
 20
102.266236
 30
0.0
  0
VERTEX
  5
CFCF
100
AcDbEntity
  8
TEXTE
100
AcDbVertex
100
AcDb2dVertex
 10
-6.032206
 20
102.655094
 30
0.0
  0
VERTEX
  5
CFD0
100
AcDbEntity
  8
TEXTE
100
AcDbVertex
100
AcDb2dVertex
 10
-6.025286
 20
103.043894
 30
0.0
  0
VERTEX
  5
CFD1
100
AcDbEntity
  8
TEXTE
100
AcDbVertex
100
AcDb2dVertex
 10
-6.019731
 20
103.432638
 30
0.0
  0
VERTEX
  5
CFD2
100
AcDbEntity
  8
TEXTE
100
AcDbVertex
100
AcDb2dVertex
 10
-6.015541
 20
103.821329
 30
0.0
  0
SEQEND
  5
CFD3
100
AcDbEntity
  8
TEXTE
  0
POLYLINE
  5
CA3C
100
AcDbEntity
  8
TEXTE
100
AcDb2dPolyline
 66
     1
 10
0.0
 20
0.0
 30
0.0
  0
VERTEX
  5
CFD4
100
AcDbEntity
  8
TEXTE
100
AcDbVertex
100
AcDb2dVertex
 10
-5.827346
 20
103.37452
 30
0.0
  0
VERTEX
  5
CFD5
100
AcDbEntity
  8
TEXTE
100
AcDbVertex
100
AcDb2dVertex
 10
-5.829584
 20
103.213187
 30
0.0
  0
VERTEX
  5
CFD6
100
AcDbEntity
  8
TEXTE
100
AcDbVertex
100
AcDb2dVertex
 10
-5.832059
 20
103.051848
 30
0.0
  0
VERTEX
  5
CFD7
100
AcDbEntity
  8
TEXTE
100
AcDbVertex
100
AcDb2dVertex
 10
-5.834769
 20
102.890503
 30
0.0
  0
VERTEX
  5
CFD8
100
AcDbEntity
  8
TEXTE
100
AcDbVertex
100
AcDb2dVertex
 10
-5.837717
 20
102.729152
 30
0.0
  0
VERTEX
  5
CFD9
100
AcDbEntity
  8
TEXTE
100
AcDbVertex
100
AcDb2dVertex
 10
-5.840901
 20
102.567796
 30
0.0
  0
VERTEX
  5
CFDA
100
AcDbEntity
  8
TEXTE
100
AcDbVertex
100
AcDb2dVertex
 10
-5.844321
 20
102.406436
 30
0.0
  0
SEQEND
  5
CFDB
100
AcDbEntity
  8
TEXTE
  0
POLYLINE
  5
CA3D
100
AcDbEntity
  8
TEXTE
100
AcDb2dPolyline
 66
     1
 10
0.0
 20
0.0
 30
0.0
  0
VERTEX
  5
CFDC
100
AcDbEntity
  8
TEXTE
100
AcDbVertex
100
AcDb2dVertex
 10
-6.463482
 20
103.00218
 30
0.0
  0
VERTEX
  5
CFDD
100
AcDbEntity
  8
TEXTE
100
AcDbVertex
100
AcDb2dVertex
 10
-6.477019
 20
103.113839
 30
0.0
  0
VERTEX
  5
CFDE
100
AcDbEntity
  8
TEXTE
100
AcDbVertex
100
AcDb2dVertex
 10
-6.490657
 20
103.225584
 30
0.0
  0
SEQEND
  5
CFDF
100
AcDbEntity
  8
TEXTE
  0
POLYLINE
  5
CA3E
100
AcDbEntity
  8
TEXTE
100
AcDb2dPolyline
 66
     1
 10
0.0
 20
0.0
 30
0.0
  0
VERTEX
  5
CFE0
100
AcDbEntity
  8
TEXTE
100
AcDbVertex
100
AcDb2dVertex
 10
-6.305876
 20
103.225584
 30
0.0
  0
VERTEX
  5
CFE1
100
AcDbEntity
  8
TEXTE
100
AcDbVertex
100
AcDb2dVertex
 10
-6.291976
 20
103.113838
 30
0.0
  0
VERTEX
  5
CFE2
100
AcDbEntity
  8
TEXTE
100
AcDbVertex
100
AcDb2dVertex
 10
-6.278178
 20
103.00218
 30
0.0
  0
SEQEND
  5
CFE3
100
AcDbEntity
  8
TEXTE
  0
LINE
  5
CA3F
100
AcDbEntity
  8
TEXTE
100
AcDbLine
 10
-7.643442
 20
103.151017
 30
0.0
 11
-7.61853
 21
103.00218
 31
0.0
  0
LINE
  5
CA40
100
AcDbEntity
  8
TEXTE
100
AcDbLine
 10
-7.781465
 20
102.927712
 30
0.0
 11
-7.831342
 21
103.151116
 31
0.0
  0
POLYLINE
  5
CA41
100
AcDbEntity
  8
TEXTE
100
AcDb2dPolyline
 66
     1
 10
0.0
 20
0.0
 30
0.0
  0
VERTEX
  5
CFE4
100
AcDbEntity
  8
TEXTE
100
AcDbVertex
100
AcDb2dVertex
 10
-7.443741
 20
100.321329
 30
0.0
  0
VERTEX
  5
CFE5
100
AcDbEntity
  8
TEXTE
100
AcDbVertex
100
AcDb2dVertex
 10
-7.429245
 20
100.710319
 30
0.0
  0
VERTEX
  5
CFE6
100
AcDbEntity
  8
TEXTE
100
AcDbVertex
100
AcDb2dVertex
 10
-7.416059
 20
101.099287
 30
0.0
  0
VERTEX
  5
CFE7
100
AcDbEntity
  8
TEXTE
100
AcDbVertex
100
AcDb2dVertex
 10
-7.404183
 20
101.488236
 30
0.0
  0
VERTEX
  5
CFE8
100
AcDbEntity
  8
TEXTE
100
AcDbVertex
100
AcDb2dVertex
 10
-7.393617
 20
101.877167
 30
0.0
  0
VERTEX
  5
CFE9
100
AcDbEntity
  8
TEXTE
100
AcDbVertex
100
AcDb2dVertex
 10
-7.38436
 20
102.266074
 30
0.0
  0
VERTEX
  5
CFEA
100
AcDbEntity
  8
TEXTE
100
AcDbVertex
100
AcDb2dVertex
 10
-7.376413
 20
102.654946
 30
0.0
  0
VERTEX
  5
CFEB
100
AcDbEntity
  8
TEXTE
100
AcDbVertex
100
AcDb2dVertex
 10
-7.369775
 20
103.043779
 30
0.0
  0
VERTEX
  5
CFEC
100
AcDbEntity
  8
TEXTE
100
AcDbVertex
100
AcDb2dVertex
 10
-7.364447
 20
103.432572
 30
0.0
  0
VERTEX
  5
CFED
100
AcDbEntity
  8
TEXTE
100
AcDbVertex
100
AcDb2dVertex
 10
-7.360427
 20
103.821329
 30
0.0
  0
SEQEND
  5
CFEE
100
AcDbEntity
  8
TEXTE
  0
LINE
  5
CA42
100
AcDbEntity
  8
ALPHA
100
AcDbLine
 10
-10.342528
 20
101.221329
 30
0.0
 11
-10.296272
 21
103.62134
 31
0.0
  0
POLYLINE
  5
CA43
100
AcDbEntity
  8
TEXTE
100
AcDb2dPolyline
 66
     1
 10
0.0
 20
0.0
 30
0.0
  0
VERTEX
  5
CFEF
100
AcDbEntity
  8
TEXTE
100
AcDbVertex
100
AcDb2dVertex
 10
-7.195096
 20
103.448989
 30
0.0
  0
VERTEX
  5
CFF0
100
AcDbEntity
  8
TEXTE
100
AcDbVertex
100
AcDb2dVertex
 10
-7.19747
 20
103.262831
 30
0.0
  0
VERTEX
  5
CFF1
100
AcDbEntity
  8
TEXTE
100
AcDbVertex
100
AcDb2dVertex
 10
-7.200145
 20
103.076668
 30
0.0
  0
VERTEX
  5
CFF2
100
AcDbEntity
  8
TEXTE
100
AcDbVertex
100
AcDb2dVertex
 10
-7.203122
 20
102.890499
 30
0.0
  0
VERTEX
  5
CFF3
100
AcDbEntity
  8
TEXTE
100
AcDbVertex
100
AcDb2dVertex
 10
-7.206401
 20
102.704326
 30
0.0
  0
VERTEX
  5
CFF4
100
AcDbEntity
  8
TEXTE
100
AcDbVertex
100
AcDb2dVertex
 10
-7.209981
 20
102.518148
 30
0.0
  0
VERTEX
  5
CFF5
100
AcDbEntity
  8
TEXTE
100
AcDbVertex
100
AcDb2dVertex
 10
-7.213863
 20
102.331967
 30
0.0
  0
SEQEND
  5
CFF6
100
AcDbEntity
  8
TEXTE
  0
POLYLINE
  5
CA44
100
AcDbEntity
  8
ALPHA
100
AcDb2dPolyline
 66
     1
 10
0.0
 20
0.0
 30
0.0
  0
VERTEX
  5
CFF7
100
AcDbEntity
  8
ALPHA
100
AcDbVertex
100
AcDb2dVertex
 10
-10.068549
 20
106.187962
 30
0.0
  0
VERTEX
  5
CFF8
100
AcDbEntity
  8
ALPHA
100
AcDbVertex
100
AcDb2dVertex
 10
-10.068549
 20
103.454695
 30
0.0
  0
VERTEX
  5
CFF9
100
AcDbEntity
  8
ALPHA
100
AcDbVertex
100
AcDb2dVertex
 10
-10.128929
 20
100.721329
 30
0.0
  0
SEQEND
  5
CFFA
100
AcDbEntity
  8
ALPHA
  0
POLYLINE
  5
CA45
100
AcDbEntity
  8
ALPHA
100
AcDb2dPolyline
 66
     1
 10
0.0
 20
0.0
 30
0.0
  0
VERTEX
  5
CFFB
100
AcDbEntity
  8
ALPHA
100
AcDbVertex
100
AcDb2dVertex
 10
-9.799672
 20
108.921329
 30
0.0
  0
VERTEX
  5
CFFC
100
AcDbEntity
  8
ALPHA
100
AcDbVertex
100
AcDb2dVertex
 10
-9.739327
 20
106.187956
 30
0.0
  0
VERTEX
  5
CFFD
100
AcDbEntity
  8
ALPHA
100
AcDbVertex
100
AcDb2dVertex
 10
-9.739327
 20
103.454701
 30
0.0
  0
VERTEX
  5
CFFE
100
AcDbEntity
  8
ALPHA
100
AcDbVertex
100
AcDb2dVertex
 10
-9.799672
 20
100.721329
 30
0.0
  0
SEQEND
  5
CFFF
100
AcDbEntity
  8
ALPHA
  0
LINE
  5
CA46
100
AcDbEntity
  8
ALPHA
100
AcDbLine
 10
-5.795426
 20
93.471329
 30
0.0
 11
-10.938284
 21
93.471329
 31
0.0
  0
LINE
  5
CA47
100
AcDbEntity
  8
ALPHA
100
AcDbLine
 10
-6.429137
 20
92.971329
 30
0.0
 11
-10.938284
 21
92.971329
 31
0.0
  0
LINE
  5
CA48
100
AcDbEntity
  8
ALPHA
100
AcDbLine
 10
-10.638284
 20
94.321329
 30
0.0
 11
-10.638284
 21
93.471329
 31
0.0
  0
LINE
  5
CA49
100
AcDbEntity
  8
ALPHA
100
AcDbLine
 10
-10.938284
 20
93.471329
 30
0.0
 11
-10.938284
 21
92.971329
 31
0.0
  0
LINE
  5
CA4A
100
AcDbEntity
  8
TEXTE
100
AcDbLine
 10
-7.213863
 20
102.331967
 30
0.0
 11
-6.658325
 21
102.331967
 31
0.0
  0
LINE
  5
CA4B
100
AcDbEntity
  8
TEXTE
100
AcDbLine
 10
-6.699063
 20
101.885158
 30
0.0
 11
-7.22441
 21
101.885158
 31
0.0
  0
LINE
  5
CA4C
100
AcDbEntity
  8
TEXTE
100
AcDbLine
 10
-7.955878
 20
100.395796
 30
0.0
 11
-8.02283
 21
100.358604
 31
0.0
  0
LINE
  5
CA4D
100
AcDbEntity
  8
TEXTE
100
AcDbLine
 10
-8.02283
 20
100.358604
 30
0.0
 11
-8.089449
 21
100.321329
 31
0.0
  0
LINE
  5
CA4E
100
AcDbEntity
  8
TEXTE
100
AcDbLine
 10
-8.019814
 20
100.805407
 30
0.0
 11
-7.966196
 21
100.842605
 31
0.0
  0
LINE
  5
CA4F
100
AcDbEntity
  8
TEXTE
100
AcDbLine
 10
-8.073228
 20
100.768138
 30
0.0
 11
-8.019814
 21
100.805407
 31
0.0
  0
LINE
  5
CA50
100
AcDbEntity
  8
TEXTE
100
AcDbLine
 10
-8.27847
 20
100.768138
 30
0.0
 11
-8.073228
 21
100.768138
 31
0.0
  0
LINE
  5
CA51
100
AcDbEntity
  8
TEXTE
100
AcDbLine
 10
-8.089449
 20
100.321329
 30
0.0
 11
-8.294593
 21
100.321329
 31
0.0
  0
LINE
  5
CA52
100
AcDbEntity
  8
TEXTE
100
AcDbLine
 10
-7.274997
 20
100.321329
 30
0.0
 11
-7.443741
 21
100.321329
 31
0.0
  0
LINE
  5
CA53
100
AcDbEntity
  8
TEXTE
100
AcDbLine
 10
-7.844321
 20
100.544733
 30
0.0
 11
-7.900181
 21
100.470341
 31
0.0
  0
LINE
  5
CA54
100
AcDbEntity
  8
TEXTE
100
AcDbLine
 10
-7.900181
 20
100.470341
 30
0.0
 11
-7.955878
 21
100.395796
 31
0.0
  0
LINE
  5
CA55
100
AcDbEntity
  8
TEXTE
100
AcDbLine
 10
-7.92415
 20
100.917136
 30
0.0
 11
-7.882038
 21
100.991542
 31
0.0
  0
LINE
  5
CA56
100
AcDbEntity
  8
TEXTE
100
AcDbLine
 10
-7.966196
 20
100.842605
 30
0.0
 11
-7.92415
 21
100.917136
 31
0.0
  0
LINE
  5
CA57
100
AcDbEntity
  8
TEXTE
100
AcDbLine
 10
-7.726468
 20
100.842605
 30
0.0
 11
-7.785406
 21
100.693826
 31
0.0
  0
LINE
  5
CA58
100
AcDbEntity
  8
TEXTE
100
AcDbLine
 10
-7.785406
 20
100.693826
 30
0.0
 11
-7.844321
 21
100.544733
 31
0.0
  0
LINE
  5
CA59
100
AcDbEntity
  8
TEXTE
100
AcDbLine
 10
-8.376732
 20
100.842605
 30
0.0
 11
-8.327703
 21
100.805339
 31
0.0
  0
LINE
  5
CA5A
100
AcDbEntity
  8
TEXTE
100
AcDbLine
 10
-8.327703
 20
100.805339
 30
0.0
 11
-8.27847
 21
100.768138
 31
0.0
  0
LINE
  5
CA5B
100
AcDbEntity
  8
TEXTE
100
AcDbLine
 10
-8.356225
 20
100.358525
 30
0.0
 11
-8.417524
 21
100.395796
 31
0.0
  0
LINE
  5
CA5C
100
AcDbEntity
  8
TEXTE
100
AcDbLine
 10
-8.294593
 20
100.321329
 30
0.0
 11
-8.356225
 21
100.358525
 31
0.0
  0
LINE
  5
CA5D
100
AcDbEntity
  8
TEXTE
100
AcDbLine
 10
-7.882038
 20
100.991542
 30
0.0
 11
-7.821736
 21
101.214945
 31
0.0
  0
POLYLINE
  5
CA5E
100
AcDbEntity
  8
TEXTE
100
AcDb2dPolyline
 66
     1
 10
0.0
 20
0.0
 30
0.0
  0
VERTEX
  5
D000
100
AcDbEntity
  8
TEXTE
100
AcDbVertex
100
AcDb2dVertex
 10
-7.662516
 20
101.140478
 30
0.0
  0
VERTEX
  5
D001
100
AcDbEntity
  8
TEXTE
100
AcDbVertex
100
AcDb2dVertex
 10
-7.694423
 20
100.991625
 30
0.0
  0
VERTEX
  5
D002
100
AcDbEntity
  8
TEXTE
100
AcDbVertex
100
AcDb2dVertex
 10
-7.726468
 20
100.842605
 30
0.0
  0
SEQEND
  5
D003
100
AcDbEntity
  8
TEXTE
  0
POLYLINE
  5
CA5F
100
AcDbEntity
  8
TEXTE
100
AcDb2dPolyline
 66
     1
 10
0.0
 20
0.0
 30
0.0
  0
VERTEX
  5
D004
100
AcDbEntity
  8
TEXTE
100
AcDbVertex
100
AcDb2dVertex
 10
-7.821736
 20
101.214945
 30
0.0
  0
VERTEX
  5
D005
100
AcDbEntity
  8
TEXTE
100
AcDbVertex
100
AcDb2dVertex
 10
-7.803879
 20
101.36393
 30
0.0
  0
VERTEX
  5
D006
100
AcDbEntity
  8
TEXTE
100
AcDbVertex
100
AcDb2dVertex
 10
-7.786199
 20
101.512818
 30
0.0
  0
SEQEND
  5
D007
100
AcDbEntity
  8
TEXTE
  0
POLYLINE
  5
CA60
100
AcDbEntity
  8
TEXTE
100
AcDb2dPolyline
 66
     1
 10
0.0
 20
0.0
 30
0.0
  0
VERTEX
  5
D008
100
AcDbEntity
  8
TEXTE
100
AcDbVertex
100
AcDb2dVertex
 10
-7.624123
 20
101.512818
 30
0.0
  0
VERTEX
  5
D009
100
AcDbEntity
  8
TEXTE
100
AcDbVertex
100
AcDb2dVertex
 10
-7.633614
 20
101.41978
 30
0.0
  0
VERTEX
  5
D00A
100
AcDbEntity
  8
TEXTE
100
AcDbVertex
100
AcDb2dVertex
 10
-7.643176
 20
101.326711
 30
0.0
  0
VERTEX
  5
D00B
100
AcDbEntity
  8
TEXTE
100
AcDbVertex
100
AcDb2dVertex
 10
-7.65281
 20
101.23361
 30
0.0
  0
VERTEX
  5
D00C
100
AcDbEntity
  8
TEXTE
100
AcDbVertex
100
AcDb2dVertex
 10
-7.662516
 20
101.140478
 30
0.0
  0
SEQEND
  5
D00D
100
AcDbEntity
  8
TEXTE
  0
POLYLINE
  5
CA61
100
AcDbEntity
  8
TEXTE
100
AcDb2dPolyline
 66
     1
 10
0.0
 20
0.0
 30
0.0
  0
VERTEX
  5
D00E
100
AcDbEntity
  8
TEXTE
100
AcDbVertex
100
AcDb2dVertex
 10
-8.599083
 20
100.842605
 30
0.0
  0
VERTEX
  5
D00F
100
AcDbEntity
  8
TEXTE
100
AcDbVertex
100
AcDb2dVertex
 10
-8.618546
 20
100.99145
 30
0.0
  0
VERTEX
  5
D010
100
AcDbEntity
  8
TEXTE
100
AcDbVertex
100
AcDb2dVertex
 10
-8.63815
 20
101.140478
 30
0.0
  0
SEQEND
  5
D011
100
AcDbEntity
  8
TEXTE
  0
LINE
  5
CA62
100
AcDbEntity
  8
TEXTE
100
AcDbLine
 10
-8.489174
 20
101.214945
 30
0.0
 11
-8.446644
 21
100.991542
 31
0.0
  0
POLYLINE
  5
CA63
100
AcDbEntity
  8
TEXTE
100
AcDb2dPolyline
 66
     1
 10
0.0
 20
0.0
 30
0.0
  0
VERTEX
  5
D012
100
AcDbEntity
  8
TEXTE
100
AcDbVertex
100
AcDb2dVertex
 10
-8.511317
 20
100.544733
 30
0.0
  0
VERTEX
  5
D013
100
AcDbEntity
  8
TEXTE
100
AcDbVertex
100
AcDb2dVertex
 10
-8.555218
 20
100.693564
 30
0.0
  0
VERTEX
  5
D014
100
AcDbEntity
  8
TEXTE
100
AcDbVertex
100
AcDb2dVertex
 10
-8.599083
 20
100.842605
 30
0.0
  0
SEQEND
  5
D015
100
AcDbEntity
  8
TEXTE
  0
POLYLINE
  5
CA64
100
AcDbEntity
  8
TEXTE
100
AcDb2dPolyline
 66
     1
 10
0.0
 20
0.0
 30
0.0
  0
VERTEX
  5
D016
100
AcDbEntity
  8
TEXTE
100
AcDbVertex
100
AcDb2dVertex
 10
-8.446644
 20
100.991542
 30
0.0
  0
VERTEX
  5
D017
100
AcDbEntity
  8
TEXTE
100
AcDbVertex
100
AcDb2dVertex
 10
-8.411725
 20
100.917025
 30
0.0
  0
VERTEX
  5
D018
100
AcDbEntity
  8
TEXTE
100
AcDbVertex
100
AcDb2dVertex
 10
-8.376732
 20
100.842605
 30
0.0
  0
SEQEND
  5
D019
100
AcDbEntity
  8
TEXTE
  0
LINE
  5
CA65
100
AcDbEntity
  8
TEXTE
100
AcDbLine
 10
-8.464505
 20
100.470203
 30
0.0
 11
-8.511317
 21
100.544733
 31
0.0
  0
LINE
  5
CA66
100
AcDbEntity
  8
TEXTE
100
AcDbLine
 10
-8.417524
 20
100.395796
 30
0.0
 11
-8.464505
 21
100.470203
 31
0.0
  0
POLYLINE
  5
CA67
100
AcDbEntity
  8
TEXTE
100
AcDb2dPolyline
 66
     1
 10
0.0
 20
0.0
 30
0.0
  0
VERTEX
  5
D01A
100
AcDbEntity
  8
TEXTE
100
AcDbVertex
100
AcDb2dVertex
 10
-8.449691
 20
102.927712
 30
0.0
  0
VERTEX
  5
D01B
100
AcDbEntity
  8
TEXTE
100
AcDbVertex
100
AcDb2dVertex
 10
-8.464486
 20
102.778819
 30
0.0
  0
VERTEX
  5
D01C
100
AcDbEntity
  8
TEXTE
100
AcDbVertex
100
AcDb2dVertex
 10
-8.479455
 20
102.62984
 30
0.0
  0
SEQEND
  5
D01D
100
AcDbEntity
  8
TEXTE
  0
POLYLINE
  5
CA68
100
AcDbEntity
  8
TEXTE
100
AcDb2dPolyline
 66
     1
 10
0.0
 20
0.0
 30
0.0
  0
VERTEX
  5
D01E
100
AcDbEntity
  8
TEXTE
100
AcDbVertex
100
AcDb2dVertex
 10
-8.625866
 20
102.62984
 30
0.0
  0
VERTEX
  5
D01F
100
AcDbEntity
  8
TEXTE
100
AcDbVertex
100
AcDb2dVertex
 10
-8.610503
 20
102.816063
 30
0.0
  0
VERTEX
  5
D020
100
AcDbEntity
  8
TEXTE
100
AcDbVertex
100
AcDb2dVertex
 10
-8.595417
 20
103.00218
 30
0.0
  0
SEQEND
  5
D021
100
AcDbEntity
  8
TEXTE
  0
POLYLINE
  5
CA69
100
AcDbEntity
  8
TEXTE
100
AcDb2dPolyline
 66
     1
 10
0.0
 20
0.0
 30
0.0
  0
VERTEX
  5
D022
100
AcDbEntity
  8
TEXTE
100
AcDbVertex
100
AcDb2dVertex
 10
-7.786199
 20
101.512818
 30
0.0
  0
VERTEX
  5
D023
100
AcDbEntity
  8
TEXTE
100
AcDbVertex
100
AcDb2dVertex
 10
-7.781076
 20
101.699002
 30
0.0
  0
VERTEX
  5
D024
100
AcDbEntity
  8
TEXTE
100
AcDbVertex
100
AcDb2dVertex
 10
-7.77625
 20
101.885181
 30
0.0
  0
VERTEX
  5
D025
100
AcDbEntity
  8
TEXTE
100
AcDbVertex
100
AcDb2dVertex
 10
-7.771721
 20
102.071355
 30
0.0
  0
VERTEX
  5
D026
100
AcDbEntity
  8
TEXTE
100
AcDbVertex
100
AcDb2dVertex
 10
-7.767489
 20
102.257523
 30
0.0
  0
VERTEX
  5
D027
100
AcDbEntity
  8
TEXTE
100
AcDbVertex
100
AcDb2dVertex
 10
-7.763553
 20
102.443685
 30
0.0
  0
VERTEX
  5
D028
100
AcDbEntity
  8
TEXTE
100
AcDbVertex
100
AcDb2dVertex
 10
-7.759914
 20
102.62984
 30
0.0
  0
SEQEND
  5
D029
100
AcDbEntity
  8
TEXTE
  0
POLYLINE
  5
CA6A
100
AcDbEntity
  8
TEXTE
100
AcDb2dPolyline
 66
     1
 10
0.0
 20
0.0
 30
0.0
  0
VERTEX
  5
D02A
100
AcDbEntity
  8
TEXTE
100
AcDbVertex
100
AcDb2dVertex
 10
-8.651487
 20
101.512818
 30
0.0
  0
VERTEX
  5
D02B
100
AcDbEntity
  8
TEXTE
100
AcDbVertex
100
AcDb2dVertex
 10
-8.646494
 20
101.698997
 30
0.0
  0
VERTEX
  5
D02C
100
AcDbEntity
  8
TEXTE
100
AcDbVertex
100
AcDb2dVertex
 10
-8.64179
 20
101.885172
 30
0.0
  0
VERTEX
  5
D02D
100
AcDbEntity
  8
TEXTE
100
AcDbVertex
100
AcDb2dVertex
 10
-8.637375
 20
102.071345
 30
0.0
  0
VERTEX
  5
D02E
100
AcDbEntity
  8
TEXTE
100
AcDbVertex
100
AcDb2dVertex
 10
-8.63325
 20
102.257515
 30
0.0
  0
VERTEX
  5
D02F
100
AcDbEntity
  8
TEXTE
100
AcDbVertex
100
AcDb2dVertex
 10
-8.629413
 20
102.443679
 30
0.0
  0
VERTEX
  5
D030
100
AcDbEntity
  8
TEXTE
100
AcDbVertex
100
AcDb2dVertex
 10
-8.625866
 20
102.62984
 30
0.0
  0
SEQEND
  5
D031
100
AcDbEntity
  8
TEXTE
  0
POLYLINE
  5
CA6B
100
AcDbEntity
  8
TEXTE
100
AcDb2dPolyline
 66
     1
 10
0.0
 20
0.0
 30
0.0
  0
VERTEX
  5
D032
100
AcDbEntity
  8
TEXTE
100
AcDbVertex
100
AcDb2dVertex
 10
-7.22441
 20
101.885158
 30
0.0
  0
VERTEX
  5
D033
100
AcDbEntity
  8
TEXTE
100
AcDbVertex
100
AcDb2dVertex
 10
-7.231362
 20
101.624567
 30
0.0
  0
VERTEX
  5
D034
100
AcDbEntity
  8
TEXTE
100
AcDbVertex
100
AcDb2dVertex
 10
-7.238906
 20
101.363956
 30
0.0
  0
VERTEX
  5
D035
100
AcDbEntity
  8
TEXTE
100
AcDbVertex
100
AcDb2dVertex
 10
-7.247042
 20
101.103325
 30
0.0
  0
VERTEX
  5
D036
100
AcDbEntity
  8
TEXTE
100
AcDbVertex
100
AcDb2dVertex
 10
-7.255768
 20
100.842675
 30
0.0
  0
VERTEX
  5
D037
100
AcDbEntity
  8
TEXTE
100
AcDbVertex
100
AcDb2dVertex
 10
-7.265087
 20
100.58201
 30
0.0
  0
VERTEX
  5
D038
100
AcDbEntity
  8
TEXTE
100
AcDbVertex
100
AcDb2dVertex
 10
-7.274996
 20
100.321329
 30
0.0
  0
SEQEND
  5
D039
100
AcDbEntity
  8
TEXTE
  0
POLYLINE
  5
CA6C
100
AcDbEntity
  8
TEXTE
100
AcDb2dPolyline
 66
     1
 10
0.0
 20
0.0
 30
0.0
  0
VERTEX
  5
D03A
100
AcDbEntity
  8
TEXTE
100
AcDbVertex
100
AcDb2dVertex
 10
-7.59771
 20
102.62984
 30
0.0
  0
VERTEX
  5
D03B
100
AcDbEntity
  8
TEXTE
100
AcDbVertex
100
AcDb2dVertex
 10
-7.601367
 20
102.443685
 30
0.0
  0
VERTEX
  5
D03C
100
AcDbEntity
  8
TEXTE
100
AcDbVertex
100
AcDb2dVertex
 10
-7.605322
 20
102.257523
 30
0.0
  0
VERTEX
  5
D03D
100
AcDbEntity
  8
TEXTE
100
AcDbVertex
100
AcDb2dVertex
 10
-7.609575
 20
102.071355
 30
0.0
  0
VERTEX
  5
D03E
100
AcDbEntity
  8
TEXTE
100
AcDbVertex
100
AcDb2dVertex
 10
-7.614126
 20
101.885181
 30
0.0
  0
VERTEX
  5
D03F
100
AcDbEntity
  8
TEXTE
100
AcDbVertex
100
AcDb2dVertex
 10
-7.618976
 20
101.699002
 30
0.0
  0
VERTEX
  5
D040
100
AcDbEntity
  8
TEXTE
100
AcDbVertex
100
AcDb2dVertex
 10
-7.624123
 20
101.512818
 30
0.0
  0
SEQEND
  5
D041
100
AcDbEntity
  8
TEXTE
  0
POLYLINE
  5
CA6D
100
AcDbEntity
  8
TEXTE
100
AcDb2dPolyline
 66
     1
 10
0.0
 20
0.0
 30
0.0
  0
VERTEX
  5
D042
100
AcDbEntity
  8
TEXTE
100
AcDbVertex
100
AcDb2dVertex
 10
-8.479455
 20
102.62984
 30
0.0
  0
VERTEX
  5
D043
100
AcDbEntity
  8
TEXTE
100
AcDbVertex
100
AcDb2dVertex
 10
-8.483017
 20
102.443679
 30
0.0
  0
VERTEX
  5
D044
100
AcDbEntity
  8
TEXTE
100
AcDbVertex
100
AcDb2dVertex
 10
-8.48687
 20
102.257515
 30
0.0
  0
VERTEX
  5
D045
100
AcDbEntity
  8
TEXTE
100
AcDbVertex
100
AcDb2dVertex
 10
-8.491013
 20
102.071346
 30
0.0
  0
VERTEX
  5
D046
100
AcDbEntity
  8
TEXTE
100
AcDbVertex
100
AcDb2dVertex
 10
-8.495447
 20
101.885173
 30
0.0
  0
VERTEX
  5
D047
100
AcDbEntity
  8
TEXTE
100
AcDbVertex
100
AcDb2dVertex
 10
-8.500171
 20
101.698997
 30
0.0
  0
VERTEX
  5
D048
100
AcDbEntity
  8
TEXTE
100
AcDbVertex
100
AcDb2dVertex
 10
-8.505186
 20
101.512818
 30
0.0
  0
SEQEND
  5
D049
100
AcDbEntity
  8
TEXTE
  0
POLYLINE
  5
CA6E
100
AcDbEntity
  8
TEXTE
100
AcDb2dPolyline
 66
     1
 10
0.0
 20
0.0
 30
0.0
  0
VERTEX
  5
D04A
100
AcDbEntity
  8
TEXTE
100
AcDbVertex
100
AcDb2dVertex
 10
-8.63815
 20
101.140478
 30
0.0
  0
VERTEX
  5
D04B
100
AcDbEntity
  8
TEXTE
100
AcDbVertex
100
AcDb2dVertex
 10
-8.64468
 20
101.326595
 30
0.0
  0
VERTEX
  5
D04C
100
AcDbEntity
  8
TEXTE
100
AcDbVertex
100
AcDb2dVertex
 10
-8.651487
 20
101.512818
 30
0.0
  0
SEQEND
  5
D04D
100
AcDbEntity
  8
TEXTE
  0
POLYLINE
  5
CA6F
100
AcDbEntity
  8
TEXTE
100
AcDb2dPolyline
 66
     1
 10
0.0
 20
0.0
 30
0.0
  0
VERTEX
  5
D04E
100
AcDbEntity
  8
TEXTE
100
AcDbVertex
100
AcDb2dVertex
 10
-8.505186
 20
101.512818
 30
0.0
  0
VERTEX
  5
D04F
100
AcDbEntity
  8
TEXTE
100
AcDbVertex
100
AcDb2dVertex
 10
-8.497092
 20
101.363838
 30
0.0
  0
VERTEX
  5
D050
100
AcDbEntity
  8
TEXTE
100
AcDbVertex
100
AcDb2dVertex
 10
-8.489174
 20
101.214945
 30
0.0
  0
SEQEND
  5
D051
100
AcDbEntity
  8
TEXTE
  0
POLYLINE
  5
CA70
100
AcDbEntity
  8
TEXTE
100
AcDb2dPolyline
 66
     1
 10
0.0
 20
0.0
 30
0.0
  0
VERTEX
  5
D052
100
AcDbEntity
  8
TEXTE
100
AcDbVertex
100
AcDb2dVertex
 10
-7.61853
 20
103.00218
 30
0.0
  0
VERTEX
  5
D053
100
AcDbEntity
  8
TEXTE
100
AcDbVertex
100
AcDb2dVertex
 10
-7.613217
 20
102.909049
 30
0.0
  0
VERTEX
  5
D054
100
AcDbEntity
  8
TEXTE
100
AcDbVertex
100
AcDb2dVertex
 10
-7.607976
 20
102.815949
 30
0.0
  0
VERTEX
  5
D055
100
AcDbEntity
  8
TEXTE
100
AcDbVertex
100
AcDb2dVertex
 10
-7.602807
 20
102.722879
 30
0.0
  0
VERTEX
  5
D056
100
AcDbEntity
  8
TEXTE
100
AcDbVertex
100
AcDb2dVertex
 10
-7.59771
 20
102.62984
 30
0.0
  0
SEQEND
  5
D057
100
AcDbEntity
  8
TEXTE
  0
POLYLINE
  5
CA71
100
AcDbEntity
  8
TEXTE
100
AcDb2dPolyline
 66
     1
 10
0.0
 20
0.0
 30
0.0
  0
VERTEX
  5
D058
100
AcDbEntity
  8
TEXTE
100
AcDbVertex
100
AcDb2dVertex
 10
-7.759914
 20
102.62984
 30
0.0
  0
VERTEX
  5
D059
100
AcDbEntity
  8
TEXTE
100
AcDbVertex
100
AcDb2dVertex
 10
-7.7706
 20
102.778728
 30
0.0
  0
VERTEX
  5
D05A
100
AcDbEntity
  8
TEXTE
100
AcDbVertex
100
AcDb2dVertex
 10
-7.781465
 20
102.927712
 30
0.0
  0
SEQEND
  5
D05B
100
AcDbEntity
  8
TEXTE
  0
LINE
  5
CA72
100
AcDbEntity
  8
TEXTE
100
AcDbLine
 10
-6.546205
 20
101.959627
 30
0.0
 11
-6.622806
 21
101.922442
 31
0.0
  0
LINE
  5
CA73
100
AcDbEntity
  8
TEXTE
100
AcDbLine
 10
-6.622806
 20
101.922442
 30
0.0
 11
-6.699063
 21
101.885158
 31
0.0
  0
LINE
  5
CA74
100
AcDbEntity
  8
TEXTE
100
AcDbLine
 10
-5.844322
 20
102.406436
 30
0.0
 11
-4.967272
 21
102.406436
 31
0.0
  0
LINE
  5
CA75
100
AcDbEntity
  8
TEXTE
100
AcDbLine
 10
-4.978286
 20
101.959627
 30
0.0
 11
-5.855026
 21
101.959627
 31
0.0
  0
LINE
  5
CA76
100
AcDbEntity
  8
TEXTE
100
AcDbLine
 10
-6.61227
 20
102.369236
 30
0.0
 11
-6.56611
 21
102.406436
 31
0.0
  0
LINE
  5
CA77
100
AcDbEntity
  8
TEXTE
100
AcDbLine
 10
-6.658325
 20
102.331967
 30
0.0
 11
-6.61227
 21
102.369236
 31
0.0
  0
LINE
  5
CA78
100
AcDbEntity
  8
TEXTE
100
AcDbLine
 10
-6.41836
 20
102.183031
 30
0.0
 11
-6.482325
 21
102.07148
 31
0.0
  0
LINE
  5
CA79
100
AcDbEntity
  8
TEXTE
100
AcDbLine
 10
-6.482325
 20
102.07148
 30
0.0
 11
-6.546205
 21
101.959627
 31
0.0
  0
LINE
  5
CA7A
100
AcDbEntity
  8
TEXTE
100
AcDbLine
 10
-6.56611
 20
102.406436
 30
0.0
 11
-6.502166
 21
102.555371
 31
0.0
  0
LINE
  5
CA7B
100
AcDbEntity
  8
TEXTE
100
AcDbLine
 10
-6.318986
 20
102.480903
 30
0.0
 11
-6.41836
 21
102.183031
 31
0.0
  0
POLYLINE
  5
CA7C
100
AcDbEntity
  8
TEXTE
100
AcDb2dPolyline
 66
     1
 10
0.0
 20
0.0
 30
0.0
  0
VERTEX
  5
D05C
100
AcDbEntity
  8
TEXTE
100
AcDbVertex
100
AcDb2dVertex
 10
-6.283427
 20
102.704307
 30
0.0
  0
VERTEX
  5
D05D
100
AcDbEntity
  8
TEXTE
100
AcDbVertex
100
AcDb2dVertex
 10
-6.301156
 20
102.592649
 30
0.0
  0
VERTEX
  5
D05E
100
AcDbEntity
  8
TEXTE
100
AcDbVertex
100
AcDb2dVertex
 10
-6.318986
 20
102.480903
 30
0.0
  0
SEQEND
  5
D05F
100
AcDbEntity
  8
TEXTE
  0
POLYLINE
  5
CA7D
100
AcDbEntity
  8
TEXTE
100
AcDb2dPolyline
 66
     1
 10
0.0
 20
0.0
 30
0.0
  0
VERTEX
  5
D060
100
AcDbEntity
  8
TEXTE
100
AcDbVertex
100
AcDb2dVertex
 10
-6.502166
 20
102.555371
 30
0.0
  0
VERTEX
  5
D061
100
AcDbEntity
  8
TEXTE
100
AcDbVertex
100
AcDb2dVertex
 10
-6.484694
 20
102.667116
 30
0.0
  0
VERTEX
  5
D062
100
AcDbEntity
  8
TEXTE
100
AcDbVertex
100
AcDb2dVertex
 10
-6.467322
 20
102.778776
 30
0.0
  0
SEQEND
  5
D063
100
AcDbEntity
  8
TEXTE
  0
POLYLINE
  5
CA7E
100
AcDbEntity
  8
TEXTE
100
AcDb2dPolyline
 66
     1
 10
0.0
 20
0.0
 30
0.0
  0
VERTEX
  5
D064
100
AcDbEntity
  8
TEXTE
100
AcDbVertex
100
AcDb2dVertex
 10
-5.855026
 20
101.959627
 30
0.0
  0
VERTEX
  5
D065
100
AcDbEntity
  8
TEXTE
100
AcDbVertex
100
AcDb2dVertex
 10
-5.860364
 20
101.761084
 30
0.0
  0
VERTEX
  5
D066
100
AcDbEntity
  8
TEXTE
100
AcDbVertex
100
AcDb2dVertex
 10
-5.86606
 20
101.562525
 30
0.0
  0
VERTEX
  5
D067
100
AcDbEntity
  8
TEXTE
100
AcDbVertex
100
AcDb2dVertex
 10
-5.872115
 20
101.36395
 30
0.0
  0
VERTEX
  5
D068
100
AcDbEntity
  8
TEXTE
100
AcDbVertex
100
AcDb2dVertex
 10
-5.878528
 20
101.16536
 30
0.0
  0
VERTEX
  5
D069
100
AcDbEntity
  8
TEXTE
100
AcDbVertex
100
AcDb2dVertex
 10
-5.885299
 20
100.966756
 30
0.0
  0
VERTEX
  5
D06A
100
AcDbEntity
  8
TEXTE
100
AcDbVertex
100
AcDb2dVertex
 10
-5.892429
 20
100.768138
 30
0.0
  0
SEQEND
  5
D06B
100
AcDbEntity
  8
TEXTE
  0
POLYLINE
  5
CA7F
100
AcDbEntity
  8
TEXTE
100
AcDb2dPolyline
 66
     1
 10
0.0
 20
0.0
 30
0.0
  0
VERTEX
  5
D06C
100
AcDbEntity
  8
TEXTE
100
AcDbVertex
100
AcDb2dVertex
 10
-4.967272
 20
102.406436
 30
0.0
  0
VERTEX
  5
D06D
100
AcDbEntity
  8
TEXTE
100
AcDbVertex
100
AcDb2dVertex
 10
-4.969851
 20
102.29474
 30
0.0
  0
VERTEX
  5
D06E
100
AcDbEntity
  8
TEXTE
100
AcDbVertex
100
AcDb2dVertex
 10
-4.972546
 20
102.18304
 30
0.0
  0
VERTEX
  5
D06F
100
AcDbEntity
  8
TEXTE
100
AcDbVertex
100
AcDb2dVertex
 10
-4.975357
 20
102.071336
 30
0.0
  0
VERTEX
  5
D070
100
AcDbEntity
  8
TEXTE
100
AcDbVertex
100
AcDb2dVertex
 10
-4.978286
 20
101.959627
 30
0.0
  0
SEQEND
  5
D071
100
AcDbEntity
  8
TEXTE
  0
POLYLINE
  5
CA80
100
AcDbEntity
  8
TEXTE
100
AcDb2dPolyline
 66
     1
 10
0.0
 20
0.0
 30
0.0
  0
VERTEX
  5
D072
100
AcDbEntity
  8
TEXTE
100
AcDbVertex
100
AcDb2dVertex
 10
-6.467322
 20
102.778776
 30
0.0
  0
VERTEX
  5
D073
100
AcDbEntity
  8
TEXTE
100
AcDbVertex
100
AcDb2dVertex
 10
-6.465346
 20
102.890479
 30
0.0
  0
VERTEX
  5
D074
100
AcDbEntity
  8
TEXTE
100
AcDbVertex
100
AcDb2dVertex
 10
-6.463482
 20
103.00218
 30
0.0
  0
SEQEND
  5
D075
100
AcDbEntity
  8
TEXTE
  0
POLYLINE
  5
CA81
100
AcDbEntity
  8
TEXTE
100
AcDb2dPolyline
 66
     1
 10
0.0
 20
0.0
 30
0.0
  0
VERTEX
  5
D076
100
AcDbEntity
  8
TEXTE
100
AcDbVertex
100
AcDb2dVertex
 10
-6.278178
 20
103.00218
 30
0.0
  0
VERTEX
  5
D077
100
AcDbEntity
  8
TEXTE
100
AcDbVertex
100
AcDb2dVertex
 10
-6.280703
 20
102.853246
 30
0.0
  0
VERTEX
  5
D078
100
AcDbEntity
  8
TEXTE
100
AcDbVertex
100
AcDb2dVertex
 10
-6.283427
 20
102.704307
 30
0.0
  0
SEQEND
  5
D079
100
AcDbEntity
  8
TEXTE
  0
LINE
  5
CA82
100
AcDbEntity
  8
ALPHA
100
AcDbLine
 10
-5.596315
 20
108.571329
 30
0.0
 11
-9.429643
 21
108.571329
 31
0.0
  0
LINE
  5
CA83
100
AcDbEntity
  8
ALPHA
100
AcDbLine
 10
-5.554669
 20
107.071329
 30
0.0
 11
-9.392564
 21
107.071329
 31
0.0
  0
LINE
  5
CA84
100
AcDbEntity
  8
ALPHA
100
AcDbLine
 10
-10.128929
 20
108.921329
 30
0.0
 11
-10.068549
 21
106.187962
 31
0.0
  0
POLYLINE
  5
CA85
100
AcDbEntity
  8
ALPHA
100
AcDb2dPolyline
 66
     1
 10
0.0
 20
0.0
 30
0.0
  0
VERTEX
  5
D07A
100
AcDbEntity
  8
ALPHA
100
AcDbVertex
100
AcDb2dVertex
 10
-10.296272
 20
103.62134
 30
0.0
  0
VERTEX
  5
D07B
100
AcDbEntity
  8
ALPHA
100
AcDbVertex
100
AcDb2dVertex
 10
-10.296272
 20
106.021317
 30
0.0
  0
VERTEX
  5
D07C
100
AcDbEntity
  8
ALPHA
100
AcDbVertex
100
AcDb2dVertex
 10
-10.342528
 20
108.421329
 30
0.0
  0
SEQEND
  5
D07D
100
AcDbEntity
  8
ALPHA
  0
POLYLINE
  5
CA86
100
AcDbEntity
  8
ALPHA
100
AcDb2dPolyline
 66
     1
 10
0.0
 20
0.0
 30
0.0
  0
VERTEX
  5
D07E
100
AcDbEntity
  8
ALPHA
100
AcDbVertex
100
AcDb2dVertex
 10
-9.392564
 20
107.071329
 30
0.0
  0
VERTEX
  5
D07F
100
AcDbEntity
  8
ALPHA
100
AcDbVertex
100
AcDb2dVertex
 10
-9.402863
 20
107.571311
 30
0.0
  0
VERTEX
  5
D080
100
AcDbEntity
  8
ALPHA
100
AcDbVertex
100
AcDb2dVertex
 10
-9.415223
 20
108.07131
 30
0.0
  0
VERTEX
  5
D081
100
AcDbEntity
  8
ALPHA
100
AcDbVertex
100
AcDb2dVertex
 10
-9.429643
 20
108.571329
 30
0.0
  0
SEQEND
  5
D082
100
AcDbEntity
  8
ALPHA
  0
POLYLINE
  5
CA87
100
AcDbEntity
  8
ALPHA
100
AcDb2dPolyline
 66
     1
 10
0.0
 20
0.0
 30
0.0
  0
VERTEX
  5
D083
100
AcDbEntity
  8
ALPHA
100
AcDbVertex
100
AcDb2dVertex
 10
-5.596315
 20
108.571329
 30
0.0
  0
VERTEX
  5
D084
100
AcDbEntity
  8
ALPHA
100
AcDbVertex
100
AcDb2dVertex
 10
-5.618122
 20
109.154466
 30
0.0
  0
VERTEX
  5
D085
100
AcDbEntity
  8
ALPHA
100
AcDbVertex
100
AcDb2dVertex
 10
-5.64308
 20
109.737792
 30
0.0
  0
VERTEX
  5
D086
100
AcDbEntity
  8
ALPHA
100
AcDbVertex
100
AcDb2dVertex
 10
-5.671192
 20
110.321329
 30
0.0
  0
SEQEND
  5
D087
100
AcDbEntity
  8
ALPHA
  0
LINE
  5
CA88
100
AcDbEntity
  8
TEXTE
100
AcDbLine
 10
-7.360427
 20
103.821329
 30
0.0
 11
-6.665365
 21
103.821329
 31
0.0
  0
LINE
  5
CA89
100
AcDbEntity
  8
TEXTE
100
AcDbLine
 10
-6.639234
 20
103.448989
 30
0.0
 11
-7.195097
 21
103.448989
 31
0.0
  0
LINE
  5
CA8A
100
AcDbEntity
  8
TEXTE
100
AcDbLine
 10
-8.213375
 20
103.821329
 30
0.0
 11
-8.007736
 21
103.821329
 31
0.0
  0
LINE
  5
CA8B
100
AcDbEntity
  8
TEXTE
100
AcDbLine
 10
-8.276879
 20
103.784134
 30
0.0
 11
-8.213375
 21
103.821329
 31
0.0
  0
LINE
  5
CA8C
100
AcDbEntity
  8
TEXTE
100
AcDbLine
 10
-8.34005
 20
103.746861
 30
0.0
 11
-8.276879
 21
103.784134
 31
0.0
  0
LINE
  5
CA8D
100
AcDbEntity
  8
TEXTE
100
AcDbLine
 10
-8.012377
 20
103.37452
 30
0.0
 11
-8.217988
 21
103.37452
 31
0.0
  0
LINE
  5
CA8E
100
AcDbEntity
  8
TEXTE
100
AcDbLine
 10
-8.217988
 20
103.37452
 30
0.0
 11
-8.269034
 21
103.337319
 31
0.0
  0
LINE
  5
CA8F
100
AcDbEntity
  8
TEXTE
100
AcDbLine
 10
-8.269034
 20
103.337319
 30
0.0
 11
-8.319876
 21
103.300052
 31
0.0
  0
LINE
  5
CA90
100
AcDbEntity
  8
TEXTE
100
AcDbLine
 10
-8.007736
 20
103.821329
 30
0.0
 11
-7.942704
 21
103.784054
 31
0.0
  0
LINE
  5
CA91
100
AcDbEntity
  8
TEXTE
100
AcDbLine
 10
-7.942704
 20
103.784054
 30
0.0
 11
-7.877337
 21
103.746861
 31
0.0
  0
LINE
  5
CA92
100
AcDbEntity
  8
TEXTE
100
AcDbLine
 10
-8.390575
 20
103.672461
 30
0.0
 11
-8.34005
 21
103.746861
 31
0.0
  0
LINE
  5
CA93
100
AcDbEntity
  8
TEXTE
100
AcDbLine
 10
-8.440935
 20
103.597925
 30
0.0
 11
-8.390575
 21
103.672461
 31
0.0
  0
POLYLINE
  5
CA94
100
AcDbEntity
  8
TEXTE
100
AcDb2dPolyline
 66
     1
 10
0.0
 20
0.0
 30
0.0
  0
VERTEX
  5
D088
100
AcDbEntity
  8
TEXTE
100
AcDbVertex
100
AcDb2dVertex
 10
-8.319876
 20
103.300052
 30
0.0
  0
VERTEX
  5
D089
100
AcDbEntity
  8
TEXTE
100
AcDbVertex
100
AcDb2dVertex
 10
-8.358367
 20
103.22564
 30
0.0
  0
VERTEX
  5
D08A
100
AcDbEntity
  8
TEXTE
100
AcDbVertex
100
AcDb2dVertex
 10
-8.396789
 20
103.151116
 30
0.0
  0
SEQEND
  5
D08B
100
AcDbEntity
  8
TEXTE
  0
LINE
  5
CA95
100
AcDbEntity
  8
TEXTE
100
AcDbLine
 10
-7.960614
 20
103.337252
 30
0.0
 11
-8.012377
 21
103.37452
 31
0.0
  0
LINE
  5
CA96
100
AcDbEntity
  8
TEXTE
100
AcDbLine
 10
-7.908644
 20
103.300052
 30
0.0
 11
-7.960614
 21
103.337252
 31
0.0
  0
LINE
  5
CA97
100
AcDbEntity
  8
TEXTE
100
AcDbLine
 10
-8.491778
 20
103.449127
 30
0.0
 11
-8.440935
 21
103.597925
 31
0.0
  0
LINE
  5
CA98
100
AcDbEntity
  8
TEXTE
100
AcDbLine
 10
-8.542596
 20
103.300052
 30
0.0
 11
-8.491778
 21
103.449127
 31
0.0
  0
LINE
  5
CA99
100
AcDbEntity
  8
TEXTE
100
AcDbLine
 10
-7.668501
 20
103.300052
 30
0.0
 11
-7.643442
 21
103.151017
 31
0.0
  0
POLYLINE
  5
CA9A
100
AcDbEntity
  8
TEXTE
100
AcDb2dPolyline
 66
     1
 10
0.0
 20
0.0
 30
0.0
  0
VERTEX
  5
D08C
100
AcDbEntity
  8
TEXTE
100
AcDbVertex
100
AcDb2dVertex
 10
-7.772534
 20
103.597925
 30
0.0
  0
VERTEX
  5
D08D
100
AcDbEntity
  8
TEXTE
100
AcDbVertex
100
AcDb2dVertex
 10
-7.746535
 20
103.52335
 30
0.0
  0
VERTEX
  5
D08E
100
AcDbEntity
  8
TEXTE
100
AcDbVertex
100
AcDb2dVertex
 10
-7.668501
 20
103.300052
 30
0.0
  0
SEQEND
  5
D08F
100
AcDbEntity
  8
TEXTE
  0
POLYLINE
  5
CA9B
100
AcDbEntity
  8
TEXTE
100
AcDb2dPolyline
 66
     1
 10
0.0
 20
0.0
 30
0.0
  0
VERTEX
  5
D090
100
AcDbEntity
  8
TEXTE
100
AcDbVertex
100
AcDb2dVertex
 10
-7.831342
 20
103.151116
 30
0.0
  0
VERTEX
  5
D091
100
AcDbEntity
  8
TEXTE
100
AcDbVertex
100
AcDb2dVertex
 10
-7.870028
 20
103.225528
 30
0.0
  0
VERTEX
  5
D092
100
AcDbEntity
  8
TEXTE
100
AcDbVertex
100
AcDb2dVertex
 10
-7.908644
 20
103.300052
 30
0.0
  0
SEQEND
  5
D093
100
AcDbEntity
  8
TEXTE
  0
LINE
  5
CA9C
100
AcDbEntity
  8
TEXTE
100
AcDbLine
 10
-7.877337
 20
103.746861
 30
0.0
 11
-7.825019
 21
103.672322
 31
0.0
  0
LINE
  5
CA9D
100
AcDbEntity
  8
TEXTE
100
AcDbLine
 10
-7.825019
 20
103.672322
 30
0.0
 11
-7.772534
 21
103.597925
 31
0.0
  0
LINE
  5
CA9E
100
AcDbEntity
  8
ALPHA
100
AcDbLine
 10
-5.154713
 20
105.321329
 30
0.0
 11
-5.532396
 21
105.321329
 31
0.0
  0
LINE
  5
CA9F
100
AcDbEntity
  8
TEXTE
100
AcDbLine
 10
-6.665365
 20
103.821329
 30
0.0
 11
-6.590332
 21
103.784046
 31
0.0
  0
LINE
  5
CAA0
100
AcDbEntity
  8
TEXTE
100
AcDbLine
 10
-6.590332
 20
103.784046
 30
0.0
 11
-6.514953
 21
103.746861
 31
0.0
  0
LINE
  5
CAA1
100
AcDbEntity
  8
TEXTE
100
AcDbLine
 10
-6.594429
 20
103.411721
 30
0.0
 11
-6.639234
 21
103.448989
 31
0.0
  0
LINE
  5
CAA2
100
AcDbEntity
  8
TEXTE
100
AcDbLine
 10
-6.549518
 20
103.37452
 30
0.0
 11
-6.594429
 21
103.411721
 31
0.0
  0
POLYLINE
  5
CAA3
100
AcDbEntity
  8
ALPHA
100
AcDb2dPolyline
 66
     1
 10
0.0
 20
0.0
 30
0.0
  0
VERTEX
  5
D094
100
AcDbEntity
  8
ALPHA
100
AcDbVertex
100
AcDb2dVertex
 10
-5.532396
 20
105.321329
 30
0.0
  0
VERTEX
  5
D095
100
AcDbEntity
  8
ALPHA
100
AcDbVertex
100
AcDb2dVertex
 10
-5.53667
 20
105.904606
 30
0.0
  0
VERTEX
  5
D096
100
AcDbEntity
  8
ALPHA
100
AcDbVertex
100
AcDb2dVertex
 10
-5.544094
 20
106.487931
 30
0.0
  0
VERTEX
  5
D097
100
AcDbEntity
  8
ALPHA
100
AcDbVertex
100
AcDb2dVertex
 10
-5.554669
 20
107.071329
 30
0.0
  0
SEQEND
  5
D098
100
AcDbEntity
  8
ALPHA
  0
LINE
  5
CAA4
100
AcDbEntity
  8
TEXTE
100
AcDbLine
 10
-6.39483
 20
103.523456
 30
0.0
 11
-6.305876
 21
103.225584
 31
0.0
  0
LINE
  5
CAA5
100
AcDbEntity
  8
TEXTE
100
AcDbLine
 10
-6.490657
 20
103.225584
 30
0.0
 11
-6.549518
 21
103.37452
 31
0.0
  0
LINE
  5
CAA6
100
AcDbEntity
  8
TEXTE
100
AcDbLine
 10
-6.514953
 20
103.746861
 30
0.0
 11
-6.454939
 21
103.635019
 31
0.0
  0
LINE
  5
CAA7
100
AcDbEntity
  8
TEXTE
100
AcDbLine
 10
-6.454939
 20
103.635019
 30
0.0
 11
-6.39483
 21
103.523456
 31
0.0
  0
LINE
  5
CAA8
100
AcDbEntity
  8
ALPHA
100
AcDbLine
 10
-5.293843
 20
110.321329
 30
0.0
 11
-5.671192
 21
110.321329
 31
0.0
  0
ARC
  5
CAA9
100
AcDbEntity
  8
ALPHA
100
AcDbCircle
 10
-5.688284
 20
163.5981
 30
0.0
 40
5.0
100
AcDbArc
 50
140.731974
 51
180.0
  0
LINE
  5
CAAA
100
AcDbEntity
  8
ALPHA
100
AcDbLine
 10
15.915227
 20
94.333731
 30
0.0
 11
7.832055
 21
94.333731
 31
0.0
  0
POLYLINE
  5
CAAB
100
AcDbEntity
  8
TEXTE
100
AcDb2dPolyline
 66
     1
 10
0.0
 20
0.0
 30
0.0
  0
VERTEX
  5
D099
100
AcDbEntity
  8
TEXTE
100
AcDbVertex
100
AcDb2dVertex
 10
-3.429965
 20
100.321329
 30
0.0
  0
VERTEX
  5
D09A
100
AcDbEntity
  8
TEXTE
100
AcDbVertex
100
AcDb2dVertex
 10
-3.572238
 20
100.825554
 30
0.0
  0
VERTEX
  5
D09B
100
AcDbEntity
  8
TEXTE
100
AcDbVertex
100
AcDb2dVertex
 10
-3.715702
 20
101.331635
 30
0.0
  0
VERTEX
  5
D09C
100
AcDbEntity
  8
TEXTE
100
AcDbVertex
100
AcDb2dVertex
 10
-3.860352
 20
101.839571
 30
0.0
  0
VERTEX
  5
D09D
100
AcDbEntity
  8
TEXTE
100
AcDbVertex
100
AcDb2dVertex
 10
-4.006182
 20
102.349364
 30
0.0
  0
VERTEX
  5
D09E
100
AcDbEntity
  8
TEXTE
100
AcDbVertex
100
AcDb2dVertex
 10
-4.153188
 20
102.861013
 30
0.0
  0
VERTEX
  5
D09F
100
AcDbEntity
  8
TEXTE
100
AcDbVertex
100
AcDb2dVertex
 10
-4.301365
 20
103.37452
 30
0.0
  0
SEQEND
  5
D0A0
100
AcDbEntity
  8
TEXTE
  0
POLYLINE
  5
CAAC
100
AcDbEntity
  8
TEXTE
100
AcDb2dPolyline
 66
     1
 10
0.0
 20
0.0
 30
0.0
  0
VERTEX
  5
D0A1
100
AcDbEntity
  8
TEXTE
100
AcDbVertex
100
AcDb2dVertex
 10
-4.184614
 20
103.821329
 30
0.0
  0
VERTEX
  5
D0A2
100
AcDbEntity
  8
TEXTE
100
AcDbVertex
100
AcDb2dVertex
 10
-4.032802
 20
103.320923
 30
0.0
  0
VERTEX
  5
D0A3
100
AcDbEntity
  8
TEXTE
100
AcDbVertex
100
AcDb2dVertex
 10
-3.881945
 20
102.822099
 30
0.0
  0
VERTEX
  5
D0A4
100
AcDbEntity
  8
TEXTE
100
AcDbVertex
100
AcDb2dVertex
 10
-3.732045
 20
102.324856
 30
0.0
  0
VERTEX
  5
D0A5
100
AcDbEntity
  8
TEXTE
100
AcDbVertex
100
AcDb2dVertex
 10
-3.583108
 20
101.829193
 30
0.0
  0
VERTEX
  5
D0A6
100
AcDbEntity
  8
TEXTE
100
AcDbVertex
100
AcDb2dVertex
 10
-3.435138
 20
101.33511
 30
0.0
  0
VERTEX
  5
D0A7
100
AcDbEntity
  8
TEXTE
100
AcDbVertex
100
AcDb2dVertex
 10
-3.288141
 20
100.842605
 30
0.0
  0
SEQEND
  5
D0A8
100
AcDbEntity
  8
TEXTE
  0
POLYLINE
  5
CAAD
100
AcDbEntity
  8
TEXTE
100
AcDb2dPolyline
 66
     1
 10
0.0
 20
0.0
 30
0.0
  0
VERTEX
  5
D0A9
100
AcDbEntity
  8
TEXTE
100
AcDbVertex
100
AcDb2dVertex
 10
-4.607415
 20
100.321329
 30
0.0
  0
VERTEX
  5
D0AA
100
AcDbEntity
  8
TEXTE
100
AcDbVertex
100
AcDb2dVertex
 10
-4.591545
 20
100.710463
 30
0.0
  0
VERTEX
  5
D0AB
100
AcDbEntity
  8
TEXTE
100
AcDbVertex
100
AcDb2dVertex
 10
-4.57711
 20
101.099541
 30
0.0
  0
VERTEX
  5
D0AC
100
AcDbEntity
  8
TEXTE
100
AcDbVertex
100
AcDb2dVertex
 10
-4.564109
 20
101.488564
 30
0.0
  0
VERTEX
  5
D0AD
100
AcDbEntity
  8
TEXTE
100
AcDbVertex
100
AcDb2dVertex
 10
-4.552542
 20
101.877535
 30
0.0
  0
VERTEX
  5
D0AE
100
AcDbEntity
  8
TEXTE
100
AcDbVertex
100
AcDb2dVertex
 10
-4.542409
 20
102.266444
 30
0.0
  0
VERTEX
  5
D0AF
100
AcDbEntity
  8
TEXTE
100
AcDbVertex
100
AcDb2dVertex
 10
-4.533711
 20
102.655283
 30
0.0
  0
VERTEX
  5
D0B0
100
AcDbEntity
  8
TEXTE
100
AcDbVertex
100
AcDb2dVertex
 10
-4.526446
 20
103.044042
 30
0.0
  0
VERTEX
  5
D0B1
100
AcDbEntity
  8
TEXTE
100
AcDbVertex
100
AcDb2dVertex
 10
-4.520615
 20
103.432723
 30
0.0
  0
VERTEX
  5
D0B2
100
AcDbEntity
  8
TEXTE
100
AcDbVertex
100
AcDb2dVertex
 10
-4.516216
 20
103.821329
 30
0.0
  0
SEQEND
  5
D0B3
100
AcDbEntity
  8
TEXTE
  0
POLYLINE
  5
CAAE
100
AcDbEntity
  8
TEXTE
100
AcDb2dPolyline
 66
     1
 10
0.0
 20
0.0
 30
0.0
  0
VERTEX
  5
D0B4
100
AcDbEntity
  8
TEXTE
100
AcDbVertex
100
AcDb2dVertex
 10
-3.288141
 20
100.842605
 30
0.0
  0
VERTEX
  5
D0B5
100
AcDbEntity
  8
TEXTE
100
AcDbVertex
100
AcDb2dVertex
 10
-3.275634
 20
101.17379
 30
0.0
  0
VERTEX
  5
D0B6
100
AcDbEntity
  8
TEXTE
100
AcDbVertex
100
AcDb2dVertex
 10
-3.264213
 20
101.504924
 30
0.0
  0
VERTEX
  5
D0B7
100
AcDbEntity
  8
TEXTE
100
AcDbVertex
100
AcDb2dVertex
 10
-3.253878
 20
101.836009
 30
0.0
  0
VERTEX
  5
D0B8
100
AcDbEntity
  8
TEXTE
100
AcDbVertex
100
AcDb2dVertex
 10
-3.24463
 20
102.167047
 30
0.0
  0
VERTEX
  5
D0B9
100
AcDbEntity
  8
TEXTE
100
AcDbVertex
100
AcDb2dVertex
 10
-3.236468
 20
102.49803
 30
0.0
  0
VERTEX
  5
D0BA
100
AcDbEntity
  8
TEXTE
100
AcDbVertex
100
AcDb2dVertex
 10
-3.229392
 20
102.828953
 30
0.0
  0
VERTEX
  5
D0BB
100
AcDbEntity
  8
TEXTE
100
AcDbVertex
100
AcDb2dVertex
 10
-3.223402
 20
103.15981
 30
0.0
  0
VERTEX
  5
D0BC
100
AcDbEntity
  8
TEXTE
100
AcDbVertex
100
AcDb2dVertex
 10
-3.218498
 20
103.490601
 30
0.0
  0
VERTEX
  5
D0BD
100
AcDbEntity
  8
TEXTE
100
AcDbVertex
100
AcDb2dVertex
 10
-3.214678
 20
103.821329
 30
0.0
  0
SEQEND
  5
D0BE
100
AcDbEntity
  8
TEXTE
  0
POLYLINE
  5
CAAF
100
AcDbEntity
  8
TEXTE
100
AcDb2dPolyline
 66
     1
 10
0.0
 20
0.0
 30
0.0
  0
VERTEX
  5
D0BF
100
AcDbEntity
  8
TEXTE
100
AcDbVertex
100
AcDb2dVertex
 10
-4.301365
 20
103.37452
 30
0.0
  0
VERTEX
  5
D0C0
100
AcDbEntity
  8
TEXTE
100
AcDbVertex
100
AcDb2dVertex
 10
-4.306597
 20
103.035509
 30
0.0
  0
VERTEX
  5
D0C1
100
AcDbEntity
  8
TEXTE
100
AcDbVertex
100
AcDb2dVertex
 10
-4.312927
 20
102.696438
 30
0.0
  0
VERTEX
  5
D0C2
100
AcDbEntity
  8
TEXTE
100
AcDbVertex
100
AcDb2dVertex
 10
-4.320356
 20
102.357303
 30
0.0
  0
VERTEX
  5
D0C3
100
AcDbEntity
  8
TEXTE
100
AcDbVertex
100
AcDb2dVertex
 10
-4.328885
 20
102.018103
 30
0.0
  0
VERTEX
  5
D0C4
100
AcDbEntity
  8
TEXTE
100
AcDbVertex
100
AcDb2dVertex
 10
-4.338513
 20
101.678845
 30
0.0
  0
VERTEX
  5
D0C5
100
AcDbEntity
  8
TEXTE
100
AcDbVertex
100
AcDb2dVertex
 10
-4.34924
 20
101.339536
 30
0.0
  0
VERTEX
  5
D0C6
100
AcDbEntity
  8
TEXTE
100
AcDbVertex
100
AcDb2dVertex
 10
-4.361067
 20
101.000181
 30
0.0
  0
VERTEX
  5
D0C7
100
AcDbEntity
  8
TEXTE
100
AcDbVertex
100
AcDb2dVertex
 10
-4.373993
 20
100.660779
 30
0.0
  0
VERTEX
  5
D0C8
100
AcDbEntity
  8
TEXTE
100
AcDbVertex
100
AcDb2dVertex
 10
-4.38802
 20
100.321329
 30
0.0
  0
SEQEND
  5
D0C9
100
AcDbEntity
  8
TEXTE
  0
POLYLINE
  5
CAB0
100
AcDbEntity
  8
TEXTE
100
AcDb2dPolyline
 66
     1
 10
0.0
 20
0.0
 30
0.0
  0
VERTEX
  5
D0CA
100
AcDbEntity
  8
TEXTE
100
AcDbVertex
100
AcDb2dVertex
 10
-2.970625
 20
103.821329
 30
0.0
  0
VERTEX
  5
D0CB
100
AcDbEntity
  8
TEXTE
100
AcDbVertex
100
AcDb2dVertex
 10
-2.975263
 20
103.432811
 30
0.0
  0
VERTEX
  5
D0CC
100
AcDbEntity
  8
TEXTE
100
AcDbVertex
100
AcDb2dVertex
 10
-2.981412
 20
103.044197
 30
0.0
  0
VERTEX
  5
D0CD
100
AcDbEntity
  8
TEXTE
100
AcDbVertex
100
AcDb2dVertex
 10
-2.989072
 20
102.655481
 30
0.0
  0
VERTEX
  5
D0CE
100
AcDbEntity
  8
TEXTE
100
AcDbVertex
100
AcDb2dVertex
 10
-2.998243
 20
102.266662
 30
0.0
  0
VERTEX
  5
D0CF
100
AcDbEntity
  8
TEXTE
100
AcDbVertex
100
AcDb2dVertex
 10
-3.008928
 20
101.87775
 30
0.0
  0
VERTEX
  5
D0D0
100
AcDbEntity
  8
TEXTE
100
AcDbVertex
100
AcDb2dVertex
 10
-3.021124
 20
101.488756
 30
0.0
  0
VERTEX
  5
D0D1
100
AcDbEntity
  8
TEXTE
100
AcDbVertex
100
AcDb2dVertex
 10
-3.034834
 20
101.099689
 30
0.0
  0
VERTEX
  5
D0D2
100
AcDbEntity
  8
TEXTE
100
AcDbVertex
100
AcDb2dVertex
 10
-3.050056
 20
100.710548
 30
0.0
  0
VERTEX
  5
D0D3
100
AcDbEntity
  8
TEXTE
100
AcDbVertex
100
AcDb2dVertex
 10
-3.066791
 20
100.321329
 30
0.0
  0
SEQEND
  5
D0D4
100
AcDbEntity
  8
TEXTE
  0
LINE
  5
CAB1
100
AcDbEntity
  8
TEXTE
100
AcDbLine
 10
-4.388019
 20
100.321329
 30
0.0
 11
-4.607415
 21
100.321329
 31
0.0
  0
LINE
  5
CAB2
100
AcDbEntity
  8
TEXTE
100
AcDbLine
 10
-3.066791
 20
100.321329
 30
0.0
 11
-3.429965
 21
100.321329
 31
0.0
  0
POLYLINE
  5
CAB3
100
AcDbEntity
  8
TEXTE
100
AcDb2dPolyline
 66
     1
 10
0.0
 20
0.0
 30
0.0
  0
VERTEX
  5
D0D5
100
AcDbEntity
  8
TEXTE
100
AcDbVertex
100
AcDb2dVertex
 10
-4.875974
 20
100.768138
 30
0.0
  0
VERTEX
  5
D0D6
100
AcDbEntity
  8
TEXTE
100
AcDbVertex
100
AcDb2dVertex
 10
-4.88028
 20
100.656447
 30
0.0
  0
VERTEX
  5
D0D7
100
AcDbEntity
  8
TEXTE
100
AcDbVertex
100
AcDb2dVertex
 10
-4.884704
 20
100.544748
 30
0.0
  0
VERTEX
  5
D0D8
100
AcDbEntity
  8
TEXTE
100
AcDbVertex
100
AcDb2dVertex
 10
-4.889245
 20
100.433042
 30
0.0
  0
VERTEX
  5
D0D9
100
AcDbEntity
  8
TEXTE
100
AcDbVertex
100
AcDb2dVertex
 10
-4.893903
 20
100.321329
 30
0.0
  0
SEQEND
  5
D0DA
100
AcDbEntity
  8
TEXTE
  0
LINE
  5
CAB4
100
AcDbEntity
  8
TEXTE
100
AcDbLine
 10
-3.214678
 20
103.821329
 30
0.0
 11
-2.970625
 21
103.821329
 31
0.0
  0
LINE
  5
CAB5
100
AcDbEntity
  8
TEXTE
100
AcDbLine
 10
-4.516216
 20
103.821329
 30
0.0
 11
-4.184614
 21
103.821329
 31
0.0
  0
POLYLINE
  5
CAB6
100
AcDbEntity
  8
TEXTE
100
AcDb2dPolyline
 66
     1
 10
0.0
 20
0.0
 30
0.0
  0
VERTEX
  5
D0DB
100
AcDbEntity
  8
TEXTE
100
AcDbVertex
100
AcDb2dVertex
 10
-4.803569
 20
103.821329
 30
0.0
  0
VERTEX
  5
D0DC
100
AcDbEntity
  8
TEXTE
100
AcDbVertex
100
AcDb2dVertex
 10
-4.804676
 20
103.70963
 30
0.0
  0
VERTEX
  5
D0DD
100
AcDbEntity
  8
TEXTE
100
AcDbVertex
100
AcDb2dVertex
 10
-4.805901
 20
103.597929
 30
0.0
  0
VERTEX
  5
D0DE
100
AcDbEntity
  8
TEXTE
100
AcDbVertex
100
AcDb2dVertex
 10
-4.807242
 20
103.486225
 30
0.0
  0
VERTEX
  5
D0DF
100
AcDbEntity
  8
TEXTE
100
AcDbVertex
100
AcDb2dVertex
 10
-4.808701
 20
103.37452
 30
0.0
  0
SEQEND
  5
D0E0
100
AcDbEntity
  8
TEXTE
  0
LINE
  5
CAB7
100
AcDbEntity
  8
ALPHA
100
AcDbLine
 10
-1.571859
 20
107.821329
 30
0.0
 11
-1.99959
 21
107.821329
 31
0.0
  0
LINE
  5
CAB8
100
AcDbEntity
  8
ALPHA
100
AcDbLine
 10
8.297464
 20
94.321329
 30
0.0
 11
8.301625
 21
94.333731
 31
0.0
  0
LINE
  5
CAB9
100
AcDbEntity
  8
ALPHA
100
AcDbLine
 10
7.894959
 20
94.321329
 30
0.0
 11
8.297464
 21
94.321329
 31
0.0
  0
POLYLINE
  5
CABA
100
AcDbEntity
  8
ALPHA
100
AcDb2dPolyline
 66
     1
 10
0.0
 20
0.0
 30
0.0
  0
VERTEX
  5
D0E1
100
AcDbEntity
  8
ALPHA
100
AcDbVertex
100
AcDb2dVertex
 10
7.832055
 20
94.333731
 30
0.0
  0
VERTEX
  5
D0E2
100
AcDbEntity
  8
ALPHA
100
AcDbVertex
100
AcDb2dVertex
 10
7.863397
 20
94.324441
 30
0.0
  0
VERTEX
  5
D0E3
100
AcDbEntity
  8
ALPHA
100
AcDbVertex
100
AcDb2dVertex
 10
7.894959
 20
94.321329
 30
0.0
  0
SEQEND
  5
D0E4
100
AcDbEntity
  8
ALPHA
  0
POLYLINE
  5
CABB
100
AcDbEntity
  8
ALPHA
100
AcDb2dPolyline
 66
     1
 10
0.0
 20
0.0
 30
0.0
  0
VERTEX
  5
D0E5
100
AcDbEntity
  8
ALPHA
100
AcDbVertex
100
AcDb2dVertex
 10
15.937063
 20
94.321329
 30
0.0
  0
VERTEX
  5
D0E6
100
AcDbEntity
  8
ALPHA
100
AcDbVertex
100
AcDb2dVertex
 10
15.926105
 20
94.324442
 30
0.0
  0
VERTEX
  5
D0E7
100
AcDbEntity
  8
ALPHA
100
AcDbVertex
100
AcDb2dVertex
 10
15.915227
 20
94.333731
 30
0.0
  0
SEQEND
  5
D0E8
100
AcDbEntity
  8
ALPHA
  0
LINE
  5
CABC
100
AcDbEntity
  8
ALPHA
100
AcDbLine
 10
22.562357
 20
182.785521
 30
0.0
 11
26.061074
 21
182.785521
 31
0.0
  0
LINE
  5
CABD
100
AcDbEntity
  8
ALPHA
100
AcDbLine
 10
22.521436
 20
182.784684
 30
0.0
 11
26.101995
 21
182.784684
 31
0.0
  0
LINE
  5
CABE
100
AcDbEntity
  8
ALPHA
100
AcDbLine
 10
22.521436
 20
182.784684
 30
0.0
 11
22.562357
 21
182.785521
 31
0.0
  0
LINE
  5
CABF
100
AcDbEntity
  8
ALPHA
100
AcDbLine
 10
26.101995
 20
182.784684
 30
0.0
 11
26.061074
 21
182.785521
 31
0.0
  0
LINE
  5
CAC0
100
AcDbEntity
  8
ALPHA
100
AcDbLine
 10
59.261716
 20
94.321329
 30
0.0
 11
59.261716
 21
74.321329
 31
0.0
  0
LINE
  5
CAC1
100
AcDbEntity
  8
ALPHA
100
AcDbLine
 10
59.261716
 20
46.321329
 30
0.0
 11
57.261716
 21
44.321329
 31
0.0
  0
POLYLINE
  5
CAC2
100
AcDbEntity
  8
ALPHA
100
AcDb2dPolyline
 66
     1
 10
0.0
 20
0.0
 30
0.0
  0
VERTEX
  5
D0E9
100
AcDbEntity
  8
ALPHA
100
AcDbVertex
100
AcDb2dVertex
 10
57.660441
 20
64.762069
 30
0.0
  0
VERTEX
  5
D0EA
100
AcDbEntity
  8
ALPHA
100
AcDbVertex
100
AcDb2dVertex
 10
57.769527
 20
66.680107
 30
0.0
  0
VERTEX
  5
D0EB
100
AcDbEntity
  8
ALPHA
100
AcDbVertex
100
AcDb2dVertex
 10
57.976944
 20
68.521871
 30
0.0
  0
VERTEX
  5
D0EC
100
AcDbEntity
  8
ALPHA
100
AcDbVertex
100
AcDb2dVertex
 10
58.255431
 20
70.218462
 30
0.0
  0
VERTEX
  5
D0ED
100
AcDbEntity
  8
ALPHA
100
AcDbVertex
100
AcDb2dVertex
 10
58.563529
 20
71.691157
 30
0.0
  0
VERTEX
  5
D0EE
100
AcDbEntity
  8
ALPHA
100
AcDbVertex
100
AcDb2dVertex
 10
58.853478
 20
72.870133
 30
0.0
  0
VERTEX
  5
D0EF
100
AcDbEntity
  8
ALPHA
100
AcDbVertex
100
AcDb2dVertex
 10
59.083174
 20
73.710809
 30
0.0
  0
VERTEX
  5
D0F0
100
AcDbEntity
  8
ALPHA
100
AcDbVertex
100
AcDb2dVertex
 10
59.22378
 20
74.194358
 30
0.0
  0
VERTEX
  5
D0F1
100
AcDbEntity
  8
ALPHA
100
AcDbVertex
100
AcDb2dVertex
 10
59.261644
 20
74.321329
 30
0.0
  0
SEQEND
  5
D0F2
100
AcDbEntity
  8
ALPHA
  0
POLYLINE
  5
CAC3
100
AcDbEntity
  8
ALPHA
100
AcDb2dPolyline
 66
     1
 10
0.0
 20
0.0
 30
0.0
  0
VERTEX
  5
D0F3
100
AcDbEntity
  8
ALPHA
100
AcDbVertex
100
AcDb2dVertex
 10
57.662166
 20
62.821328
 30
0.0
  0
VERTEX
  5
D0F4
100
AcDbEntity
  8
ALPHA
100
AcDbVertex
100
AcDb2dVertex
 10
57.760157
 20
61.074384
 30
0.0
  0
VERTEX
  5
D0F5
100
AcDbEntity
  8
ALPHA
100
AcDbVertex
100
AcDb2dVertex
 10
57.941052
 20
59.385138
 30
0.0
  0
VERTEX
  5
D0F6
100
AcDbEntity
  8
ALPHA
100
AcDbVertex
100
AcDb2dVertex
 10
58.185331
 20
57.807233
 30
0.0
  0
VERTEX
  5
D0F7
100
AcDbEntity
  8
ALPHA
100
AcDbVertex
100
AcDb2dVertex
 10
58.463326
 20
56.399741
 30
0.0
  0
VERTEX
  5
D0F8
100
AcDbEntity
  8
ALPHA
100
AcDbVertex
100
AcDb2dVertex
 10
58.739126
 20
55.219349
 30
0.0
  0
VERTEX
  5
D0F9
100
AcDbEntity
  8
ALPHA
100
AcDbVertex
100
AcDb2dVertex
 10
58.978019
 20
54.308177
 30
0.0
  0
VERTEX
  5
D0FA
100
AcDbEntity
  8
ALPHA
100
AcDbVertex
100
AcDb2dVertex
 10
59.153071
 20
53.68883
 30
0.0
  0
VERTEX
  5
D0FB
100
AcDbEntity
  8
ALPHA
100
AcDbVertex
100
AcDb2dVertex
 10
59.261532
 20
53.321329
 30
0.0
  0
SEQEND
  5
D0FC
100
AcDbEntity
  8
ALPHA
  0
LINE
  5
CAC4
100
AcDbEntity
  8
ALPHA
100
AcDbLine
 10
59.261716
 20
53.321329
 30
0.0
 11
59.261716
 21
46.321329
 31
0.0
  0
LINE
  5
CAC5
100
AcDbEntity
  8
ALPHA
100
AcDbLine
 10
57.761716
 20
61.059826
 30
0.0
 11
57.761716
 21
63.071391
 31
0.0
  0
LINE
  5
CAC6
100
AcDbEntity
  8
ALPHA
100
AcDbLine
 10
57.761716
 20
64.571265
 30
0.0
 11
57.761716
 21
66.542768
 31
0.0
  0
LINE
  5
CAC7
100
AcDbEntity
  8
ALPHA
100
AcDbLine
 10
57.662166
 20
62.821329
 30
0.0
 11
57.660441
 21
64.762069
 31
0.0
  0
POLYLINE
  5
CAC8
100
AcDbEntity
  8
ALPHA
100
AcDb2dPolyline
 66
     1
 10
0.0
 20
0.0
 30
0.0
  0
VERTEX
  5
D0FD
100
AcDbEntity
  8
ALPHA
100
AcDbVertex
100
AcDb2dVertex
 10
57.761716
 20
63.071332
 30
0.0
  0
VERTEX
  5
D0FE
100
AcDbEntity
  8
ALPHA
100
AcDbVertex
100
AcDb2dVertex
 10
57.760764
 20
63.116065
 30
0.0
  0
VERTEX
  5
D0FF
100
AcDbEntity
  8
ALPHA
100
AcDbVertex
100
AcDb2dVertex
 10
57.758347
 20
63.245064
 30
0.0
  0
VERTEX
  5
D100
100
AcDbEntity
  8
ALPHA
100
AcDbVertex
100
AcDb2dVertex
 10
57.755587
 20
63.442642
 30
0.0
  0
VERTEX
  5
D101
100
AcDbEntity
  8
ALPHA
100
AcDbVertex
100
AcDb2dVertex
 10
57.753757
 20
63.686325
 30
0.0
  0
VERTEX
  5
D102
100
AcDbEntity
  8
ALPHA
100
AcDbVertex
100
AcDb2dVertex
 10
57.753718
 20
63.946176
 30
0.0
  0
VERTEX
  5
D103
100
AcDbEntity
  8
ALPHA
100
AcDbVertex
100
AcDb2dVertex
 10
57.755486
 20
64.190706
 30
0.0
  0
VERTEX
  5
D104
100
AcDbEntity
  8
ALPHA
100
AcDbVertex
100
AcDb2dVertex
 10
57.758256
 20
64.39216
 30
0.0
  0
VERTEX
  5
D105
100
AcDbEntity
  8
ALPHA
100
AcDbVertex
100
AcDb2dVertex
 10
57.76076
 20
64.526386
 30
0.0
  0
VERTEX
  5
D106
100
AcDbEntity
  8
ALPHA
100
AcDbVertex
100
AcDb2dVertex
 10
57.761716
 20
64.571323
 30
0.0
  0
SEQEND
  5
D107
100
AcDbEntity
  8
ALPHA
  0
POLYLINE
  5
CAC9
100
AcDbEntity
  8
ALPHA
100
AcDb2dPolyline
 66
     1
 10
0.0
 20
0.0
 30
0.0
  0
VERTEX
  5
D108
100
AcDbEntity
  8
ALPHA
100
AcDbVertex
100
AcDb2dVertex
 10
59.261645
 20
74.321329
 30
0.0
  0
VERTEX
  5
D109
100
AcDbEntity
  8
ALPHA
100
AcDbVertex
100
AcDb2dVertex
 10
59.260293
 20
74.316593
 30
0.0
  0
VERTEX
  5
D10A
100
AcDbEntity
  8
ALPHA
100
AcDbVertex
100
AcDb2dVertex
 10
59.254994
 20
74.298763
 30
0.0
  0
SEQEND
  5
D10B
100
AcDbEntity
  8
ALPHA
  0
LINE
  5
CACA
100
AcDbEntity
  8
ALPHA
100
AcDbLine
 10
58.967618
 20
108.921329
 30
0.0
 11
62.373266
 21
108.921329
 31
0.0
  0
LINE
  5
CACB
100
AcDbEntity
  8
ALPHA
100
AcDbLine
 10
62.359421
 20
108.421329
 30
0.0
 11
59.493022
 21
108.421329
 31
0.0
  0
LINE
  5
CACC
100
AcDbEntity
  8
ALPHA
100
AcDbLine
 10
62.359421
 20
101.221329
 30
0.0
 11
59.493022
 21
101.221329
 31
0.0
  0
LINE
  5
CACD
100
AcDbEntity
  8
ALPHA
100
AcDbLine
 10
58.967618
 20
100.721329
 30
0.0
 11
62.373266
 21
100.721329
 31
0.0
  0
LINE
  5
CACE
100
AcDbEntity
  8
ALPHA
100
AcDbLine
 10
59.311716
 20
163.5981
 30
0.0
 11
59.311716
 21
115.321329
 31
0.0
  0
POLYLINE
  5
CACF
100
AcDbEntity
  8
TEXTE
100
AcDb2dPolyline
 66
     1
 10
0.0
 20
0.0
 30
0.0
  0
VERTEX
  5
D10C
100
AcDbEntity
  8
TEXTE
100
AcDbVertex
100
AcDb2dVertex
 10
52.600145
 20
100.544733
 30
0.0
  0
VERTEX
  5
D10D
100
AcDbEntity
  8
TEXTE
100
AcDbVertex
100
AcDb2dVertex
 10
52.562252
 20
100.507385
 30
0.0
  0
VERTEX
  5
D10E
100
AcDbEntity
  8
TEXTE
100
AcDbVertex
100
AcDb2dVertex
 10
52.524328
 20
100.470114
 30
0.0
  0
VERTEX
  5
D10F
100
AcDbEntity
  8
TEXTE
100
AcDbVertex
100
AcDb2dVertex
 10
52.486371
 20
100.432917
 30
0.0
  0
VERTEX
  5
D110
100
AcDbEntity
  8
TEXTE
100
AcDbVertex
100
AcDb2dVertex
 10
52.448383
 20
100.395796
 30
0.0
  0
SEQEND
  5
D111
100
AcDbEntity
  8
TEXTE
  0
LINE
  5
CAD0
100
AcDbEntity
  8
TEXTE
100
AcDbLine
 10
52.446426
 20
100.916976
 30
0.0
 11
52.503145
 21
100.991542
 31
0.0
  0
POLYLINE
  5
CAD1
100
AcDbEntity
  8
TEXTE
100
AcDb2dPolyline
 66
     1
 10
0.0
 20
0.0
 30
0.0
  0
VERTEX
  5
D112
100
AcDbEntity
  8
TEXTE
100
AcDbVertex
100
AcDb2dVertex
 10
52.487288
 20
102.927712
 30
0.0
  0
VERTEX
  5
D113
100
AcDbEntity
  8
TEXTE
100
AcDbVertex
100
AcDb2dVertex
 10
52.465432
 20
103.03948
 30
0.0
  0
VERTEX
  5
D114
100
AcDbEntity
  8
TEXTE
100
AcDbVertex
100
AcDb2dVertex
 10
52.443691
 20
103.151116
 30
0.0
  0
SEQEND
  5
D115
100
AcDbEntity
  8
TEXTE
  0
POLYLINE
  5
CAD2
100
AcDbEntity
  8
ALPHA
100
AcDb2dPolyline
 66
     1
 10
0.0
 20
0.0
 30
0.0
  0
VERTEX
  5
D116
100
AcDbEntity
  8
ALPHA
100
AcDbVertex
100
AcDb2dVertex
 10
51.13772
 20
107.821329
 30
0.0
  0
VERTEX
  5
D117
100
AcDbEntity
  8
ALPHA
100
AcDbVertex
100
AcDb2dVertex
 10
52.373657
 20
108.608484
 30
0.0
  0
VERTEX
  5
D118
100
AcDbEntity
  8
ALPHA
100
AcDbVertex
100
AcDb2dVertex
 10
53.569231
 20
109.441909
 30
0.0
  0
VERTEX
  5
D119
100
AcDbEntity
  8
ALPHA
100
AcDbVertex
100
AcDb2dVertex
 10
54.720086
 20
110.321329
 30
0.0
  0
SEQEND
  5
D11A
100
AcDbEntity
  8
ALPHA
  0
POLYLINE
  5
CAD3
100
AcDbEntity
  8
ALPHA
100
AcDb2dPolyline
 66
     1
 10
0.0
 20
0.0
 30
0.0
  0
VERTEX
  5
D11B
100
AcDbEntity
  8
ALPHA
100
AcDbVertex
100
AcDb2dVertex
 10
51.565451
 20
107.821329
 30
0.0
  0
VERTEX
  5
D11C
100
AcDbEntity
  8
ALPHA
100
AcDbVertex
100
AcDb2dVertex
 10
52.784153
 20
108.609627
 30
0.0
  0
VERTEX
  5
D11D
100
AcDbEntity
  8
ALPHA
100
AcDbVertex
100
AcDb2dVertex
 10
53.962884
 20
109.443058
 30
0.0
  0
VERTEX
  5
D11E
100
AcDbEntity
  8
ALPHA
100
AcDbVertex
100
AcDb2dVertex
 10
55.097435
 20
110.321329
 30
0.0
  0
SEQEND
  5
D11F
100
AcDbEntity
  8
ALPHA
  0
POLYLINE
  5
CAD4
100
AcDbEntity
  8
TEXTE
100
AcDb2dPolyline
 66
     1
 10
0.0
 20
0.0
 30
0.0
  0
VERTEX
  5
D120
100
AcDbEntity
  8
TEXTE
100
AcDbVertex
100
AcDb2dVertex
 10
52.355865
 20
103.746861
 30
0.0
  0
VERTEX
  5
D121
100
AcDbEntity
  8
TEXTE
100
AcDbVertex
100
AcDb2dVertex
 10
52.396028
 20
103.709746
 30
0.0
  0
VERTEX
  5
D122
100
AcDbEntity
  8
TEXTE
100
AcDbVertex
100
AcDb2dVertex
 10
52.436161
 20
103.672552
 30
0.0
  0
VERTEX
  5
D123
100
AcDbEntity
  8
TEXTE
100
AcDbVertex
100
AcDb2dVertex
 10
52.476265
 20
103.635278
 30
0.0
  0
VERTEX
  5
D124
100
AcDbEntity
  8
TEXTE
100
AcDbVertex
100
AcDb2dVertex
 10
52.516338
 20
103.597925
 30
0.0
  0
SEQEND
  5
D125
100
AcDbEntity
  8
TEXTE
  0
POLYLINE
  5
CAD5
100
AcDbEntity
  8
ALPHA
100
AcDb2dPolyline
 66
     1
 10
0.0
 20
0.0
 30
0.0
  0
VERTEX
  5
D126
100
AcDbEntity
  8
ALPHA
100
AcDbVertex
100
AcDb2dVertex
 10
54.958638
 20
105.321329
 30
0.0
  0
VERTEX
  5
D127
100
AcDbEntity
  8
ALPHA
100
AcDbVertex
100
AcDb2dVertex
 10
53.871382
 20
106.19806
 30
0.0
  0
VERTEX
  5
D128
100
AcDbEntity
  8
ALPHA
100
AcDbVertex
100
AcDb2dVertex
 10
52.738917
 20
107.031543
 30
0.0
  0
VERTEX
  5
D129
100
AcDbEntity
  8
ALPHA
100
AcDbVertex
100
AcDb2dVertex
 10
51.565451
 20
107.821329
 30
0.0
  0
SEQEND
  5
D12A
100
AcDbEntity
  8
ALPHA
  0
POLYLINE
  5
CAD6
100
AcDbEntity
  8
ALPHA
100
AcDb2dPolyline
 66
     1
 10
0.0
 20
0.0
 30
0.0
  0
VERTEX
  5
D12B
100
AcDbEntity
  8
ALPHA
100
AcDbVertex
100
AcDb2dVertex
 10
54.580955
 20
105.321329
 30
0.0
  0
VERTEX
  5
D12C
100
AcDbEntity
  8
ALPHA
100
AcDbVertex
100
AcDb2dVertex
 10
53.477514
 20
106.199198
 30
0.0
  0
VERTEX
  5
D12D
100
AcDbEntity
  8
ALPHA
100
AcDbVertex
100
AcDb2dVertex
 10
52.328316
 20
107.032675
 30
0.0
  0
VERTEX
  5
D12E
100
AcDbEntity
  8
ALPHA
100
AcDbVertex
100
AcDb2dVertex
 10
51.13772
 20
107.821329
 30
0.0
  0
SEQEND
  5
D12F
100
AcDbEntity
  8
ALPHA
  0
LINE
  5
CAD7
100
AcDbEntity
  8
TEXTE
100
AcDbLine
 10
51.495966
 20
103.151116
 30
0.0
 11
51.41425
 21
102.927712
 31
0.0
  0
POLYLINE
  5
CAD8
100
AcDbEntity
  8
TEXTE
100
AcDb2dPolyline
 66
     1
 10
0.0
 20
0.0
 30
0.0
  0
VERTEX
  5
D130
100
AcDbEntity
  8
TEXTE
100
AcDbVertex
100
AcDb2dVertex
 10
51.151779
 20
103.00218
 30
0.0
  0
VERTEX
  5
D131
100
AcDbEntity
  8
TEXTE
100
AcDbVertex
100
AcDb2dVertex
 10
51.192895
 20
103.151016
 30
0.0
  0
VERTEX
  5
D132
100
AcDbEntity
  8
TEXTE
100
AcDbVertex
100
AcDb2dVertex
 10
51.234161
 20
103.300052
 30
0.0
  0
SEQEND
  5
D133
100
AcDbEntity
  8
TEXTE
  0
LINE
  5
CAD9
100
AcDbEntity
  8
TEXTE
100
AcDbLine
 10
52.389636
 20
100.842605
 30
0.0
 11
52.446426
 21
100.916976
 31
0.0
  0
LINE
  5
CADA
100
AcDbEntity
  8
TEXTE
100
AcDbLine
 10
51.41425
 20
102.927712
 30
0.0
 11
51.395741
 21
102.778681
 31
0.0
  0
LINE
  5
CADB
100
AcDbEntity
  8
TEXTE
100
AcDbLine
 10
51.395741
 20
102.778681
 30
0.0
 11
51.377455
 21
102.62984
 31
0.0
  0
POLYLINE
  5
CADC
100
AcDbEntity
  8
TEXTE
100
AcDb2dPolyline
 66
     1
 10
0.0
 20
0.0
 30
0.0
  0
VERTEX
  5
D134
100
AcDbEntity
  8
TEXTE
100
AcDbVertex
100
AcDb2dVertex
 10
51.115621
 20
102.62984
 30
0.0
  0
VERTEX
  5
D135
100
AcDbEntity
  8
TEXTE
100
AcDbVertex
100
AcDb2dVertex
 10
51.124527
 20
102.722835
 30
0.0
  0
VERTEX
  5
D136
100
AcDbEntity
  8
TEXTE
100
AcDbVertex
100
AcDb2dVertex
 10
51.133521
 20
102.81589
 30
0.0
  0
VERTEX
  5
D137
100
AcDbEntity
  8
TEXTE
100
AcDbVertex
100
AcDb2dVertex
 10
51.142605
 20
102.909005
 30
0.0
  0
VERTEX
  5
D138
100
AcDbEntity
  8
TEXTE
100
AcDbVertex
100
AcDb2dVertex
 10
51.151779
 20
103.00218
 30
0.0
  0
SEQEND
  5
D139
100
AcDbEntity
  8
TEXTE
  0
POLYLINE
  5
CADD
100
AcDbEntity
  8
TEXTE
100
AcDb2dPolyline
 66
     1
 10
0.0
 20
0.0
 30
0.0
  0
VERTEX
  5
D13A
100
AcDbEntity
  8
TEXTE
100
AcDbVertex
100
AcDb2dVertex
 10
51.20559
 20
101.140478
 30
0.0
  0
VERTEX
  5
D13B
100
AcDbEntity
  8
TEXTE
100
AcDbVertex
100
AcDb2dVertex
 10
51.191049
 20
101.233668
 30
0.0
  0
VERTEX
  5
D13C
100
AcDbEntity
  8
TEXTE
100
AcDbVertex
100
AcDb2dVertex
 10
51.176598
 20
101.326788
 30
0.0
  0
VERTEX
  5
D13D
100
AcDbEntity
  8
TEXTE
100
AcDbVertex
100
AcDb2dVertex
 10
51.162236
 20
101.419838
 30
0.0
  0
VERTEX
  5
D13E
100
AcDbEntity
  8
TEXTE
100
AcDbVertex
100
AcDb2dVertex
 10
51.147964
 20
101.512818
 30
0.0
  0
SEQEND
  5
D13F
100
AcDbEntity
  8
TEXTE
  0
LINE
  5
CADE
100
AcDbEntity
  8
TEXTE
100
AcDbLine
 10
51.409475
 20
101.512818
 30
0.0
 11
51.436257
 21
101.363986
 31
0.0
  0
LINE
  5
CADF
100
AcDbEntity
  8
TEXTE
100
AcDbLine
 10
51.436257
 20
101.363986
 30
0.0
 11
51.463264
 21
101.214945
 31
0.0
  0
POLYLINE
  5
CAE0
100
AcDbEntity
  8
TEXTE
100
AcDb2dPolyline
 66
     1
 10
0.0
 20
0.0
 30
0.0
  0
VERTEX
  5
D140
100
AcDbEntity
  8
TEXTE
100
AcDbVertex
100
AcDb2dVertex
 10
52.448383
 20
100.395796
 30
0.0
  0
VERTEX
  5
D141
100
AcDbEntity
  8
TEXTE
100
AcDbVertex
100
AcDb2dVertex
 10
52.399199
 20
100.377124
 30
0.0
  0
VERTEX
  5
D142
100
AcDbEntity
  8
TEXTE
100
AcDbVertex
100
AcDb2dVertex
 10
52.349917
 20
100.358488
 30
0.0
  0
VERTEX
  5
D143
100
AcDbEntity
  8
TEXTE
100
AcDbVertex
100
AcDb2dVertex
 10
52.300538
 20
100.33989
 30
0.0
  0
VERTEX
  5
D144
100
AcDbEntity
  8
TEXTE
100
AcDbVertex
100
AcDb2dVertex
 10
52.25106
 20
100.321329
 30
0.0
  0
SEQEND
  5
D145
100
AcDbEntity
  8
TEXTE
  0
LINE
  5
CAE1
100
AcDbEntity
  8
TEXTE
100
AcDbLine
 10
52.231743
 20
100.768138
 30
0.0
 11
52.310807
 21
100.805309
 31
0.0
  0
LINE
  5
CAE2
100
AcDbEntity
  8
TEXTE
100
AcDbLine
 10
52.310807
 20
100.805309
 30
0.0
 11
52.389636
 21
100.842605
 31
0.0
  0
POLYLINE
  5
CAE3
100
AcDbEntity
  8
TEXTE
100
AcDb2dPolyline
 66
     1
 10
0.0
 20
0.0
 30
0.0
  0
VERTEX
  5
D146
100
AcDbEntity
  8
TEXTE
100
AcDbVertex
100
AcDb2dVertex
 10
51.377455
 20
102.62984
 30
0.0
  0
VERTEX
  5
D147
100
AcDbEntity
  8
TEXTE
100
AcDbVertex
100
AcDb2dVertex
 10
51.381888
 20
102.443733
 30
0.0
  0
VERTEX
  5
D148
100
AcDbEntity
  8
TEXTE
100
AcDbVertex
100
AcDb2dVertex
 10
51.386682
 20
102.2576
 30
0.0
  0
VERTEX
  5
D149
100
AcDbEntity
  8
TEXTE
100
AcDbVertex
100
AcDb2dVertex
 10
51.391838
 20
102.071441
 30
0.0
  0
VERTEX
  5
D14A
100
AcDbEntity
  8
TEXTE
100
AcDbVertex
100
AcDb2dVertex
 10
51.397355
 20
101.885257
 30
0.0
  0
VERTEX
  5
D14B
100
AcDbEntity
  8
TEXTE
100
AcDbVertex
100
AcDb2dVertex
 10
51.403234
 20
101.69905
 30
0.0
  0
VERTEX
  5
D14C
100
AcDbEntity
  8
TEXTE
100
AcDbVertex
100
AcDb2dVertex
 10
51.409475
 20
101.512818
 30
0.0
  0
SEQEND
  5
D14D
100
AcDbEntity
  8
TEXTE
  0
POLYLINE
  5
CAE4
100
AcDbEntity
  8
TEXTE
100
AcDb2dPolyline
 66
     1
 10
0.0
 20
0.0
 30
0.0
  0
VERTEX
  5
D14E
100
AcDbEntity
  8
TEXTE
100
AcDbVertex
100
AcDb2dVertex
 10
51.147964
 20
101.512818
 30
0.0
  0
VERTEX
  5
D14F
100
AcDbEntity
  8
TEXTE
100
AcDbVertex
100
AcDb2dVertex
 10
51.14166
 20
101.699055
 30
0.0
  0
VERTEX
  5
D150
100
AcDbEntity
  8
TEXTE
100
AcDbVertex
100
AcDb2dVertex
 10
51.135722
 20
101.885266
 30
0.0
  0
VERTEX
  5
D151
100
AcDbEntity
  8
TEXTE
100
AcDbVertex
100
AcDb2dVertex
 10
51.130149
 20
102.071451
 30
0.0
  0
VERTEX
  5
D152
100
AcDbEntity
  8
TEXTE
100
AcDbVertex
100
AcDb2dVertex
 10
51.124941
 20
102.257609
 30
0.0
  0
VERTEX
  5
D153
100
AcDbEntity
  8
TEXTE
100
AcDbVertex
100
AcDb2dVertex
 10
51.120099
 20
102.443739
 30
0.0
  0
VERTEX
  5
D154
100
AcDbEntity
  8
TEXTE
100
AcDbVertex
100
AcDb2dVertex
 10
51.115621
 20
102.62984
 30
0.0
  0
SEQEND
  5
D155
100
AcDbEntity
  8
TEXTE
  0
LINE
  5
CAE5
100
AcDbEntity
  8
TEXTE
100
AcDbLine
 10
51.30495
 20
100.842605
 30
0.0
 11
51.20559
 21
101.140478
 31
0.0
  0
LINE
  5
CAE6
100
AcDbEntity
  8
TEXTE
100
AcDbLine
 10
51.463264
 20
101.214945
 30
0.0
 11
51.557562
 21
100.991542
 31
0.0
  0
POLYLINE
  5
CAE7
100
AcDbEntity
  8
TEXTE
100
AcDb2dPolyline
 66
     1
 10
0.0
 20
0.0
 30
0.0
  0
VERTEX
  5
D156
100
AcDbEntity
  8
TEXTE
100
AcDbVertex
100
AcDb2dVertex
 10
51.490739
 20
100.544733
 30
0.0
  0
VERTEX
  5
D157
100
AcDbEntity
  8
TEXTE
100
AcDbVertex
100
AcDb2dVertex
 10
51.444304
 20
100.619416
 30
0.0
  0
VERTEX
  5
D158
100
AcDbEntity
  8
TEXTE
100
AcDbVertex
100
AcDb2dVertex
 10
51.39786
 20
100.693956
 30
0.0
  0
VERTEX
  5
D159
100
AcDbEntity
  8
TEXTE
100
AcDbVertex
100
AcDb2dVertex
 10
51.351409
 20
100.768352
 30
0.0
  0
VERTEX
  5
D15A
100
AcDbEntity
  8
TEXTE
100
AcDbVertex
100
AcDb2dVertex
 10
51.30495
 20
100.842605
 30
0.0
  0
SEQEND
  5
D15B
100
AcDbEntity
  8
TEXTE
  0
LINE
  5
CAE8
100
AcDbEntity
  8
TEXTE
100
AcDbLine
 10
51.624306
 20
100.917191
 30
0.0
 11
51.690987
 21
100.842605
 31
0.0
  0
LINE
  5
CAE9
100
AcDbEntity
  8
TEXTE
100
AcDbLine
 10
51.557562
 20
100.991542
 30
0.0
 11
51.624306
 21
100.917191
 31
0.0
  0
POLYLINE
  5
CAEA
100
AcDbEntity
  8
TEXTE
100
AcDb2dPolyline
 66
     1
 10
0.0
 20
0.0
 30
0.0
  0
VERTEX
  5
D15C
100
AcDbEntity
  8
TEXTE
100
AcDbVertex
100
AcDb2dVertex
 10
51.668062
 20
100.395796
 30
0.0
  0
VERTEX
  5
D15D
100
AcDbEntity
  8
TEXTE
100
AcDbVertex
100
AcDb2dVertex
 10
51.623772
 20
100.433164
 30
0.0
  0
VERTEX
  5
D15E
100
AcDbEntity
  8
TEXTE
100
AcDbVertex
100
AcDb2dVertex
 10
51.579454
 20
100.470443
 30
0.0
  0
VERTEX
  5
D15F
100
AcDbEntity
  8
TEXTE
100
AcDbVertex
100
AcDb2dVertex
 10
51.53511
 20
100.507632
 30
0.0
  0
VERTEX
  5
D160
100
AcDbEntity
  8
TEXTE
100
AcDbVertex
100
AcDb2dVertex
 10
51.490739
 20
100.544733
 30
0.0
  0
SEQEND
  5
D161
100
AcDbEntity
  8
TEXTE
  0
LINE
  5
CAEB
100
AcDbEntity
  8
TEXTE
100
AcDbLine
 10
51.776593
 20
100.805439
 30
0.0
 11
51.861961
 21
100.768138
 31
0.0
  0
LINE
  5
CAEC
100
AcDbEntity
  8
TEXTE
100
AcDbLine
 10
51.690987
 20
100.842605
 30
0.0
 11
51.776593
 21
100.805439
 31
0.0
  0
POLYLINE
  5
CAED
100
AcDbEntity
  8
TEXTE
100
AcDb2dPolyline
 66
     1
 10
0.0
 20
0.0
 30
0.0
  0
VERTEX
  5
D162
100
AcDbEntity
  8
TEXTE
100
AcDbVertex
100
AcDb2dVertex
 10
51.881547
 20
100.321329
 30
0.0
  0
VERTEX
  5
D163
100
AcDbEntity
  8
TEXTE
100
AcDbVertex
100
AcDb2dVertex
 10
51.828325
 20
100.340007
 30
0.0
  0
VERTEX
  5
D164
100
AcDbEntity
  8
TEXTE
100
AcDbVertex
100
AcDb2dVertex
 10
51.775003
 20
100.358644
 30
0.0
  0
VERTEX
  5
D165
100
AcDbEntity
  8
TEXTE
100
AcDbVertex
100
AcDb2dVertex
 10
51.721583
 20
100.377241
 30
0.0
  0
VERTEX
  5
D166
100
AcDbEntity
  8
TEXTE
100
AcDbVertex
100
AcDb2dVertex
 10
51.668062
 20
100.395796
 30
0.0
  0
SEQEND
  5
D167
100
AcDbEntity
  8
TEXTE
  0
LINE
  5
CAEE
100
AcDbEntity
  8
TEXTE
100
AcDbLine
 10
51.86196
 20
100.768138
 30
0.0
 11
52.231742
 21
100.768138
 31
0.0
  0
LINE
  5
CAEF
100
AcDbEntity
  8
TEXTE
100
AcDbLine
 10
52.25106
 20
100.321329
 30
0.0
 11
51.881546
 21
100.321329
 31
0.0
  0
LINE
  5
CAF0
100
AcDbEntity
  8
TEXTE
100
AcDbLine
 10
51.558634
 20
103.225473
 30
0.0
 11
51.495966
 21
103.151116
 31
0.0
  0
LINE
  5
CAF1
100
AcDbEntity
  8
TEXTE
100
AcDbLine
 10
51.621234
 20
103.300052
 30
0.0
 11
51.558634
 21
103.225473
 31
0.0
  0
POLYLINE
  5
CAF2
100
AcDbEntity
  8
TEXTE
100
AcDb2dPolyline
 66
     1
 10
0.0
 20
0.0
 30
0.0
  0
VERTEX
  5
D168
100
AcDbEntity
  8
TEXTE
100
AcDbVertex
100
AcDb2dVertex
 10
51.234161
 20
103.300052
 30
0.0
  0
VERTEX
  5
D169
100
AcDbEntity
  8
TEXTE
100
AcDbVertex
100
AcDb2dVertex
 10
51.27648
 20
103.374325
 30
0.0
  0
VERTEX
  5
D16A
100
AcDbEntity
  8
TEXTE
100
AcDbVertex
100
AcDb2dVertex
 10
51.318789
 20
103.448728
 30
0.0
  0
VERTEX
  5
D16B
100
AcDbEntity
  8
TEXTE
100
AcDbVertex
100
AcDb2dVertex
 10
51.361087
 20
103.523262
 30
0.0
  0
VERTEX
  5
D16C
100
AcDbEntity
  8
TEXTE
100
AcDbVertex
100
AcDb2dVertex
 10
51.403376
 20
103.597925
 30
0.0
  0
SEQEND
  5
D16D
100
AcDbEntity
  8
TEXTE
  0
POLYLINE
  5
CAF3
100
AcDbEntity
  8
TEXTE
100
AcDb2dPolyline
 66
     1
 10
0.0
 20
0.0
 30
0.0
  0
VERTEX
  5
D16E
100
AcDbEntity
  8
TEXTE
100
AcDbVertex
100
AcDb2dVertex
 10
51.403376
 20
103.597925
 30
0.0
  0
VERTEX
  5
D16F
100
AcDbEntity
  8
TEXTE
100
AcDbVertex
100
AcDb2dVertex
 10
51.445776
 20
103.63503
 30
0.0
  0
VERTEX
  5
D170
100
AcDbEntity
  8
TEXTE
100
AcDbVertex
100
AcDb2dVertex
 10
51.488147
 20
103.672222
 30
0.0
  0
VERTEX
  5
D171
100
AcDbEntity
  8
TEXTE
100
AcDbVertex
100
AcDb2dVertex
 10
51.530489
 20
103.709499
 30
0.0
  0
VERTEX
  5
D172
100
AcDbEntity
  8
TEXTE
100
AcDbVertex
100
AcDb2dVertex
 10
51.572801
 20
103.746861
 30
0.0
  0
SEQEND
  5
D173
100
AcDbEntity
  8
TEXTE
  0
POLYLINE
  5
CAF4
100
AcDbEntity
  8
TEXTE
100
AcDb2dPolyline
 66
     1
 10
0.0
 20
0.0
 30
0.0
  0
VERTEX
  5
D174
100
AcDbEntity
  8
TEXTE
100
AcDbVertex
100
AcDb2dVertex
 10
51.572801
 20
103.746861
 30
0.0
  0
VERTEX
  5
D175
100
AcDbEntity
  8
TEXTE
100
AcDbVertex
100
AcDb2dVertex
 10
51.625461
 20
103.765418
 30
0.0
  0
VERTEX
  5
D176
100
AcDbEntity
  8
TEXTE
100
AcDbVertex
100
AcDb2dVertex
 10
51.678021
 20
103.784015
 30
0.0
  0
VERTEX
  5
D177
100
AcDbEntity
  8
TEXTE
100
AcDbVertex
100
AcDb2dVertex
 10
51.730481
 20
103.802652
 30
0.0
  0
VERTEX
  5
D178
100
AcDbEntity
  8
TEXTE
100
AcDbVertex
100
AcDb2dVertex
 10
51.782841
 20
103.821329
 30
0.0
  0
SEQEND
  5
D179
100
AcDbEntity
  8
TEXTE
  0
LINE
  5
CAF5
100
AcDbEntity
  8
TEXTE
100
AcDbLine
 10
51.704961
 20
103.337219
 30
0.0
 11
51.621234
 21
103.300052
 31
0.0
  0
LINE
  5
CAF6
100
AcDbEntity
  8
TEXTE
100
AcDbLine
 10
51.78845
 20
103.37452
 30
0.0
 11
51.704961
 21
103.337219
 31
0.0
  0
LINE
  5
CAF7
100
AcDbEntity
  8
TEXTE
100
AcDbLine
 10
52.443691
 20
103.151116
 30
0.0
 11
52.382721
 21
103.22569
 31
0.0
  0
LINE
  5
CAF8
100
AcDbEntity
  8
TEXTE
100
AcDbLine
 10
52.382721
 20
103.22569
 30
0.0
 11
52.321684
 21
103.300052
 31
0.0
  0
LINE
  5
CAF9
100
AcDbEntity
  8
TEXTE
100
AcDbLine
 10
52.321684
 20
103.300052
 30
0.0
 11
52.240581
 21
103.33735
 31
0.0
  0
LINE
  5
CAFA
100
AcDbEntity
  8
TEXTE
100
AcDbLine
 10
52.240581
 20
103.33735
 30
0.0
 11
52.159242
 21
103.37452
 31
0.0
  0
POLYLINE
  5
CAFB
100
AcDbEntity
  8
TEXTE
100
AcDb2dPolyline
 66
     1
 10
0.0
 20
0.0
 30
0.0
  0
VERTEX
  5
D17A
100
AcDbEntity
  8
TEXTE
100
AcDbVertex
100
AcDb2dVertex
 10
52.153711
 20
103.821329
 30
0.0
  0
VERTEX
  5
D17B
100
AcDbEntity
  8
TEXTE
100
AcDbVertex
100
AcDb2dVertex
 10
52.204397
 20
103.802769
 30
0.0
  0
VERTEX
  5
D17C
100
AcDbEntity
  8
TEXTE
100
AcDbVertex
100
AcDb2dVertex
 10
52.254985
 20
103.784171
 30
0.0
  0
VERTEX
  5
D17D
100
AcDbEntity
  8
TEXTE
100
AcDbVertex
100
AcDb2dVertex
 10
52.305474
 20
103.765535
 30
0.0
  0
VERTEX
  5
D17E
100
AcDbEntity
  8
TEXTE
100
AcDbVertex
100
AcDb2dVertex
 10
52.355865
 20
103.746861
 30
0.0
  0
SEQEND
  5
D17F
100
AcDbEntity
  8
TEXTE
  0
LINE
  5
CAFC
100
AcDbEntity
  8
ALPHA
100
AcDbLine
 10
51.13772
 20
107.821329
 30
0.0
 11
51.565451
 21
107.821329
 31
0.0
  0
LINE
  5
CAFD
100
AcDbEntity
  8
TEXTE
100
AcDbLine
 10
51.782841
 20
103.821329
 30
0.0
 11
52.153711
 21
103.821329
 31
0.0
  0
LINE
  5
CAFE
100
AcDbEntity
  8
TEXTE
100
AcDbLine
 10
52.159243
 20
103.37452
 30
0.0
 11
51.78845
 21
103.37452
 31
0.0
  0
LINE
  5
CAFF
100
AcDbEntity
  8
TEXTE
100
AcDbLine
 10
54.871053
 20
103.151116
 30
0.0
 11
54.810439
 21
102.927712
 31
0.0
  0
POLYLINE
  5
CB00
100
AcDbEntity
  8
TEXTE
100
AcDb2dPolyline
 66
     1
 10
0.0
 20
0.0
 30
0.0
  0
VERTEX
  5
D180
100
AcDbEntity
  8
TEXTE
100
AcDbVertex
100
AcDb2dVertex
 10
56.327914
 20
103.151116
 30
0.0
  0
VERTEX
  5
D181
100
AcDbEntity
  8
TEXTE
100
AcDbVertex
100
AcDb2dVertex
 10
56.315823
 20
103.039374
 30
0.0
  0
VERTEX
  5
D182
100
AcDbEntity
  8
TEXTE
100
AcDbVertex
100
AcDb2dVertex
 10
56.30383
 20
102.927712
 30
0.0
  0
SEQEND
  5
D183
100
AcDbEntity
  8
TEXTE
  0
POLYLINE
  5
CB01
100
AcDbEntity
  8
TEXTE
100
AcDb2dPolyline
 66
     1
 10
0.0
 20
0.0
 30
0.0
  0
VERTEX
  5
D184
100
AcDbEntity
  8
TEXTE
100
AcDbVertex
100
AcDb2dVertex
 10
56.135371
 20
103.00218
 30
0.0
  0
VERTEX
  5
D185
100
AcDbEntity
  8
TEXTE
100
AcDbVertex
100
AcDb2dVertex
 10
56.147134
 20
103.151061
 30
0.0
  0
VERTEX
  5
D186
100
AcDbEntity
  8
TEXTE
100
AcDbVertex
100
AcDb2dVertex
 10
56.159082
 20
103.300052
 30
0.0
  0
SEQEND
  5
D187
100
AcDbEntity
  8
TEXTE
  0
POLYLINE
  5
CB02
100
AcDbEntity
  8
ALPHA
100
AcDb2dPolyline
 66
     1
 10
0.0
 20
0.0
 30
0.0
  0
VERTEX
  5
D188
100
AcDbEntity
  8
ALPHA
100
AcDbVertex
100
AcDb2dVertex
 10
59.493022
 20
108.421329
 30
0.0
  0
VERTEX
  5
D189
100
AcDbEntity
  8
ALPHA
100
AcDbVertex
100
AcDb2dVertex
 10
59.446766
 20
106.021317
 30
0.0
  0
VERTEX
  5
D18A
100
AcDbEntity
  8
ALPHA
100
AcDbVertex
100
AcDb2dVertex
 10
59.446766
 20
103.62134
 30
0.0
  0
VERTEX
  5
D18B
100
AcDbEntity
  8
ALPHA
100
AcDbVertex
100
AcDb2dVertex
 10
59.493022
 20
101.221329
 30
0.0
  0
SEQEND
  5
D18C
100
AcDbEntity
  8
ALPHA
  0
POLYLINE
  5
CB03
100
AcDbEntity
  8
TEXTE
100
AcDb2dPolyline
 66
     1
 10
0.0
 20
0.0
 30
0.0
  0
VERTEX
  5
D18D
100
AcDbEntity
  8
TEXTE
100
AcDbVertex
100
AcDb2dVertex
 10
57.384171
 20
103.37452
 30
0.0
  0
VERTEX
  5
D18E
100
AcDbEntity
  8
TEXTE
100
AcDbVertex
100
AcDb2dVertex
 10
57.386257
 20
103.213179
 30
0.0
  0
VERTEX
  5
D18F
100
AcDbEntity
  8
TEXTE
100
AcDbVertex
100
AcDb2dVertex
 10
57.388564
 20
103.051835
 30
0.0
  0
VERTEX
  5
D190
100
AcDbEntity
  8
TEXTE
100
AcDbVertex
100
AcDb2dVertex
 10
57.391091
 20
102.890489
 30
0.0
  0
VERTEX
  5
D191
100
AcDbEntity
  8
TEXTE
100
AcDbVertex
100
AcDb2dVertex
 10
57.393839
 20
102.729139
 30
0.0
  0
VERTEX
  5
D192
100
AcDbEntity
  8
TEXTE
100
AcDbVertex
100
AcDb2dVertex
 10
57.396807
 20
102.567788
 30
0.0
  0
VERTEX
  5
D193
100
AcDbEntity
  8
TEXTE
100
AcDbVertex
100
AcDb2dVertex
 10
57.399995
 20
102.406436
 30
0.0
  0
SEQEND
  5
D194
100
AcDbEntity
  8
TEXTE
  0
LINE
  5
CB04
100
AcDbEntity
  8
ALPHA
100
AcDbLine
 10
59.296876
 20
100.721329
 30
0.0
 11
59.236495
 21
103.454695
 31
0.0
  0
LINE
  5
CB05
100
AcDbEntity
  8
ALPHA
100
AcDbLine
 10
58.967618
 20
100.721329
 30
0.0
 11
58.907273
 21
103.454701
 31
0.0
  0
POLYLINE
  5
CB06
100
AcDbEntity
  8
TEXTE
100
AcDb2dPolyline
 66
     1
 10
0.0
 20
0.0
 30
0.0
  0
VERTEX
  5
D195
100
AcDbEntity
  8
TEXTE
100
AcDbVertex
100
AcDb2dVertex
 10
57.314803
 20
100.321329
 30
0.0
  0
VERTEX
  5
D196
100
AcDbEntity
  8
TEXTE
100
AcDbVertex
100
AcDb2dVertex
 10
57.300561
 20
100.710294
 30
0.0
  0
VERTEX
  5
D197
100
AcDbEntity
  8
TEXTE
100
AcDbVertex
100
AcDb2dVertex
 10
57.287606
 20
101.099243
 30
0.0
  0
VERTEX
  5
D198
100
AcDbEntity
  8
TEXTE
100
AcDbVertex
100
AcDb2dVertex
 10
57.275937
 20
101.488179
 30
0.0
  0
VERTEX
  5
D199
100
AcDbEntity
  8
TEXTE
100
AcDbVertex
100
AcDb2dVertex
 10
57.265555
 20
101.877103
 30
0.0
  0
VERTEX
  5
D19A
100
AcDbEntity
  8
TEXTE
100
AcDbVertex
100
AcDb2dVertex
 10
57.25646
 20
102.266009
 30
0.0
  0
VERTEX
  5
D19B
100
AcDbEntity
  8
TEXTE
100
AcDbVertex
100
AcDb2dVertex
 10
57.248652
 20
102.654888
 30
0.0
  0
VERTEX
  5
D19C
100
AcDbEntity
  8
TEXTE
100
AcDbVertex
100
AcDb2dVertex
 10
57.24213
 20
103.043733
 30
0.0
  0
VERTEX
  5
D19D
100
AcDbEntity
  8
TEXTE
100
AcDbVertex
100
AcDb2dVertex
 10
57.236895
 20
103.432546
 30
0.0
  0
VERTEX
  5
D19E
100
AcDbEntity
  8
TEXTE
100
AcDbVertex
100
AcDb2dVertex
 10
57.232945
 20
103.821329
 30
0.0
  0
SEQEND
  5
D19F
100
AcDbEntity
  8
TEXTE
  0
POLYLINE
  5
CB07
100
AcDbEntity
  8
TEXTE
100
AcDb2dPolyline
 66
     1
 10
0.0
 20
0.0
 30
0.0
  0
VERTEX
  5
D1A0
100
AcDbEntity
  8
TEXTE
100
AcDbVertex
100
AcDb2dVertex
 10
52.677119
 20
103.300052
 30
0.0
  0
VERTEX
  5
D1A1
100
AcDbEntity
  8
TEXTE
100
AcDbVertex
100
AcDb2dVertex
 10
52.688284
 20
103.207051
 30
0.0
  0
VERTEX
  5
D1A2
100
AcDbEntity
  8
TEXTE
100
AcDbVertex
100
AcDb2dVertex
 10
52.699533
 20
103.113994
 30
0.0
  0
VERTEX
  5
D1A3
100
AcDbEntity
  8
TEXTE
100
AcDbVertex
100
AcDb2dVertex
 10
52.710865
 20
103.020881
 30
0.0
  0
VERTEX
  5
D1A4
100
AcDbEntity
  8
TEXTE
100
AcDbVertex
100
AcDb2dVertex
 10
52.722281
 20
102.927712
 30
0.0
  0
SEQEND
  5
D1A5
100
AcDbEntity
  8
TEXTE
  0
POLYLINE
  5
CB08
100
AcDbEntity
  8
TEXTE
100
AcDb2dPolyline
 66
     1
 10
0.0
 20
0.0
 30
0.0
  0
VERTEX
  5
D1A6
100
AcDbEntity
  8
TEXTE
100
AcDbVertex
100
AcDb2dVertex
 10
56.937865
 20
103.225584
 30
0.0
  0
VERTEX
  5
D1A7
100
AcDbEntity
  8
TEXTE
100
AcDbVertex
100
AcDb2dVertex
 10
56.952243
 20
103.113918
 30
0.0
  0
VERTEX
  5
D1A8
100
AcDbEntity
  8
TEXTE
100
AcDbVertex
100
AcDb2dVertex
 10
56.966716
 20
103.00218
 30
0.0
  0
SEQEND
  5
D1A9
100
AcDbEntity
  8
TEXTE
  0
LINE
  5
CB09
100
AcDbEntity
  8
TEXTE
100
AcDbLine
 10
56.812048
 20
103.00218
 30
0.0
 11
56.783743
 21
103.151116
 31
0.0
  0
POLYLINE
  5
CB0A
100
AcDbEntity
  8
TEXTE
100
AcDb2dPolyline
 66
     1
 10
0.0
 20
0.0
 30
0.0
  0
VERTEX
  5
D1AA
100
AcDbEntity
  8
TEXTE
100
AcDbVertex
100
AcDb2dVertex
 10
55.728362
 20
103.300052
 30
0.0
  0
VERTEX
  5
D1AB
100
AcDbEntity
  8
TEXTE
100
AcDbVertex
100
AcDb2dVertex
 10
55.744063
 20
103.225665
 30
0.0
  0
VERTEX
  5
D1AC
100
AcDbEntity
  8
TEXTE
100
AcDbVertex
100
AcDb2dVertex
 10
55.791389
 20
103.00218
 30
0.0
  0
SEQEND
  5
D1AD
100
AcDbEntity
  8
TEXTE
  0
LINE
  5
CB0B
100
AcDbEntity
  8
TEXTE
100
AcDbLine
 10
55.615784
 20
102.927712
 30
0.0
 11
55.552529
 21
103.151116
 31
0.0
  0
LINE
  5
CB0C
100
AcDbEntity
  8
TEXTE
100
AcDbLine
 10
54.613932
 20
103.00218
 30
0.0
 11
54.644294
 21
103.151005
 31
0.0
  0
POLYLINE
  5
CB0D
100
AcDbEntity
  8
TEXTE
100
AcDb2dPolyline
 66
     1
 10
0.0
 20
0.0
 30
0.0
  0
VERTEX
  5
D1AE
100
AcDbEntity
  8
TEXTE
100
AcDbVertex
100
AcDb2dVertex
 10
53.240809
 20
103.821329
 30
0.0
  0
VERTEX
  5
D1AF
100
AcDbEntity
  8
TEXTE
100
AcDbVertex
100
AcDb2dVertex
 10
53.244665
 20
103.482308
 30
0.0
  0
VERTEX
  5
D1B0
100
AcDbEntity
  8
TEXTE
100
AcDbVertex
100
AcDb2dVertex
 10
53.24964
 20
103.143229
 30
0.0
  0
VERTEX
  5
D1B1
100
AcDbEntity
  8
TEXTE
100
AcDbVertex
100
AcDb2dVertex
 10
53.255734
 20
102.804089
 30
0.0
  0
VERTEX
  5
D1B2
100
AcDbEntity
  8
TEXTE
100
AcDbVertex
100
AcDb2dVertex
 10
53.262948
 20
102.464886
 30
0.0
  0
VERTEX
  5
D1B3
100
AcDbEntity
  8
TEXTE
100
AcDbVertex
100
AcDb2dVertex
 10
53.271281
 20
102.125628
 30
0.0
  0
VERTEX
  5
D1B4
100
AcDbEntity
  8
TEXTE
100
AcDbVertex
100
AcDb2dVertex
 10
53.280735
 20
101.786321
 30
0.0
  0
VERTEX
  5
D1B5
100
AcDbEntity
  8
TEXTE
100
AcDbVertex
100
AcDb2dVertex
 10
53.291308
 20
101.446971
 30
0.0
  0
VERTEX
  5
D1B6
100
AcDbEntity
  8
TEXTE
100
AcDbVertex
100
AcDb2dVertex
 10
53.303001
 20
101.107577
 30
0.0
  0
VERTEX
  5
D1B7
100
AcDbEntity
  8
TEXTE
100
AcDbVertex
100
AcDb2dVertex
 10
53.315814
 20
100.768138
 30
0.0
  0
SEQEND
  5
D1B8
100
AcDbEntity
  8
TEXTE
  0
POLYLINE
  5
CB0E
100
AcDbEntity
  8
TEXTE
100
AcDb2dPolyline
 66
     1
 10
0.0
 20
0.0
 30
0.0
  0
VERTEX
  5
D1B9
100
AcDbEntity
  8
TEXTE
100
AcDbVertex
100
AcDb2dVertex
 10
53.110319
 20
100.321329
 30
0.0
  0
VERTEX
  5
D1BA
100
AcDbEntity
  8
TEXTE
100
AcDbVertex
100
AcDb2dVertex
 10
53.093903
 20
100.710524
 30
0.0
  0
VERTEX
  5
D1BB
100
AcDbEntity
  8
TEXTE
100
AcDbVertex
100
AcDb2dVertex
 10
53.078971
 20
101.099648
 30
0.0
  0
VERTEX
  5
D1BC
100
AcDbEntity
  8
TEXTE
100
AcDbVertex
100
AcDb2dVertex
 10
53.065523
 20
101.488702
 30
0.0
  0
VERTEX
  5
D1BD
100
AcDbEntity
  8
TEXTE
100
AcDbVertex
100
AcDb2dVertex
 10
53.053559
 20
101.87769
 30
0.0
  0
VERTEX
  5
D1BE
100
AcDbEntity
  8
TEXTE
100
AcDbVertex
100
AcDb2dVertex
 10
53.043078
 20
102.266601
 30
0.0
  0
VERTEX
  5
D1BF
100
AcDbEntity
  8
TEXTE
100
AcDbVertex
100
AcDb2dVertex
 10
53.034081
 20
102.655425
 30
0.0
  0
VERTEX
  5
D1C0
100
AcDbEntity
  8
TEXTE
100
AcDbVertex
100
AcDb2dVertex
 10
53.026568
 20
103.044153
 30
0.0
  0
VERTEX
  5
D1C1
100
AcDbEntity
  8
TEXTE
100
AcDbVertex
100
AcDb2dVertex
 10
53.020536
 20
103.432786
 30
0.0
  0
VERTEX
  5
D1C2
100
AcDbEntity
  8
TEXTE
100
AcDbVertex
100
AcDb2dVertex
 10
53.015986
 20
103.821329
 30
0.0
  0
SEQEND
  5
D1C3
100
AcDbEntity
  8
TEXTE
  0
LINE
  5
CB0F
100
AcDbEntity
  8
TEXTE
100
AcDbLine
 10
56.506408
 20
102.331967
 30
0.0
 11
56.666948
 21
102.331967
 31
0.0
  0
LINE
  5
CB10
100
AcDbEntity
  8
TEXTE
100
AcDbLine
 10
56.677451
 20
101.885158
 30
0.0
 11
56.516966
 21
101.885158
 31
0.0
  0
LINE
  5
CB11
100
AcDbEntity
  8
TEXTE
100
AcDbLine
 10
56.49686
 20
100.768138
 30
0.0
 11
56.711277
 21
100.768138
 31
0.0
  0
LINE
  5
CB12
100
AcDbEntity
  8
TEXTE
100
AcDbLine
 10
56.727834
 20
100.321329
 30
0.0
 11
56.513532
 21
100.321329
 31
0.0
  0
LINE
  5
CB13
100
AcDbEntity
  8
TEXTE
100
AcDbLine
 10
52.672187
 20
100.693455
 30
0.0
 11
52.600145
 21
100.544733
 31
0.0
  0
LINE
  5
CB14
100
AcDbEntity
  8
TEXTE
100
AcDbLine
 10
52.744191
 20
100.842605
 30
0.0
 11
52.672187
 21
100.693455
 31
0.0
  0
POLYLINE
  5
CB15
100
AcDbEntity
  8
TEXTE
100
AcDb2dPolyline
 66
     1
 10
0.0
 20
0.0
 30
0.0
  0
VERTEX
  5
D1C4
100
AcDbEntity
  8
TEXTE
100
AcDbVertex
100
AcDb2dVertex
 10
52.503145
 20
100.991542
 30
0.0
  0
VERTEX
  5
D1C5
100
AcDbEntity
  8
TEXTE
100
AcDbVertex
100
AcDb2dVertex
 10
52.518701
 20
101.103181
 30
0.0
  0
VERTEX
  5
D1C6
100
AcDbEntity
  8
TEXTE
100
AcDbVertex
100
AcDb2dVertex
 10
52.534373
 20
101.214945
 30
0.0
  0
SEQEND
  5
D1C7
100
AcDbEntity
  8
TEXTE
  0
POLYLINE
  5
CB16
100
AcDbEntity
  8
TEXTE
100
AcDb2dPolyline
 66
     1
 10
0.0
 20
0.0
 30
0.0
  0
VERTEX
  5
D1C8
100
AcDbEntity
  8
TEXTE
100
AcDbVertex
100
AcDb2dVertex
 10
52.768964
 20
101.214945
 30
0.0
  0
VERTEX
  5
D1C9
100
AcDbEntity
  8
TEXTE
100
AcDbVertex
100
AcDb2dVertex
 10
52.762645
 20
101.121789
 30
0.0
  0
VERTEX
  5
D1CA
100
AcDbEntity
  8
TEXTE
100
AcDbVertex
100
AcDb2dVertex
 10
52.75641
 20
101.02868
 30
0.0
  0
VERTEX
  5
D1CB
100
AcDbEntity
  8
TEXTE
100
AcDbVertex
100
AcDb2dVertex
 10
52.750259
 20
100.935619
 30
0.0
  0
VERTEX
  5
D1CC
100
AcDbEntity
  8
TEXTE
100
AcDbVertex
100
AcDb2dVertex
 10
52.744191
 20
100.842605
 30
0.0
  0
SEQEND
  5
D1CD
100
AcDbEntity
  8
TEXTE
  0
POLYLINE
  5
CB17
100
AcDbEntity
  8
TEXTE
100
AcDb2dPolyline
 66
     1
 10
0.0
 20
0.0
 30
0.0
  0
VERTEX
  5
D1CE
100
AcDbEntity
  8
TEXTE
100
AcDbVertex
100
AcDb2dVertex
 10
54.375632
 20
100.768138
 30
0.0
  0
VERTEX
  5
D1CF
100
AcDbEntity
  8
TEXTE
100
AcDbVertex
100
AcDb2dVertex
 10
54.37993
 20
100.656447
 30
0.0
  0
VERTEX
  5
D1D0
100
AcDbEntity
  8
TEXTE
100
AcDbVertex
100
AcDb2dVertex
 10
54.384345
 20
100.544748
 30
0.0
  0
VERTEX
  5
D1D1
100
AcDbEntity
  8
TEXTE
100
AcDbVertex
100
AcDb2dVertex
 10
54.388876
 20
100.433042
 30
0.0
  0
VERTEX
  5
D1D2
100
AcDbEntity
  8
TEXTE
100
AcDbVertex
100
AcDb2dVertex
 10
54.393525
 20
100.321329
 30
0.0
  0
SEQEND
  5
D1D3
100
AcDbEntity
  8
TEXTE
  0
LINE
  5
CB18
100
AcDbEntity
  8
TEXTE
100
AcDbLine
 10
52.722281
 20
102.927712
 30
0.0
 11
52.487288
 21
102.927712
 31
0.0
  0
LINE
  5
CB19
100
AcDbEntity
  8
TEXTE
100
AcDbLine
 10
52.534374
 20
101.214945
 30
0.0
 11
52.768965
 21
101.214945
 31
0.0
  0
LINE
  5
CB1A
100
AcDbEntity
  8
TEXTE
100
AcDbLine
 10
53.315814
 20
100.768138
 30
0.0
 11
54.375632
 21
100.768138
 31
0.0
  0
LINE
  5
CB1B
100
AcDbEntity
  8
TEXTE
100
AcDbLine
 10
54.393525
 20
100.321329
 30
0.0
 11
53.110319
 21
100.321329
 31
0.0
  0
LINE
  5
CB1C
100
AcDbEntity
  8
TEXTE
100
AcDbLine
 10
55.624958
 20
100.47018
 30
0.0
 11
55.568052
 21
100.395796
 31
0.0
  0
LINE
  5
CB1D
100
AcDbEntity
  8
TEXTE
100
AcDbLine
 10
55.681685
 20
100.544733
 30
0.0
 11
55.624958
 21
100.47018
 31
0.0
  0
POLYLINE
  5
CB1E
100
AcDbEntity
  8
TEXTE
100
AcDb2dPolyline
 66
     1
 10
0.0
 20
0.0
 30
0.0
  0
VERTEX
  5
D1D4
100
AcDbEntity
  8
TEXTE
100
AcDbVertex
100
AcDb2dVertex
 10
55.521048
 20
100.842605
 30
0.0
  0
VERTEX
  5
D1D5
100
AcDbEntity
  8
TEXTE
100
AcDbVertex
100
AcDb2dVertex
 10
55.542282
 20
100.879789
 30
0.0
  0
VERTEX
  5
D1D6
100
AcDbEntity
  8
TEXTE
100
AcDbVertex
100
AcDb2dVertex
 10
55.605873
 20
100.991542
 30
0.0
  0
SEQEND
  5
D1D7
100
AcDbEntity
  8
TEXTE
  0
LINE
  5
CB1F
100
AcDbEntity
  8
TEXTE
100
AcDbLine
 10
55.735213
 20
100.693514
 30
0.0
 11
55.681685
 21
100.544733
 31
0.0
  0
LINE
  5
CB20
100
AcDbEntity
  8
TEXTE
100
AcDbLine
 10
55.788707
 20
100.842605
 30
0.0
 11
55.735213
 21
100.693514
 31
0.0
  0
LINE
  5
CB21
100
AcDbEntity
  8
TEXTE
100
AcDbLine
 10
55.605873
 20
100.991542
 30
0.0
 11
55.658008
 21
101.214945
 31
0.0
  0
POLYLINE
  5
CB22
100
AcDbEntity
  8
TEXTE
100
AcDb2dPolyline
 66
     1
 10
0.0
 20
0.0
 30
0.0
  0
VERTEX
  5
D1D8
100
AcDbEntity
  8
TEXTE
100
AcDbVertex
100
AcDb2dVertex
 10
55.837017
 20
101.140478
 30
0.0
  0
VERTEX
  5
D1D9
100
AcDbEntity
  8
TEXTE
100
AcDbVertex
100
AcDb2dVertex
 10
55.824881
 20
101.065922
 30
0.0
  0
VERTEX
  5
D1DA
100
AcDbEntity
  8
TEXTE
100
AcDbVertex
100
AcDb2dVertex
 10
55.788707
 20
100.842605
 30
0.0
  0
SEQEND
  5
D1DB
100
AcDbEntity
  8
TEXTE
  0
POLYLINE
  5
CB23
100
AcDbEntity
  8
TEXTE
100
AcDb2dPolyline
 66
     1
 10
0.0
 20
0.0
 30
0.0
  0
VERTEX
  5
D1DC
100
AcDbEntity
  8
TEXTE
100
AcDbVertex
100
AcDb2dVertex
 10
56.174567
 20
102.406436
 30
0.0
  0
VERTEX
  5
D1DD
100
AcDbEntity
  8
TEXTE
100
AcDbVertex
100
AcDb2dVertex
 10
56.157461
 20
102.555427
 30
0.0
  0
VERTEX
  5
D1DE
100
AcDbEntity
  8
TEXTE
100
AcDbVertex
100
AcDb2dVertex
 10
56.140537
 20
102.704307
 30
0.0
  0
SEQEND
  5
D1DF
100
AcDbEntity
  8
TEXTE
  0
POLYLINE
  5
CB24
100
AcDbEntity
  8
TEXTE
100
AcDb2dPolyline
 66
     1
 10
0.0
 20
0.0
 30
0.0
  0
VERTEX
  5
D1E0
100
AcDbEntity
  8
TEXTE
100
AcDbVertex
100
AcDb2dVertex
 10
55.650935
 20
102.62984
 30
0.0
  0
VERTEX
  5
D1E1
100
AcDbEntity
  8
TEXTE
100
AcDbVertex
100
AcDb2dVertex
 10
55.633265
 20
102.778836
 30
0.0
  0
VERTEX
  5
D1E2
100
AcDbEntity
  8
TEXTE
100
AcDbVertex
100
AcDb2dVertex
 10
55.615784
 20
102.927712
 30
0.0
  0
SEQEND
  5
D1E3
100
AcDbEntity
  8
TEXTE
  0
POLYLINE
  5
CB25
100
AcDbEntity
  8
TEXTE
100
AcDb2dPolyline
 66
     1
 10
0.0
 20
0.0
 30
0.0
  0
VERTEX
  5
D1E4
100
AcDbEntity
  8
TEXTE
100
AcDbVertex
100
AcDb2dVertex
 10
54.661399
 20
101.140478
 30
0.0
  0
VERTEX
  5
D1E5
100
AcDbEntity
  8
TEXTE
100
AcDbVertex
100
AcDb2dVertex
 10
54.650053
 20
101.23363
 30
0.0
  0
VERTEX
  5
D1E6
100
AcDbEntity
  8
TEXTE
100
AcDbVertex
100
AcDb2dVertex
 10
54.638786
 20
101.326738
 30
0.0
  0
VERTEX
  5
D1E7
100
AcDbEntity
  8
TEXTE
100
AcDbVertex
100
AcDb2dVertex
 10
54.627596
 20
101.419801
 30
0.0
  0
VERTEX
  5
D1E8
100
AcDbEntity
  8
TEXTE
100
AcDbVertex
100
AcDb2dVertex
 10
54.616484
 20
101.512818
 30
0.0
  0
SEQEND
  5
D1E9
100
AcDbEntity
  8
TEXTE
  0
POLYLINE
  5
CB26
100
AcDbEntity
  8
TEXTE
100
AcDb2dPolyline
 66
     1
 10
0.0
 20
0.0
 30
0.0
  0
VERTEX
  5
D1EA
100
AcDbEntity
  8
TEXTE
100
AcDbVertex
100
AcDb2dVertex
 10
56.129063
 20
100.991542
 30
0.0
  0
VERTEX
  5
D1EB
100
AcDbEntity
  8
TEXTE
100
AcDbVertex
100
AcDb2dVertex
 10
56.109973
 20
101.140534
 30
0.0
  0
VERTEX
  5
D1EC
100
AcDbEntity
  8
TEXTE
100
AcDbVertex
100
AcDb2dVertex
 10
56.091067
 20
101.289414
 30
0.0
  0
SEQEND
  5
D1ED
100
AcDbEntity
  8
TEXTE
  0
POLYLINE
  5
CB27
100
AcDbEntity
  8
TEXTE
100
AcDb2dPolyline
 66
     1
 10
0.0
 20
0.0
 30
0.0
  0
VERTEX
  5
D1EE
100
AcDbEntity
  8
TEXTE
100
AcDbVertex
100
AcDb2dVertex
 10
54.812085
 20
101.512818
 30
0.0
  0
VERTEX
  5
D1EF
100
AcDbEntity
  8
TEXTE
100
AcDbVertex
100
AcDb2dVertex
 10
54.832856
 20
101.36395
 30
0.0
  0
VERTEX
  5
D1F0
100
AcDbEntity
  8
TEXTE
100
AcDbVertex
100
AcDb2dVertex
 10
54.853819
 20
101.214945
 30
0.0
  0
SEQEND
  5
D1F1
100
AcDbEntity
  8
TEXTE
  0
POLYLINE
  5
CB28
100
AcDbEntity
  8
TEXTE
100
AcDb2dPolyline
 66
     1
 10
0.0
 20
0.0
 30
0.0
  0
VERTEX
  5
D1F2
100
AcDbEntity
  8
TEXTE
100
AcDbVertex
100
AcDb2dVertex
 10
56.306399
 20
102.778776
 30
0.0
  0
VERTEX
  5
D1F3
100
AcDbEntity
  8
TEXTE
100
AcDbVertex
100
AcDb2dVertex
 10
56.322242
 20
102.667113
 30
0.0
  0
VERTEX
  5
D1F4
100
AcDbEntity
  8
TEXTE
100
AcDbVertex
100
AcDb2dVertex
 10
56.338182
 20
102.555371
 30
0.0
  0
SEQEND
  5
D1F5
100
AcDbEntity
  8
TEXTE
  0
POLYLINE
  5
CB29
100
AcDbEntity
  8
TEXTE
100
AcDb2dPolyline
 66
     1
 10
0.0
 20
0.0
 30
0.0
  0
VERTEX
  5
D1F6
100
AcDbEntity
  8
TEXTE
100
AcDbVertex
100
AcDb2dVertex
 10
56.259658
 20
101.289414
 30
0.0
  0
VERTEX
  5
D1F7
100
AcDbEntity
  8
TEXTE
100
AcDbVertex
100
AcDb2dVertex
 10
56.27708
 20
101.177751
 30
0.0
  0
VERTEX
  5
D1F8
100
AcDbEntity
  8
TEXTE
100
AcDbVertex
100
AcDb2dVertex
 10
56.294599
 20
101.066009
 30
0.0
  0
SEQEND
  5
D1F9
100
AcDbEntity
  8
TEXTE
  0
POLYLINE
  5
CB2A
100
AcDbEntity
  8
TEXTE
100
AcDb2dPolyline
 66
     1
 10
0.0
 20
0.0
 30
0.0
  0
VERTEX
  5
D1FA
100
AcDbEntity
  8
TEXTE
100
AcDbVertex
100
AcDb2dVertex
 10
56.226626
 20
100.619201
 30
0.0
  0
VERTEX
  5
D1FB
100
AcDbEntity
  8
TEXTE
100
AcDbVertex
100
AcDb2dVertex
 10
56.177766
 20
100.805498
 30
0.0
  0
VERTEX
  5
D1FC
100
AcDbEntity
  8
TEXTE
100
AcDbVertex
100
AcDb2dVertex
 10
56.129063
 20
100.991542
 30
0.0
  0
SEQEND
  5
D1FD
100
AcDbEntity
  8
TEXTE
  0
LINE
  5
CB2B
100
AcDbEntity
  8
TEXTE
100
AcDbLine
 10
55.402386
 20
100.768138
 30
0.0
 11
55.461826
 21
100.805328
 31
0.0
  0
LINE
  5
CB2C
100
AcDbEntity
  8
TEXTE
100
AcDbLine
 10
55.461826
 20
100.805328
 30
0.0
 11
55.521048
 21
100.842605
 31
0.0
  0
POLYLINE
  5
CB2D
100
AcDbEntity
  8
TEXTE
100
AcDb2dPolyline
 66
     1
 10
0.0
 20
0.0
 30
0.0
  0
VERTEX
  5
D1FE
100
AcDbEntity
  8
TEXTE
100
AcDbVertex
100
AcDb2dVertex
 10
54.810439
 20
102.927712
 30
0.0
  0
VERTEX
  5
D1FF
100
AcDbEntity
  8
TEXTE
100
AcDbVertex
100
AcDb2dVertex
 10
54.797004
 20
102.778711
 30
0.0
  0
VERTEX
  5
D200
100
AcDbEntity
  8
TEXTE
100
AcDbVertex
100
AcDb2dVertex
 10
54.783763
 20
102.62984
 30
0.0
  0
SEQEND
  5
D201
100
AcDbEntity
  8
TEXTE
  0
POLYLINE
  5
CB2E
100
AcDbEntity
  8
TEXTE
100
AcDb2dPolyline
 66
     1
 10
0.0
 20
0.0
 30
0.0
  0
VERTEX
  5
D202
100
AcDbEntity
  8
TEXTE
100
AcDbVertex
100
AcDb2dVertex
 10
54.587971
 20
102.62984
 30
0.0
  0
VERTEX
  5
D203
100
AcDbEntity
  8
TEXTE
100
AcDbVertex
100
AcDb2dVertex
 10
54.594345
 20
102.722864
 30
0.0
  0
VERTEX
  5
D204
100
AcDbEntity
  8
TEXTE
100
AcDbVertex
100
AcDb2dVertex
 10
54.600796
 20
102.815928
 30
0.0
  0
VERTEX
  5
D205
100
AcDbEntity
  8
TEXTE
100
AcDbVertex
100
AcDb2dVertex
 10
54.607325
 20
102.909034
 30
0.0
  0
VERTEX
  5
D206
100
AcDbEntity
  8
TEXTE
100
AcDbVertex
100
AcDb2dVertex
 10
54.613932
 20
103.00218
 30
0.0
  0
SEQEND
  5
D207
100
AcDbEntity
  8
TEXTE
  0
POLYLINE
  5
CB2F
100
AcDbEntity
  8
TEXTE
100
AcDb2dPolyline
 66
     1
 10
0.0
 20
0.0
 30
0.0
  0
VERTEX
  5
D208
100
AcDbEntity
  8
TEXTE
100
AcDbVertex
100
AcDb2dVertex
 10
55.658008
 20
101.214945
 30
0.0
  0
VERTEX
  5
D209
100
AcDbEntity
  8
TEXTE
100
AcDbVertex
100
AcDb2dVertex
 10
55.668132
 20
101.363825
 30
0.0
  0
VERTEX
  5
D20A
100
AcDbEntity
  8
TEXTE
100
AcDbVertex
100
AcDb2dVertex
 10
55.678445
 20
101.512818
 30
0.0
  0
SEQEND
  5
D20B
100
AcDbEntity
  8
TEXTE
  0
POLYLINE
  5
CB30
100
AcDbEntity
  8
TEXTE
100
AcDb2dPolyline
 66
     1
 10
0.0
 20
0.0
 30
0.0
  0
VERTEX
  5
D20C
100
AcDbEntity
  8
TEXTE
100
AcDbVertex
100
AcDb2dVertex
 10
55.854545
 20
101.512818
 30
0.0
  0
VERTEX
  5
D20D
100
AcDbEntity
  8
TEXTE
100
AcDbVertex
100
AcDb2dVertex
 10
55.850051
 20
101.419682
 30
0.0
  0
VERTEX
  5
D20E
100
AcDbEntity
  8
TEXTE
100
AcDbVertex
100
AcDb2dVertex
 10
55.845632
 20
101.326579
 30
0.0
  0
VERTEX
  5
D20F
100
AcDbEntity
  8
TEXTE
100
AcDbVertex
100
AcDb2dVertex
 10
55.841287
 20
101.233511
 30
0.0
  0
VERTEX
  5
D210
100
AcDbEntity
  8
TEXTE
100
AcDbVertex
100
AcDb2dVertex
 10
55.837017
 20
101.140478
 30
0.0
  0
SEQEND
  5
D211
100
AcDbEntity
  8
TEXTE
  0
LINE
  5
CB31
100
AcDbEntity
  8
TEXTE
100
AcDbLine
 10
56.30383
 20
102.927712
 30
0.0
 11
56.306399
 21
102.778776
 31
0.0
  0
POLYLINE
  5
CB32
100
AcDbEntity
  8
TEXTE
100
AcDb2dPolyline
 66
     1
 10
0.0
 20
0.0
 30
0.0
  0
VERTEX
  5
D212
100
AcDbEntity
  8
TEXTE
100
AcDbVertex
100
AcDb2dVertex
 10
56.140537
 20
102.704307
 30
0.0
  0
VERTEX
  5
D213
100
AcDbEntity
  8
TEXTE
100
AcDbVertex
100
AcDb2dVertex
 10
56.137856
 20
102.853245
 30
0.0
  0
VERTEX
  5
D214
100
AcDbEntity
  8
TEXTE
100
AcDbVertex
100
AcDb2dVertex
 10
56.135371
 20
103.00218
 30
0.0
  0
SEQEND
  5
D215
100
AcDbEntity
  8
TEXTE
  0
POLYLINE
  5
CB33
100
AcDbEntity
  8
TEXTE
100
AcDb2dPolyline
 66
     1
 10
0.0
 20
0.0
 30
0.0
  0
VERTEX
  5
D216
100
AcDbEntity
  8
TEXTE
100
AcDbVertex
100
AcDb2dVertex
 10
55.827194
 20
102.62984
 30
0.0
  0
VERTEX
  5
D217
100
AcDbEntity
  8
TEXTE
100
AcDbVertex
100
AcDb2dVertex
 10
55.830981
 20
102.443692
 30
0.0
  0
VERTEX
  5
D218
100
AcDbEntity
  8
TEXTE
100
AcDbVertex
100
AcDb2dVertex
 10
55.835076
 20
102.257535
 30
0.0
  0
VERTEX
  5
D219
100
AcDbEntity
  8
TEXTE
100
AcDbVertex
100
AcDb2dVertex
 10
55.83948
 20
102.071368
 30
0.0
  0
VERTEX
  5
D21A
100
AcDbEntity
  8
TEXTE
100
AcDbVertex
100
AcDb2dVertex
 10
55.844193
 20
101.885193
 30
0.0
  0
VERTEX
  5
D21B
100
AcDbEntity
  8
TEXTE
100
AcDbVertex
100
AcDb2dVertex
 10
55.849215
 20
101.699009
 30
0.0
  0
VERTEX
  5
D21C
100
AcDbEntity
  8
TEXTE
100
AcDbVertex
100
AcDb2dVertex
 10
55.854545
 20
101.512818
 30
0.0
  0
SEQEND
  5
D21D
100
AcDbEntity
  8
TEXTE
  0
POLYLINE
  5
CB34
100
AcDbEntity
  8
TEXTE
100
AcDb2dPolyline
 66
     1
 10
0.0
 20
0.0
 30
0.0
  0
VERTEX
  5
D21E
100
AcDbEntity
  8
TEXTE
100
AcDbVertex
100
AcDb2dVertex
 10
54.783763
 20
102.62984
 30
0.0
  0
VERTEX
  5
D21F
100
AcDbEntity
  8
TEXTE
100
AcDbVertex
100
AcDb2dVertex
 10
54.787684
 20
102.4437
 30
0.0
  0
VERTEX
  5
D220
100
AcDbEntity
  8
TEXTE
100
AcDbVertex
100
AcDb2dVertex
 10
54.791925
 20
102.257548
 30
0.0
  0
VERTEX
  5
D221
100
AcDbEntity
  8
TEXTE
100
AcDbVertex
100
AcDb2dVertex
 10
54.796485
 20
102.071383
 30
0.0
  0
VERTEX
  5
D222
100
AcDbEntity
  8
TEXTE
100
AcDbVertex
100
AcDb2dVertex
 10
54.801366
 20
101.885205
 30
0.0
  0
VERTEX
  5
D223
100
AcDbEntity
  8
TEXTE
100
AcDbVertex
100
AcDb2dVertex
 10
54.806566
 20
101.699017
 30
0.0
  0
VERTEX
  5
D224
100
AcDbEntity
  8
TEXTE
100
AcDbVertex
100
AcDb2dVertex
 10
54.812085
 20
101.512818
 30
0.0
  0
SEQEND
  5
D225
100
AcDbEntity
  8
TEXTE
  0
POLYLINE
  5
CB35
100
AcDbEntity
  8
TEXTE
100
AcDb2dPolyline
 66
     1
 10
0.0
 20
0.0
 30
0.0
  0
VERTEX
  5
D226
100
AcDbEntity
  8
TEXTE
100
AcDbVertex
100
AcDb2dVertex
 10
55.678445
 20
101.512818
 30
0.0
  0
VERTEX
  5
D227
100
AcDbEntity
  8
TEXTE
100
AcDbVertex
100
AcDb2dVertex
 10
55.673084
 20
101.699012
 30
0.0
  0
VERTEX
  5
D228
100
AcDbEntity
  8
TEXTE
100
AcDbVertex
100
AcDb2dVertex
 10
55.668033
 20
101.885197
 30
0.0
  0
VERTEX
  5
D229
100
AcDbEntity
  8
TEXTE
100
AcDbVertex
100
AcDb2dVertex
 10
55.663292
 20
102.071373
 30
0.0
  0
VERTEX
  5
D22A
100
AcDbEntity
  8
TEXTE
100
AcDbVertex
100
AcDb2dVertex
 10
55.658863
 20
102.257539
 30
0.0
  0
VERTEX
  5
D22B
100
AcDbEntity
  8
TEXTE
100
AcDbVertex
100
AcDb2dVertex
 10
55.654743
 20
102.443695
 30
0.0
  0
VERTEX
  5
D22C
100
AcDbEntity
  8
TEXTE
100
AcDbVertex
100
AcDb2dVertex
 10
55.650935
 20
102.62984
 30
0.0
  0
SEQEND
  5
D22D
100
AcDbEntity
  8
TEXTE
  0
POLYLINE
  5
CB36
100
AcDbEntity
  8
TEXTE
100
AcDb2dPolyline
 66
     1
 10
0.0
 20
0.0
 30
0.0
  0
VERTEX
  5
D22E
100
AcDbEntity
  8
TEXTE
100
AcDbVertex
100
AcDb2dVertex
 10
54.616484
 20
101.512818
 30
0.0
  0
VERTEX
  5
D22F
100
AcDbEntity
  8
TEXTE
100
AcDbVertex
100
AcDb2dVertex
 10
54.610927
 20
101.69902
 30
0.0
  0
VERTEX
  5
D230
100
AcDbEntity
  8
TEXTE
100
AcDbVertex
100
AcDb2dVertex
 10
54.605692
 20
101.88521
 30
0.0
  0
VERTEX
  5
D231
100
AcDbEntity
  8
TEXTE
100
AcDbVertex
100
AcDb2dVertex
 10
54.600779
 20
102.071388
 30
0.0
  0
VERTEX
  5
D232
100
AcDbEntity
  8
TEXTE
100
AcDbVertex
100
AcDb2dVertex
 10
54.596188
 20
102.257553
 30
0.0
  0
VERTEX
  5
D233
100
AcDbEntity
  8
TEXTE
100
AcDbVertex
100
AcDb2dVertex
 10
54.591919
 20
102.443703
 30
0.0
  0
VERTEX
  5
D234
100
AcDbEntity
  8
TEXTE
100
AcDbVertex
100
AcDb2dVertex
 10
54.587971
 20
102.62984
 30
0.0
  0
SEQEND
  5
D235
100
AcDbEntity
  8
TEXTE
  0
POLYLINE
  5
CB37
100
AcDbEntity
  8
TEXTE
100
AcDb2dPolyline
 66
     1
 10
0.0
 20
0.0
 30
0.0
  0
VERTEX
  5
D236
100
AcDbEntity
  8
TEXTE
100
AcDbVertex
100
AcDb2dVertex
 10
55.791389
 20
103.00218
 30
0.0
  0
VERTEX
  5
D237
100
AcDbEntity
  8
TEXTE
100
AcDbVertex
100
AcDb2dVertex
 10
55.800229
 20
102.909151
 30
0.0
  0
VERTEX
  5
D238
100
AcDbEntity
  8
TEXTE
100
AcDbVertex
100
AcDb2dVertex
 10
55.809143
 20
102.816084
 30
0.0
  0
VERTEX
  5
D239
100
AcDbEntity
  8
TEXTE
100
AcDbVertex
100
AcDb2dVertex
 10
55.818131
 20
102.722981
 30
0.0
  0
VERTEX
  5
D23A
100
AcDbEntity
  8
TEXTE
100
AcDbVertex
100
AcDb2dVertex
 10
55.827194
 20
102.62984
 30
0.0
  0
SEQEND
  5
D23B
100
AcDbEntity
  8
TEXTE
  0
POLYLINE
  5
CB38
100
AcDbEntity
  8
TEXTE
100
AcDb2dPolyline
 66
     1
 10
0.0
 20
0.0
 30
0.0
  0
VERTEX
  5
D23C
100
AcDbEntity
  8
TEXTE
100
AcDbVertex
100
AcDb2dVertex
 10
54.737324
 20
100.842605
 30
0.0
  0
VERTEX
  5
D23D
100
AcDbEntity
  8
TEXTE
100
AcDbVertex
100
AcDb2dVertex
 10
54.69929
 20
100.991642
 30
0.0
  0
VERTEX
  5
D23E
100
AcDbEntity
  8
TEXTE
100
AcDbVertex
100
AcDb2dVertex
 10
54.661399
 20
101.140478
 30
0.0
  0
SEQEND
  5
D23F
100
AcDbEntity
  8
TEXTE
  0
LINE
  5
CB39
100
AcDbEntity
  8
TEXTE
100
AcDbLine
 10
54.853819
 20
101.214945
 30
0.0
 11
54.92563
 21
100.991542
 31
0.0
  0
LINE
  5
CB3A
100
AcDbEntity
  8
TEXTE
100
AcDbLine
 10
56.292723
 20
102.108563
 30
0.0
 11
56.233661
 21
102.257667
 31
0.0
  0
LINE
  5
CB3B
100
AcDbEntity
  8
TEXTE
100
AcDbLine
 10
56.233661
 20
102.257667
 30
0.0
 11
56.174567
 21
102.406436
 31
0.0
  0
POLYLINE
  5
CB3C
100
AcDbEntity
  8
TEXTE
100
AcDb2dPolyline
 66
     1
 10
0.0
 20
0.0
 30
0.0
  0
VERTEX
  5
D240
100
AcDbEntity
  8
TEXTE
100
AcDbVertex
100
AcDb2dVertex
 10
56.294599
 20
101.066009
 30
0.0
  0
VERTEX
  5
D241
100
AcDbEntity
  8
TEXTE
100
AcDbVertex
100
AcDb2dVertex
 10
56.362414
 20
100.898528
 30
0.0
  0
VERTEX
  5
D242
100
AcDbEntity
  8
TEXTE
100
AcDbVertex
100
AcDb2dVertex
 10
56.38501
 20
100.842605
 30
0.0
  0
SEQEND
  5
D243
100
AcDbEntity
  8
TEXTE
  0
LINE
  5
CB3D
100
AcDbEntity
  8
TEXTE
100
AcDbLine
 10
54.878143
 20
100.544733
 30
0.0
 11
54.807749
 21
100.69387
 31
0.0
  0
LINE
  5
CB3E
100
AcDbEntity
  8
TEXTE
100
AcDbLine
 10
54.807749
 20
100.69387
 30
0.0
 11
54.737324
 21
100.842605
 31
0.0
  0
LINE
  5
CB3F
100
AcDbEntity
  8
TEXTE
100
AcDbLine
 10
56.38083
 20
102.480971
 30
0.0
 11
56.423408
 21
102.406436
 31
0.0
  0
LINE
  5
CB40
100
AcDbEntity
  8
TEXTE
100
AcDbLine
 10
56.338182
 20
102.555371
 30
0.0
 11
56.38083
 21
102.480971
 31
0.0
  0
LINE
  5
CB41
100
AcDbEntity
  8
TEXTE
100
AcDbLine
 10
55.494039
 20
100.358511
 30
0.0
 11
55.419666
 21
100.321329
 31
0.0
  0
LINE
  5
CB42
100
AcDbEntity
  8
TEXTE
100
AcDbLine
 10
55.568052
 20
100.395796
 30
0.0
 11
55.494039
 21
100.358511
 31
0.0
  0
POLYLINE
  5
CB43
100
AcDbEntity
  8
TEXTE
100
AcDb2dPolyline
 66
     1
 10
0.0
 20
0.0
 30
0.0
  0
VERTEX
  5
D244
100
AcDbEntity
  8
TEXTE
100
AcDbVertex
100
AcDb2dVertex
 10
56.373941
 20
100.395796
 30
0.0
  0
VERTEX
  5
D245
100
AcDbEntity
  8
TEXTE
100
AcDbVertex
100
AcDb2dVertex
 10
56.337196
 20
100.451776
 30
0.0
  0
VERTEX
  5
D246
100
AcDbEntity
  8
TEXTE
100
AcDbVertex
100
AcDb2dVertex
 10
56.300395
 20
100.50767
 30
0.0
  0
VERTEX
  5
D247
100
AcDbEntity
  8
TEXTE
100
AcDbVertex
100
AcDb2dVertex
 10
56.263538
 20
100.563479
 30
0.0
  0
VERTEX
  5
D248
100
AcDbEntity
  8
TEXTE
100
AcDbVertex
100
AcDb2dVertex
 10
56.226626
 20
100.619201
 30
0.0
  0
SEQEND
  5
D249
100
AcDbEntity
  8
TEXTE
  0
LINE
  5
CB44
100
AcDbEntity
  8
TEXTE
100
AcDbLine
 10
54.976078
 20
100.917156
 30
0.0
 11
55.026459
 21
100.842605
 31
0.0
  0
LINE
  5
CB45
100
AcDbEntity
  8
TEXTE
100
AcDbLine
 10
54.92563
 20
100.991542
 30
0.0
 11
54.976078
 21
100.917156
 31
0.0
  0
LINE
  5
CB46
100
AcDbEntity
  8
TEXTE
100
AcDbLine
 10
56.406407
 20
101.959627
 30
0.0
 11
56.349652
 21
102.034179
 31
0.0
  0
LINE
  5
CB47
100
AcDbEntity
  8
TEXTE
100
AcDbLine
 10
56.349652
 20
102.034179
 30
0.0
 11
56.292723
 21
102.108563
 31
0.0
  0
POLYLINE
  5
CB48
100
AcDbEntity
  8
TEXTE
100
AcDb2dPolyline
 66
     1
 10
0.0
 20
0.0
 30
0.0
  0
VERTEX
  5
D24A
100
AcDbEntity
  8
TEXTE
100
AcDbVertex
100
AcDb2dVertex
 10
55.01194
 20
100.395796
 30
0.0
  0
VERTEX
  5
D24B
100
AcDbEntity
  8
TEXTE
100
AcDbVertex
100
AcDb2dVertex
 10
54.978556
 20
100.433107
 30
0.0
  0
VERTEX
  5
D24C
100
AcDbEntity
  8
TEXTE
100
AcDbVertex
100
AcDb2dVertex
 10
54.945129
 20
100.470366
 30
0.0
  0
VERTEX
  5
D24D
100
AcDbEntity
  8
TEXTE
100
AcDbVertex
100
AcDb2dVertex
 10
54.911658
 20
100.507575
 30
0.0
  0
VERTEX
  5
D24E
100
AcDbEntity
  8
TEXTE
100
AcDbVertex
100
AcDb2dVertex
 10
54.878143
 20
100.544733
 30
0.0
  0
SEQEND
  5
D24F
100
AcDbEntity
  8
TEXTE
  0
LINE
  5
CB49
100
AcDbEntity
  8
TEXTE
100
AcDbLine
 10
56.464962
 20
102.369234
 30
0.0
 11
56.506408
 21
102.331967
 31
0.0
  0
LINE
  5
CB4A
100
AcDbEntity
  8
TEXTE
100
AcDbLine
 10
56.423408
 20
102.406436
 30
0.0
 11
56.464962
 21
102.369234
 31
0.0
  0
LINE
  5
CB4B
100
AcDbEntity
  8
TEXTE
100
AcDbLine
 10
56.516966
 20
101.885158
 30
0.0
 11
56.461793
 21
101.922432
 31
0.0
  0
LINE
  5
CB4C
100
AcDbEntity
  8
TEXTE
100
AcDbLine
 10
56.461793
 20
101.922432
 30
0.0
 11
56.406407
 21
101.959627
 31
0.0
  0
LINE
  5
CB4D
100
AcDbEntity
  8
TEXTE
100
AcDbLine
 10
56.441042
 20
100.805411
 30
0.0
 11
56.49686
 21
100.768138
 31
0.0
  0
LINE
  5
CB4E
100
AcDbEntity
  8
TEXTE
100
AcDbLine
 10
56.38501
 20
100.842605
 30
0.0
 11
56.441042
 21
100.805411
 31
0.0
  0
LINE
  5
CB4F
100
AcDbEntity
  8
TEXTE
100
AcDbLine
 10
55.090905
 20
100.805418
 30
0.0
 11
55.155132
 21
100.768138
 31
0.0
  0
LINE
  5
CB50
100
AcDbEntity
  8
TEXTE
100
AcDbLine
 10
55.026459
 20
100.842605
 30
0.0
 11
55.090905
 21
100.805418
 31
0.0
  0
LINE
  5
CB51
100
AcDbEntity
  8
TEXTE
100
AcDbLine
 10
56.513532
 20
100.321329
 30
0.0
 11
56.443911
 21
100.35861
 31
0.0
  0
LINE
  5
CB52
100
AcDbEntity
  8
TEXTE
100
AcDbLine
 10
56.443911
 20
100.35861
 30
0.0
 11
56.373941
 21
100.395796
 31
0.0
  0
LINE
  5
CB53
100
AcDbEntity
  8
TEXTE
100
AcDbLine
 10
55.172556
 20
100.321329
 30
0.0
 11
55.092429
 21
100.358619
 31
0.0
  0
LINE
  5
CB54
100
AcDbEntity
  8
TEXTE
100
AcDbLine
 10
55.092429
 20
100.358619
 30
0.0
 11
55.01194
 21
100.395796
 31
0.0
  0
LINE
  5
CB55
100
AcDbEntity
  8
TEXTE
100
AcDbLine
 10
56.091067
 20
101.289414
 30
0.0
 11
56.259658
 21
101.289414
 31
0.0
  0
LINE
  5
CB56
100
AcDbEntity
  8
TEXTE
100
AcDbLine
 10
55.155132
 20
100.768138
 30
0.0
 11
55.402386
 21
100.768138
 31
0.0
  0
LINE
  5
CB57
100
AcDbEntity
  8
TEXTE
100
AcDbLine
 10
55.419667
 20
100.321329
 30
0.0
 11
55.172557
 21
100.321329
 31
0.0
  0
LINE
  5
CB58
100
AcDbEntity
  8
TEXTE
100
AcDbLine
 10
56.905274
 20
100.470194
 30
0.0
 11
56.856208
 21
100.395796
 31
0.0
  0
LINE
  5
CB59
100
AcDbEntity
  8
TEXTE
100
AcDbLine
 10
56.954165
 20
100.544733
 30
0.0
 11
56.905274
 21
100.470194
 31
0.0
  0
POLYLINE
  5
CB5A
100
AcDbEntity
  8
TEXTE
100
AcDb2dPolyline
 66
     1
 10
0.0
 20
0.0
 30
0.0
  0
VERTEX
  5
D250
100
AcDbEntity
  8
TEXTE
100
AcDbVertex
100
AcDb2dVertex
 10
56.813907
 20
100.842605
 30
0.0
  0
VERTEX
  5
D251
100
AcDbEntity
  8
TEXTE
100
AcDbVertex
100
AcDb2dVertex
 10
56.850468
 20
100.917018
 30
0.0
  0
VERTEX
  5
D252
100
AcDbEntity
  8
TEXTE
100
AcDbVertex
100
AcDb2dVertex
 10
56.886953
 20
100.991542
 30
0.0
  0
SEQEND
  5
D253
100
AcDbEntity
  8
TEXTE
  0
LINE
  5
CB5B
100
AcDbEntity
  8
TEXTE
100
AcDbLine
 10
57.000039
 20
100.69354
 30
0.0
 11
56.954165
 21
100.544733
 31
0.0
  0
LINE
  5
CB5C
100
AcDbEntity
  8
TEXTE
100
AcDbLine
 10
57.045878
 20
100.842605
 30
0.0
 11
57.000039
 21
100.69354
 31
0.0
  0
LINE
  5
CB5D
100
AcDbEntity
  8
TEXTE
100
AcDbLine
 10
56.886953
 20
100.991542
 30
0.0
 11
56.931447
 21
101.214945
 31
0.0
  0
POLYLINE
  5
CB5E
100
AcDbEntity
  8
TEXTE
100
AcDb2dPolyline
 66
     1
 10
0.0
 20
0.0
 30
0.0
  0
VERTEX
  5
D254
100
AcDbEntity
  8
TEXTE
100
AcDbVertex
100
AcDb2dVertex
 10
57.086778
 20
101.140478
 30
0.0
  0
VERTEX
  5
D255
100
AcDbEntity
  8
TEXTE
100
AcDbVertex
100
AcDb2dVertex
 10
57.076498
 20
101.065933
 30
0.0
  0
VERTEX
  5
D256
100
AcDbEntity
  8
TEXTE
100
AcDbVertex
100
AcDb2dVertex
 10
57.045878
 20
100.842605
 30
0.0
  0
SEQEND
  5
D257
100
AcDbEntity
  8
TEXTE
  0
POLYLINE
  5
CB5F
100
AcDbEntity
  8
TEXTE
100
AcDb2dPolyline
 66
     1
 10
0.0
 20
0.0
 30
0.0
  0
VERTEX
  5
D258
100
AcDbEntity
  8
TEXTE
100
AcDbVertex
100
AcDb2dVertex
 10
58.003111
 20
102.406436
 30
0.0
  0
VERTEX
  5
D259
100
AcDbEntity
  8
TEXTE
100
AcDbVertex
100
AcDb2dVertex
 10
58.005404
 20
102.294735
 30
0.0
  0
VERTEX
  5
D25A
100
AcDbEntity
  8
TEXTE
100
AcDbVertex
100
AcDb2dVertex
 10
58.007801
 20
102.183033
 30
0.0
  0
VERTEX
  5
D25B
100
AcDbEntity
  8
TEXTE
100
AcDbVertex
100
AcDb2dVertex
 10
58.010301
 20
102.071331
 30
0.0
  0
VERTEX
  5
D25C
100
AcDbEntity
  8
TEXTE
100
AcDbVertex
100
AcDb2dVertex
 10
58.012905
 20
101.959627
 30
0.0
  0
SEQEND
  5
D25D
100
AcDbEntity
  8
TEXTE
  0
POLYLINE
  5
CB60
100
AcDbEntity
  8
TEXTE
100
AcDb2dPolyline
 66
     1
 10
0.0
 20
0.0
 30
0.0
  0
VERTEX
  5
D25E
100
AcDbEntity
  8
TEXTE
100
AcDbVertex
100
AcDb2dVertex
 10
57.409975
 20
101.959627
 30
0.0
  0
VERTEX
  5
D25F
100
AcDbEntity
  8
TEXTE
100
AcDbVertex
100
AcDb2dVertex
 10
57.414952
 20
101.761063
 30
0.0
  0
VERTEX
  5
D260
100
AcDbEntity
  8
TEXTE
100
AcDbVertex
100
AcDb2dVertex
 10
57.420263
 20
101.562491
 30
0.0
  0
VERTEX
  5
D261
100
AcDbEntity
  8
TEXTE
100
AcDbVertex
100
AcDb2dVertex
 10
57.425909
 20
101.363912
 30
0.0
  0
VERTEX
  5
D262
100
AcDbEntity
  8
TEXTE
100
AcDbVertex
100
AcDb2dVertex
 10
57.431888
 20
101.165326
 30
0.0
  0
VERTEX
  5
D263
100
AcDbEntity
  8
TEXTE
100
AcDbVertex
100
AcDb2dVertex
 10
57.438201
 20
100.966735
 30
0.0
  0
VERTEX
  5
D264
100
AcDbEntity
  8
TEXTE
100
AcDbVertex
100
AcDb2dVertex
 10
57.444848
 20
100.768138
 30
0.0
  0
SEQEND
  5
D265
100
AcDbEntity
  8
TEXTE
  0
POLYLINE
  5
CB61
100
AcDbEntity
  8
TEXTE
100
AcDb2dPolyline
 66
     1
 10
0.0
 20
0.0
 30
0.0
  0
VERTEX
  5
D266
100
AcDbEntity
  8
TEXTE
100
AcDbVertex
100
AcDb2dVertex
 10
57.075641
 20
101.512818
 30
0.0
  0
VERTEX
  5
D267
100
AcDbEntity
  8
TEXTE
100
AcDbVertex
100
AcDb2dVertex
 10
57.081061
 20
101.326651
 30
0.0
  0
VERTEX
  5
D268
100
AcDbEntity
  8
TEXTE
100
AcDbVertex
100
AcDb2dVertex
 10
57.086778
 20
101.140478
 30
0.0
  0
SEQEND
  5
D269
100
AcDbEntity
  8
TEXTE
  0
POLYLINE
  5
CB62
100
AcDbEntity
  8
TEXTE
100
AcDb2dPolyline
 66
     1
 10
0.0
 20
0.0
 30
0.0
  0
VERTEX
  5
D26A
100
AcDbEntity
  8
TEXTE
100
AcDbVertex
100
AcDb2dVertex
 10
56.931447
 20
101.214945
 30
0.0
  0
VERTEX
  5
D26B
100
AcDbEntity
  8
TEXTE
100
AcDbVertex
100
AcDb2dVertex
 10
56.928036
 20
101.326649
 30
0.0
  0
VERTEX
  5
D26C
100
AcDbEntity
  8
TEXTE
100
AcDbVertex
100
AcDb2dVertex
 10
56.924732
 20
101.43835
 30
0.0
  0
SEQEND
  5
D26D
100
AcDbEntity
  8
TEXTE
  0
POLYLINE
  5
CB63
100
AcDbEntity
  8
TEXTE
100
AcDb2dPolyline
 66
     1
 10
0.0
 20
0.0
 30
0.0
  0
VERTEX
  5
D26E
100
AcDbEntity
  8
TEXTE
100
AcDbVertex
100
AcDb2dVertex
 10
58.135337
 20
100.768138
 30
0.0
  0
VERTEX
  5
D26F
100
AcDbEntity
  8
TEXTE
100
AcDbVertex
100
AcDb2dVertex
 10
58.13914
 20
100.656438
 30
0.0
  0
VERTEX
  5
D270
100
AcDbEntity
  8
TEXTE
100
AcDbVertex
100
AcDb2dVertex
 10
58.143046
 20
100.544736
 30
0.0
  0
VERTEX
  5
D271
100
AcDbEntity
  8
TEXTE
100
AcDbVertex
100
AcDb2dVertex
 10
58.147055
 20
100.433033
 30
0.0
  0
VERTEX
  5
D272
100
AcDbEntity
  8
TEXTE
100
AcDbVertex
100
AcDb2dVertex
 10
58.151168
 20
100.321329
 30
0.0
  0
SEQEND
  5
D273
100
AcDbEntity
  8
TEXTE
  0
POLYLINE
  5
CB64
100
AcDbEntity
  8
TEXTE
100
AcDb2dPolyline
 66
     1
 10
0.0
 20
0.0
 30
0.0
  0
VERTEX
  5
D274
100
AcDbEntity
  8
TEXTE
100
AcDbVertex
100
AcDb2dVertex
 10
57.016877
 20
101.810691
 30
0.0
  0
VERTEX
  5
D275
100
AcDbEntity
  8
TEXTE
100
AcDbVertex
100
AcDb2dVertex
 10
57.046191
 20
101.661839
 30
0.0
  0
VERTEX
  5
D276
100
AcDbEntity
  8
TEXTE
100
AcDbVertex
100
AcDb2dVertex
 10
57.075641
 20
101.512818
 30
0.0
  0
SEQEND
  5
D277
100
AcDbEntity
  8
TEXTE
  0
LINE
  5
CB65
100
AcDbEntity
  8
TEXTE
100
AcDbLine
 10
56.924732
 20
101.43835
 30
0.0
 11
56.866776
 21
101.661754
 31
0.0
  0
LINE
  5
CB66
100
AcDbEntity
  8
TEXTE
100
AcDbLine
 10
56.792195
 20
100.358519
 30
0.0
 11
56.727834
 21
100.321329
 31
0.0
  0
LINE
  5
CB67
100
AcDbEntity
  8
TEXTE
100
AcDbLine
 10
56.856208
 20
100.395796
 30
0.0
 11
56.792195
 21
100.358519
 31
0.0
  0
LINE
  5
CB68
100
AcDbEntity
  8
TEXTE
100
AcDbLine
 10
56.711277
 20
100.768138
 30
0.0
 11
56.762699
 21
100.805335
 31
0.0
  0
LINE
  5
CB69
100
AcDbEntity
  8
TEXTE
100
AcDbLine
 10
56.762699
 20
100.805335
 30
0.0
 11
56.813907
 21
100.842605
 31
0.0
  0
LINE
  5
CB6A
100
AcDbEntity
  8
TEXTE
100
AcDbLine
 10
56.962035
 20
101.959782
 30
0.0
 11
57.016877
 21
101.810691
 31
0.0
  0
LINE
  5
CB6B
100
AcDbEntity
  8
TEXTE
100
AcDbLine
 10
56.907164
 20
102.108563
 30
0.0
 11
56.962035
 21
101.959782
 31
0.0
  0
POLYLINE
  5
CB6C
100
AcDbEntity
  8
TEXTE
100
AcDb2dPolyline
 66
     1
 10
0.0
 20
0.0
 30
0.0
  0
VERTEX
  5
D278
100
AcDbEntity
  8
TEXTE
100
AcDbVertex
100
AcDb2dVertex
 10
56.866776
 20
101.661754
 30
0.0
  0
VERTEX
  5
D279
100
AcDbEntity
  8
TEXTE
100
AcDbVertex
100
AcDb2dVertex
 10
56.846281
 20
101.699037
 30
0.0
  0
VERTEX
  5
D27A
100
AcDbEntity
  8
TEXTE
100
AcDbVertex
100
AcDb2dVertex
 10
56.78469
 20
101.810691
 30
0.0
  0
SEQEND
  5
D27B
100
AcDbEntity
  8
TEXTE
  0
LINE
  5
CB6D
100
AcDbEntity
  8
TEXTE
100
AcDbLine
 10
56.853702
 20
102.183109
 30
0.0
 11
56.907164
 21
102.108563
 31
0.0
  0
LINE
  5
CB6E
100
AcDbEntity
  8
TEXTE
100
AcDbLine
 10
56.800069
 20
102.257499
 30
0.0
 11
56.853702
 21
102.183109
 31
0.0
  0
LINE
  5
CB6F
100
AcDbEntity
  8
TEXTE
100
AcDbLine
 10
56.78469
 20
101.810691
 30
0.0
 11
56.731177
 21
101.847962
 31
0.0
  0
LINE
  5
CB70
100
AcDbEntity
  8
TEXTE
100
AcDbLine
 10
56.731177
 20
101.847962
 30
0.0
 11
56.677451
 21
101.885158
 31
0.0
  0
LINE
  5
CB71
100
AcDbEntity
  8
TEXTE
100
AcDbLine
 10
56.733682
 20
102.294778
 30
0.0
 11
56.800069
 21
102.257499
 31
0.0
  0
LINE
  5
CB72
100
AcDbEntity
  8
TEXTE
100
AcDbLine
 10
56.666948
 20
102.331967
 30
0.0
 11
56.733682
 21
102.294778
 31
0.0
  0
LINE
  5
CB73
100
AcDbEntity
  8
TEXTE
100
AcDbLine
 10
56.966716
 20
103.00218
 30
0.0
 11
56.812048
 21
103.00218
 31
0.0
  0
LINE
  5
CB74
100
AcDbEntity
  8
TEXTE
100
AcDbLine
 10
57.399995
 20
102.406436
 30
0.0
 11
58.003111
 21
102.406436
 31
0.0
  0
LINE
  5
CB75
100
AcDbEntity
  8
TEXTE
100
AcDbLine
 10
58.012905
 20
101.959627
 30
0.0
 11
57.409975
 21
101.959627
 31
0.0
  0
LINE
  5
CB76
100
AcDbEntity
  8
TEXTE
100
AcDbLine
 10
57.444848
 20
100.768138
 30
0.0
 11
58.135337
 21
100.768138
 31
0.0
  0
LINE
  5
CB77
100
AcDbEntity
  8
TEXTE
100
AcDbLine
 10
58.151168
 20
100.321329
 30
0.0
 11
57.314803
 21
100.321329
 31
0.0
  0
LINE
  5
CB78
100
AcDbEntity
  8
ALPHA
100
AcDbLine
 10
58.646456
 20
108.571329
 30
0.0
 11
55.022557
 21
108.571329
 31
0.0
  0
LINE
  5
CB79
100
AcDbEntity
  8
ALPHA
100
AcDbLine
 10
58.609378
 20
107.071329
 30
0.0
 11
54.980911
 21
107.071329
 31
0.0
  0
LINE
  5
CB7A
100
AcDbEntity
  8
TEXTE
100
AcDbLine
 10
56.483773
 20
103.821329
 30
0.0
 11
56.617862
 21
103.821329
 31
0.0
  0
LINE
  5
CB7B
100
AcDbEntity
  8
TEXTE
100
AcDbLine
 10
56.649166
 20
103.37452
 30
0.0
 11
56.488535
 21
103.37452
 31
0.0
  0
POLYLINE
  5
CB7C
100
AcDbEntity
  8
ALPHA
100
AcDb2dPolyline
 66
     1
 10
0.0
 20
0.0
 30
0.0
  0
VERTEX
  5
D27C
100
AcDbEntity
  8
ALPHA
100
AcDbVertex
100
AcDb2dVertex
 10
55.097435
 20
110.321329
 30
0.0
  0
VERTEX
  5
D27D
100
AcDbEntity
  8
ALPHA
100
AcDbVertex
100
AcDb2dVertex
 10
55.069322
 20
109.737792
 30
0.0
  0
VERTEX
  5
D27E
100
AcDbEntity
  8
ALPHA
100
AcDbVertex
100
AcDb2dVertex
 10
55.044364
 20
109.154466
 30
0.0
  0
VERTEX
  5
D27F
100
AcDbEntity
  8
ALPHA
100
AcDbVertex
100
AcDb2dVertex
 10
55.022557
 20
108.571329
 30
0.0
  0
SEQEND
  5
D280
100
AcDbEntity
  8
ALPHA
  0
LINE
  5
CB7D
100
AcDbEntity
  8
TEXTE
100
AcDbLine
 10
52.596747
 20
103.449228
 30
0.0
 11
52.677119
 21
103.300052
 31
0.0
  0
LINE
  5
CB7E
100
AcDbEntity
  8
TEXTE
100
AcDbLine
 10
52.516338
 20
103.597925
 30
0.0
 11
52.596747
 21
103.449228
 31
0.0
  0
LINE
  5
CB7F
100
AcDbEntity
  8
TEXTE
100
AcDbLine
 10
53.015986
 20
103.821329
 30
0.0
 11
53.240809
 21
103.821329
 31
0.0
  0
LINE
  5
CB80
100
AcDbEntity
  8
TEXTE
100
AcDbLine
 10
56.368017
 20
103.225521
 30
0.0
 11
56.327914
 21
103.151116
 31
0.0
  0
LINE
  5
CB81
100
AcDbEntity
  8
TEXTE
100
AcDbLine
 10
56.408048
 20
103.300052
 30
0.0
 11
56.368017
 21
103.225521
 31
0.0
  0
LINE
  5
CB82
100
AcDbEntity
  8
TEXTE
100
AcDbLine
 10
56.159082
 20
103.300052
 30
0.0
 11
56.213061
 21
103.448833
 31
0.0
  0
LINE
  5
CB83
100
AcDbEntity
  8
TEXTE
100
AcDbLine
 10
56.213061
 20
103.448833
 30
0.0
 11
56.267008
 21
103.597925
 31
0.0
  0
LINE
  5
CB84
100
AcDbEntity
  8
TEXTE
100
AcDbLine
 10
56.448346
 20
103.337255
 30
0.0
 11
56.408048
 21
103.300052
 31
0.0
  0
LINE
  5
CB85
100
AcDbEntity
  8
TEXTE
100
AcDbLine
 10
56.488535
 20
103.37452
 30
0.0
 11
56.448346
 21
103.337255
 31
0.0
  0
LINE
  5
CB86
100
AcDbEntity
  8
TEXTE
100
AcDbLine
 10
54.800818
 20
103.597925
 30
0.0
 11
54.864218
 21
103.672297
 31
0.0
  0
LINE
  5
CB87
100
AcDbEntity
  8
TEXTE
100
AcDbLine
 10
54.864218
 20
103.672297
 30
0.0
 11
54.92744
 21
103.746861
 31
0.0
  0
LINE
  5
CB88
100
AcDbEntity
  8
TEXTE
100
AcDbLine
 10
56.267008
 20
103.597925
 30
0.0
 11
56.321421
 21
103.672313
 31
0.0
  0
LINE
  5
CB89
100
AcDbEntity
  8
TEXTE
100
AcDbLine
 10
56.321421
 20
103.672313
 30
0.0
 11
56.375659
 21
103.746861
 31
0.0
  0
LINE
  5
CB8A
100
AcDbEntity
  8
TEXTE
100
AcDbLine
 10
54.917841
 20
103.225508
 30
0.0
 11
54.871053
 21
103.151116
 31
0.0
  0
LINE
  5
CB8B
100
AcDbEntity
  8
TEXTE
100
AcDbLine
 10
54.964556
 20
103.300052
 30
0.0
 11
54.917841
 21
103.225508
 31
0.0
  0
LINE
  5
CB8C
100
AcDbEntity
  8
TEXTE
100
AcDbLine
 10
54.67481
 20
103.300052
 30
0.0
 11
54.737831
 21
103.448807
 31
0.0
  0
LINE
  5
CB8D
100
AcDbEntity
  8
TEXTE
100
AcDbLine
 10
54.737831
 20
103.448807
 30
0.0
 11
54.800818
 21
103.597925
 31
0.0
  0
LINE
  5
CB8E
100
AcDbEntity
  8
TEXTE
100
AcDbLine
 10
54.644294
 20
103.151005
 30
0.0
 11
54.67481
 21
103.300052
 31
0.0
  0
POLYLINE
  5
CB8F
100
AcDbEntity
  8
ALPHA
100
AcDb2dPolyline
 66
     1
 10
0.0
 20
0.0
 30
0.0
  0
VERTEX
  5
D281
100
AcDbEntity
  8
ALPHA
100
AcDbVertex
100
AcDb2dVertex
 10
54.980911
 20
107.071329
 30
0.0
  0
VERTEX
  5
D282
100
AcDbEntity
  8
ALPHA
100
AcDbVertex
100
AcDb2dVertex
 10
54.970337
 20
106.487931
 30
0.0
  0
VERTEX
  5
D283
100
AcDbEntity
  8
ALPHA
100
AcDbVertex
100
AcDb2dVertex
 10
54.962912
 20
105.904606
 30
0.0
  0
VERTEX
  5
D284
100
AcDbEntity
  8
ALPHA
100
AcDbVertex
100
AcDb2dVertex
 10
54.958638
 20
105.321329
 30
0.0
  0
SEQEND
  5
D285
100
AcDbEntity
  8
ALPHA
  0
LINE
  5
CB90
100
AcDbEntity
  8
TEXTE
100
AcDbLine
 10
55.667407
 20
103.449162
 30
0.0
 11
55.728362
 21
103.300052
 31
0.0
  0
LINE
  5
CB91
100
AcDbEntity
  8
TEXTE
100
AcDbLine
 10
55.606419
 20
103.597925
 30
0.0
 11
55.667407
 21
103.449162
 31
0.0
  0
LINE
  5
CB92
100
AcDbEntity
  8
TEXTE
100
AcDbLine
 10
54.92744
 20
103.746861
 30
0.0
 11
55.006287
 21
103.78404
 31
0.0
  0
LINE
  5
CB93
100
AcDbEntity
  8
TEXTE
100
AcDbLine
 10
55.006287
 20
103.78404
 30
0.0
 11
55.084769
 21
103.821329
 31
0.0
  0
LINE
  5
CB94
100
AcDbEntity
  8
TEXTE
100
AcDbLine
 10
55.027266
 20
103.33724
 30
0.0
 11
54.964556
 21
103.300052
 31
0.0
  0
LINE
  5
CB95
100
AcDbEntity
  8
TEXTE
100
AcDbLine
 10
55.089756
 20
103.37452
 30
0.0
 11
55.027266
 21
103.33724
 31
0.0
  0
LINE
  5
CB96
100
AcDbEntity
  8
TEXTE
100
AcDbLine
 10
56.375659
 20
103.746861
 30
0.0
 11
56.429823
 21
103.784057
 31
0.0
  0
LINE
  5
CB97
100
AcDbEntity
  8
TEXTE
100
AcDbLine
 10
56.429823
 20
103.784057
 30
0.0
 11
56.483773
 21
103.821329
 31
0.0
  0
LINE
  5
CB98
100
AcDbEntity
  8
TEXTE
100
AcDbLine
 10
55.552529
 20
103.151116
 30
0.0
 11
55.506382
 21
103.225659
 31
0.0
  0
LINE
  5
CB99
100
AcDbEntity
  8
TEXTE
100
AcDbLine
 10
55.506382
 20
103.225659
 30
0.0
 11
55.460165
 21
103.300052
 31
0.0
  0
LINE
  5
CB9A
100
AcDbEntity
  8
TEXTE
100
AcDbLine
 10
55.545855
 20
103.672484
 30
0.0
 11
55.606419
 21
103.597925
 31
0.0
  0
LINE
  5
CB9B
100
AcDbEntity
  8
TEXTE
100
AcDbLine
 10
55.485115
 20
103.746861
 30
0.0
 11
55.545855
 21
103.672484
 31
0.0
  0
LINE
  5
CB9C
100
AcDbEntity
  8
TEXTE
100
AcDbLine
 10
55.460165
 20
103.300052
 30
0.0
 11
55.398967
 21
103.337331
 31
0.0
  0
LINE
  5
CB9D
100
AcDbEntity
  8
TEXTE
100
AcDbLine
 10
55.398967
 20
103.337331
 30
0.0
 11
55.337551
 21
103.37452
 31
0.0
  0
LINE
  5
CB9E
100
AcDbEntity
  8
TEXTE
100
AcDbLine
 10
55.40904
 20
103.784148
 30
0.0
 11
55.485115
 21
103.746861
 31
0.0
  0
LINE
  5
CB9F
100
AcDbEntity
  8
TEXTE
100
AcDbLine
 10
55.332605
 20
103.821329
 30
0.0
 11
55.40904
 21
103.784148
 31
0.0
  0
LINE
  5
CBA0
100
AcDbEntity
  8
ALPHA
100
AcDbLine
 10
54.580955
 20
105.321329
 30
0.0
 11
54.958638
 21
105.321329
 31
0.0
  0
LINE
  5
CBA1
100
AcDbEntity
  8
TEXTE
100
AcDbLine
 10
55.08477
 20
103.821329
 30
0.0
 11
55.332605
 21
103.821329
 31
0.0
  0
LINE
  5
CBA2
100
AcDbEntity
  8
TEXTE
100
AcDbLine
 10
55.33755
 20
103.37452
 30
0.0
 11
55.089756
 21
103.37452
 31
0.0
  0
LINE
  5
CBA3
100
AcDbEntity
  8
ALPHA
100
AcDbLine
 10
54.720086
 20
110.321329
 30
0.0
 11
55.097435
 21
110.321329
 31
0.0
  0
LINE
  5
CBA4
100
AcDbEntity
  8
ALPHA
100
AcDbLine
 10
59.236495
 20
106.187962
 30
0.0
 11
59.296876
 21
108.921329
 31
0.0
  0
POLYLINE
  5
CBA5
100
AcDbEntity
  8
ALPHA
100
AcDb2dPolyline
 66
     1
 10
0.0
 20
0.0
 30
0.0
  0
VERTEX
  5
D286
100
AcDbEntity
  8
ALPHA
100
AcDbVertex
100
AcDb2dVertex
 10
58.907273
 20
103.454701
 30
0.0
  0
VERTEX
  5
D287
100
AcDbEntity
  8
ALPHA
100
AcDbVertex
100
AcDb2dVertex
 10
58.907273
 20
106.187956
 30
0.0
  0
VERTEX
  5
D288
100
AcDbEntity
  8
ALPHA
100
AcDbVertex
100
AcDb2dVertex
 10
58.967618
 20
108.921329
 30
0.0
  0
SEQEND
  5
D289
100
AcDbEntity
  8
ALPHA
  0
POLYLINE
  5
CBA6
100
AcDbEntity
  8
ALPHA
100
AcDb2dPolyline
 66
     1
 10
0.0
 20
0.0
 30
0.0
  0
VERTEX
  5
D28A
100
AcDbEntity
  8
ALPHA
100
AcDbVertex
100
AcDb2dVertex
 10
58.646456
 20
108.571329
 30
0.0
  0
VERTEX
  5
D28B
100
AcDbEntity
  8
ALPHA
100
AcDbVertex
100
AcDb2dVertex
 10
58.632036
 20
108.07131
 30
0.0
  0
VERTEX
  5
D28C
100
AcDbEntity
  8
ALPHA
100
AcDbVertex
100
AcDb2dVertex
 10
58.619677
 20
107.571311
 30
0.0
  0
VERTEX
  5
D28D
100
AcDbEntity
  8
ALPHA
100
AcDbVertex
100
AcDb2dVertex
 10
58.609378
 20
107.071329
 30
0.0
  0
SEQEND
  5
D28E
100
AcDbEntity
  8
ALPHA
  0
POLYLINE
  5
CBA7
100
AcDbEntity
  8
TEXTE
100
AcDb2dPolyline
 66
     1
 10
0.0
 20
0.0
 30
0.0
  0
VERTEX
  5
D28F
100
AcDbEntity
  8
TEXTE
100
AcDbVertex
100
AcDb2dVertex
 10
58.071424
 20
103.821329
 30
0.0
  0
VERTEX
  5
D290
100
AcDbEntity
  8
TEXTE
100
AcDbVertex
100
AcDb2dVertex
 10
58.072402
 20
103.709627
 30
0.0
  0
VERTEX
  5
D291
100
AcDbEntity
  8
TEXTE
100
AcDbVertex
100
AcDb2dVertex
 10
58.073482
 20
103.597925
 30
0.0
  0
VERTEX
  5
D292
100
AcDbEntity
  8
TEXTE
100
AcDbVertex
100
AcDb2dVertex
 10
58.074666
 20
103.486223
 30
0.0
  0
VERTEX
  5
D293
100
AcDbEntity
  8
TEXTE
100
AcDbVertex
100
AcDb2dVertex
 10
58.075953
 20
103.37452
 30
0.0
  0
SEQEND
  5
D294
100
AcDbEntity
  8
TEXTE
  0
LINE
  5
CBA8
100
AcDbEntity
  8
TEXTE
100
AcDbLine
 10
56.856936
 20
103.523456
 30
0.0
 11
56.937865
 21
103.225584
 31
0.0
  0
LINE
  5
CBA9
100
AcDbEntity
  8
TEXTE
100
AcDbLine
 10
56.783743
 20
103.151116
 30
0.0
 11
56.729312
 21
103.300052
 31
0.0
  0
LINE
  5
CBAA
100
AcDbEntity
  8
TEXTE
100
AcDbLine
 10
56.803785
 20
103.635288
 30
0.0
 11
56.856936
 21
103.523456
 31
0.0
  0
LINE
  5
CBAB
100
AcDbEntity
  8
TEXTE
100
AcDbLine
 10
56.750535
 20
103.746861
 30
0.0
 11
56.803785
 21
103.635288
 31
0.0
  0
POLYLINE
  5
CBAC
100
AcDbEntity
  8
TEXTE
100
AcDb2dPolyline
 66
     1
 10
0.0
 20
0.0
 30
0.0
  0
VERTEX
  5
D295
100
AcDbEntity
  8
TEXTE
100
AcDbVertex
100
AcDb2dVertex
 10
56.729312
 20
103.300052
 30
0.0
  0
VERTEX
  5
D296
100
AcDbEntity
  8
TEXTE
100
AcDbVertex
100
AcDb2dVertex
 10
56.709316
 20
103.318693
 30
0.0
  0
VERTEX
  5
D297
100
AcDbEntity
  8
TEXTE
100
AcDbVertex
100
AcDb2dVertex
 10
56.649166
 20
103.37452
 30
0.0
  0
SEQEND
  5
D298
100
AcDbEntity
  8
TEXTE
  0
LINE
  5
CBAD
100
AcDbEntity
  8
TEXTE
100
AcDbLine
 10
56.684372
 20
103.784139
 30
0.0
 11
56.750535
 21
103.746861
 31
0.0
  0
LINE
  5
CBAE
100
AcDbEntity
  8
TEXTE
100
AcDbLine
 10
56.617862
 20
103.821329
 30
0.0
 11
56.684372
 21
103.784139
 31
0.0
  0
LINE
  5
CBAF
100
AcDbEntity
  8
TEXTE
100
AcDbLine
 10
57.232945
 20
103.821329
 30
0.0
 11
58.071424
 21
103.821329
 31
0.0
  0
LINE
  5
CBB0
100
AcDbEntity
  8
TEXTE
100
AcDbLine
 10
58.075953
 20
103.37452
 30
0.0
 11
57.384171
 21
103.37452
 31
0.0
  0
LINE
  5
CBB1
100
AcDbEntity
  8
ALPHA
100
AcDbLine
 10
59.236495
 20
103.454695
 30
0.0
 11
59.236495
 21
106.187962
 31
0.0
  0
ARC
  5
CBB2
100
AcDbEntity
  8
ALPHA
100
AcDbCircle
 10
54.311716
 20
163.5981
 30
0.0
 40
5.0
100
AcDbArc
 50
0.0
 51
39.268026
  0
ARC
  5
CBB3
100
AcDbEntity
  8
ALPHA
100
AcDbCircle
 10
60.886716
 20
113.896329
 30
0.0
 40
1.425
100
AcDbArc
 50
356.213228
 51
90.0
  0
LINE
  5
CBB4
100
AcDbEntity
  8
ALPHA
100
AcDbLine
 10
62.111716
 20
101.221329
 30
0.0
 11
62.111716
 21
108.421329
 31
0.0
  0
LINE
  5
CBB5
100
AcDbEntity
  8
ALPHA
100
AcDbLine
 10
62.308605
 20
95.840441
 30
0.0
 11
62.073538
 21
100.721329
 31
0.0
  0
ARC
  5
CBB6
100
AcDbEntity
  8
ALPHA
100
AcDbCircle
 10
60.886716
 20
95.746329
 30
0.0
 40
1.425
100
AcDbArc
 50
277.564804
 51
3.786772
  0
LINE
  5
CBB7
100
AcDbEntity
  8
ALPHA
100
AcDbLine
 10
61.074313
 20
94.333731
 30
0.0
 11
61.061604
 21
94.333731
 31
0.0
  0
POLYLINE
  5
CBB8
100
AcDbEntity
  8
ALPHA
100
AcDb2dPolyline
 66
     1
 10
0.0
 20
0.0
 30
0.0
  0
VERTEX
  5
D299
100
AcDbEntity
  8
ALPHA
100
AcDbVertex
100
AcDb2dVertex
 10
61.061604
 20
94.333731
 30
0.0
  0
VERTEX
  5
D29A
100
AcDbEntity
  8
ALPHA
100
AcDbVertex
100
AcDb2dVertex
 10
60.967171
 20
94.324442
 30
0.0
  0
VERTEX
  5
D29B
100
AcDbEntity
  8
ALPHA
100
AcDbVertex
100
AcDb2dVertex
 10
60.87199
 20
94.321329
 30
0.0
  0
SEQEND
  5
D29C
100
AcDbEntity
  8
ALPHA
  0
LINE
  5
CBB9
100
AcDbEntity
  8
ALPHA
100
AcDbLine
 10
62.373675
 20
100.721329
 30
0.0
 11
62.359482
 21
101.221329
 31
0.0
  0
LINE
  5
CBBA
100
AcDbEntity
  8
ALPHA
100
AcDbLine
 10
62.359482
 20
108.421329
 30
0.0
 11
62.373675
 21
108.921329
 31
0.0
  0
LINE
  5
CBBB
100
AcDbEntity
  8
ALPHA
100
AcDbLine
 10
62.073538
 20
108.921329
 30
0.0
 11
62.308605
 21
113.802217
 31
0.0
  0
LINE
  5
CBF6
100
AcDbEntity
  8
AXE
100
AcDbLine
 10
24.311716
 20
29.32929
 30
0.0
 11
24.311716
 21
187.784684
 31
0.0
  0
TEXT
  5
CBF7
100
AcDbEntity
  8
AXE
100
AcDbText
 10
16.835525
 20
29.32929
 30
0.0
 40
8.0
  1
Y
 72
     2
 11
23.311716
 21
29.32929
 31
0.0
100
AcDbText
  0
LINE
  5
CBF8
100
AcDbEntity
  8
AXE
100
AcDbLine
 10
69.311716
 20
139.459714
 30
0.0
 11
-23.97775
 21
139.459714
 31
0.0
  0
TEXT
  5
CBF9
100
AcDbEntity
  8
AXE
100
AcDbText
 10
-24.99582
 20
140.651106
 30
0.0
 40
8.0
  1
Z
 72
     2
 11
-18.51963
 21
140.651106
 31
0.0
100
AcDbText
  0
VIEWPORT
  5
494D
102
{ACAD_XDICTIONARY
360
CC62
102
}
100
AcDbEntity
 67
     1
  8
0
100
AcDbViewport
 10
6.0
 20
4.5
 30
0.0
 40
13.37404
 41
9.064748
 68
    -1
 69
     1
1001
ACAD
1000
MVIEW
1002
{
1070
    16
1010
0.0
1020
0.0
1030
0.0
1010
0.0
1020
0.0
1030
1.0
1040
0.0
1040
9.064748
1040
6.0
1040
4.5
1040
50.0
1040
0.0
1040
0.0
1070
     0
1070
   100
1070
     1
1070
     1
1070
     0
1070
     0
1070
     0
1070
     0
1040
0.0
1040
0.0
1040
0.0
1040
10.0
1040
10.0
1040
10.0
1040
10.0
1070
     0
1002
{
1002
}
1002
}
  0
ENDSEC
  0
SECTION
  2
OBJECTS
  0
DICTIONARY
  5
7CF4
102
{ACAD_XDICTIONARY
360
CC64
102
}
100
AcDbDictionary
  3
ACAD_GROUP
350
7CF5
  3
ACAD_LAYOUT
350
7D01
  3
ACAD_MLINESTYLE
350
7CFE
  3
ACAD_PLOTSETTINGS
350
7D00
  3
ACAD_PLOTSTYLENAME
350
7CF6
  3
ACDBHEADERROUNDTRIPXREC
350
CC41
  3
ACDBVARIABLEDICTIONARY
350
8048
  0
DICTIONARY
  5
CC3B
100
AcDbDictionary
  3
ACAD_XREC_ROUNDTRIP
360
CC3C
  0
DICTIONARY
  5
CC3D
100
AcDbDictionary
  3
ACAD_XREC_ROUNDTRIP
360
CC3E
  0
DICTIONARY
  5
CC70
100
AcDbDictionary
  3
ACAD_XREC_ROUNDTRIP
360
CC71
  0
DICTIONARY
  5
CC6C
100
AcDbDictionary
  3
ACAD_XREC_ROUNDTRIP
360
CC6D
  0
DICTIONARY
  5
CC6E
100
AcDbDictionary
  3
ACAD_XREC_ROUNDTRIP
360
CC6F
  0
DICTIONARY
  5
800F
100
AcDbDictionary
  3
ACAD_LAYOUTSELFREF
360
CC6B
  3
ACAD_XREC_ROUNDTRIP
360
CC39
  0
DICTIONARY
  5
8011
100
AcDbDictionary
  3
ACAD_LAYOUTSELFREF
360
CC6A
  3
ACAD_XREC_ROUNDTRIP
360
CC3A
  0
DICTIONARY
  5
CC62
100
AcDbDictionary
  3
ACAD_XREC_ROUNDTRIP
360
CC63
  0
DICTIONARY
  5
CC64
100
AcDbDictionary
  3
ACAD_XREC_ROUNDTRIP
360
CC65
  0
DICTIONARY
  5
7CF5
102
{ACAD_REACTORS
330
7CF4
102
}
100
AcDbDictionary
  0
DICTIONARY
  5
7D01
102
{ACAD_XDICTIONARY
360
CC68
102
}
102
{ACAD_REACTORS
330
7CF4
102
}
100
AcDbDictionary
  3
MODEL
350
7D09
  3
PRÉSENTATION1
350
7D05
  0
DICTIONARY
  5
7CFE
102
{ACAD_XDICTIONARY
360
CC66
102
}
102
{ACAD_REACTORS
330
7CF4
102
}
100
AcDbDictionary
  3
STANDARD
350
7CFF
  0
DICTIONARY
  5
7D00
102
{ACAD_REACTORS
330
7CF4
102
}
100
AcDbDictionary
  0
ACAD_ZOMBIE_OBJECT
  5
7CF6
102
{ACAD_REACTORS
330
7CF4
102
}
100
AcDbZombieObject
 90
      499
 91
      500
 93
       86
310
405010041939BDC9B585B0
350
7CF7
340
7CF7
 94
        0
  0
DICTIONARY
  5
CC41
102
{ACAD_REACTORS
330
7CF4
102
}
100
AcDbDictionary
  3
CEPSNTYPE
350
CC4B
  3
DIMSTYLEDATA
350
CC4F
  3
FINGERPRINTGUID
350
CC4C
  3
HYPERLINKBASE
350
CC44
  3
INSUNITS
350
CC4A
  3
LAYOUTDICT
350
CC46
  3
LWETCUNION
350
CC49
  3
PLOTSETDICT
350
CC47
  3
PLOTSTYLNAMDICT
350
CC48
  3
PSVPSCALE
350
CC4E
  3
PUCSBASE
350
CC52
  3
PUCSORGBACK
350
CC58
  3
PUCSORGBOTTOM
350
CC54
  3
PUCSORGFRONT
350
CC57
  3
PUCSORGLEFT
350
CC55
  3
PUCSORGRIGHT
350
CC56
  3
PUCSORGTOP
350
CC53
  3
PUCSORTHOREF
350
CC50
  3
PUCSORTHOVIEW
350
CC51
  3
STYLESHEET
350
CC45
  3
TSTACKALIGN
350
CC42
  3
TSTACKSIZE
350
CC43
  3
UCSBASE
350
CC5B
  3
UCSORGBACK
350
CC61
  3
UCSORGBOTTOM
350
CC5D
  3
UCSORGFRONT
350
CC60
  3
UCSORGLEFT
350
CC5E
  3
UCSORGRIGHT
350
CC5F
  3
UCSORGTOP
350
CC5C
  3
UCSORTHOREF
350
CC59
  3
UCSORTHOVIEW
350
CC5A
  3
VERSIONGUID
350
CC4D
  0
DICTIONARY
  5
8048
102
{ACAD_REACTORS
330
7CF4
102
}
100
AcDbDictionary
  3
DIMASSOC
350
804A
  3
HIDETEXT
350
8049
  0
XRECORD
  5
CC3C
102
{ACAD_REACTORS
330
CC3B
102
}
100
AcDbXrecord
102
EXTNAMES
  1
BYBLOCK
  2
ByBlock
  0
XRECORD
  5
CC3E
102
{ACAD_REACTORS
330
CC3D
102
}
100
AcDbXrecord
102
EXTNAMES
  1
BYLAYER
  2
ByLayer
  0
XRECORD
  5
CC71
102
{ACAD_REACTORS
330
CC70
102
}
100
AcDbXrecord
102
PLOTBIT
280
     0
  0
XRECORD
  5
CC6D
102
{ACAD_REACTORS
330
CC6C
102
}
100
AcDbXrecord
102
ACADR14ROUNDTRIP
1000
DSTYLE
1002
{
1070
   279
 70
     2
1070
   341
340
7D0C
1070
   342
340
7D0C
1002
}
  0
XRECORD
  5
CC6F
102
{ACAD_REACTORS
330
CC6E
102
}
100
AcDbXrecord
102
ACADR14ROUNDTRIP
1000
DSTYLE
1002
{
1070
   279
 70
     2
1002
}
  0
XRECORD
  5
CC6B
102
{ACAD_REACTORS
330
800F
102
}
100
AcDbXrecord
340
7D06
  0
XRECORD
  5
CC39
102
{ACAD_REACTORS
330
800F
102
}
100
AcDbXrecord
102
EXTNAMES
  1
*MODEL_SPACE
  2
*Model_Space
  0
XRECORD
  5
CC6A
102
{ACAD_REACTORS
330
8011
102
}
100
AcDbXrecord
340
7D02
  0
XRECORD
  5
CC3A
102
{ACAD_REACTORS
330
8011
102
}
100
AcDbXrecord
102
EXTNAMES
  1
*PAPER_SPACE
  2
*Paper_Space
  0
XRECORD
  5
CC63
102
{ACAD_REACTORS
330
CC62
102
}
100
AcDbXrecord
102
UCS
 74
     0
 71
     0
 10
0.0
 20
0.0
 30
0.0
 10
0.0
 20
0.0
 30
0.0
 10
0.0
 20
0.0
 30
0.0
146
0.0
 79
     0
102
VIEW
281
     0
102
NEWVIEWCONTROL
280
     4
  0
XRECORD
  5
CC65
102
{ACAD_REACTORS
330
CC64
102
}
100
AcDbXrecord
102
EXTNAMES
  1
ACDBVARIABLEDICTIONARY
  2
AcDbVariableDictionary
  0
DICTIONARY
  5
CC68
100
AcDbDictionary
  3
ACAD_XREC_ROUNDTRIP
360
CC69
  0
ACAD_ZOMBIE_OBJECT
  5
7D09
102
{ACAD_REACTORS
330
7D01
102
}
100
AcDbZombieObject
 90
      499
 91
      502
 93
      428
310
A2C01AAAAAAAAA5A69054D6F64656C901A800000000000000000000000000000000000000000000A1000000000000008902A6A6AAAA6
330
7D06
330
0
340
0
340
0
 94
        0
  0
ACAD_ZOMBIE_OBJECT
  5
7D05
102
{ACAD_REACTORS
330
7D01
102
}
100
AcDbZombieObject
 90
      499
 91
      502
 93
     1484
310
9154850204C617365724A65742035303030204E2050532C00800000040B87E17400000003838A84550000000000444F1640000000000611C510000000080253F6A40000000101FA3DC901024134A901416AA5910690D5072E973656E746174696F6E31406A800000000000000000000000000000000000000000000A100000
310
0000000008902A6A6A10232D5E076BC5510408CB5781DAF154410232D5E076BC5510408CB5781DAF15C410232D5E076BC5710408CB5781DAF15C40
330
7D02
330
494D
340
0
340
0
 94
        0
  0
DICTIONARY
  5
CC66
100
AcDbDictionary
  3
ACAD_XREC_ROUNDTRIP
360
CC67
  0
MLINESTYLE
  5
7CFF
102
{ACAD_REACTORS
330
7CFE
102
}
100
AcDbMlineStyle
  2
STANDARD
 70
     0
  3

 62
   256
 51
90.0
 52
90.0
 71
     2
 49
0.5
 62
   256
  6
BYLAYER
 49
-0.5
 62
   256
  6
BYLAYER
  0
ACAD_ZOMBIE_OBJECT
  5
7CF7
102
{ACAD_REACTORS
330
7CF6
102
}
100
AcDbZombieObject
 90
      499
 91
      501
 93
        0
 94
        0
  0
XRECORD
  5
CC4B
102
{ACAD_REACTORS
330
CC41
102
}
100
AcDbXrecord
 90
        0
  0
XRECORD
  5
CC4F
102
{ACAD_REACTORS
330
CC41
102
}
100
AcDbXrecord
1000
DSTYLE
1002
{
1070
   279
 70
     2
1070
   341
340
7D0C
1070
   342
340
7D0C
1002
}
  0
XRECORD
  5
CC4C
102
{ACAD_REACTORS
330
CC41
102
}
100
AcDbXrecord
  1
{20110D97-5561-4CA7-8FED-06A9B97BF164}
  0
XRECORD
  5
CC44
102
{ACAD_REACTORS
330
CC41
102
}
100
AcDbXrecord
  1

  0
XRECORD
  5
CC4A
102
{ACAD_REACTORS
330
CC41
102
}
100
AcDbXrecord
 90
        0
  0
XRECORD
  5
CC46
102
{ACAD_REACTORS
330
CC41
102
}
100
AcDbXrecord
340
7D01
  0
XRECORD
  5
CC49
102
{ACAD_REACTORS
330
CC41
102
}
100
AcDbXrecord
 90
    14877
  0
XRECORD
  5
CC47
102
{ACAD_REACTORS
330
CC41
102
}
100
AcDbXrecord
340
7D00
  0
XRECORD
  5
CC48
102
{ACAD_REACTORS
330
CC41
102
}
100
AcDbXrecord
340
7CF6
  0
XRECORD
  5
CC4E
102
{ACAD_REACTORS
330
CC41
102
}
100
AcDbXrecord
 40
0.0
  0
XRECORD
  5
CC52
102
{ACAD_REACTORS
330
CC41
102
}
100
AcDbXrecord
340
0
  0
XRECORD
  5
CC58
102
{ACAD_REACTORS
330
CC41
102
}
100
AcDbXrecord
 10
0.0
 20
0.0
 30
0.0
  0
XRECORD
  5
CC54
102
{ACAD_REACTORS
330
CC41
102
}
100
AcDbXrecord
 10
0.0
 20
0.0
 30
0.0
  0
XRECORD
  5
CC57
102
{ACAD_REACTORS
330
CC41
102
}
100
AcDbXrecord
 10
0.0
 20
0.0
 30
0.0
  0
XRECORD
  5
CC55
102
{ACAD_REACTORS
330
CC41
102
}
100
AcDbXrecord
 10
0.0
 20
0.0
 30
0.0
  0
XRECORD
  5
CC56
102
{ACAD_REACTORS
330
CC41
102
}
100
AcDbXrecord
 10
0.0
 20
0.0
 30
0.0
  0
XRECORD
  5
CC53
102
{ACAD_REACTORS
330
CC41
102
}
100
AcDbXrecord
 10
0.0
 20
0.0
 30
0.0
  0
XRECORD
  5
CC50
102
{ACAD_REACTORS
330
CC41
102
}
100
AcDbXrecord
340
0
  0
XRECORD
  5
CC51
102
{ACAD_REACTORS
330
CC41
102
}
100
AcDbXrecord
 70
     0
  0
XRECORD
  5
CC45
102
{ACAD_REACTORS
330
CC41
102
}
100
AcDbXrecord
  1

  0
XRECORD
  5
CC42
102
{ACAD_REACTORS
330
CC41
102
}
100
AcDbXrecord
 90
        1
  0
XRECORD
  5
CC43
102
{ACAD_REACTORS
330
CC41
102
}
100
AcDbXrecord
 90
       70
  0
XRECORD
  5
CC5B
102
{ACAD_REACTORS
330
CC41
102
}
100
AcDbXrecord
340
0
  0
XRECORD
  5
CC61
102
{ACAD_REACTORS
330
CC41
102
}
100
AcDbXrecord
 10
0.0
 20
0.0
 30
0.0
  0
XRECORD
  5
CC5D
102
{ACAD_REACTORS
330
CC41
102
}
100
AcDbXrecord
 10
0.0
 20
0.0
 30
0.0
  0
XRECORD
  5
CC60
102
{ACAD_REACTORS
330
CC41
102
}
100
AcDbXrecord
 10
0.0
 20
0.0
 30
0.0
  0
XRECORD
  5
CC5E
102
{ACAD_REACTORS
330
CC41
102
}
100
AcDbXrecord
 10
0.0
 20
0.0
 30
0.0
  0
XRECORD
  5
CC5F
102
{ACAD_REACTORS
330
CC41
102
}
100
AcDbXrecord
 10
0.0
 20
0.0
 30
0.0
  0
XRECORD
  5
CC5C
102
{ACAD_REACTORS
330
CC41
102
}
100
AcDbXrecord
 10
0.0
 20
0.0
 30
0.0
  0
XRECORD
  5
CC59
102
{ACAD_REACTORS
330
CC41
102
}
100
AcDbXrecord
340
0
  0
XRECORD
  5
CC5A
102
{ACAD_REACTORS
330
CC41
102
}
100
AcDbXrecord
 70
     0
  0
XRECORD
  5
CC4D
102
{ACAD_REACTORS
330
CC41
102
}
100
AcDbXrecord
  1
{9ED991DE-EC8A-4B46-BF9E-E429966372BD}
  0
DICTIONARYVAR
  5
804A
102
{ACAD_REACTORS
330
8048
102
}
100
DictionaryVariables
280
     0
  1
2
  0
DICTIONARYVAR
  5
8049
102
{ACAD_REACTORS
330
8048
102
}
100
DictionaryVariables
280
     0
  1
1
  0
XRECORD
  5
CC69
102
{ACAD_REACTORS
330
CC68
102
}
100
AcDbXrecord
102
EXTNAMES
  1
MODEL
  2
Model
  1
PRÉSENTATION1
  2
Présentation1
  0
XRECORD
  5
CC67
102
{ACAD_REACTORS
330
CC66
102
}
100
AcDbXrecord
102
EXTNAMES
  1
STANDARD
  2
Standard
  0
ENDSEC
  0
EOF
