999
DXF file: C:\Users\sesa63760\Dev\_Creo\CAD\MCADPD0004416_3D-CAD\drw0001_2.dxf
999
Pro/ENGINEER 2019471 by Parametric Technology Corporation
  0
SECTION
  2
HEADER
  9
$ACADVER
  1
AC1024
  9
$DWGCODEPAGE
  3
ANSI_1252
  9
$EXTMAX
 10
212.0665258246
 20
299.9226579519
 30
0.0
  9
$EXTMIN
 10
0.0
 20
0.0
 30
0.0
  9
$LIMMIN
 10
0.0
 20
0.0
  9
$LIMMAX
 10
212.0665258246
 20
299.9226579519
  9
$VIEWCTR
 10
106.0332629123
 20
149.961328976
  9
$VIEWSIZE
 40
299.9226579519
  9
$CLAYER
  8
0
  9
$LTSCALE
 40
19.5505139998
  9
$CELTYPE
  6
BYLAYER
  9
$DIMSCALE
 40
1.0
  9
$DIMASZ
 40
2.5246014979
  9
$DIMEXO
 40
1.0
  9
$DIMDLI
 40
13.5076278544
  9
$DIMEXE
 40
1.0
  9
$DIMCEN
 40
3.1991750182
  9
$DIMLFAC
 40
1.0
  9
$DIMBLK
  1
_FILLED
  9
$DIMALT
 70
0
  9
$DIMALTF
 40
0.0393700787
  9
$DIMTXT
 40
3.5344420971
  9
$DIMTOL
 70
1
  9
$DIMLIM
 70
0
  9
$DIMTFAC
 40
1.0
  9
$DIMTP
 40
0.01
  9
$DIMTM
 40
0.01
  9
$DIMGAP
 40
0.625
  9
$DIMDSEP
 70
46
  9
$AUNITS
 70
0
  9
$PDMODE
 70
3
  9
$PDSIZE
 40
0.3125
  9
$HANDSEED
  5
2E4
  9
$TILEMODE
 70
1
  9
$MEASUREMENT
 70
1
  9
$INSUNITS
 70
4
  0
ENDSEC
  0
SECTION
  2
CLASSES
  0
CLASS
  1
ACDBDICTIONARYWDFLT
  2
AcDbDictionaryWithDefault
  3
AutoCAD 2000
 90
0
 91
1
280
0
281
0
  0
CLASS
  1
ACDBPLACEHOLDER
  2
AcDbPlaceHolder
  3
AutoCAD 2000
 90
0
 91
1
280
0
281
0
  0
CLASS
  1
LAYOUT
  2
AcDbLayout
  3
AutoCAD 2000
 90
0
 91
0
280
0
281
0
  0
ENDSEC
  0
SECTION
  2
TABLES
  0
TABLE
  2
VPORT
  5
8
100
AcDbSymbolTable
 70
2
  0
VPORT
  5
1F4
100
AcDbSymbolTableRecord
100
AcDbViewportTableRecord
  2
*ACTIVE
 70
0
 10
0.0
 20
0.0
 11
1.0
 21
1.0
 12
106.0332629123
 22
149.961328976
 13
0.0
 23
0.0
 14
1.0
 24
1.0
 15
0.0
 25
0.0
 16
0.0
 26
0.0
 36
1.0
 17
0.0
 27
0.0
 37
0.0
 40
299.9226579519
 41
0.7070707071
 42
50.0
 43
0.0
 44
0.0
 50
0.0
 51
0.0
 71
0
 72
100
 73
1
 74
1
 75
0
 76
0
 77
0
 78
0
  0
ENDTAB
  0
TABLE
  2
LTYPE
  5
5
100
AcDbSymbolTable
 70
6
  0
LTYPE
  5
14
100
AcDbSymbolTableRecord
100
AcDbLinetypeTableRecord
  2
BYBLOCK
 70
0
  3

 72
65
 73
0
 40
0.0
  0
LTYPE
  5
15
100
AcDbSymbolTableRecord
100
AcDbLinetypeTableRecord
  2
BYLAYER
 70
0
  3

 72
65
 73
0
 40
0.0
  0
LTYPE
  5
16
100
AcDbSymbolTableRecord
100
AcDbLinetypeTableRecord
  2
CONTINUOUS
 70
64
  3
Solid line
 72
65
 73
0
 40
0.0
  0
LTYPE
  5
1F5
100
AcDbSymbolTableRecord
100
AcDbLinetypeTableRecord
  2
CENTER
 70
64
  3
____ _ ____ _ ____ _ ____ _ ____ _ ____ _ ____
 72
65
 73
4
 40
0.6
 49
0.375
 74
0
 49
-0.075
 74
0
 49
0.075
 74
0
 49
-0.075
 74
0
  0
LTYPE
  5
1F6
100
AcDbSymbolTableRecord
100
AcDbLinetypeTableRecord
  2
HIDDEN
 70
64
  3
- - - - - - - - - - - - - - - - - - - -
 72
65
 73
2
 40
0.2
 49
0.1
 74
0
 49
-0.1
 74
0
  0
LTYPE
  5
1F7
100
AcDbSymbolTableRecord
100
AcDbLinetypeTableRecord
  2
PHANTOM
 70
64
  3
_____ _ _ _____ _ _ _____ _ _ _____
 72
65
 73
6
 40
0.8
 49
0.45
 74
0
 49
-0.05
 74
0
 49
0.1
 74
0
 49
-0.05
 74
0
 49
0.1
 74
0
 49
-0.05
 74
0
  0
LTYPE
  5
1F8
100
AcDbSymbolTableRecord
100
AcDbLinetypeTableRecord
  2
DOT
 70
64
  3
. . . . . . . . . . . . . . . . . . . .
 72
65
 73
2
 40
0.2
 49
0.1
 74
0
 49
-0.1
 74
0
  0
LTYPE
  5
1F9
100
AcDbSymbolTableRecord
100
AcDbLinetypeTableRecord
  2
DASHED
 70
64
  3
- - - - - - - - - - - - - - - - - - - -
 72
65
 73
2
 40
0.2
 49
0.1
 74
0
 49
-0.1
 74
0
  0
ENDTAB
  0
TABLE
  2
LAYER
  5
2
100
AcDbSymbolTable
 70
36
  0
LAYER
  5
10
100
AcDbSymbolTableRecord
100
AcDbLayerTableRecord
  2
0
 70
0
 62
7
  6
CONTINUOUS
370
-3
390
F
  0
LAYER
  5
1FA
100
AcDbSymbolTableRecord
100
AcDbLayerTableRecord
  2
DEFAULT_1
 70
0
 62
7
  6
CENTER
370
-3
390
F
  0
LAYER
  5
1FB
100
AcDbSymbolTableRecord
100
AcDbLayerTableRecord
  2
DEFAULT_2
 70
0
 62
7
  6
HIDDEN
370
-3
390
F
  0
LAYER
  5
1FC
100
AcDbSymbolTableRecord
100
AcDbLayerTableRecord
  2
DEFAULT_3
 70
0
 62
7
  6
PHANTOM
370
-3
390
F
  0
LAYER
  5
1FD
100
AcDbSymbolTableRecord
100
AcDbLayerTableRecord
  2
00_COMPONENTS
 70
0
 62
7
  6
CONTINUOUS
370
-3
390
F
  0
LAYER
  5
1FE
100
AcDbSymbolTableRecord
100
AcDbLayerTableRecord
  2
01_1_DEFAULT_DATUMS
 70
0
 62
7
  6
CONTINUOUS
370
-3
390
F
  0
LAYER
  5
1FF
100
AcDbSymbolTableRecord
100
AcDbLayerTableRecord
  2
01_PLANES
 70
0
 62
7
  6
CONTINUOUS
370
-3
390
F
  0
LAYER
  5
200
100
AcDbSymbolTableRecord
100
AcDbLayerTableRecord
  2
02_COORD_SYS
 70
0
 62
7
  6
CONTINUOUS
370
-3
390
F
  0
LAYER
  5
201
100
AcDbSymbolTableRecord
100
AcDbLayerTableRecord
  2
03_AXES
 70
0
 62
7
  6
CONTINUOUS
370
-3
390
F
  0
LAYER
  5
202
100
AcDbSymbolTableRecord
100
AcDbLayerTableRecord
  2
04_POINTS
 70
0
 62
7
  6
CONTINUOUS
370
-3
390
F
  0
LAYER
  5
203
100
AcDbSymbolTableRecord
100
AcDbLayerTableRecord
  2
05_CURVES
 70
0
 62
7
  6
CONTINUOUS
370
-3
390
F
  0
LAYER
  5
204
100
AcDbSymbolTableRecord
100
AcDbLayerTableRecord
  2
06_SURFS
 70
0
 62
7
  6
CONTINUOUS
370
-3
390
F
  0
LAYER
  5
205
100
AcDbSymbolTableRecord
100
AcDbLayerTableRecord
  2
07_COSMETICS
 70
0
 62
7
  6
CONTINUOUS
370
-3
390
F
  0
LAYER
  5
206
100
AcDbSymbolTableRecord
100
AcDbLayerTableRecord
  2
10_NOTES
 70
0
 62
7
  6
CONTINUOUS
370
-3
390
F
  0
LAYER
  5
207
100
AcDbSymbolTableRecord
100
AcDbLayerTableRecord
  2
11_NOTES_PUB
 70
0
 62
7
  6
CONTINUOUS
370
-3
390
F
  0
LAYER
  5
208
100
AcDbSymbolTableRecord
100
AcDbLayerTableRecord
  2
13_REF_GTOL
 70
0
 62
7
  6
CONTINUOUS
370
-3
390
F
  0
LAYER
  5
209
100
AcDbSymbolTableRecord
100
AcDbLayerTableRecord
  2
16_MISC
 70
0
 62
7
  6
CONTINUOUS
370
-3
390
F
  0
LAYER
  5
20A
100
AcDbSymbolTableRecord
100
AcDbLayerTableRecord
  2
17_NO_PRINT
 70
0
 62
7
  6
CONTINUOUS
370
-3
390
F
  0
LAYER
  5
20B
100
AcDbSymbolTableRecord
100
AcDbLayerTableRecord
  2
18_DATUM_CAMS_JOINTS
 70
0
 62
7
  6
CONTINUOUS
370
-3
390
F
  0
LAYER
  5
20C
100
AcDbSymbolTableRecord
100
AcDbLayerTableRecord
  2
19_DATUM_FUNCTIONAL
 70
0
 62
7
  6
CONTINUOUS
370
-3
390
F
  0
LAYER
  5
20D
100
AcDbSymbolTableRecord
100
AcDbLayerTableRecord
  2
20_DATUM_KINEMATIC_SCHEME
 70
0
 62
7
  6
CONTINUOUS
370
-3
390
F
  0
ENDTAB
  0
TABLE
  2
STYLE
  5
3
100
AcDbSymbolTable
 70
1
  0
STYLE
  5
11
100
AcDbSymbolTableRecord
100
AcDbTextStyleTableRecord
  2
STANDARD
 70
0
 40
0.0
 41
1.0
 50
0.0
 71
0
 42
0.2
  3
ARIAL.TTF
  4

  0
STYLE
  5
20E
100
AcDbSymbolTableRecord
100
AcDbTextStyleTableRecord
  2
TEXTSTYLE_1
 70
0
 40
0.0
 41
0.8
 50
0.0
 71
0
 42
0.2
  3
gdt
  4

  0
ENDTAB
  0
TABLE
  2
VIEW
  5
6
100
AcDbSymbolTable
 70
0
  0
ENDTAB
  0
TABLE
  2
UCS
  5
7
100
AcDbSymbolTable
 70
0
  0
ENDTAB
  0
TABLE
  2
APPID
  5
9
100
AcDbSymbolTable
 70
1
  0
APPID
  5
20F
100
AcDbSymbolTableRecord
100
AcDbRegAppTableRecord
  2
ACAD
 70
0
  0
ENDTAB
  0
TABLE
  2
BLOCK_RECORD
  5
1
100
AcDbSymbolTable
 70
0
  0
BLOCK_RECORD
  5
210
100
AcDbSymbolTableRecord
100
AcDbBlockTableRecord
  2
*Model_Space
  0
BLOCK_RECORD
  5
211
100
AcDbSymbolTableRecord
100
AcDbBlockTableRecord
  2
*Paper_Space
  0
BLOCK_RECORD
  5
212
100
AcDbSymbolTableRecord
100
AcDbBlockTableRecord
  2
_FILLED
  0
ENDTAB
  0
TABLE
  2
DIMSTYLE
  5
A
100
AcDbSymbolTable
 70
1
100
AcDbDimStyleTable
 71
0
  0
DIMSTYLE
105
213
100
AcDbSymbolTableRecord
100
AcDbDimStyleTableRecord
  2
STANDARD
 70
0
  3

  4

 40
1.0
 41
2.5246014979
 42
1.0
 43
0.38
 44
1.0
 45
0.0
 46
0.0
 47
0.01
 48
0.01
140
3.5344420971
141
0.09
142
0.0
143
25.4
144
1.0
145
0.0
146
1.0
147
0.625
 71
1
 72
0
 73
0
 74
0
 75
0
 76
0
 77
1
 78
8
 79
2
170
0
171
1
172
0
173
0
174
0
175
0
176
0
177
0
178
0
270
2
179
2
271
2
272
2
273
2
274
2
275
0
280
0
281
0
282
0
283
1
284
8
285
0
286
0
287
3
288
0
340
11
278
46
341
212
342
212
343
212
344
212
  0
ENDTAB
  0
ENDSEC
  0
SECTION
  2
BLOCKS
  0
BLOCK
  5
20
100
AcDbEntity
  8
0
100
AcDbBlockBegin
  2
*Model_Space
 70
0
 10
0.0
 20
0.0
 30
0.0
  3
*Model_Space
  1

  0
ENDBLK
  5
21
100
AcDbEntity
  8
0
100
AcDbBlockEnd
  0
BLOCK
  5
1C
100
AcDbEntity
  8
0
100
AcDbBlockBegin
  2
*Paper_Space
 70
0
 10
0.0
 20
0.0
 30
0.0
  3
*Paper_Space
  1

  0
ENDBLK
  5
1D
100
AcDbEntity
  8
0
100
AcDbBlockEnd
  0
BLOCK
  5
214
100
AcDbEntity
  8
0
100
AcDbBlockBegin
  2
_FILLED
 70
64
 10
0.0
 20
0.0
  3
_FILLED
  1

  0
SOLID
  5
215
100
AcDbEntity
  8
0
  6
BYBLOCK
 62
0
100
AcDbTrace
 10
0.0
 20
0.0
 11
-1.0
 21
0.25
 12
-1.0
 22
-0.25
 13
-1.0
 23
-0.25
  0
ENDBLK
  5
216
100
AcDbEntity
  8
0
  6
BYBLOCK
 62
0
100
AcDbBlockEnd
  0
ENDSEC
  0
SECTION
  2
ENTITIES
  0
LINE
  5
217
100
AcDbEntity
  8
0
100
AcDbLine
 62
7
  6
BYLAYER
 10
23.2516724984
 20
120.4255209288
 11
23.2516724984
 21
123.9755209288
  0
LINE
  5
218
100
AcDbEntity
  8
0
100
AcDbLine
 62
7
  6
BYLAYER
 10
95.6516724984
 20
60.1755209288
 11
73.8516724984
 21
60.1755209288
  0
LINE
  5
219
100
AcDbEntity
  8
0
100
AcDbLine
 62
7
  6
BYLAYER
 10
70.8766724984
 20
61.2755209288
 11
98.8766794365
 21
61.2755209288
  0
LINE
  5
21A
100
AcDbEntity
  8
0
100
AcDbLine
 62
7
  6
BYLAYER
 10
176.6266724984
 20
63.0632687865
 11
174.6266724984
 21
63.0632687865
  0
LINE
  5
21B
100
AcDbEntity
  8
0
100
AcDbLine
 62
7
  6
BYLAYER
 10
98.9915691285
 20
63.2755197384
 11
68.8766724984
 21
63.2755209288
  0
LINE
  5
21C
100
AcDbEntity
  8
0
100
AcDbLine
 62
7
  6
BYLAYER
 10
68.8766724984
 20
64.2755209288
 11
176.6266724984
 21
64.2755209288
  0
LINE
  5
21D
100
AcDbEntity
  8
0
100
AcDbLine
 62
7
  6
BYLAYER
 10
34.2516724984
 20
115.4255209288
 11
34.2516724984
 21
118.3255209288
  0
LINE
  5
21E
100
AcDbEntity
  8
0
100
AcDbLine
 62
7
  6
BYLAYER
 10
177.5016724984
 20
68.2755209288
 11
171.2516724984
 21
68.2755209297
  0
LINE
  5
21F
100
AcDbEntity
  8
0
100
AcDbLine
 62
7
  6
BYLAYER
 10
144.2516724984
 20
68.2755209288
 11
136.2516724984
 21
68.2755209288
  0
LINE
  5
220
100
AcDbEntity
  8
0
100
AcDbLine
 62
7
  6
BYLAYER
 10
109.2516724984
 20
68.2755209288
 11
101.2516724984
 21
68.2755209288
  0
LINE
  5
221
100
AcDbEntity
  8
0
100
AcDbLine
 62
7
  6
BYLAYER
 10
74.2516724984
 20
68.2755209297
 11
68.0016724984
 21
68.2755209288
  0
LINE
  5
222
100
AcDbEntity
  8
0
100
AcDbLine
 62
7
  6
BYLAYER
 10
37.2516724984
 20
115.2255209288
 11
37.1980826599
 21
115.4255209288
  0
LINE
  5
223
100
AcDbEntity
  8
0
100
AcDbLine
 62
7
  6
BYLAYER
 10
36.1516724984
 20
119.3307768172
 11
35.8583366978
 21
120.4255209288
  0
LINE
  5
224
100
AcDbEntity
  8
0
100
AcDbLine
 62
7
  6
BYLAYER
 10
36.1516724984
 20
120.4255209288
 11
36.1516724984
 21
118.3255209288
  0
LINE
  5
225
100
AcDbEntity
  8
0
100
AcDbLine
 62
7
  6
BYLAYER
 10
36.2516724984
 20
154.2547527406
 11
36.2516724984
 21
134.6755209288
  0
LINE
  5
226
100
AcDbEntity
  8
0
100
AcDbLine
 62
7
  6
BYLAYER
 10
38.1516724984
 20
120.4255209288
 11
38.1516724984
 21
115.4255209288
  0
LINE
  5
227
100
AcDbEntity
  8
0
100
AcDbLine
 62
7
  6
BYLAYER
 10
40.2516724984
 20
115.4255209288
 11
40.2516724984
 21
113.9255209288
  0
LINE
  5
228
100
AcDbEntity
  8
0
100
AcDbLine
 62
7
  6
BYLAYER
 10
40.7516724984
 20
179.7755209288
 11
36.2516724984
 21
154.2547527406
  0
LINE
  5
229
100
AcDbEntity
  8
0
100
AcDbLine
 62
7
  6
BYLAYER
 10
50.2516724984
 20
115.4255209288
 11
50.2516724984
 21
113.9255209288
  0
LINE
  5
22A
100
AcDbEntity
  8
0
100
AcDbLine
 62
7
  6
BYLAYER
 10
52.3516724984
 20
120.4255209288
 11
52.3516724984
 21
115.4255209288
  0
LINE
  5
22B
100
AcDbEntity
  8
0
100
AcDbLine
 62
7
  6
BYLAYER
 10
54.3516724984
 20
120.4255209288
 11
54.3516724984
 21
118.3255209288
  0
LINE
  5
22C
100
AcDbEntity
  8
0
100
AcDbLine
 62
7
  6
BYLAYER
 10
56.2516724984
 20
115.4255209288
 11
56.2516724984
 21
118.3255209288
  0
LINE
  5
22D
100
AcDbEntity
  8
0
100
AcDbLine
 62
7
  6
BYLAYER
 10
67.2516724984
 20
115.2255209288
 11
67.2516724984
 21
124.0755209288
  0
LINE
  5
22E
100
AcDbEntity
  8
0
100
AcDbLine
 62
7
  6
BYLAYER
 10
67.2516724984
 20
179.7755209288
 11
67.2516724984
 21
239.7755209288
  0
LINE
  5
22F
100
AcDbEntity
  8
0
100
AcDbLine
 62
7
  6
BYLAYER
 10
68.0016724984
 20
66.2755209288
 11
68.0016724984
 21
121.2755209288
  0
LINE
  5
230
100
AcDbEntity
  8
0
100
AcDbLine
 62
7
  6
BYLAYER
 10
68.2516724984
 20
121.2755209288
 11
68.2516724984
 21
179.7755209288
  0
LINE
  5
231
100
AcDbEntity
  8
0
100
AcDbLine
 62
7
  6
BYLAYER
 10
68.8766724984
 20
64.2755209288
 11
68.8766724984
 21
63.2755209288
  0
LINE
  5
232
100
AcDbEntity
  8
0
100
AcDbLine
 62
7
  6
BYLAYER
 10
70.0016724984
 20
64.2755209288
 11
70.0016724984
 21
121.2755209288
  0
LINE
  5
233
100
AcDbEntity
  8
0
100
AcDbLine
 62
7
  6
BYLAYER
 10
70.8766724984
 20
61.2755209288
 11
70.8766724984
 21
64.2755209288
  0
LINE
  5
234
100
AcDbEntity
  8
0
100
AcDbLine
 62
7
  6
BYLAYER
 10
71.2516724984
 20
121.2755209288
 11
71.2516724984
 21
154.7255209288
  0
LINE
  5
235
100
AcDbEntity
  8
0
100
AcDbLine
 62
7
  6
BYLAYER
 10
72.7516724984
 20
128.7255209288
 11
72.7516724984
 21
125.7255209288
  0
LINE
  5
236
100
AcDbEntity
  8
0
100
AcDbLine
 62
7
  6
BYLAYER
 10
73.7516724984
 20
121.2755209288
 11
73.7516724984
 21
125.7255209288
  0
LINE
  5
237
100
AcDbEntity
  8
0
100
AcDbLine
 62
7
  6
BYLAYER
 10
73.7516724984
 20
128.7255209288
 11
73.7516724984
 21
154.7255209288
  0
LINE
  5
238
100
AcDbEntity
  8
0
100
AcDbLine
 62
7
  6
BYLAYER
 10
73.8516724984
 20
61.2755209288
 11
73.8516724984
 21
60.1755209288
  0
LINE
  5
239
100
AcDbEntity
  8
0
100
AcDbLine
 62
7
  6
BYLAYER
 10
74.2516724984
 20
121.2755209288
 11
74.2516724984
 21
64.6786472864
  0
LINE
  5
23A
100
AcDbEntity
  8
0
100
AcDbLine
 62
7
  6
BYLAYER
 10
36.2516724984
 20
134.6755209288
 11
25.5516724984
 21
123.9755209288
  0
LINE
  5
23B
100
AcDbEntity
  8
0
100
AcDbLine
 62
7
  6
BYLAYER
 10
50.2516724984
 20
113.9255209288
 11
40.2516724984
 21
113.9255209288
  0
LINE
  5
23C
100
AcDbEntity
  8
0
100
AcDbLine
 62
7
  6
BYLAYER
 10
37.2516724984
 20
115.2255209288
 11
40.2516724984
 21
115.2255209288
  0
LINE
  5
23D
100
AcDbEntity
  8
0
100
AcDbLine
 62
7
  6
BYLAYER
 10
50.2516724984
 20
115.2255209288
 11
67.2516724984
 21
115.2255209288
  0
LINE
  5
23E
100
AcDbEntity
  8
0
100
AcDbLine
 62
7
  6
BYLAYER
 10
56.2516724984
 20
115.4255209288
 11
50.2516724984
 21
115.4255209288
  0
LINE
  5
23F
100
AcDbEntity
  8
0
100
AcDbLine
 62
7
  6
BYLAYER
 10
40.2516724984
 20
115.4255209288
 11
34.2516724984
 21
115.4255209288
  0
LINE
  5
240
100
AcDbEntity
  8
0
100
AcDbLine
 62
7
  6
BYLAYER
 10
77.2516724984
 20
64.2755209288
 11
77.2516724984
 21
121.2755209288
  0
LINE
  5
241
100
AcDbEntity
  8
0
100
AcDbLine
 62
7
  6
BYLAYER
 10
77.7516724984
 20
121.2755209288
 11
77.7516724984
 21
125.7255209288
  0
LINE
  5
242
100
AcDbEntity
  8
0
100
AcDbLine
 62
7
  6
BYLAYER
 10
77.7516724984
 20
128.7255209288
 11
77.7516724984
 21
154.7255209288
  0
LINE
  5
243
100
AcDbEntity
  8
0
100
AcDbLine
 62
7
  6
BYLAYER
 10
79.1516724984
 20
121.2755209288
 11
79.1516724984
 21
125.7255209288
  0
LINE
  5
244
100
AcDbEntity
  8
0
100
AcDbLine
 62
7
  6
BYLAYER
 10
56.2516724984
 20
118.3255209288
 11
54.3516724984
 21
118.3255209288
  0
LINE
  5
245
100
AcDbEntity
  8
0
100
AcDbLine
 62
7
  6
BYLAYER
 10
36.1516724984
 20
118.3255209288
 11
34.2516724984
 21
118.3255209288
  0
LINE
  5
246
100
AcDbEntity
  8
0
100
AcDbLine
 62
7
  6
BYLAYER
 10
67.2516724984
 20
120.4255209288
 11
23.2516724984
 21
120.4255209288
  0
LINE
  5
247
100
AcDbEntity
  8
0
100
AcDbLine
 62
7
  6
BYLAYER
 10
68.0016724984
 20
121.2755209288
 11
77.7516724984
 21
121.2755209288
  0
LINE
  5
248
100
AcDbEntity
  8
0
100
AcDbLine
 62
7
  6
BYLAYER
 10
79.1516724984
 20
121.2755209288
 11
96.3516724984
 21
121.2755209288
  0
LINE
  5
249
100
AcDbEntity
  8
0
100
AcDbLine
 62
7
  6
BYLAYER
 10
97.7516724984
 20
121.2755209288
 11
112.7516724984
 21
121.2755209288
  0
LINE
  5
24A
100
AcDbEntity
  8
0
100
AcDbLine
 62
7
  6
BYLAYER
 10
114.1516724984
 20
121.2755209288
 11
131.3516724984
 21
121.2755209288
  0
LINE
  5
24B
100
AcDbEntity
  8
0
100
AcDbLine
 62
7
  6
BYLAYER
 10
132.7516724984
 20
121.2755209288
 11
147.7516724984
 21
121.2755209288
  0
LINE
  5
24C
100
AcDbEntity
  8
0
100
AcDbLine
 62
7
  6
BYLAYER
 10
149.1516724984
 20
121.2755209288
 11
166.3516724984
 21
121.2755209288
  0
LINE
  5
24D
100
AcDbEntity
  8
0
100
AcDbLine
 62
7
  6
BYLAYER
 10
167.7516724984
 20
121.2755209288
 11
177.5016724984
 21
121.2755209288
  0
LINE
  5
24E
100
AcDbEntity
  8
0
100
AcDbLine
 62
7
  6
BYLAYER
 10
23.2516724984
 20
121.7755209288
 11
67.2516724984
 21
121.7755209288
  0
LINE
  5
24F
100
AcDbEntity
  8
0
100
AcDbLine
 62
7
  6
BYLAYER
 10
25.5516724984
 20
123.9755209288
 11
23.2516724984
 21
123.9755209288
  0
LINE
  5
250
100
AcDbEntity
  8
0
100
AcDbLine
 62
7
  6
BYLAYER
 10
67.2516724984
 20
124.0755209288
 11
68.2516724984
 21
124.0755209288
  0
LINE
  5
251
100
AcDbEntity
  8
0
100
AcDbLine
 62
7
  6
BYLAYER
 10
152.6176979022
 20
125.7255209288
 11
149.2516724984
 21
125.7255209288
  0
LINE
  5
252
100
AcDbEntity
  8
0
100
AcDbLine
 62
7
  6
BYLAYER
 10
132.7516724984
 20
125.7255209288
 11
112.7516724984
 21
125.7255209288
  0
LINE
  5
253
100
AcDbEntity
  8
0
100
AcDbLine
 62
7
  6
BYLAYER
 10
96.2516724984
 20
125.7255209288
 11
72.7516724984
 21
125.7255209288
  0
LINE
  5
254
100
AcDbEntity
  8
0
100
AcDbLine
 62
7
  6
BYLAYER
 10
152.7516724984
 20
125.7255209288
 11
172.7516724984
 21
125.7255209288
  0
LINE
  5
255
100
AcDbEntity
  8
0
100
AcDbLine
 62
7
  6
BYLAYER
 10
132.7516724984
 20
128.7255209288
 11
112.7516724984
 21
128.7255209288
  0
LINE
  5
256
100
AcDbEntity
  8
0
100
AcDbLine
 62
7
  6
BYLAYER
 10
92.7516724984
 20
128.7255209288
 11
72.7516724984
 21
128.7255209288
  0
LINE
  5
257
100
AcDbEntity
  8
0
100
AcDbLine
 62
7
  6
BYLAYER
 10
92.8856470946
 20
128.7255209288
 11
96.3516724984
 21
128.7255209288
  0
LINE
  5
258
100
AcDbEntity
  8
0
100
AcDbLine
 62
7
  6
BYLAYER
 10
149.1516724984
 20
128.7255209288
 11
172.7516724984
 21
128.7255209288
  0
LINE
  5
259
100
AcDbEntity
  8
0
100
AcDbLine
 62
7
  6
BYLAYER
 10
178.2516724984
 20
132.7755209288
 11
191.7516724984
 21
132.7755209288
  0
LINE
  5
25A
100
AcDbEntity
  8
0
100
AcDbLine
 62
7
  6
BYLAYER
 10
92.7516724984
 20
128.7255209288
 11
92.7516724984
 21
125.7255209288
  0
LINE
  5
25B
100
AcDbEntity
  8
0
100
AcDbLine
 62
7
  6
BYLAYER
 10
92.8856470946
 20
125.7255209288
 11
92.8856470946
 21
128.7255209288
  0
LINE
  5
25C
100
AcDbEntity
  8
0
100
AcDbLine
 62
7
  6
BYLAYER
 10
95.6516724984
 20
61.2755209288
 11
95.6516724984
 21
60.1755209288
  0
LINE
  5
25D
100
AcDbEntity
  8
0
100
AcDbLine
 62
7
  6
BYLAYER
 10
96.1176979022
 20
128.7255209288
 11
96.1176979022
 21
125.7255209288
  0
LINE
  5
25E
100
AcDbEntity
  8
0
100
AcDbLine
 62
7
  6
BYLAYER
 10
96.2516724984
 20
125.7255209288
 11
96.2516724984
 21
128.7255209288
  0
LINE
  5
25F
100
AcDbEntity
  8
0
100
AcDbLine
 62
7
  6
BYLAYER
 10
96.3516724984
 20
121.2755209288
 11
96.3516724984
 21
128.7255209288
  0
LINE
  5
260
100
AcDbEntity
  8
0
100
AcDbLine
 62
7
  6
BYLAYER
 10
97.7516724984
 20
154.7255209288
 11
97.7516724984
 21
121.2755209288
  0
LINE
  5
261
100
AcDbEntity
  8
0
100
AcDbLine
 62
7
  6
BYLAYER
 10
98.2516724984
 20
121.2755209288
 11
98.2516724984
 21
64.2755209288
  0
LINE
  5
262
100
AcDbEntity
  8
0
100
AcDbLine
 62
7
  6
BYLAYER
 10
178.2516724984
 20
136.7755209288
 11
189.7516724984
 21
136.7755209288
  0
LINE
  5
263
100
AcDbEntity
  8
0
100
AcDbLine
 62
7
  6
BYLAYER
 10
191.7516724984
 20
138.7755209288
 11
178.2516724984
 21
138.7755209288
  0
LINE
  5
264
100
AcDbEntity
  8
0
100
AcDbLine
 62
7
  6
BYLAYER
 10
177.2516724984
 20
141.2755209288
 11
178.2516724984
 21
141.2755209288
  0
LINE
  5
265
100
AcDbEntity
  8
0
100
AcDbLine
 62
7
  6
BYLAYER
 10
178.2516724984
 20
142.2755209288
 11
177.2516724984
 21
142.2755209288
  0
LINE
  5
266
100
AcDbEntity
  8
0
100
AcDbLine
 62
7
  6
BYLAYER
 10
101.2516724984
 20
64.6786472864
 11
101.2516724984
 21
121.2755209288
  0
LINE
  5
267
100
AcDbEntity
  8
0
100
AcDbLine
 62
7
  6
BYLAYER
 10
101.7516724984
 20
121.2755209288
 11
101.7516724984
 21
154.7255209288
  0
LINE
  5
268
100
AcDbEntity
  8
0
100
AcDbLine
 62
7
  6
BYLAYER
 10
98.9915671257
 20
63.2755209288
 11
98.8766712219
 21
61.2755209288
  0
LINE
  5
269
100
AcDbEntity
  8
0
100
AcDbLine
 62
7
  6
BYLAYER
 10
177.2516724984
 20
143.7755209288
 11
178.2516724984
 21
143.7755209288
  0
LINE
  5
26A
100
AcDbEntity
  8
0
100
AcDbLine
 62
7
  6
BYLAYER
 10
177.2516724984
 20
144.7755209288
 11
178.2516724984
 21
144.7755209288
  0
LINE
  5
26B
100
AcDbEntity
  8
0
100
AcDbLine
 62
7
  6
BYLAYER
 10
178.2516724984
 20
145.0684141476
 11
177.2516724984
 21
145.0684141476
  0
LINE
  5
26C
100
AcDbEntity
  8
0
100
AcDbLine
 62
7
  6
BYLAYER
 10
177.2516724984
 20
146.4853897736
 11
178.2516724984
 21
146.4853897736
  0
LINE
  5
26D
100
AcDbEntity
  8
0
100
AcDbLine
 62
7
  6
BYLAYER
 10
178.2516724984
 20
147.2719558661
 11
177.2516724984
 21
147.2719558661
  0
LINE
  5
26E
100
AcDbEntity
  8
0
100
AcDbLine
 62
7
  6
BYLAYER
 10
177.2516724984
 20
148.1413875625
 11
178.2516724984
 21
148.1413875625
  0
LINE
  5
26F
100
AcDbEntity
  8
0
100
AcDbLine
 62
7
  6
BYLAYER
 10
177.2516724984
 20
148.2083748606
 11
178.2516724984
 21
148.2083748606
  0
LINE
  5
270
100
AcDbEntity
  8
0
100
AcDbLine
 62
7
  6
BYLAYER
 10
177.2516724984
 20
148.2505209288
 11
178.2516724984
 21
148.2505209288
  0
LINE
  5
271
100
AcDbEntity
  8
0
100
AcDbLine
 62
7
  6
BYLAYER
 10
177.2516724984
 20
148.8355285522
 11
178.2516724984
 21
148.8355285522
  0
LINE
  5
272
100
AcDbEntity
  8
0
100
AcDbLine
 62
7
  6
BYLAYER
 10
177.2516724984
 20
149.2755209288
 11
178.2516724984
 21
149.2755209288
  0
LINE
  5
273
100
AcDbEntity
  8
0
100
AcDbLine
 62
7
  6
BYLAYER
 10
177.2516724984
 20
149.7155133055
 11
178.2516724984
 21
149.7155133055
  0
LINE
  5
274
100
AcDbEntity
  8
0
100
AcDbLine
 62
7
  6
BYLAYER
 10
177.2516724984
 20
150.3005209288
 11
178.2516724984
 21
150.3005209288
  0
LINE
  5
275
100
AcDbEntity
  8
0
100
AcDbLine
 62
7
  6
BYLAYER
 10
178.2516724984
 20
150.3426669971
 11
177.2516724984
 21
150.3426669971
  0
LINE
  5
276
100
AcDbEntity
  8
0
100
AcDbLine
 62
7
  6
BYLAYER
 10
178.2516724984
 20
150.4096542952
 11
177.2516724984
 21
150.4096542952
  0
LINE
  5
277
100
AcDbEntity
  8
0
100
AcDbLine
 62
7
  6
BYLAYER
 10
108.7516724984
 20
121.2755209288
 11
108.7516724984
 21
154.7255209288
  0
LINE
  5
278
100
AcDbEntity
  8
0
100
AcDbLine
 62
7
  6
BYLAYER
 10
109.2516724984
 20
121.2755209288
 11
109.2516724984
 21
64.6786472864
  0
LINE
  5
279
100
AcDbEntity
  8
0
100
AcDbLine
 62
7
  6
BYLAYER
 10
112.2516724984
 20
64.2755209288
 11
112.2516724984
 21
121.2755209288
  0
LINE
  5
27A
100
AcDbEntity
  8
0
100
AcDbLine
 62
7
  6
BYLAYER
 10
112.7516724984
 20
121.2755209288
 11
112.7516724984
 21
154.7255209288
  0
LINE
  5
27B
100
AcDbEntity
  8
0
100
AcDbLine
 62
7
  6
BYLAYER
 10
114.1516724984
 20
121.2755209288
 11
114.1516724984
 21
125.7255209288
  0
LINE
  5
27C
100
AcDbEntity
  8
0
100
AcDbLine
 62
7
  6
BYLAYER
 10
116.7516724984
 20
236.2755209288
 11
116.7516724984
 21
239.2755209288
  0
LINE
  5
27D
100
AcDbEntity
  8
0
100
AcDbLine
 62
7
  6
BYLAYER
 10
177.2516724984
 20
151.2790859916
 11
178.2516724984
 21
151.2790859916
  0
LINE
  5
27E
100
AcDbEntity
  8
0
100
AcDbLine
 62
7
  6
BYLAYER
 10
178.2516724984
 20
152.065652084
 11
177.2516724984
 21
152.065652084
  0
LINE
  5
27F
100
AcDbEntity
  8
0
100
AcDbLine
 62
7
  6
BYLAYER
 10
178.2516724984
 20
153.7755209288
 11
177.2516724984
 21
153.7755209288
  0
LINE
  5
280
100
AcDbEntity
  8
0
100
AcDbLine
 62
7
  6
BYLAYER
 10
68.2516724984
 20
154.7255209288
 11
177.2516724984
 21
154.7255209288
  0
LINE
  5
281
100
AcDbEntity
  8
0
100
AcDbLine
 62
7
  6
BYLAYER
 10
178.2516724984
 20
154.7755209288
 11
68.2516724984
 21
154.7755209288
  0
LINE
  5
282
100
AcDbEntity
  8
0
100
AcDbLine
 62
7
  6
BYLAYER
 10
176.2516724984
 20
155.2755209288
 11
178.2516724984
 21
155.2755209288
  0
LINE
  5
283
100
AcDbEntity
  8
0
100
AcDbLine
 62
7
  6
BYLAYER
 10
119.5016724984
 20
235.7755209288
 11
119.5016724984
 21
239.7755209288
  0
LINE
  5
284
100
AcDbEntity
  8
0
100
AcDbLine
 62
7
  6
BYLAYER
 10
68.2516724984
 20
166.296336209
 11
176.2516724984
 21
166.296336209
  0
LINE
  5
285
100
AcDbEntity
  8
0
100
AcDbLine
 62
7
  6
BYLAYER
 10
126.0016724984
 20
235.7755209288
 11
126.0016724984
 21
239.7755209288
  0
LINE
  5
286
100
AcDbEntity
  8
0
100
AcDbLine
 62
7
  6
BYLAYER
 10
128.7516724984
 20
236.2755209288
 11
128.7516724984
 21
239.2755209288
  0
LINE
  5
287
100
AcDbEntity
  8
0
100
AcDbLine
 62
7
  6
BYLAYER
 10
131.3516724984
 20
121.2755209288
 11
131.3516724984
 21
125.7255209288
  0
LINE
  5
288
100
AcDbEntity
  8
0
100
AcDbLine
 62
7
  6
BYLAYER
 10
132.7516724984
 20
154.7255209288
 11
132.7516724984
 21
121.2755209288
  0
LINE
  5
289
100
AcDbEntity
  8
0
100
AcDbLine
 62
7
  6
BYLAYER
 10
133.2516724984
 20
121.2755209288
 11
133.2516724984
 21
64.2755209288
  0
LINE
  5
28A
100
AcDbEntity
  8
0
100
AcDbLine
 62
7
  6
BYLAYER
 10
176.2516724984
 20
167.3569963808
 11
68.2516724984
 21
167.3569963808
  0
LINE
  5
28B
100
AcDbEntity
  8
0
100
AcDbLine
 62
7
  6
BYLAYER
 10
39.3410566527
 20
171.7755209288
 11
68.2516724984
 21
171.7755209288
  0
LINE
  5
28C
100
AcDbEntity
  8
0
100
AcDbLine
 62
7
  6
BYLAYER
 10
176.2516724984
 20
174.7755209284
 11
191.7516724984
 21
174.7755209288
  0
LINE
  5
28D
100
AcDbEntity
  8
0
100
AcDbLine
 62
7
  6
BYLAYER
 10
136.2516724984
 20
64.6786472864
 11
136.2516724984
 21
121.2755209288
  0
LINE
  5
28E
100
AcDbEntity
  8
0
100
AcDbLine
 62
7
  6
BYLAYER
 10
136.7516724984
 20
121.2755209288
 11
136.7516724984
 21
154.7255209288
  0
LINE
  5
28F
100
AcDbEntity
  8
0
100
AcDbLine
 62
7
  6
BYLAYER
 10
176.2516724984
 20
179.5676565526
 11
68.2516724984
 21
179.5676565526
  0
LINE
  5
290
100
AcDbEntity
  8
0
100
AcDbLine
 62
7
  6
BYLAYER
 10
68.2516724984
 20
179.7755209288
 11
40.7516724984
 21
179.7755209288
  0
LINE
  5
291
100
AcDbEntity
  8
0
100
AcDbLine
 62
7
  6
BYLAYER
 10
189.7516724984
 20
182.7755209288
 11
176.2516724984
 21
182.7755209288
  0
LINE
  5
292
100
AcDbEntity
  8
0
100
AcDbLine
 62
7
  6
BYLAYER
 10
143.7516724984
 20
121.2755209288
 11
143.7516724984
 21
154.7255209288
  0
LINE
  5
293
100
AcDbEntity
  8
0
100
AcDbLine
 62
7
  6
BYLAYER
 10
144.2516724984
 20
121.2755209288
 11
144.2516724984
 21
64.6786472864
  0
LINE
  5
294
100
AcDbEntity
  8
0
100
AcDbLine
 62
7
  6
BYLAYER
 10
147.2516724984
 20
64.2755209288
 11
147.2516724984
 21
121.2755209288
  0
LINE
  5
295
100
AcDbEntity
  8
0
100
AcDbLine
 62
7
  6
BYLAYER
 10
147.7516724984
 20
121.2755209288
 11
147.7516724984
 21
154.7255209288
  0
LINE
  5
296
100
AcDbEntity
  8
0
100
AcDbLine
 62
7
  6
BYLAYER
 10
149.1516724984
 20
121.2755209288
 11
149.1516724984
 21
128.7255209288
  0
LINE
  5
297
100
AcDbEntity
  8
0
100
AcDbLine
 62
7
  6
BYLAYER
 10
149.2516724984
 20
128.7255209288
 11
149.2516724984
 21
125.7255209288
  0
LINE
  5
298
100
AcDbEntity
  8
0
100
AcDbLine
 62
7
  6
BYLAYER
 10
149.3856470946
 20
125.7255209288
 11
149.3856470946
 21
128.7255209288
  0
LINE
  5
299
100
AcDbEntity
  8
0
100
AcDbLine
 62
7
  6
BYLAYER
 10
189.4928619235
 20
183.7755212985
 11
176.2516724984
 21
183.7755209288
  0
LINE
  5
29A
100
AcDbEntity
  8
0
100
AcDbLine
 62
7
  6
BYLAYER
 10
183.7516724984
 20
190.2755211225
 11
190.0104915229
 21
190.2755170381
  0
LINE
  5
29B
100
AcDbEntity
  8
0
100
AcDbLine
 62
7
  6
BYLAYER
 10
184.7516724984
 20
191.2755209288
 11
189.7516724646
 21
191.2755209288
  0
LINE
  5
29C
100
AcDbEntity
  8
0
100
AcDbLine
 62
7
  6
BYLAYER
 10
152.6176979022
 20
128.7255209288
 11
152.6176979022
 21
125.7255209288
  0
LINE
  5
29D
100
AcDbEntity
  8
0
100
AcDbLine
 62
7
  6
BYLAYER
 10
152.7516724984
 20
125.7255209288
 11
152.7516724984
 21
128.7255209288
  0
LINE
  5
29E
100
AcDbEntity
  8
0
100
AcDbLine
 62
7
  6
BYLAYER
 10
174.6266724984
 20
63.0632687865
 11
174.8448677647
 21
61.0752067085
  0
LINE
  5
29F
100
AcDbEntity
  8
0
100
AcDbLine
 62
7
  6
BYLAYER
 10
166.3516724984
 20
121.2755209288
 11
166.3516724984
 21
125.7255209288
  0
LINE
  5
2A0
100
AcDbEntity
  8
0
100
AcDbLine
 62
7
  6
BYLAYER
 10
167.7516724984
 20
154.7255209288
 11
167.7516724984
 21
128.7255209288
  0
LINE
  5
2A1
100
AcDbEntity
  8
0
100
AcDbLine
 62
7
  6
BYLAYER
 10
167.7516724984
 20
125.7255209288
 11
167.7516724984
 21
121.2755209288
  0
LINE
  5
2A2
100
AcDbEntity
  8
0
100
AcDbLine
 62
7
  6
BYLAYER
 10
168.2516724984
 20
121.2755209288
 11
168.2516724984
 21
64.2755209288
  0
LINE
  5
2A3
100
AcDbEntity
  8
0
100
AcDbLine
 62
7
  6
BYLAYER
 10
171.2516724984
 20
64.6786472864
 11
171.2516724984
 21
121.2755209288
  0
LINE
  5
2A4
100
AcDbEntity
  8
0
100
AcDbLine
 62
7
  6
BYLAYER
 10
171.7516724984
 20
121.2755209288
 11
171.7516724984
 21
125.7255209288
  0
LINE
  5
2A5
100
AcDbEntity
  8
0
100
AcDbLine
 62
7
  6
BYLAYER
 10
171.7516724984
 20
128.7255209288
 11
171.7516724984
 21
154.7255209288
  0
LINE
  5
2A6
100
AcDbEntity
  8
0
100
AcDbLine
 62
7
  6
BYLAYER
 10
172.7516724984
 20
125.7255209288
 11
172.7516724984
 21
128.7255209288
  0
LINE
  5
2A7
100
AcDbEntity
  8
0
100
AcDbLine
 62
7
  6
BYLAYER
 10
174.2516724984
 20
154.7255209288
 11
174.2516724984
 21
121.2755209288
  0
LINE
  5
2A8
100
AcDbEntity
  8
0
100
AcDbLine
 62
7
  6
BYLAYER
 10
174.6266724984
 20
64.2755209288
 11
174.6266724984
 21
63.0632687869
  0
LINE
  5
2A9
100
AcDbEntity
  8
0
100
AcDbLine
 62
7
  6
BYLAYER
 10
175.5016724984
 20
121.2755209288
 11
175.5016724984
 21
64.2755209288
  0
LINE
  5
2AA
100
AcDbEntity
  8
0
100
AcDbLine
 62
7
  6
BYLAYER
 10
176.2516724984
 20
155.2755209288
 11
176.2516724984
 21
235.7755209288
  0
LINE
  5
2AB
100
AcDbEntity
  8
0
100
AcDbLine
 62
7
  6
BYLAYER
 10
176.6266724984
 20
63.0632687865
 11
176.6266724984
 21
64.2755209288
  0
LINE
  5
2AC
100
AcDbEntity
  8
0
100
AcDbLine
 62
7
  6
BYLAYER
 10
177.2516724984
 20
121.2755209288
 11
177.2516724984
 21
154.7255209288
  0
LINE
  5
2AD
100
AcDbEntity
  8
0
100
AcDbLine
 62
7
  6
BYLAYER
 10
177.5016724984
 20
66.2755209288
 11
177.5016724984
 21
121.2755209288
  0
LINE
  5
2AE
100
AcDbEntity
  8
0
100
AcDbLine
 62
7
  6
BYLAYER
 10
178.2516724984
 20
132.7755209288
 11
178.2516724984
 21
155.2755209288
  0
LINE
  5
2AF
100
AcDbEntity
  8
0
100
AcDbLine
 62
7
  6
BYLAYER
 10
178.2516724984
 20
235.7755209288
 11
178.2516724984
 21
239.7755209288
  0
LINE
  5
2B0
100
AcDbEntity
  8
0
100
AcDbLine
 62
7
  6
BYLAYER
 10
182.7516724984
 20
238.5755209288
 11
182.7516724984
 21
182.7755209288
  0
LINE
  5
2B1
100
AcDbEntity
  8
0
100
AcDbLine
 62
7
  6
BYLAYER
 10
183.7516724984
 20
183.7755209288
 11
183.7516724984
 21
237.5755209288
  0
LINE
  5
2B2
100
AcDbEntity
  8
0
100
AcDbLine
 62
7
  6
BYLAYER
 10
184.4928534533
 20
183.7755209288
 11
184.4928534532
 21
190.2755208445
  0
LINE
  5
2B3
100
AcDbEntity
  8
0
100
AcDbLine
 62
7
  6
BYLAYER
 10
189.7516724984
 20
182.7755209288
 11
189.7516724984
 21
136.7755209288
  0
LINE
  5
2B4
100
AcDbEntity
  8
0
100
AcDbLine
 62
7
  6
BYLAYER
 10
190.269306366
 20
190.241444348
 11
190.2693107765
 21
183.6733006819
  0
LINE
  5
2B5
100
AcDbEntity
  8
0
100
AcDbLine
 62
7
  6
BYLAYER
 10
190.7516724984
 20
137.0434701213
 11
190.7516724984
 21
132.7755209288
  0
LINE
  5
2B6
100
AcDbEntity
  8
0
100
AcDbLine
 62
7
  6
BYLAYER
 10
191.7516724984
 20
132.7755209288
 11
191.7516724984
 21
189.2755209288
  0
LINE
  5
2B7
100
AcDbEntity
  8
0
100
AcDbLine
 62
7
  6
BYLAYER
 10
67.2516724984
 20
233.2045957976
 11
176.2516724984
 21
233.2045957976
  0
LINE
  5
2B8
100
AcDbEntity
  8
0
100
AcDbLine
 62
7
  6
BYLAYER
 10
176.2516724984
 20
234.5793685061
 11
67.2516724984
 21
234.5793685061
  0
LINE
  5
2B9
100
AcDbEntity
  8
0
100
AcDbLine
 62
7
  6
BYLAYER
 10
67.2516724984
 20
235.7755209288
 11
178.2516724984
 21
235.7755209288
  0
LINE
  5
2BA
100
AcDbEntity
  8
0
100
AcDbLine
 62
7
  6
BYLAYER
 10
178.2516724984
 20
236.2755209288
 11
128.7516724984
 21
236.2755209288
  0
LINE
  5
2BB
100
AcDbEntity
  8
0
100
AcDbLine
 62
7
  6
BYLAYER
 10
116.7516724984
 20
236.2755209288
 11
67.2516724984
 21
236.2755209288
  0
LINE
  5
2BC
100
AcDbEntity
  8
0
100
AcDbLine
 62
7
  6
BYLAYER
 10
178.2516724984
 20
236.5755209296
 11
183.7516724984
 21
236.5755209288
  0
LINE
  5
2BD
100
AcDbEntity
  8
0
100
AcDbLine
 62
7
  6
BYLAYER
 10
182.7516724984
 20
238.5755209288
 11
178.2516724984
 21
238.5755209288
  0
LINE
  5
2BE
100
AcDbEntity
  8
0
100
AcDbLine
 62
7
  6
BYLAYER
 10
67.2516724984
 20
239.2755209288
 11
116.7516724984
 21
239.2755209288
  0
LINE
  5
2BF
100
AcDbEntity
  8
0
100
AcDbLine
 62
7
  6
BYLAYER
 10
128.7516724984
 20
239.2755209288
 11
178.2516724984
 21
239.2755209288
  0
LINE
  5
2C0
100
AcDbEntity
  8
0
100
AcDbLine
 62
7
  6
BYLAYER
 10
67.2516724984
 20
239.7755209288
 11
178.2516724984
 21
239.7755209288
  0
ARC
  5
2C1
100
AcDbEntity
  8
0
100
AcDbCircle
 62
7
  6
BYLAYER
 10
137.7516724984
 20
399.0457599597
 40
340.0
100
AcDbArc
 50
263.4345405332
 51
276.2633006988
  0
ARC
  5
2C2
100
AcDbEntity
  8
0
100
AcDbCircle
 62
7
  6
BYLAYER
 10
137.7516724984
 20
399.0457599597
 40
338.0
100
AcDbArc
 50
263.4151280442
 51
276.2633006988
  0
ARC
  5
2C3
100
AcDbEntity
  8
0
100
AcDbCircle
 62
7
  6
BYLAYER
 10
189.4912300015
 20
180.7631344425
 40
3.0123872981
100
AcDbArc
 50
75.0311573599
 51
89.9689607476
  0
ARC
  5
2C4
100
AcDbEntity
  8
0
100
AcDbCircle
 62
7
  6
BYLAYER
 10
175.5016724984
 20
66.2755209288
 40
2.0
100
AcDbArc
 50
270.0000000001
 51
359.9999999999
  0
ARC
  5
2C5
100
AcDbEntity
  8
0
100
AcDbCircle
 62
7
  6
BYLAYER
 10
189.7516724984
 20
138.7755209288
 40
2.0
100
AcDbArc
 50
270.0
 51
360.0
  0
ARC
  5
2C6
100
AcDbEntity
  8
0
100
AcDbCircle
 62
7
  6
BYLAYER
 10
189.7516724984
 20
189.2755209288
 40
2.0
100
AcDbArc
 50
0.0
 51
90.0000015409
  0
ARC
  5
2C7
100
AcDbEntity
  8
0
100
AcDbCircle
 62
7
  6
BYLAYER
 10
189.7516724984
 20
180.7755209288
 40
2.0
100
AcDbArc
 50
0.0
 51
90.0000021834
  0
ARC
  5
2C8
100
AcDbEntity
  8
0
100
AcDbCircle
 62
7
  6
BYLAYER
 10
70.0016724984
 20
66.2755209288
 40
2.0
100
AcDbArc
 50
180.0
 51
269.9999999999
  0
ARC
  5
2C9
100
AcDbEntity
  8
0
100
AcDbCircle
 62
7
  6
BYLAYER
 10
70.8766724984
 20
63.2755209288
 40
2.0
100
AcDbArc
 50
180.0
 51
270.0
  0
ARC
  5
2CA
100
AcDbEntity
  8
0
100
AcDbCircle
 62
7
  6
BYLAYER
 10
174.6266724984
 20
63.0632687865
 40
2.0
100
AcDbArc
 50
276.2633006988
 51
360.0
  0
ARC
  5
2CB
100
AcDbEntity
  8
0
100
AcDbCircle
 62
7
  6
BYLAYER
 10
190.0099312682
 20
189.2712512234
 40
1.0042659709
100
AcDbArc
 50
75.0323688148
 51
89.9680361282
  0
ARC
  5
2CC
100
AcDbEntity
  8
0
100
AcDbCircle
 62
7
  6
BYLAYER
 10
184.7516724984
 20
183.7755209288
 40
1.0
100
AcDbArc
 50
180.0
 51
270.0
  0
ARC
  5
2CD
100
AcDbEntity
  8
0
100
AcDbCircle
 62
7
  6
BYLAYER
 10
184.7516724984
 20
192.2755209288
 40
1.0
100
AcDbArc
 50
180.0
 51
270.0
  0
ARC
  5
2CE
100
AcDbEntity
  8
0
100
AcDbCircle
 62
7
  6
BYLAYER
 10
182.7516724984
 20
237.5755209288
 40
1.0
100
AcDbArc
 50
0.0
 51
89.9999999999
  0
SPLINE
  5
2CF
100
AcDbEntity
  8
0
100
AcDbSpline
 62
7
  6
BYLAYER
 70
0
 71
3
 72
10
 73
6
 74
0
 42
0.0000001
 43
0.0000001
 44
0.0000000001
 40
0.0
 40
0.0
 40
0.0
 40
0.0
 40
0.3489735455
 40
0.6359999301
 40
1.0
 40
1.0
 40
1.0
 40
1.0
 10
189.7516466472
 20
191.2755209288
 30
0.0
 10
189.7932917812
 20
191.2755428428
 30
0.0
 10
189.8543735168
 20
191.2051514883
 30
0.0
 10
189.9002367463
 20
191.1002445214
 30
0.0
 10
189.9237993423
 20
191.0246804716
 30
0.0
 10
189.9346818819
 20
190.9826274065
 30
0.0
  0
SPLINE
  5
2D0
100
AcDbEntity
  8
0
100
AcDbSpline
 62
7
  6
BYLAYER
 70
0
 71
3
 72
9
 73
5
 74
0
 42
0.0000001
 43
0.0000001
 44
0.0000000001
 40
0.0
 40
0.0
 40
0.0
 40
0.0
 40
0.4621334682
 40
1.0
 40
1.0
 40
1.0
 40
1.0
 10
189.9346818819
 20
190.9826274065
 30
0.0
 10
189.9621765454
 20
190.8763806184
 30
0.0
 10
189.9989578747
 20
190.6407643784
 30
0.0
 10
190.0105226336
 20
190.4032498404
 30
0.0
 10
190.0105553134
 20
190.2755181894
 30
0.0
  0
SPLINE
  5
2D1
100
AcDbEntity
  8
0
100
AcDbSpline
 62
7
  6
BYLAYER
 70
0
 71
3
 72
11
 73
7
 74
0
 42
0.0000001
 43
0.0000001
 44
0.0000000001
 40
0.0
 40
0.0
 40
0.0
 40
0.0
 40
0.2358092314
 40
0.4433228635
 40
0.6852643671
 40
1.0
 40
1.0
 40
1.0
 40
1.0
 10
136.2516724984
 20
64.6786472864
 30
0.0
 10
136.2516724984
 20
64.6164131546
 30
0.0
 10
136.2378458347
 20
64.49540143
 30
0.0
 10
136.116334584
 20
64.3477584691
 30
0.0
 10
135.9182679537
 20
64.2832323247
 30
0.0
 10
135.771435258
 20
64.2755209288
 30
0.0
 10
135.6883710847
 20
64.2755209288
 30
0.0
  0
SPLINE
  5
2D2
100
AcDbEntity
  8
0
100
AcDbSpline
 62
7
  6
BYLAYER
 70
0
 71
3
 72
11
 73
7
 74
0
 42
0.0000001
 43
0.0000001
 44
0.0000000001
 40
0.0
 40
0.0
 40
0.0
 40
0.0
 40
0.3147356384
 40
0.5566771114
 40
0.7641907525
 40
1.0
 40
1.0
 40
1.0
 40
1.0
 10
144.8149739121
 20
64.2755209288
 30
0.0
 10
144.7319097408
 20
64.2755209288
 30
0.0
 10
144.5850770567
 20
64.2832323167
 30
0.0
 10
144.3870104431
 20
64.3477584822
 30
0.0
 10
144.265499219
 20
64.4954014359
 30
0.0
 10
144.2516724984
 20
64.6164131529
 30
0.0
 10
144.2516724984
 20
64.6786472864
 30
0.0
  0
SPLINE
  5
2D3
100
AcDbEntity
  8
0
100
AcDbSpline
 62
7
  6
BYLAYER
 70
0
 71
3
 72
11
 73
7
 74
0
 42
0.0000001
 43
0.0000001
 44
0.0000000001
 40
0.0
 40
0.0
 40
0.0
 40
0.0
 40
0.2358092313
 40
0.4433228633
 40
0.6852643669
 40
1.0
 40
1.0
 40
1.0
 40
1.0
 10
171.2516724984
 20
64.6786472864
 30
0.0
 10
171.2516724984
 20
64.6164131546
 30
0.0
 10
171.2378458347
 20
64.49540143
 30
0.0
 10
171.1163345839
 20
64.3477584691
 30
0.0
 10
170.9182679535
 20
64.2832323247
 30
0.0
 10
170.7714352576
 20
64.2755209288
 30
0.0
 10
170.6883710842
 20
64.2755209288
 30
0.0
  0
SPLINE
  5
2D4
100
AcDbEntity
  8
0
100
AcDbSpline
 62
7
  6
BYLAYER
 70
0
 71
3
 72
13
 73
9
 74
0
 42
0.0000001
 43
0.0000001
 44
0.0000000001
 40
0.0
 40
0.0
 40
0.0
 40
0.0
 40
0.334874726
 40
0.611820234
 40
0.7267408853
 40
0.8271269193
 40
0.9160897949
 40
1.0
 40
1.0
 40
1.0
 40
1.0
 10
190.2693085712
 20
190.2414461733
 30
0.0
 10
190.4793601491
 20
190.2132773659
 30
0.0
 10
190.8596827361
 20
190.1296234739
 30
0.0
 10
191.2839137094
 20
189.9369394602
 30
0.0
 10
191.5292061493
 20
189.7424521728
 30
0.0
 10
191.655583007
 20
189.5952098758
 30
0.0
 10
191.7341675591
 20
189.438783288
 30
0.0
 10
191.7516724984
 20
189.3286250729
 30
0.0
 10
191.7516724984
 20
189.2755208785
 30
0.0
  0
SPLINE
  5
2D5
100
AcDbEntity
  8
0
100
AcDbSpline
 62
7
  6
BYLAYER
 70
0
 71
3
 72
12
 73
8
 74
0
 42
0.0000001
 43
0.0000001
 44
0.0000000001
 40
0.0
 40
0.0
 40
0.0
 40
0.0
 40
0.11547162
 40
0.2102990612
 40
0.3308589867
 40
0.6376109189
 40
1.0
 40
1.0
 40
1.0
 40
1.0
 10
190.2693244195
 20
191.2073710629
 30
0.0
 10
190.3065075567
 20
191.1974082457
 30
0.0
 10
190.3446351628
 20
191.1205507737
 30
0.0
 10
190.3613569607
 20
191.0158122465
 30
0.0
 10
190.3693355795
 20
190.8396637132
 30
0.0
 10
190.3427622836
 20
190.5779284349
 30
0.0
 10
190.2986185037
 20
190.3586438697
 30
0.0
 10
190.2693275618
 20
190.2414390475
 30
0.0
  0
SPLINE
  5
2D6
100
AcDbEntity
  8
0
100
AcDbSpline
 62
7
  6
BYLAYER
 70
0
 71
3
 72
14
 73
10
 74
0
 42
0.0000001
 43
0.0000001
 44
0.0000000001
 40
0.0
 40
0.0
 40
0.0
 40
0.0
 40
0.0472854762
 40
0.1094611769
 40
0.1975201068
 40
0.3135464262
 40
0.4562899987
 40
0.6222079237
 40
1.0
 40
1.0
 40
1.0
 40
1.0
 10
184.7516724984
 20
191.2755209288
 30
0.0
 10
184.7348190801
 20
191.2755209288
 30
0.0
 10
184.6956517318
 20
191.2594917243
 30
0.0
 10
184.6547607143
 20
191.1999840061
 30
0.0
 10
184.6187403773
 20
191.1122161911
 30
0.0
 10
184.5850544242
 20
190.9930027751
 30
0.0
 10
184.5519237559
 20
190.845301839
 30
0.0
 10
184.5114740006
 20
190.6038576199
 30
0.0
 10
184.4970002767
 20
190.4101063939
 30
0.0
 10
184.4928531275
 20
190.2755181894
 30
0.0
  0
SPLINE
  5
2D7
100
AcDbEntity
  8
0
100
AcDbSpline
 62
7
  6
BYLAYER
 70
0
 71
3
 72
12
 73
8
 74
0
 42
0.0000001
 43
0.0000001
 44
0.0000000001
 40
0.0
 40
0.0
 40
0.0
 40
0.0
 40
0.1166997275
 40
0.2126940557
 40
0.3344390676
 40
0.6420185332
 40
1.0
 40
1.0
 40
1.0
 40
1.0
 10
184.7516723528
 20
182.7755209288
 30
0.0
 10
184.7100331572
 20
182.7755210194
 30
0.0
 10
184.6489983633
 20
182.8458614266
 30
0.0
 10
184.6030126372
 20
182.9508891999
 30
0.0
 10
184.5470299555
 20
183.1323715883
 30
0.0
 10
184.5047601798
 20
183.4099081765
 30
0.0
 10
184.4928534533
 20
183.6477908938
 30
0.0
 10
184.4928534533
 20
183.7755209288
 30
0.0
  0
SPLINE
  5
2D8
100
AcDbEntity
  8
0
100
AcDbSpline
 62
7
  6
BYLAYER
 70
0
 71
3
 72
12
 73
8
 74
0
 42
0.0000001
 43
0.0000001
 44
0.0000000001
 40
0.0
 40
0.0
 40
0.0
 40
0.0
 40
0.3441758486
 40
0.665316301
 40
0.7923485304
 40
0.8894771942
 40
1.0
 40
1.0
 40
1.0
 40
1.0
 10
189.4928533857
 20
183.7755209288
 30
0.0
 10
189.4928534043
 20
183.6526735236
 30
0.0
 10
189.5044651004
 20
183.4149073799
 30
0.0
 10
189.5457000206
 20
183.1350892592
 30
0.0
 10
189.6045475159
 20
182.9469598074
 30
0.0
 10
189.6512842868
 20
182.8417188372
 30
0.0
 10
189.7122231793
 20
182.7755213571
 30
0.0
 10
189.7516723154
 20
182.7755212744
 30
0.0
  0
SPLINE
  5
2D9
100
AcDbEntity
  8
0
100
AcDbSpline
 62
7
  6
BYLAYER
 70
0
 71
3
 72
13
 73
9
 74
0
 42
0.0000001
 43
0.0000001
 44
0.0000000001
 40
0.0
 40
0.0
 40
0.0
 40
0.0
 40
0.2399428211
 40
0.4823976916
 40
0.6062602844
 40
0.7329046439
 40
0.8635327054
 40
1.0
 40
1.0
 40
1.0
 40
1.0
 10
191.7516724984
 20
180.7755208511
 30
0.0
 10
191.7516285624
 20
181.0499101119
 30
0.0
 10
191.702040315
 20
181.6027959717
 30
0.0
 10
191.5052677
 20
182.2736184161
 30
0.0
 10
191.252622488
 20
182.7791219164
 30
0.0
 10
191.0040469329
 20
183.1393943314
 30
0.0
 10
190.6821734442
 20
183.4589736862
 30
0.0
 10
190.4140966348
 20
183.6150719465
 30
0.0
 10
190.2693085712
 20
183.6733019132
 30
0.0
  0
SPLINE
  5
2DA
100
AcDbEntity
  8
0
100
AcDbSpline
 62
7
  6
BYLAYER
 70
0
 71
3
 72
12
 73
8
 74
0
 42
0.0000001
 43
0.0000001
 44
0.0000000001
 40
0.0
 40
0.0
 40
0.0
 40
0.0
 40
0.3497198877
 40
0.6689149831
 40
0.7942627921
 40
0.890106789
 40
1.0
 40
1.0
 40
1.0
 40
1.0
 10
190.269259117
 20
183.673310425
 30
0.0
 10
190.2409795768
 20
183.5601661778
 30
0.0
 10
190.1966429001
 20
183.3410287076
 30
0.0
 10
190.1687446903
 20
183.0776429179
 30
0.0
 10
190.177659645
 20
182.8953890959
 30
0.0
 10
190.1949681921
 20
182.7903183217
 30
0.0
 10
190.2339249864
 20
182.7168622949
 30
0.0
 10
190.2693269007
 20
182.7073898808
 30
0.0
  0
SPLINE
  5
2DB
100
AcDbEntity
  8
0
100
AcDbSpline
 62
7
  6
BYLAYER
 70
0
 71
3
 72
11
 73
7
 74
0
 42
0.0000001
 43
0.0000001
 44
0.0000000001
 40
0.0
 40
0.0
 40
0.0
 40
0.0
 40
0.3147356388
 40
0.5566771119
 40
0.7641907528
 40
1.0
 40
1.0
 40
1.0
 40
1.0
 10
74.8149739131
 20
64.2755209288
 30
0.0
 10
74.7319097416
 20
64.2755209288
 30
0.0
 10
74.5850770572
 20
64.2832323166
 30
0.0
 10
74.3870104432
 20
64.347758482
 30
0.0
 10
74.2654992191
 20
64.4954014359
 30
0.0
 10
74.2516724984
 20
64.6164131529
 30
0.0
 10
74.2516724984
 20
64.6786472864
 30
0.0
  0
SPLINE
  5
2DC
100
AcDbEntity
  8
0
100
AcDbSpline
 62
7
  6
BYLAYER
 70
0
 71
3
 72
11
 73
7
 74
0
 42
0.0000001
 43
0.0000001
 44
0.0000000001
 40
0.0
 40
0.0
 40
0.0
 40
0.0
 40
0.2358092314
 40
0.4433228635
 40
0.6852643671
 40
1.0
 40
1.0
 40
1.0
 40
1.0
 10
101.2516724984
 20
64.6786472864
 30
0.0
 10
101.2516724984
 20
64.6164131546
 30
0.0
 10
101.2378458347
 20
64.49540143
 30
0.0
 10
101.116334584
 20
64.3477584691
 30
0.0
 10
100.9182679537
 20
64.2832323247
 30
0.0
 10
100.771435258
 20
64.2755209288
 30
0.0
 10
100.6883710847
 20
64.2755209288
 30
0.0
  0
SPLINE
  5
2DD
100
AcDbEntity
  8
0
100
AcDbSpline
 62
7
  6
BYLAYER
 70
0
 71
3
 72
11
 73
7
 74
0
 42
0.0000001
 43
0.0000001
 44
0.0000000001
 40
0.0
 40
0.0
 40
0.0
 40
0.0
 40
0.3147356384
 40
0.5566771114
 40
0.7641907525
 40
1.0
 40
1.0
 40
1.0
 40
1.0
 10
109.8149739121
 20
64.2755209288
 30
0.0
 10
109.7319097408
 20
64.2755209288
 30
0.0
 10
109.5850770567
 20
64.2832323167
 30
0.0
 10
109.3870104431
 20
64.3477584822
 30
0.0
 10
109.265499219
 20
64.4954014359
 30
0.0
 10
109.2516724984
 20
64.6164131529
 30
0.0
 10
109.2516724984
 20
64.6786472864
 30
0.0
  0
ELLIPSE
  5
2DE
100
AcDbEntity
  8
0
100
AcDbEllipse
 62
7
  6
BYLAYER
 10
128.2516724984
 20
239.2755209288
 30
0.0
 11
0.5
 21
-0.0
 31
0.0
 40
1.0
 41
0.0
 42
1.5707963268
  0
ELLIPSE
  5
2DF
100
AcDbEntity
  8
0
100
AcDbEllipse
 62
7
  6
BYLAYER
 10
117.2516724984
 20
236.2755209288
 30
0.0
 11
0.0
 21
0.5
 31
0.0
 40
1.0
 41
-4.7123889804
 42
-3.1415926536
  0
ELLIPSE
  5
2E0
100
AcDbEntity
  8
0
100
AcDbEllipse
 62
7
  6
BYLAYER
 10
128.2516724984
 20
236.2755209288
 30
0.0
 11
0.0
 21
0.5
 31
0.0
 40
1.0
 41
-3.1415926536
 42
-1.5707963268
  0
ELLIPSE
  5
2E1
100
AcDbEntity
  8
0
100
AcDbEllipse
 62
7
  6
BYLAYER
 10
117.2516724984
 20
239.2755209288
 30
0.0
 11
0.0
 21
0.5
 31
0.0
 40
1.0
 41
0.0
 42
1.5707963268
  0
ENDSEC
  0
SECTION
  2
OBJECTS
  0
DICTIONARY
  5
C
100
AcDbDictionary
280
0
281
1
  3
ACAD_GROUP
350
D
  3
ACAD_MLINESTYLE
350
17
  3
ACAD_LAYOUT
350
1A
  3
ACAD_PLOTSETTINGS
350
19
  3
ACAD_PLOTSTYLENAME
350
E
  0
DICTIONARY
  5
D
102
{ACAD_REACTORS
330
C
102
}
100
AcDbDictionary
280
0
281
1
  0
ACDBDICTIONARYWDFLT
  5
E
102
{ACAD_REACTORS
330
C
102
}
100
AcDbDictionary
281
1
  3
Normal
350
F
100
AcDbDictionaryWithDefault
340
F
  0
DICTIONARY
  5
17
102
{ACAD_REACTORS
330
C
102
}
100
AcDbDictionary
280
0
281
1
  3
Standard
350
18
  0
DICTIONARY
  5
19
102
{ACAD_REACTORS
330
C
102
}
100
AcDbDictionary
281
1
  0
DICTIONARY
  5
1A
102
{ACAD_REACTORS
330
C
102
}
100
AcDbDictionary
281
1
  3
Model
350
2E2
  3
Layout1
350
2E3
  0
ACDBPLACEHOLDER
  5
F
102
{ACAD_REACTORS
330
E
102
}
  0
MLINESTYLE
  5
18
102
{ACAD_REACTORS
330
17
102
}
100
AcDbMlineStyle
  2
STANDARD
 70
0
  3

 62
256
 51
90.0
 52
90.0
 71
2
 49
0.5
 62
256
  6
BYLAYER
 49
-0.5
 62
256
  6
BYLAYER
  0
LAYOUT
  5
2E2
102
{ACAD_REACTORS
330
1A
102
}
100
AcDbPlotSettings
  1

  2
none_device
  4

  6

 40
0.0
 41
0.0
 42
0.0
 43
0.0
 44
210.0
 45
297.0
 46
0.0
 47
0.0
 48
0.0
 49
0.0
140
0.0
141
0.0
142
1.0
143
1.0
 70
1024
 72
1
 73
0
 74
0
  7

 75
0
147
1.0
148
0.0
149
0.0
100
AcDbLayout
  1
Model
 70
0
 71
0
 10
0.0
 20
0.0
 11
210.0
 21
297.0
 12
0.0
 22
0.0
 32
0.0
 14
0.0
 24
0.0
 34
0.0
 15
0.0
 25
0.0
 35
0.0
146
0.0
 13
0.0
 23
0.0
 33
0.0
 16
1.0
 26
0.0
 36
0.0
 17
0.0
 27
1.0
 37
0.0
 76
0
330
210
345
0
346
0
  0
LAYOUT
  5
2E3
102
{ACAD_REACTORS
330
1A
102
}
100
AcDbPlotSettings
  1

  2
none_device
  4

  6

 40
0.0
 41
0.0
 42
0.0
 43
0.0
 44
210.0
 45
297.0
 46
0.0
 47
0.0
 48
0.0
 49
0.0
140
0.0
141
0.0
142
1.0
143
1.0
 70
0
 72
1
 73
0
 74
0
  7

 75
0
147
1.0
148
0.0
149
0.0
100
AcDbLayout
  1
Layout1
 70
0
 71
1
 10
0.0
 20
0.0
 11
210.0
 21
297.0
 12
0.0
 22
0.0
 32
0.0
 14
0.0
 24
0.0
 34
0.0
 15
0.0
 25
0.0
 35
0.0
146
0.0
 13
0.0
 23
0.0
 33
0.0
 16
1.0
 26
0.0
 36
0.0
 17
0.0
 27
1.0
 37
0.0
 76
0
330
211
345
0
346
0
  0
ENDSEC
  0
EOF
