999
DXF file: C:\Users\sesa63760\Dev\_Creo\CAD\MCADID0000799_3D-CAD\drw0001_3.dxf
999
Pro/ENGINEER 2019471 by Parametric Technology Corporation
  0
SECTION
  2
HEADER
  9
$ACADVER
  1
AC1024
  9
$DWGCODEPAGE
  3
ANSI_1252
  9
$EXTMAX
 10
43.9827285183
 20
62.2041446187
 30
0.0
  9
$EXTMIN
 10
0.0
 20
0.0
 30
0.0
  9
$LIMMIN
 10
0.0
 20
0.0
  9
$LIMMAX
 10
43.9827285183
 20
62.2041446187
  9
$VIEWCTR
 10
21.9913642591
 20
31.1020723093
  9
$VIEWSIZE
 40
62.2041446187
  9
$CLAYER
  8
0
  9
$LTSCALE
 40
4.0547886863
  9
$CELTYPE
  6
BYLAYER
  9
$DIMSCALE
 40
1.0
  9
$DIMASZ
 40
0.5236039109
  9
$DIMEXO
 40
1.0
  9
$DIMDLI
 40
2.801490365
  9
$DIMEXE
 40
1.0
  9
$DIMCEN
 40
0.6635108759
  9
$DIMLFAC
 40
1.0
  9
$DIMBLK
  1
_FILLED
  9
$DIMALT
 70
0
  9
$DIMALTF
 40
0.0393700787
  9
$DIMTXT
 40
0.7330454753
  9
$DIMTOL
 70
1
  9
$DIMLIM
 70
0
  9
$DIMTFAC
 40
1.0
  9
$DIMTP
 40
0.01
  9
$DIMTM
 40
0.01
  9
$DIMGAP
 40
0.625
  9
$DIMDSEP
 70
46
  9
$AUNITS
 70
0
  9
$PDMODE
 70
3
  9
$PDSIZE
 40
0.3125
  9
$HANDSEED
  5
2CC
  9
$TILEMODE
 70
1
  9
$MEASUREMENT
 70
1
  9
$INSUNITS
 70
4
  0
ENDSEC
  0
SECTION
  2
CLASSES
  0
CLASS
  1
ACDBDICTIONARYWDFLT
  2
AcDbDictionaryWithDefault
  3
AutoCAD 2000
 90
0
 91
1
280
0
281
0
  0
CLASS
  1
ACDBPLACEHOLDER
  2
AcDbPlaceHolder
  3
AutoCAD 2000
 90
0
 91
1
280
0
281
0
  0
CLASS
  1
LAYOUT
  2
AcDbLayout
  3
AutoCAD 2000
 90
0
 91
0
280
0
281
0
  0
ENDSEC
  0
SECTION
  2
TABLES
  0
TABLE
  2
VPORT
  5
8
100
AcDbSymbolTable
 70
2
  0
VPORT
  5
1F4
100
AcDbSymbolTableRecord
100
AcDbViewportTableRecord
  2
*ACTIVE
 70
0
 10
0.0
 20
0.0
 11
1.0
 21
1.0
 12
21.9913642591
 22
31.1020723093
 13
0.0
 23
0.0
 14
1.0
 24
1.0
 15
0.0
 25
0.0
 16
0.0
 26
0.0
 36
1.0
 17
0.0
 27
0.0
 37
0.0
 40
62.2041446187
 41
0.7070707071
 42
50.0
 43
0.0
 44
0.0
 50
0.0
 51
0.0
 71
0
 72
100
 73
1
 74
1
 75
0
 76
0
 77
0
 78
0
  0
ENDTAB
  0
TABLE
  2
LTYPE
  5
5
100
AcDbSymbolTable
 70
6
  0
LTYPE
  5
14
100
AcDbSymbolTableRecord
100
AcDbLinetypeTableRecord
  2
BYBLOCK
 70
0
  3

 72
65
 73
0
 40
0.0
  0
LTYPE
  5
15
100
AcDbSymbolTableRecord
100
AcDbLinetypeTableRecord
  2
BYLAYER
 70
0
  3

 72
65
 73
0
 40
0.0
  0
LTYPE
  5
16
100
AcDbSymbolTableRecord
100
AcDbLinetypeTableRecord
  2
CONTINUOUS
 70
64
  3
Solid line
 72
65
 73
0
 40
0.0
  0
LTYPE
  5
1F5
100
AcDbSymbolTableRecord
100
AcDbLinetypeTableRecord
  2
CENTER
 70
64
  3
____ _ ____ _ ____ _ ____ _ ____ _ ____ _ ____
 72
65
 73
4
 40
0.6
 49
0.375
 74
0
 49
-0.075
 74
0
 49
0.075
 74
0
 49
-0.075
 74
0
  0
LTYPE
  5
1F6
100
AcDbSymbolTableRecord
100
AcDbLinetypeTableRecord
  2
HIDDEN
 70
64
  3
- - - - - - - - - - - - - - - - - - - -
 72
65
 73
2
 40
0.2
 49
0.1
 74
0
 49
-0.1
 74
0
  0
LTYPE
  5
1F7
100
AcDbSymbolTableRecord
100
AcDbLinetypeTableRecord
  2
PHANTOM
 70
64
  3
_____ _ _ _____ _ _ _____ _ _ _____
 72
65
 73
6
 40
0.8
 49
0.45
 74
0
 49
-0.05
 74
0
 49
0.1
 74
0
 49
-0.05
 74
0
 49
0.1
 74
0
 49
-0.05
 74
0
  0
LTYPE
  5
1F8
100
AcDbSymbolTableRecord
100
AcDbLinetypeTableRecord
  2
DOT
 70
64
  3
. . . . . . . . . . . . . . . . . . . .
 72
65
 73
2
 40
0.2
 49
0.1
 74
0
 49
-0.1
 74
0
  0
LTYPE
  5
1F9
100
AcDbSymbolTableRecord
100
AcDbLinetypeTableRecord
  2
DASHED
 70
64
  3
- - - - - - - - - - - - - - - - - - - -
 72
65
 73
2
 40
0.2
 49
0.1
 74
0
 49
-0.1
 74
0
  0
ENDTAB
  0
TABLE
  2
LAYER
  5
2
100
AcDbSymbolTable
 70
36
  0
LAYER
  5
10
100
AcDbSymbolTableRecord
100
AcDbLayerTableRecord
  2
0
 70
0
 62
7
  6
CONTINUOUS
370
-3
390
F
  0
LAYER
  5
1FA
100
AcDbSymbolTableRecord
100
AcDbLayerTableRecord
  2
DEFAULT_1
 70
0
 62
7
  6
CENTER
370
-3
390
F
  0
LAYER
  5
1FB
100
AcDbSymbolTableRecord
100
AcDbLayerTableRecord
  2
DEFAULT_2
 70
0
 62
8
  6
HIDDEN
370
-3
390
F
  0
LAYER
  5
1FC
100
AcDbSymbolTableRecord
100
AcDbLayerTableRecord
  2
DEFAULT_3
 70
0
 62
7
  6
PHANTOM
370
-3
390
F
  0
LAYER
  5
1FD
100
AcDbSymbolTableRecord
100
AcDbLayerTableRecord
  2
00_COMPONENTS
 70
0
 62
7
  6
CONTINUOUS
370
-3
390
F
  0
LAYER
  5
1FE
100
AcDbSymbolTableRecord
100
AcDbLayerTableRecord
  2
01_1_DEFAULT_DATUMS
 70
0
 62
7
  6
CONTINUOUS
370
-3
390
F
  0
LAYER
  5
1FF
100
AcDbSymbolTableRecord
100
AcDbLayerTableRecord
  2
01_PLANES
 70
0
 62
7
  6
CONTINUOUS
370
-3
390
F
  0
LAYER
  5
200
100
AcDbSymbolTableRecord
100
AcDbLayerTableRecord
  2
02_COORD_SYS
 70
0
 62
7
  6
CONTINUOUS
370
-3
390
F
  0
LAYER
  5
201
100
AcDbSymbolTableRecord
100
AcDbLayerTableRecord
  2
03_AXES
 70
0
 62
7
  6
CONTINUOUS
370
-3
390
F
  0
LAYER
  5
202
100
AcDbSymbolTableRecord
100
AcDbLayerTableRecord
  2
04_POINTS
 70
0
 62
7
  6
CONTINUOUS
370
-3
390
F
  0
LAYER
  5
203
100
AcDbSymbolTableRecord
100
AcDbLayerTableRecord
  2
05_CURVES
 70
0
 62
7
  6
CONTINUOUS
370
-3
390
F
  0
LAYER
  5
204
100
AcDbSymbolTableRecord
100
AcDbLayerTableRecord
  2
06_SURFS
 70
0
 62
7
  6
CONTINUOUS
370
-3
390
F
  0
LAYER
  5
205
100
AcDbSymbolTableRecord
100
AcDbLayerTableRecord
  2
07_COSMETICS
 70
0
 62
7
  6
CONTINUOUS
370
-3
390
F
  0
LAYER
  5
206
100
AcDbSymbolTableRecord
100
AcDbLayerTableRecord
  2
10_NOTES
 70
0
 62
7
  6
CONTINUOUS
370
-3
390
F
  0
LAYER
  5
207
100
AcDbSymbolTableRecord
100
AcDbLayerTableRecord
  2
11_NOTES_PUB
 70
0
 62
7
  6
CONTINUOUS
370
-3
390
F
  0
LAYER
  5
208
100
AcDbSymbolTableRecord
100
AcDbLayerTableRecord
  2
13_REF_GTOL
 70
0
 62
7
  6
CONTINUOUS
370
-3
390
F
  0
LAYER
  5
209
100
AcDbSymbolTableRecord
100
AcDbLayerTableRecord
  2
16_MISC
 70
0
 62
7
  6
CONTINUOUS
370
-3
390
F
  0
LAYER
  5
20A
100
AcDbSymbolTableRecord
100
AcDbLayerTableRecord
  2
17_NO_PRINT
 70
0
 62
7
  6
CONTINUOUS
370
-3
390
F
  0
LAYER
  5
20B
100
AcDbSymbolTableRecord
100
AcDbLayerTableRecord
  2
18_DATUM_CAMS_JOINTS
 70
0
 62
7
  6
CONTINUOUS
370
-3
390
F
  0
LAYER
  5
20C
100
AcDbSymbolTableRecord
100
AcDbLayerTableRecord
  2
19_DATUM_FUNCTIONAL
 70
0
 62
7
  6
CONTINUOUS
370
-3
390
F
  0
LAYER
  5
20D
100
AcDbSymbolTableRecord
100
AcDbLayerTableRecord
  2
20_DATUM_KINEMATIC_SCHEME
 70
0
 62
7
  6
CONTINUOUS
370
-3
390
F
  0
ENDTAB
  0
TABLE
  2
STYLE
  5
3
100
AcDbSymbolTable
 70
1
  0
STYLE
  5
11
100
AcDbSymbolTableRecord
100
AcDbTextStyleTableRecord
  2
STANDARD
 70
0
 40
0.0
 41
0.8
 50
0.0
 71
0
 42
0.2
  3
txt
  4

  0
STYLE
  5
20E
100
AcDbSymbolTableRecord
100
AcDbTextStyleTableRecord
  2
TEXTSTYLE_1
 70
0
 40
0.0
 41
0.8
 50
0.0
 71
0
 42
0.2
  3
gdt
  4

  0
ENDTAB
  0
TABLE
  2
VIEW
  5
6
100
AcDbSymbolTable
 70
0
  0
ENDTAB
  0
TABLE
  2
UCS
  5
7
100
AcDbSymbolTable
 70
0
  0
ENDTAB
  0
TABLE
  2
APPID
  5
9
100
AcDbSymbolTable
 70
1
  0
APPID
  5
20F
100
AcDbSymbolTableRecord
100
AcDbRegAppTableRecord
  2
ACAD
 70
0
  0
ENDTAB
  0
TABLE
  2
BLOCK_RECORD
  5
1
100
AcDbSymbolTable
 70
0
  0
BLOCK_RECORD
  5
210
100
AcDbSymbolTableRecord
100
AcDbBlockTableRecord
  2
*Model_Space
  0
BLOCK_RECORD
  5
211
100
AcDbSymbolTableRecord
100
AcDbBlockTableRecord
  2
*Paper_Space
  0
BLOCK_RECORD
  5
212
100
AcDbSymbolTableRecord
100
AcDbBlockTableRecord
  2
_FILLED
  0
ENDTAB
  0
TABLE
  2
DIMSTYLE
  5
A
100
AcDbSymbolTable
 70
1
100
AcDbDimStyleTable
 71
0
  0
DIMSTYLE
105
213
100
AcDbSymbolTableRecord
100
AcDbDimStyleTableRecord
  2
STANDARD
 70
0
  3

  4

 40
1.0
 41
0.5236039109
 42
1.0
 43
0.38
 44
1.0
 45
0.0
 46
0.0
 47
0.01
 48
0.01
140
0.7330454753
141
0.09
142
0.0
143
25.4
144
1.0
145
0.0
146
1.0
147
0.625
 71
1
 72
0
 73
0
 74
0
 75
0
 76
0
 77
1
 78
8
 79
2
170
0
171
1
172
0
173
0
174
0
175
0
176
0
177
0
178
0
270
2
179
2
271
2
272
2
273
2
274
2
275
0
280
0
281
0
282
0
283
1
284
8
285
0
286
0
287
3
288
0
340
11
278
46
341
212
342
212
343
212
344
212
  0
ENDTAB
  0
ENDSEC
  0
SECTION
  2
BLOCKS
  0
BLOCK
  5
20
100
AcDbEntity
  8
0
100
AcDbBlockBegin
  2
*Model_Space
 70
0
 10
0.0
 20
0.0
 30
0.0
  3
*Model_Space
  1

  0
ENDBLK
  5
21
100
AcDbEntity
  8
0
100
AcDbBlockEnd
  0
BLOCK
  5
1C
100
AcDbEntity
  8
0
100
AcDbBlockBegin
  2
*Paper_Space
 70
0
 10
0.0
 20
0.0
 30
0.0
  3
*Paper_Space
  1

  0
ENDBLK
  5
1D
100
AcDbEntity
  8
0
100
AcDbBlockEnd
  0
BLOCK
  5
214
100
AcDbEntity
  8
0
100
AcDbBlockBegin
  2
_FILLED
 70
64
 10
0.0
 20
0.0
  3
_FILLED
  1

  0
SOLID
  5
215
100
AcDbEntity
  8
0
  6
BYBLOCK
 62
0
100
AcDbTrace
 10
0.0
 20
0.0
 11
-1.0
 21
0.25
 12
-1.0
 22
-0.25
 13
-1.0
 23
-0.25
  0
ENDBLK
  5
216
100
AcDbEntity
  8
0
  6
BYBLOCK
 62
0
100
AcDbBlockEnd
  0
ENDSEC
  0
SECTION
  2
ENTITIES
  0
LINE
  5
217
100
AcDbEntity
  8
0
100
AcDbLine
 62
7
  6
CONTINUOUS
 10
5.305140658
 20
25.5087423502
 11
5.2030975658
 21
37.2017289432
  0
LINE
  5
218
100
AcDbEntity
  8
0
100
AcDbLine
 62
7
  6
CONTINUOUS
 10
5.5048465393
 20
36.9999836361
 11
5.5606606236
 21
30.6043469038
  0
LINE
  5
219
100
AcDbEntity
  8
0
100
AcDbLine
 62
7
  6
CONTINUOUS
 10
5.5030861936
 20
37.5043469038
 11
5.5048462739
 21
36.9999836361
  0
LINE
  5
21A
100
AcDbEntity
  8
0
100
AcDbLine
 62
7
  6
CONTINUOUS
 10
6.431873383
 20
27.0043469038
 11
6.4004566589
 21
30.6043469038
  0
LINE
  5
21B
100
AcDbEntity
  8
0
100
AcDbLine
 62
7
  6
CONTINUOUS
 10
6.6216662
 20
26.775854573
 11
6.6062064868
 21
25.0043469038
  0
LINE
  5
21C
100
AcDbEntity
  8
0
100
AcDbLine
 62
7
  6
CONTINUOUS
 10
5.305140658
 20
25.5087423502
 11
5.8095425063
 21
25.0043533057
  0
LINE
  5
21D
100
AcDbEntity
  8
0
100
AcDbLine
 62
7
  6
CONTINUOUS
 10
7.9513309039
 20
25.0043469038
 11
7.9686972582
 21
27.0042707083
  0
LINE
  5
21E
100
AcDbEntity
  8
0
100
AcDbLine
 62
7
  6
CONTINUOUS
 10
8.1686035915
 20
27.0043469038
 11
8.155186663
 21
25.466919187
  0
LINE
  5
21F
100
AcDbEntity
  8
0
100
AcDbLine
 62
7
  6
CONTINUOUS
 10
9.2654566589
 20
37.5043469038
 11
9.2654566589
 21
40.1543467705
  0
LINE
  5
220
100
AcDbEntity
  8
0
100
AcDbLine
 62
7
  6
CONTINUOUS
 10
9.6705071678
 20
39.392475362
 11
9.6705071678
 21
37.5043469038
  0
LINE
  5
221
100
AcDbEntity
  8
0
100
AcDbLine
 62
7
  6
CONTINUOUS
 10
6.6216662
 20
26.775854573
 11
6.7004566589
 21
27.0043469038
  0
LINE
  5
222
100
AcDbEntity
  8
0
100
AcDbLine
 62
7
  6
CONTINUOUS
 10
9.8169015005
 20
38.9534330834
 11
9.8169015005
 21
37.5043469038
  0
LINE
  5
223
100
AcDbEntity
  8
0
100
AcDbLine
 62
7
  6
CONTINUOUS
 10
10.3207345967
 20
37.5043469038
 11
10.3210133
 21
38.3147661333
  0
LINE
  5
224
100
AcDbEntity
  8
0
100
AcDbLine
 62
7
  6
CONTINUOUS
 10
12.0201131968
 20
38.3144936589
 11
12.5240100495
 21
38.9534308251
  0
LINE
  5
225
100
AcDbEntity
  8
0
100
AcDbLine
 62
7
  6
CONTINUOUS
 10
12.0204566589
 20
37.5043469038
 11
12.0204566589
 21
38.3144795038
  0
LINE
  5
226
100
AcDbEntity
  8
0
100
AcDbLine
 62
7
  6
CONTINUOUS
 10
12.5240100495
 20
38.9534308251
 11
12.5240100495
 21
37.5043469038
  0
LINE
  5
227
100
AcDbEntity
  8
0
100
AcDbLine
 62
7
  6
CONTINUOUS
 10
12.67040615
 20
37.5043469038
 11
12.67040615
 21
39.392475362
  0
LINE
  5
228
100
AcDbEntity
  8
0
100
AcDbLine
 62
7
  6
CONTINUOUS
 10
13.4805071678
 20
39.392475362
 11
13.4805071678
 21
37.5043469038
  0
LINE
  5
229
100
AcDbEntity
  8
0
100
AcDbLine
 62
7
  6
CONTINUOUS
 10
13.6269032683
 20
38.9534308251
 11
13.626903268
 21
37.5043469038
  0
LINE
  5
22A
100
AcDbEntity
  8
0
100
AcDbLine
 62
7
  6
CONTINUOUS
 10
15.8301136688
 20
38.3144949048
 11
16.3340100495
 21
38.9534308251
  0
LINE
  5
22B
100
AcDbEntity
  8
0
100
AcDbLine
 62
7
  6
CONTINUOUS
 10
14.7004566589
 20
26.5543469038
 11
14.7004566589
 21
27.0043469038
  0
LINE
  5
22C
100
AcDbEntity
  8
0
100
AcDbLine
 62
7
  6
CONTINUOUS
 10
14.1307355707
 20
37.5043469038
 11
14.1310151903
 21
38.3147273748
  0
LINE
  5
22D
100
AcDbEntity
  8
0
100
AcDbLine
 62
7
  6
CONTINUOUS
 10
18.6004566589
 20
22.3543469038
 11
15.6004566589
 21
22.3543469038
  0
LINE
  5
22E
100
AcDbEntity
  8
0
100
AcDbLine
 62
7
  6
CONTINUOUS
 10
15.6004566589
 20
22.3543469038
 11
15.6004566589
 21
27.0043469038
  0
LINE
  5
22F
100
AcDbEntity
  8
0
100
AcDbLine
 62
7
  6
CONTINUOUS
 10
15.8304566589
 20
37.5043469038
 11
15.8304566589
 21
38.3144807229
  0
LINE
  5
230
100
AcDbEntity
  8
0
100
AcDbLine
 62
7
  6
CONTINUOUS
 10
19.6401136688
 20
38.3144949048
 11
20.1440100495
 21
38.9534308251
  0
LINE
  5
231
100
AcDbEntity
  8
0
100
AcDbLine
 62
7
  6
CONTINUOUS
 10
16.3340100495
 20
38.9534308251
 11
16.3340100495
 21
37.5043469038
  0
LINE
  5
232
100
AcDbEntity
  8
0
100
AcDbLine
 62
7
  6
CONTINUOUS
 10
16.4254566589
 20
26.5543469038
 11
16.4254566589
 21
27.0043469038
  0
LINE
  5
233
100
AcDbEntity
  8
0
100
AcDbLine
 62
7
  6
CONTINUOUS
 10
16.48040615
 20
37.5043469038
 11
16.48040615
 21
39.392475362
  0
LINE
  5
234
100
AcDbEntity
  8
0
100
AcDbLine
 62
7
  6
CONTINUOUS
 10
17.2905071678
 20
39.392475362
 11
17.2905071678
 21
37.5043469038
  0
LINE
  5
235
100
AcDbEntity
  8
0
100
AcDbLine
 62
7
  6
CONTINUOUS
 10
17.4369032683
 20
38.9534308251
 11
17.436903268
 21
37.5043469038
  0
LINE
  5
236
100
AcDbEntity
  8
0
100
AcDbLine
 62
7
  6
CONTINUOUS
 10
5.8095425063
 20
25.0043469038
 11
15.6004566589
 21
25.0043469038
  0
LINE
  5
237
100
AcDbEntity
  8
0
100
AcDbLine
 62
7
  6
CONTINUOUS
 10
27.6641627938
 20
25.0043469038
 11
39.3913708115
 21
25.0043469038
  0
LINE
  5
238
100
AcDbEntity
  8
0
100
AcDbLine
 62
7
  6
CONTINUOUS
 10
9.8169015006
 20
38.9534330847
 11
10.320800075
 21
38.3146115267
  0
LINE
  5
239
100
AcDbEntity
  8
0
100
AcDbLine
 62
7
  6
CONTINUOUS
 10
17.7754566589
 20
26.5543469038
 11
17.7754566589
 21
29.0543469038
  0
LINE
  5
23A
100
AcDbEntity
  8
0
100
AcDbLine
 62
7
  6
CONTINUOUS
 10
18.3404566589
 20
28.1543451003
 11
18.3404566589
 21
29.0543469038
  0
LINE
  5
23B
100
AcDbEntity
  8
0
100
AcDbLine
 62
7
  6
CONTINUOUS
 10
18.6004566589
 20
22.3543469038
 11
18.6004566589
 21
27.184013729
  0
LINE
  5
23C
100
AcDbEntity
  8
0
100
AcDbLine
 62
7
  6
CONTINUOUS
 10
17.9407355712
 20
37.5043469038
 11
17.9410151903
 21
38.3147273748
  0
LINE
  5
23D
100
AcDbEntity
  8
0
100
AcDbLine
 62
7
  6
CONTINUOUS
 10
17.5542042596
 20
27.0043469038
 11
17.6004566589
 21
32.3043469038
  0
LINE
  5
23E
100
AcDbEntity
  8
0
100
AcDbLine
 62
7
  6
CONTINUOUS
 10
19.5004566589
 20
26.5543469038
 11
18.6004566589
 21
26.5543469038
  0
LINE
  5
23F
100
AcDbEntity
  8
0
100
AcDbLine
 62
7
  6
CONTINUOUS
 10
17.7754566589
 20
26.5543469038
 11
16.4254566589
 21
26.5543469038
  0
LINE
  5
240
100
AcDbEntity
  8
0
100
AcDbLine
 62
7
  6
CONTINUOUS
 10
15.6004566589
 20
26.5543469038
 11
14.7004566589
 21
26.5543469038
  0
LINE
  5
241
100
AcDbEntity
  8
0
100
AcDbLine
 62
7
  6
CONTINUOUS
 10
39.9088245471
 20
27.0043469038
 11
27.6467090582
 21
27.0043469038
  0
LINE
  5
242
100
AcDbEntity
  8
0
100
AcDbLine
 62
7
  6
CONTINUOUS
 10
26.080384863
 20
27.0043469038
 11
19.1205284548
 21
27.0043469038
  0
LINE
  5
243
100
AcDbEntity
  8
0
100
AcDbLine
 62
7
  6
CONTINUOUS
 10
17.5542042596
 20
27.0043469038
 11
5.2920887707
 21
27.0043469038
  0
LINE
  5
244
100
AcDbEntity
  8
0
100
AcDbLine
 62
7
  6
CONTINUOUS
 10
26.228406369
 20
27.1543459379
 11
26.5925074318
 21
27.1543468391
  0
LINE
  5
245
100
AcDbEntity
  8
0
100
AcDbLine
 62
7
  6
CONTINUOUS
 10
18.9725069488
 20
27.1543469038
 11
18.608405886
 21
27.1543469038
  0
LINE
  5
246
100
AcDbEntity
  8
0
100
AcDbLine
 62
7
  6
CONTINUOUS
 10
5.2876869225
 20
27.5087487521
 11
17.5586061079
 21
27.5087487521
  0
LINE
  5
247
100
AcDbEntity
  8
0
100
AcDbLine
 62
7
  6
CONTINUOUS
 10
27.64230721
 20
27.5087487521
 11
39.9132263953
 21
27.5087487521
  0
LINE
  5
248
100
AcDbEntity
  8
0
100
AcDbLine
 62
7
  6
CONTINUOUS
 10
18.3404568922
 20
28.1543451003
 11
18.608405886
 21
27.1543468391
  0
LINE
  5
249
100
AcDbEntity
  8
0
100
AcDbLine
 62
7
  6
CONTINUOUS
 10
19.1205284548
 20
27.0043469038
 11
19.0742760555
 21
32.3043469038
  0
LINE
  5
24A
100
AcDbEntity
  8
0
100
AcDbLine
 62
7
  6
CONTINUOUS
 10
19.5004566589
 20
26.5543469038
 11
19.5004566589
 21
27.0043469038
  0
LINE
  5
24B
100
AcDbEntity
  8
0
100
AcDbLine
 62
7
  6
CONTINUOUS
 10
19.6404566589
 20
37.5043469038
 11
19.6404566589
 21
38.3144807229
  0
LINE
  5
24C
100
AcDbEntity
  8
0
100
AcDbLine
 62
7
  6
CONTINUOUS
 10
20.1440100495
 20
38.9534308251
 11
20.1440100495
 21
37.5043469038
  0
LINE
  5
24D
100
AcDbEntity
  8
0
100
AcDbLine
 62
7
  6
CONTINUOUS
 10
18.9725069488
 20
27.1543459379
 11
19.1145918539
 21
27.6846139883
  0
LINE
  5
24E
100
AcDbEntity
  8
0
100
AcDbLine
 62
7
  6
CONTINUOUS
 10
20.29040615
 20
37.5043469038
 11
20.29040615
 21
39.392475362
  0
LINE
  5
24F
100
AcDbEntity
  8
0
100
AcDbLine
 62
7
  6
CONTINUOUS
 10
20.6954566589
 20
40.1543467705
 11
20.6954566589
 21
37.5043469038
  0
LINE
  5
250
100
AcDbEntity
  8
0
100
AcDbLine
 62
7
  6
CONTINUOUS
 10
19.1030753838
 20
29.00427075
 11
26.097837934
 21
29.00427075
  0
LINE
  5
251
100
AcDbEntity
  8
0
100
AcDbLine
 62
7
  6
CONTINUOUS
 10
17.5720943386
 20
29.0543469038
 11
19.1026383759
 21
29.0543469038
  0
LINE
  5
252
100
AcDbEntity
  8
0
100
AcDbLine
 62
7
  6
CONTINUOUS
 10
26.098274942
 20
29.0543469038
 11
27.6288189792
 21
29.0543469038
  0
LINE
  5
253
100
AcDbEntity
  8
0
100
AcDbLine
 62
7
  6
CONTINUOUS
 10
19.1004566589
 20
29.3043469038
 11
26.1004566589
 21
29.3043469038
  0
LINE
  5
254
100
AcDbEntity
  8
0
100
AcDbLine
 62
7
  6
CONTINUOUS
 10
13.6269032683
 20
38.9534308251
 11
14.1308001214
 21
38.3145687027
  0
LINE
  5
255
100
AcDbEntity
  8
0
100
AcDbLine
 62
7
  6
CONTINUOUS
 10
27.2601131968
 20
38.3144936589
 11
27.7640100495
 21
38.9534308251
  0
LINE
  5
256
100
AcDbEntity
  8
0
100
AcDbLine
 62
7
  6
CONTINUOUS
 10
39.9402412711
 20
30.6043469038
 11
38.8004566589
 21
30.6043469038
  0
LINE
  5
257
100
AcDbEntity
  8
0
100
AcDbLine
 62
7
  6
CONTINUOUS
 10
6.4004566589
 20
30.6043469038
 11
5.2606720467
 21
30.6043469038
  0
LINE
  5
258
100
AcDbEntity
  8
0
100
AcDbLine
 62
7
  6
CONTINUOUS
 10
17.5860573271
 20
30.6543469038
 11
19.0886753874
 21
30.6543469038
  0
LINE
  5
259
100
AcDbEntity
  8
0
100
AcDbLine
 62
7
  6
CONTINUOUS
 10
26.1122379304
 20
30.6543469038
 11
27.6148559908
 21
30.6543469038
  0
LINE
  5
25A
100
AcDbEntity
  8
0
100
AcDbLine
 62
7
  6
CONTINUOUS
 10
17.6004566589
 20
32.3043469038
 11
19.0742760555
 21
32.3043469038
  0
LINE
  5
25B
100
AcDbEntity
  8
0
100
AcDbLine
 62
7
  6
CONTINUOUS
 10
26.1266372623
 20
32.3043469038
 11
27.6004566589
 21
32.3043469038
  0
LINE
  5
25C
100
AcDbEntity
  8
0
100
AcDbLine
 62
7
  6
CONTINUOUS
 10
17.4369032683
 20
38.9534308251
 11
17.9408001214
 21
38.3145687027
  0
LINE
  5
25D
100
AcDbEntity
  8
0
100
AcDbLine
 62
7
  6
CONTINUOUS
 10
24.5054566589
 20
37.5043469038
 11
24.5054566589
 21
40.1543467705
  0
LINE
  5
25E
100
AcDbEntity
  8
0
100
AcDbLine
 62
7
  6
CONTINUOUS
 10
24.9105071678
 20
39.392475362
 11
24.9105071678
 21
37.5043469038
  0
LINE
  5
25F
100
AcDbEntity
  8
0
100
AcDbLine
 62
7
  6
CONTINUOUS
 10
25.0569015005
 20
38.9534330834
 11
25.0569015005
 21
37.5043469038
  0
LINE
  5
260
100
AcDbEntity
  8
0
100
AcDbLine
 62
7
  6
CONTINUOUS
 10
31.0701136688
 20
38.3144949048
 11
31.5740100495
 21
38.9534308251
  0
LINE
  5
261
100
AcDbEntity
  8
0
100
AcDbLine
 62
7
  6
CONTINUOUS
 10
26.0863214639
 20
27.6846139883
 11
26.228406369
 21
27.1543459379
  0
LINE
  5
262
100
AcDbEntity
  8
0
100
AcDbLine
 62
7
  6
CONTINUOUS
 10
25.5607345967
 20
37.5043469038
 11
25.5610133
 21
38.3147661333
  0
LINE
  5
263
100
AcDbEntity
  8
0
100
AcDbLine
 62
7
  6
CONTINUOUS
 10
26.080384863
 20
27.0043469038
 11
26.1266372623
 21
32.3043469038
  0
LINE
  5
264
100
AcDbEntity
  8
0
100
AcDbLine
 62
7
  6
CONTINUOUS
 10
27.6641627938
 20
25.0043469038
 11
27.6004566589
 21
32.3043469038
  0
LINE
  5
265
100
AcDbEntity
  8
0
100
AcDbLine
 62
7
  6
CONTINUOUS
 10
26.8604564257
 20
28.1543451003
 11
26.8604565306
 21
29.0543469038
  0
LINE
  5
266
100
AcDbEntity
  8
0
100
AcDbLine
 62
7
  6
CONTINUOUS
 10
27.2604566589
 20
37.5043469038
 11
27.2604566589
 21
38.3144795038
  0
LINE
  5
267
100
AcDbEntity
  8
0
100
AcDbLine
 62
7
  6
CONTINUOUS
 10
27.7640100495
 20
38.9534308251
 11
27.7640100495
 21
37.5043469038
  0
LINE
  5
268
100
AcDbEntity
  8
0
100
AcDbLine
 62
7
  6
CONTINUOUS
 10
27.91040615
 20
37.5043469038
 11
27.91040615
 21
39.392475362
  0
LINE
  5
269
100
AcDbEntity
  8
0
100
AcDbLine
 62
7
  6
CONTINUOUS
 10
26.5925074318
 20
27.1543468391
 11
26.8604564257
 21
28.1543451003
  0
LINE
  5
26A
100
AcDbEntity
  8
0
100
AcDbLine
 62
7
  6
CONTINUOUS
 10
34.8801136688
 20
38.3144949048
 11
35.3840100495
 21
38.9534308251
  0
LINE
  5
26B
100
AcDbEntity
  8
0
100
AcDbLine
 62
7
  6
CONTINUOUS
 10
28.7205071678
 20
39.392475362
 11
28.7205071678
 21
37.5043469038
  0
LINE
  5
26C
100
AcDbEntity
  8
0
100
AcDbLine
 62
7
  6
CONTINUOUS
 10
28.8669032683
 20
38.9534308251
 11
28.866903268
 21
37.5043469038
  0
LINE
  5
26D
100
AcDbEntity
  8
0
100
AcDbLine
 62
7
  6
CONTINUOUS
 10
5.5048465393
 20
36.9999836361
 11
39.6960667785
 21
36.9999836361
  0
LINE
  5
26E
100
AcDbEntity
  8
0
100
AcDbLine
 62
7
  6
CONTINUOUS
 10
39.6978273209
 20
37.5043469038
 11
5.5030859969
 21
37.5043469038
  0
LINE
  5
26F
100
AcDbEntity
  8
0
100
AcDbLine
 62
7
  6
CONTINUOUS
 10
10.3204556589
 20
37.5986036887
 11
12.0204566589
 21
37.5986036887
  0
LINE
  5
270
100
AcDbEntity
  8
0
100
AcDbLine
 62
7
  6
CONTINUOUS
 10
14.1304556589
 20
37.5986036887
 11
15.8304566589
 21
37.5986036887
  0
LINE
  5
271
100
AcDbEntity
  8
0
100
AcDbLine
 62
7
  6
CONTINUOUS
 10
17.9404556589
 20
37.5986036887
 11
19.6404566589
 21
37.5986036887
  0
LINE
  5
272
100
AcDbEntity
  8
0
100
AcDbLine
 62
7
  6
CONTINUOUS
 10
25.5604556589
 20
37.5986036887
 11
27.2604566589
 21
37.5986036887
  0
LINE
  5
273
100
AcDbEntity
  8
0
100
AcDbLine
 62
7
  6
CONTINUOUS
 10
29.3704556589
 20
37.5986036887
 11
31.0704566589
 21
37.5986036887
  0
LINE
  5
274
100
AcDbEntity
  8
0
100
AcDbLine
 62
7
  6
CONTINUOUS
 10
33.1804556589
 20
37.5986036887
 11
34.8804566589
 21
37.5986036887
  0
LINE
  5
275
100
AcDbEntity
  8
0
100
AcDbLine
 62
7
  6
CONTINUOUS
 10
29.3707355707
 20
37.5043469038
 11
29.3710151903
 21
38.3147273748
  0
LINE
  5
276
100
AcDbEntity
  8
0
100
AcDbLine
 62
7
  6
CONTINUOUS
 10
26.8101708569
 20
38.3132647819
 11
27.2601131968
 21
38.3144936589
  0
LINE
  5
277
100
AcDbEntity
  8
0
100
AcDbLine
 62
7
  6
CONTINUOUS
 10
11.5701708569
 20
38.3132647819
 11
12.0201131968
 21
38.3144936589
  0
LINE
  5
278
100
AcDbEntity
  8
0
100
AcDbLine
 62
7
  6
CONTINUOUS
 10
34.8801136688
 20
38.31425268
 11
34.4298322159
 21
38.3132761685
  0
LINE
  5
279
100
AcDbEntity
  8
0
100
AcDbLine
 62
7
  6
CONTINUOUS
 10
31.0701136688
 20
38.31425268
 11
30.6198322159
 21
38.3132761685
  0
LINE
  5
27A
100
AcDbEntity
  8
0
100
AcDbLine
 62
7
  6
CONTINUOUS
 10
19.6401136688
 20
38.31425268
 11
19.1898322159
 21
38.3132761685
  0
LINE
  5
27B
100
AcDbEntity
  8
0
100
AcDbLine
 62
7
  6
CONTINUOUS
 10
15.8301136688
 20
38.31425268
 11
15.3798322159
 21
38.3132761685
  0
LINE
  5
27C
100
AcDbEntity
  8
0
100
AcDbLine
 62
7
  6
CONTINUOUS
 10
14.5810815387
 20
38.3132749139
 11
14.1308001214
 21
38.3143271377
  0
LINE
  5
27D
100
AcDbEntity
  8
0
100
AcDbLine
 62
7
  6
CONTINUOUS
 10
18.3910815387
 20
38.3132749139
 11
17.9408001214
 21
38.3143271377
  0
LINE
  5
27E
100
AcDbEntity
  8
0
100
AcDbLine
 62
7
  6
CONTINUOUS
 10
29.8210815387
 20
38.3132749139
 11
29.3708001214
 21
38.3143271377
  0
LINE
  5
27F
100
AcDbEntity
  8
0
100
AcDbLine
 62
7
  6
CONTINUOUS
 10
33.6310815387
 20
38.3132749139
 11
33.1808001214
 21
38.3143271377
  0
LINE
  5
280
100
AcDbEntity
  8
0
100
AcDbLine
 62
7
  6
CONTINUOUS
 10
10.320800075
 20
38.3146115267
 11
10.7707793822
 21
38.3132647603
  0
LINE
  5
281
100
AcDbEntity
  8
0
100
AcDbLine
 62
7
  6
CONTINUOUS
 10
25.560800075
 20
38.3146115267
 11
26.0107793822
 21
38.3132647603
  0
LINE
  5
282
100
AcDbEntity
  8
0
100
AcDbLine
 62
7
  6
CONTINUOUS
 10
25.0569015006
 20
38.9534330847
 11
25.560800075
 21
38.3146115267
  0
LINE
  5
283
100
AcDbEntity
  8
0
100
AcDbLine
 62
7
  6
CONTINUOUS
 10
31.0704566589
 20
37.5043469038
 11
31.0704566589
 21
38.3144807229
  0
LINE
  5
284
100
AcDbEntity
  8
0
100
AcDbLine
 62
7
  6
CONTINUOUS
 10
31.5740100495
 20
38.9534308251
 11
31.5740100495
 21
37.5043469038
  0
LINE
  5
285
100
AcDbEntity
  8
0
100
AcDbLine
 62
7
  6
CONTINUOUS
 10
31.72040615
 20
37.5043469038
 11
31.72040615
 21
39.392475362
  0
LINE
  5
286
100
AcDbEntity
  8
0
100
AcDbLine
 62
7
  6
CONTINUOUS
 10
9.6705071678
 20
39.392475362
 11
12.67040615
 21
39.392475362
  0
LINE
  5
287
100
AcDbEntity
  8
0
100
AcDbLine
 62
7
  6
CONTINUOUS
 10
13.4805071678
 20
39.392475362
 11
16.48040615
 21
39.392475362
  0
LINE
  5
288
100
AcDbEntity
  8
0
100
AcDbLine
 62
7
  6
CONTINUOUS
 10
17.2905071678
 20
39.392475362
 11
20.29040615
 21
39.392475362
  0
LINE
  5
289
100
AcDbEntity
  8
0
100
AcDbLine
 62
7
  6
CONTINUOUS
 10
24.9105071678
 20
39.392475362
 11
27.91040615
 21
39.392475362
  0
LINE
  5
28A
100
AcDbEntity
  8
0
100
AcDbLine
 62
7
  6
CONTINUOUS
 10
28.7205071678
 20
39.392475362
 11
31.72040615
 21
39.392475362
  0
LINE
  5
28B
100
AcDbEntity
  8
0
100
AcDbLine
 62
7
  6
CONTINUOUS
 10
32.5305071678
 20
39.392475362
 11
35.53040615
 21
39.392475362
  0
LINE
  5
28C
100
AcDbEntity
  8
0
100
AcDbLine
 62
7
  6
CONTINUOUS
 10
9.2654556589
 20
39.4561043948
 11
20.6954576589
 21
39.4561043948
  0
LINE
  5
28D
100
AcDbEntity
  8
0
100
AcDbLine
 62
7
  6
CONTINUOUS
 10
24.5054556589
 20
39.4561043948
 11
35.9354576589
 21
39.4561043948
  0
LINE
  5
28E
100
AcDbEntity
  8
0
100
AcDbLine
 62
7
  6
CONTINUOUS
 10
9.2654566589
 20
39.5103573476
 11
20.6954566589
 21
39.5103573476
  0
LINE
  5
28F
100
AcDbEntity
  8
0
100
AcDbLine
 62
7
  6
CONTINUOUS
 10
24.5054566589
 20
39.5103573476
 11
35.9354566589
 21
39.5103573476
  0
LINE
  5
290
100
AcDbEntity
  8
0
100
AcDbLine
 62
7
  6
CONTINUOUS
 10
9.2654566589
 20
40.1241937649
 11
20.6954566589
 21
40.1241937649
  0
LINE
  5
291
100
AcDbEntity
  8
0
100
AcDbLine
 62
7
  6
CONTINUOUS
 10
24.5054566589
 20
40.1241937649
 11
35.9354566589
 21
40.1241937649
  0
LINE
  5
292
100
AcDbEntity
  8
0
100
AcDbLine
 62
7
  6
CONTINUOUS
 10
9.2654566589
 20
40.1543467705
 11
20.6954566589
 21
40.1543467705
  0
LINE
  5
293
100
AcDbEntity
  8
0
100
AcDbLine
 62
7
  6
CONTINUOUS
 10
24.5054566589
 20
40.1543467705
 11
35.9354566589
 21
40.1543467705
  0
LINE
  5
294
100
AcDbEntity
  8
0
100
AcDbLine
 62
7
  6
CONTINUOUS
 10
32.5305071678
 20
39.392475362
 11
32.5305071678
 21
37.5043469038
  0
LINE
  5
295
100
AcDbEntity
  8
0
100
AcDbLine
 62
7
  6
CONTINUOUS
 10
32.6769032683
 20
38.9534308251
 11
32.676903268
 21
37.5043469038
  0
LINE
  5
296
100
AcDbEntity
  8
0
100
AcDbLine
 62
7
  6
CONTINUOUS
 10
33.1807355712
 20
37.5043469038
 11
33.1810151903
 21
38.3147273748
  0
LINE
  5
297
100
AcDbEntity
  8
0
100
AcDbLine
 62
7
  6
CONTINUOUS
 10
28.8669032683
 20
38.9534308251
 11
29.3708001214
 21
38.3145687027
  0
LINE
  5
298
100
AcDbEntity
  8
0
100
AcDbLine
 62
7
  6
CONTINUOUS
 10
34.8804566589
 20
37.5043469038
 11
34.8804566589
 21
38.3144807229
  0
LINE
  5
299
100
AcDbEntity
  8
0
100
AcDbLine
 62
7
  6
CONTINUOUS
 10
35.3840100495
 20
38.9534308251
 11
35.3840100495
 21
37.5043469038
  0
LINE
  5
29A
100
AcDbEntity
  8
0
100
AcDbLine
 62
7
  6
CONTINUOUS
 10
35.53040615
 20
37.5043469038
 11
35.53040615
 21
39.392475362
  0
LINE
  5
29B
100
AcDbEntity
  8
0
100
AcDbLine
 62
7
  6
CONTINUOUS
 10
32.6769032683
 20
38.9534308251
 11
33.1808001214
 21
38.3145687027
  0
LINE
  5
29C
100
AcDbEntity
  8
0
100
AcDbLine
 62
7
  6
CONTINUOUS
 10
37.0457266548
 20
25.466919187
 11
37.0323099307
 21
27.004323487
  0
LINE
  5
29D
100
AcDbEntity
  8
0
100
AcDbLine
 62
7
  6
CONTINUOUS
 10
35.9354566589
 20
40.1543467705
 11
35.9354566589
 21
37.5043469038
  0
LINE
  5
29E
100
AcDbEntity
  8
0
100
AcDbLine
 62
7
  6
CONTINUOUS
 10
38.5004566589
 20
27.0043469038
 11
38.5792471178
 21
26.775854573
  0
LINE
  5
29F
100
AcDbEntity
  8
0
100
AcDbLine
 62
7
  6
CONTINUOUS
 10
37.2322160596
 20
27.0042707083
 11
37.2495824139
 21
25.0043469038
  0
LINE
  5
2A0
100
AcDbEntity
  8
0
100
AcDbLine
 62
7
  6
CONTINUOUS
 10
38.594706831
 20
25.0043469038
 11
38.5792471178
 21
26.775854573
  0
LINE
  5
2A1
100
AcDbEntity
  8
0
100
AcDbLine
 62
7
  6
CONTINUOUS
 10
39.6960670372
 20
36.9999836361
 11
39.6978271481
 21
37.5043469038
  0
LINE
  5
2A2
100
AcDbEntity
  8
0
100
AcDbLine
 62
7
  6
CONTINUOUS
 10
38.8004566589
 20
30.6043469038
 11
38.7690399349
 21
27.0043469038
  0
LINE
  5
2A3
100
AcDbEntity
  8
0
100
AcDbLine
 62
7
  6
CONTINUOUS
 10
39.6402526942
 20
30.6043469038
 11
39.6960667785
 21
36.9999836361
  0
LINE
  5
2A4
100
AcDbEntity
  8
0
100
AcDbLine
 62
7
  6
CONTINUOUS
 10
39.3913708115
 20
25.0043533057
 11
39.8957726598
 21
25.5087423502
  0
LINE
  5
2A5
100
AcDbEntity
  8
0
100
AcDbLine
 62
7
  6
CONTINUOUS
 10
39.997815752
 20
37.2017289432
 11
39.8957726598
 21
25.5087487521
  0
ARC
  5
2A6
100
AcDbEntity
  8
0
100
AcDbCircle
 62
7
  6
CONTINUOUS
 10
-8.4267429022
 20
25.6079457508
 40
16.5825292592
100
AcDbArc
 50
357.9139908804
 51
359.5127367866
  0
ARC
  5
2A7
100
AcDbEntity
  8
0
100
AcDbCircle
 62
7
  6
CONTINUOUS
 10
53.6276562184
 20
25.6079457508
 40
16.5825292576
100
AcDbArc
 50
180.4872632135
 51
182.0860091199
  0
ARC
  5
2A8
100
AcDbEntity
  8
0
100
AcDbCircle
 62
7
  6
CONTINUOUS
 10
14.9826548437
 20
38.3275626006
 40
0.4021297248
100
AcDbArc
 50
175.8946170874
 51
182.0376023389
  0
ARC
  5
2A9
100
AcDbEntity
  8
0
100
AcDbCircle
 62
7
  6
CONTINUOUS
 10
18.7926548437
 20
38.3275626006
 40
0.4021297248
100
AcDbArc
 50
175.8946170873
 51
182.037602339
  0
ARC
  5
2AA
100
AcDbEntity
  8
0
100
AcDbCircle
 62
7
  6
CONTINUOUS
 10
30.2226548438
 20
38.3275626006
 40
0.4021297248
100
AcDbArc
 50
175.8946170874
 51
182.0376023389
  0
ARC
  5
2AB
100
AcDbEntity
  8
0
100
AcDbCircle
 62
7
  6
CONTINUOUS
 10
34.0326548437
 20
38.3275626006
 40
0.4021297248
100
AcDbArc
 50
175.8946170873
 51
182.037602339
  0
ARC
  5
2AC
100
AcDbEntity
  8
0
100
AcDbCircle
 62
7
  6
CONTINUOUS
 10
11.172651528
 20
38.3275630038
 40
0.4021264245
100
AcDbArc
 50
175.9060672651
 51
182.0376719266
  0
ARC
  5
2AD
100
AcDbEntity
  8
0
100
AcDbCircle
 62
7
  6
CONTINUOUS
 10
26.412651528
 20
38.3275630038
 40
0.4021264245
100
AcDbArc
 50
175.9060672651
 51
182.0376719266
  0
ARC
  5
2AE
100
AcDbEntity
  8
0
100
AcDbCircle
 62
7
  6
CONTINUOUS
 10
18.7904521402
 20
38.3270273453
 40
0.400033179
100
AcDbArc
 50
358.0282782865
 51
175.7955490399
  0
ARC
  5
2AF
100
AcDbEntity
  8
0
100
AcDbCircle
 62
7
  6
CONTINUOUS
 10
14.9804521402
 20
38.3270273453
 40
0.400033179
100
AcDbArc
 50
358.0282782865
 51
175.7955490399
  0
ARC
  5
2B0
100
AcDbEntity
  8
0
100
AcDbCircle
 62
7
  6
CONTINUOUS
 10
34.0304521402
 20
38.3270273453
 40
0.400033179
100
AcDbArc
 50
358.0282782865
 51
175.7955490399
  0
ARC
  5
2B1
100
AcDbEntity
  8
0
100
AcDbCircle
 62
7
  6
CONTINUOUS
 10
30.2204521402
 20
38.3270273453
 40
0.400033179
100
AcDbArc
 50
358.0282782865
 51
175.7955490399
  0
ARC
  5
2B2
100
AcDbEntity
  8
0
100
AcDbCircle
 62
7
  6
CONTINUOUS
 10
11.1704521433
 20
38.3270274339
 40
0.4000331095
100
AcDbArc
 50
358.0280370491
 51
175.807049988
  0
ARC
  5
2B3
100
AcDbEntity
  8
0
100
AcDbCircle
 62
7
  6
CONTINUOUS
 10
26.4104521433
 20
38.3270274339
 40
0.4000331095
100
AcDbArc
 50
358.0280370491
 51
175.807049988
  0
ARC
  5
2B4
100
AcDbEntity
  8
0
100
AcDbCircle
 62
7
  6
CONTINUOUS
 10
39.6978271751
 20
37.2043469038
 40
0.3
100
AcDbArc
 50
0.0
 51
89.9999721409
  0
ARC
  5
2B5
100
AcDbEntity
  8
0
100
AcDbCircle
 62
7
  6
CONTINUOUS
 10
5.5030861428
 20
37.2043469038
 40
0.3
100
AcDbArc
 50
90.0
 51
180.4999999988
  0
SPLINE
  5
2B6
100
AcDbEntity
  8
0
100
AcDbSpline
 62
7
  6
CONTINUOUS
 70
0
 71
3
 72
17
 73
13
 74
0
 42
0.0000001
 43
0.0000001
 44
0.0000000001
 40
0.0
 40
0.0
 40
0.0
 40
0.0
 40
0.1136437606
 40
0.1739097376
 40
0.2362803291
 40
0.3660521216
 40
0.4999931097
 40
0.6339349491
 40
0.7637101768
 40
0.8260822671
 40
0.8863510051
 40
1.0
 40
1.0
 40
1.0
 40
1.0
 10
11.5698304718
 20
38.3132749139
 30
0.0
 10
11.55129197
 20
38.2836847479
 30
0.0
 10
11.5151058022
 20
38.2429409528
 30
0.0
 10
11.4566541046
 20
38.1996864033
 30
0.0
 10
11.388726809
 20
38.1618390975
 30
0.0
 10
11.2928692335
 20
38.1295193423
 30
0.0
 10
11.1704628179
 20
38.116521882
 30
0.0
 10
11.0480551492
 20
38.1295171942
 30
0.0
 10
10.9521950961
 20
38.1618350093
 30
0.0
 10
10.8842647321
 20
38.1996819151
 30
0.0
 10
10.825811372
 20
38.2429390218
 30
0.0
 10
10.7896219938
 20
38.2836833018
 30
0.0
 10
10.7710827708
 20
38.3132749139
 30
0.0
  0
SPLINE
  5
2B7
100
AcDbEntity
  8
0
100
AcDbSpline
 62
7
  6
CONTINUOUS
 70
0
 71
3
 72
17
 73
13
 74
0
 42
0.0000001
 43
0.0000001
 44
0.0000000001
 40
0.0
 40
0.0
 40
0.0
 40
0.0
 40
0.1136303464
 40
0.173891873
 40
0.2362615964
 40
0.3660409309
 40
0.5000027753
 40
0.6339641937
 40
0.7637422976
 40
0.8261114349
 40
0.8863718986
 40
1.0
 40
1.0
 40
1.0
 40
1.0
 10
18.3910815387
 20
38.3132749139
 30
0.0
 10
18.4096178411
 20
38.283687864
 30
0.0
 10
18.4457990055
 20
38.2429467223
 30
0.0
 10
18.504244902
 20
38.1996930108
 30
0.0
 10
18.5721707449
 20
38.161840151
 30
0.0
 10
18.6680375011
 20
38.1295171336
 30
0.0
 10
18.7904597759
 20
38.1165161058
 30
0.0
 10
18.9128815152
 20
38.1295184469
 30
0.0
 10
19.0087472907
 20
38.1618422527
 30
0.0
 10
19.0766719175
 20
38.199695383
 30
0.0
 10
19.1351169287
 20
38.2429483886
 30
0.0
 10
19.1712961934
 20
38.2836897574
 30
0.0
 10
19.1898322159
 20
38.3132761685
 30
0.0
  0
SPLINE
  5
2B8
100
AcDbEntity
  8
0
100
AcDbSpline
 62
7
  6
CONTINUOUS
 70
0
 71
3
 72
17
 73
13
 74
0
 42
0.0000001
 43
0.0000001
 44
0.0000000001
 40
0.0
 40
0.0
 40
0.0
 40
0.0
 40
0.1136303464
 40
0.173891873
 40
0.2362615964
 40
0.3660409309
 40
0.5000027753
 40
0.6339641937
 40
0.7637422976
 40
0.8261114349
 40
0.8863718986
 40
1.0
 40
1.0
 40
1.0
 40
1.0
 10
14.5810815387
 20
38.3132749139
 30
0.0
 10
14.5996178411
 20
38.283687864
 30
0.0
 10
14.6357990055
 20
38.2429467223
 30
0.0
 10
14.694244902
 20
38.1996930108
 30
0.0
 10
14.7621707449
 20
38.161840151
 30
0.0
 10
14.8580375011
 20
38.1295171336
 30
0.0
 10
14.9804597759
 20
38.1165161058
 30
0.0
 10
15.1028815152
 20
38.1295184469
 30
0.0
 10
15.1987472907
 20
38.1618422527
 30
0.0
 10
15.2666719175
 20
38.199695383
 30
0.0
 10
15.3251169287
 20
38.2429483886
 30
0.0
 10
15.3612961934
 20
38.2836897574
 30
0.0
 10
15.3798322159
 20
38.3132761685
 30
0.0
  0
SPLINE
  5
2B9
100
AcDbEntity
  8
0
100
AcDbSpline
 62
7
  6
CONTINUOUS
 70
0
 71
3
 72
12
 73
8
 74
0
 42
0.0000001
 43
0.0000001
 44
0.0000000001
 40
0.0
 40
0.0
 40
0.0
 40
0.0
 40
0.2498808525
 40
0.3750150725
 40
0.5001015979
 40
0.7500879738
 40
1.0
 40
1.0
 40
1.0
 40
1.0
 10
9.6705071678
 20
39.392475362
 30
0.0
 10
9.6709468223
 20
39.3532797921
 30
0.0
 10
9.6759363579
 20
39.2943809736
 30
0.0
 10
9.6912655875
 20
39.2173882665
 30
0.0
 10
9.7124438502
 20
39.1417596419
 30
0.0
 10
9.7501450801
 20
39.0507725921
 30
0.0
 10
9.7926170148
 20
38.9842086129
 30
0.0
 10
9.8169015006
 20
38.9534330847
 30
0.0
  0
SPLINE
  5
2BA
100
AcDbEntity
  8
0
100
AcDbSpline
 62
7
  6
CONTINUOUS
 70
0
 71
3
 72
17
 73
13
 74
0
 42
0.0000001
 43
0.0000001
 44
0.0000000001
 40
0.0
 40
0.0
 40
0.0
 40
0.0
 40
0.1136437606
 40
0.1739097376
 40
0.2362803291
 40
0.3660521216
 40
0.4999931097
 40
0.6339349491
 40
0.7637101768
 40
0.8260822671
 40
0.8863510051
 40
1.0
 40
1.0
 40
1.0
 40
1.0
 10
26.8098304718
 20
38.3132749139
 30
0.0
 10
26.79129197
 20
38.2836847479
 30
0.0
 10
26.7551058022
 20
38.2429409528
 30
0.0
 10
26.6966541046
 20
38.1996864033
 30
0.0
 10
26.628726809
 20
38.1618390975
 30
0.0
 10
26.5328692335
 20
38.1295193423
 30
0.0
 10
26.4104628179
 20
38.116521882
 30
0.0
 10
26.2880551492
 20
38.1295171942
 30
0.0
 10
26.1921950961
 20
38.1618350093
 30
0.0
 10
26.1242647321
 20
38.1996819151
 30
0.0
 10
26.065811372
 20
38.2429390218
 30
0.0
 10
26.0296219938
 20
38.2836833018
 30
0.0
 10
26.0110827708
 20
38.3132749139
 30
0.0
  0
SPLINE
  5
2BB
100
AcDbEntity
  8
0
100
AcDbSpline
 62
7
  6
CONTINUOUS
 70
0
 71
3
 72
17
 73
13
 74
0
 42
0.0000001
 43
0.0000001
 44
0.0000000001
 40
0.0
 40
0.0
 40
0.0
 40
0.0
 40
0.1136303464
 40
0.173891873
 40
0.2362615964
 40
0.3660409309
 40
0.5000027753
 40
0.6339641937
 40
0.7637422976
 40
0.8261114349
 40
0.8863718986
 40
1.0
 40
1.0
 40
1.0
 40
1.0
 10
33.6310815387
 20
38.3132749139
 30
0.0
 10
33.6496178411
 20
38.283687864
 30
0.0
 10
33.6857990055
 20
38.2429467223
 30
0.0
 10
33.744244902
 20
38.1996930108
 30
0.0
 10
33.8121707449
 20
38.161840151
 30
0.0
 10
33.9080375011
 20
38.1295171336
 30
0.0
 10
34.0304597759
 20
38.1165161058
 30
0.0
 10
34.1528815152
 20
38.1295184469
 30
0.0
 10
34.2487472907
 20
38.1618422527
 30
0.0
 10
34.3166719175
 20
38.199695383
 30
0.0
 10
34.3751169287
 20
38.2429483886
 30
0.0
 10
34.4112961934
 20
38.2836897574
 30
0.0
 10
34.4298322159
 20
38.3132761685
 30
0.0
  0
SPLINE
  5
2BC
100
AcDbEntity
  8
0
100
AcDbSpline
 62
7
  6
CONTINUOUS
 70
0
 71
3
 72
17
 73
13
 74
0
 42
0.0000001
 43
0.0000001
 44
0.0000000001
 40
0.0
 40
0.0
 40
0.0
 40
0.0
 40
0.1136303464
 40
0.173891873
 40
0.2362615964
 40
0.3660409309
 40
0.5000027753
 40
0.6339641937
 40
0.7637422976
 40
0.8261114349
 40
0.8863718986
 40
1.0
 40
1.0
 40
1.0
 40
1.0
 10
29.8210815387
 20
38.3132749139
 30
0.0
 10
29.8396178411
 20
38.283687864
 30
0.0
 10
29.8757990055
 20
38.2429467223
 30
0.0
 10
29.934244902
 20
38.1996930108
 30
0.0
 10
30.0021707449
 20
38.161840151
 30
0.0
 10
30.0980375011
 20
38.1295171336
 30
0.0
 10
30.2204597759
 20
38.1165161058
 30
0.0
 10
30.3428815152
 20
38.1295184469
 30
0.0
 10
30.4387472907
 20
38.1618422527
 30
0.0
 10
30.5066719175
 20
38.199695383
 30
0.0
 10
30.5651169287
 20
38.2429483886
 30
0.0
 10
30.6012961934
 20
38.2836897574
 30
0.0
 10
30.6198322159
 20
38.3132761685
 30
0.0
  0
SPLINE
  5
2BD
100
AcDbEntity
  8
0
100
AcDbSpline
 62
7
  6
CONTINUOUS
 70
0
 71
3
 72
12
 73
8
 74
0
 42
0.0000001
 43
0.0000001
 44
0.0000000001
 40
0.0
 40
0.0
 40
0.0
 40
0.0
 40
0.2498808525
 40
0.3750150725
 40
0.5001015979
 40
0.7500879738
 40
1.0
 40
1.0
 40
1.0
 40
1.0
 10
24.9105071678
 20
39.392475362
 30
0.0
 10
24.9109468223
 20
39.3532797921
 30
0.0
 10
24.9159363579
 20
39.2943809736
 30
0.0
 10
24.9312655875
 20
39.2173882665
 30
0.0
 10
24.9524438502
 20
39.1417596419
 30
0.0
 10
24.9901450801
 20
39.0507725921
 30
0.0
 10
25.0326170148
 20
38.9842086129
 30
0.0
 10
25.0569015006
 20
38.9534330847
 30
0.0
  0
SPLINE
  5
2BE
100
AcDbEntity
  8
0
100
AcDbSpline
 62
7
  6
CONTINUOUS
 70
0
 71
3
 72
24
 73
20
 74
0
 42
0.0000001
 43
0.0000001
 44
0.0000000001
 40
0.0
 40
0.0
 40
0.0
 40
0.0
 40
0.1819358352
 40
0.3680369334
 40
0.5471213509
 40
0.6301880397
 40
0.7069919451
 40
0.7762146212
 40
0.8368628706
 40
0.8881325735
 40
0.9296508986
 40
0.9466832212
 40
0.9612541757
 40
0.9734065849
 40
0.9831834622
 40
0.9906366024
 40
0.9958525448
 40
0.9989300884
 40
1.0
 40
1.0
 40
1.0
 40
1.0
 10
39.6960665704
 20
36.9999836361
 30
0.0
 10
39.7142613179
 20
36.999824865
 30
0.0
 10
39.7510676261
 20
36.9995326477
 30
0.0
 10
39.8057842956
 20
36.9991898971
 30
0.0
 10
39.850613716
 20
36.998995988
 30
0.0
 10
39.8845125834
 20
36.9989144131
 30
0.0
 10
39.9074242594
 20
36.9988928589
 30
0.0
 10
39.9280938215
 20
36.9989104383
 30
0.0
 10
39.9462097773
 20
36.998965439
 30
0.0
 10
39.9615544098
 20
36.9990570558
 30
0.0
 10
39.9725378298
 20
36.9991651336
 30
0.0
 10
39.9798487616
 20
36.9992734983
 30
0.0
 10
39.9842267323
 20
36.9993548629
 30
0.0
 10
39.9878683057
 20
36.9994460221
 30
0.0
 10
39.9908264073
 20
36.9995316394
 30
0.0
 10
39.9930167885
 20
36.9996480705
 30
0.0
 10
39.9947041022
 20
36.9997044654
 30
0.0
 10
39.9954366817
 20
36.9998718114
 30
0.0
 10
39.9960542065
 20
36.9998766381
 30
0.0
 10
39.9960551473
 20
36.9999836361
 30
0.0
  0
SPLINE
  5
2BF
100
AcDbEntity
  8
0
100
AcDbSpline
 62
7
  6
CONTINUOUS
 70
0
 71
3
 72
24
 73
20
 74
0
 42
0.0000001
 43
0.0000001
 44
0.0000000001
 40
0.0
 40
0.0
 40
0.0
 40
0.0
 40
0.0010699119
 40
0.0041474556
 40
0.0093633972
 40
0.0168165344
 40
0.0265934107
 40
0.0387458214
 40
0.0533167751
 40
0.0703490893
 40
0.1118674119
 40
0.1631371038
 40
0.2237853465
 40
0.2930080154
 40
0.3698119101
 40
0.4528786002
 40
0.6319630183
 40
0.8180641321
 40
1.0
 40
1.0
 40
1.0
 40
1.0
 10
5.2048581705
 20
36.9999836361
 30
0.0
 10
5.2048591114
 20
36.9998766381
 30
0.0
 10
5.2054766359
 20
36.9998718115
 30
0.0
 10
5.2062092152
 20
36.9997044655
 30
0.0
 10
5.2078965279
 20
36.9996480706
 30
0.0
 10
5.2100869079
 20
36.9995316395
 30
0.0
 10
5.2130450082
 20
36.9994460222
 30
0.0
 10
5.2166865803
 20
36.9993548631
 30
0.0
 10
5.2210645487
 20
36.9992734985
 30
0.0
 10
5.2283754768
 20
36.9991651337
 30
0.0
 10
5.2393588908
 20
36.999057056
 30
0.0
 10
5.254703516
 20
36.9989654391
 30
0.0
 10
5.272819463
 20
36.9989104384
 30
0.0
 10
5.2934890154
 20
36.9988928589
 30
0.0
 10
5.3164006819
 20
36.998914413
 30
0.0
 10
5.3502995366
 20
36.9989959878
 30
0.0
 10
5.3951289432
 20
36.9991898968
 30
0.0
 10
5.4498455986
 20
36.999532647
 30
0.0
 10
5.4866518989
 20
36.9998248643
 30
0.0
 10
5.5048466433
 20
36.9999836352
 30
0.0
  0
ELLIPSE
  5
2C0
100
AcDbEntity
  8
0
100
AcDbEllipse
 62
7
  6
CONTINUOUS
 10
17.7904566589
 20
39.401481637
 30
0.0
 11
-0.0
 21
0.6336395349
 31
0.0
 40
0.789092177
 41
-4.6981749394
 42
-3.9269908169
  0
ELLIPSE
  5
2C1
100
AcDbEntity
  8
0
100
AcDbEllipse
 62
7
  6
CONTINUOUS
 10
19.7904566589
 20
39.401481637
 30
0.0
 11
0.0
 21
0.6336395349
 31
0.0
 40
0.789092177
 41
-2.3561944902
 42
-1.5850103678
  0
ELLIPSE
  5
2C2
100
AcDbEntity
  8
0
100
AcDbEllipse
 62
7
  6
CONTINUOUS
 10
15.9804566589
 20
39.401481637
 30
0.0
 11
0.0
 21
0.6336395349
 31
0.0
 40
0.789092177
 41
-2.3561944902
 42
-1.5850103678
  0
ELLIPSE
  5
2C3
100
AcDbEntity
  8
0
100
AcDbEllipse
 62
7
  6
CONTINUOUS
 10
12.1704566589
 20
39.401481637
 30
0.0
 11
0.0
 21
0.6336395349
 31
0.0
 40
0.789092177
 41
-2.3561944902
 42
-1.5850103678
  0
ELLIPSE
  5
2C4
100
AcDbEntity
  8
0
100
AcDbEllipse
 62
7
  6
CONTINUOUS
 10
13.9804566589
 20
39.401481637
 30
0.0
 11
0.0
 21
0.6336395349
 31
0.0
 40
0.789092177
 41
-4.6981749394
 42
-3.926990817
  0
ELLIPSE
  5
2C5
100
AcDbEntity
  8
0
100
AcDbEllipse
 62
7
  6
CONTINUOUS
 10
33.0304566589
 20
39.401481637
 30
0.0
 11
-0.0
 21
0.6336395349
 31
0.0
 40
0.789092177
 41
-4.6981749394
 42
-3.9269908169
  0
ELLIPSE
  5
2C6
100
AcDbEntity
  8
0
100
AcDbEllipse
 62
7
  6
CONTINUOUS
 10
35.0304566589
 20
39.401481637
 30
0.0
 11
0.0
 21
0.6336395349
 31
0.0
 40
0.789092177
 41
-2.3561944902
 42
-1.5850103678
  0
ELLIPSE
  5
2C7
100
AcDbEntity
  8
0
100
AcDbEllipse
 62
7
  6
CONTINUOUS
 10
31.2204566589
 20
39.401481637
 30
0.0
 11
0.0
 21
0.6336395349
 31
0.0
 40
0.789092177
 41
-2.3561944902
 42
-1.5850103678
  0
ELLIPSE
  5
2C8
100
AcDbEntity
  8
0
100
AcDbEllipse
 62
7
  6
CONTINUOUS
 10
27.4104566589
 20
39.401481637
 30
0.0
 11
0.0
 21
0.6336395349
 31
0.0
 40
0.789092177
 41
-2.3561944902
 42
-1.5850103678
  0
ELLIPSE
  5
2C9
100
AcDbEntity
  8
0
100
AcDbEllipse
 62
7
  6
CONTINUOUS
 10
29.2204566589
 20
39.401481637
 30
0.0
 11
0.0
 21
0.6336395349
 31
0.0
 40
0.789092177
 41
-4.6981749394
 42
-3.926990817
  0
ENDSEC
  0
SECTION
  2
OBJECTS
  0
DICTIONARY
  5
C
100
AcDbDictionary
280
0
281
1
  3
ACAD_GROUP
350
D
  3
ACAD_MLINESTYLE
350
17
  3
ACAD_LAYOUT
350
1A
  3
ACAD_PLOTSETTINGS
350
19
  3
ACAD_PLOTSTYLENAME
350
E
  0
DICTIONARY
  5
D
102
{ACAD_REACTORS
330
C
102
}
100
AcDbDictionary
280
0
281
1
  0
ACDBDICTIONARYWDFLT
  5
E
102
{ACAD_REACTORS
330
C
102
}
100
AcDbDictionary
281
1
  3
Normal
350
F
100
AcDbDictionaryWithDefault
340
F
  0
DICTIONARY
  5
17
102
{ACAD_REACTORS
330
C
102
}
100
AcDbDictionary
280
0
281
1
  3
Standard
350
18
  0
DICTIONARY
  5
19
102
{ACAD_REACTORS
330
C
102
}
100
AcDbDictionary
281
1
  0
DICTIONARY
  5
1A
102
{ACAD_REACTORS
330
C
102
}
100
AcDbDictionary
281
1
  3
Model
350
2CA
  3
Layout1
350
2CB
  0
ACDBPLACEHOLDER
  5
F
102
{ACAD_REACTORS
330
E
102
}
  0
MLINESTYLE
  5
18
102
{ACAD_REACTORS
330
17
102
}
100
AcDbMlineStyle
  2
STANDARD
 70
0
  3

 62
256
 51
90.0
 52
90.0
 71
2
 49
0.5
 62
256
  6
BYLAYER
 49
-0.5
 62
256
  6
BYLAYER
  0
LAYOUT
  5
2CA
102
{ACAD_REACTORS
330
1A
102
}
100
AcDbPlotSettings
  1

  2
none_device
  4

  6

 40
0.0
 41
0.0
 42
0.0
 43
0.0
 44
210.0
 45
297.0
 46
0.0
 47
0.0
 48
0.0
 49
0.0
140
0.0
141
0.0
142
1.0
143
1.0
 70
1024
 72
1
 73
0
 74
0
  7

 75
0
147
1.0
148
0.0
149
0.0
100
AcDbLayout
  1
Model
 70
0
 71
0
 10
0.0
 20
0.0
 11
210.0
 21
297.0
 12
0.0
 22
0.0
 32
0.0
 14
0.0
 24
0.0
 34
0.0
 15
0.0
 25
0.0
 35
0.0
146
0.0
 13
0.0
 23
0.0
 33
0.0
 16
1.0
 26
0.0
 36
0.0
 17
0.0
 27
1.0
 37
0.0
 76
0
330
210
345
0
346
0
  0
LAYOUT
  5
2CB
102
{ACAD_REACTORS
330
1A
102
}
100
AcDbPlotSettings
  1

  2
none_device
  4

  6

 40
0.0
 41
0.0
 42
0.0
 43
0.0
 44
210.0
 45
297.0
 46
0.0
 47
0.0
 48
0.0
 49
0.0
140
0.0
141
0.0
142
1.0
143
1.0
 70
0
 72
1
 73
0
 74
0
  7

 75
0
147
1.0
148
0.0
149
0.0
100
AcDbLayout
  1
Layout1
 70
0
 71
1
 10
0.0
 20
0.0
 11
210.0
 21
297.0
 12
0.0
 22
0.0
 32
0.0
 14
0.0
 24
0.0
 34
0.0
 15
0.0
 25
0.0
 35
0.0
146
0.0
 13
0.0
 23
0.0
 33
0.0
 16
1.0
 26
0.0
 36
0.0
 17
0.0
 27
1.0
 37
0.0
 76
0
330
211
345
0
346
0
  0
ENDSEC
  0
EOF
