999
DXF file: C:\Users\sesa63760\Dev\_Creo\CAD\MCADUE0002463_3D-CAD\drw0001_1.dxf
999
Pro/ENGINEER 2019471 by Parametric Technology Corporation
  0
SECTION
  2
HEADER
  9
$ACADVER
  1
AC1024
  9
$DWGCODEPAGE
  3
ANSI_1252
  9
$EXTMAX
 10
386.5451766605
 20
546.6853212769
 30
0.0
  9
$EXTMIN
 10
0.0
 20
0.0
 30
0.0
  9
$LIMMIN
 10
0.0
 20
0.0
  9
$LIMMAX
 10
386.5451766605
 20
546.6853212769
  9
$VIEWCTR
 10
193.2725883302
 20
273.3426606385
  9
$VIEWSIZE
 40
546.6853212769
  9
$CLAYER
  8
0
  9
$LTSCALE
 40
35.6357839055
  9
$CELTYPE
  6
BYLAYER
  9
$DIMSCALE
 40
1.0
  9
$DIMASZ
 40
4.6017282936
  9
$DIMEXO
 40
1.0
  9
$DIMDLI
 40
24.621087062
  9
$DIMEXE
 40
1.0
  9
$DIMCEN
 40
5.8313100936
  9
$DIMLFAC
 40
1.0
  9
$DIMBLK
  1
_FILLED
  9
$DIMALT
 70
0
  9
$DIMALTF
 40
0.0393700787
  9
$DIMTXT
 40
6.442419611
  9
$DIMTOL
 70
1
  9
$DIMLIM
 70
0
  9
$DIMTFAC
 40
1.0
  9
$DIMTP
 40
0.01
  9
$DIMTM
 40
0.01
  9
$DIMGAP
 40
0.625
  9
$DIMDSEP
 70
46
  9
$AUNITS
 70
0
  9
$PDMODE
 70
3
  9
$PDSIZE
 40
0.3125
  9
$HANDSEED
  5
404
  9
$TILEMODE
 70
1
  9
$MEASUREMENT
 70
1
  9
$INSUNITS
 70
4
  0
ENDSEC
  0
SECTION
  2
CLASSES
  0
CLASS
  1
ACDBDICTIONARYWDFLT
  2
AcDbDictionaryWithDefault
  3
AutoCAD 2000
 90
0
 91
1
280
0
281
0
  0
CLASS
  1
ACDBPLACEHOLDER
  2
AcDbPlaceHolder
  3
AutoCAD 2000
 90
0
 91
1
280
0
281
0
  0
CLASS
  1
LAYOUT
  2
AcDbLayout
  3
AutoCAD 2000
 90
0
 91
0
280
0
281
0
  0
ENDSEC
  0
SECTION
  2
TABLES
  0
TABLE
  2
VPORT
  5
8
100
AcDbSymbolTable
 70
2
  0
VPORT
  5
1F4
100
AcDbSymbolTableRecord
100
AcDbViewportTableRecord
  2
*ACTIVE
 70
0
 10
0.0
 20
0.0
 11
1.0
 21
1.0
 12
193.2725883302
 22
273.3426606385
 13
0.0
 23
0.0
 14
1.0
 24
1.0
 15
0.0
 25
0.0
 16
0.0
 26
0.0
 36
1.0
 17
0.0
 27
0.0
 37
0.0
 40
546.6853212769
 41
0.7070707071
 42
50.0
 43
0.0
 44
0.0
 50
0.0
 51
0.0
 71
0
 72
100
 73
1
 74
1
 75
0
 76
0
 77
0
 78
0
  0
ENDTAB
  0
TABLE
  2
LTYPE
  5
5
100
AcDbSymbolTable
 70
6
  0
LTYPE
  5
14
100
AcDbSymbolTableRecord
100
AcDbLinetypeTableRecord
  2
BYBLOCK
 70
0
  3

 72
65
 73
0
 40
0.0
  0
LTYPE
  5
15
100
AcDbSymbolTableRecord
100
AcDbLinetypeTableRecord
  2
BYLAYER
 70
0
  3

 72
65
 73
0
 40
0.0
  0
LTYPE
  5
16
100
AcDbSymbolTableRecord
100
AcDbLinetypeTableRecord
  2
CONTINUOUS
 70
64
  3
Solid line
 72
65
 73
0
 40
0.0
  0
LTYPE
  5
1F5
100
AcDbSymbolTableRecord
100
AcDbLinetypeTableRecord
  2
CENTER
 70
64
  3
____ _ ____ _ ____ _ ____ _ ____ _ ____ _ ____
 72
65
 73
4
 40
0.6
 49
0.375
 74
0
 49
-0.075
 74
0
 49
0.075
 74
0
 49
-0.075
 74
0
  0
LTYPE
  5
1F6
100
AcDbSymbolTableRecord
100
AcDbLinetypeTableRecord
  2
HIDDEN
 70
64
  3
- - - - - - - - - - - - - - - - - - - -
 72
65
 73
2
 40
0.2
 49
0.1
 74
0
 49
-0.1
 74
0
  0
LTYPE
  5
1F7
100
AcDbSymbolTableRecord
100
AcDbLinetypeTableRecord
  2
PHANTOM
 70
64
  3
_____ _ _ _____ _ _ _____ _ _ _____
 72
65
 73
6
 40
0.8
 49
0.45
 74
0
 49
-0.05
 74
0
 49
0.1
 74
0
 49
-0.05
 74
0
 49
0.1
 74
0
 49
-0.05
 74
0
  0
LTYPE
  5
1F8
100
AcDbSymbolTableRecord
100
AcDbLinetypeTableRecord
  2
DOT
 70
64
  3
. . . . . . . . . . . . . . . . . . . .
 72
65
 73
2
 40
0.2
 49
0.1
 74
0
 49
-0.1
 74
0
  0
LTYPE
  5
1F9
100
AcDbSymbolTableRecord
100
AcDbLinetypeTableRecord
  2
DASHED
 70
64
  3
- - - - - - - - - - - - - - - - - - - -
 72
65
 73
2
 40
0.2
 49
0.1
 74
0
 49
-0.1
 74
0
  0
ENDTAB
  0
TABLE
  2
LAYER
  5
2
100
AcDbSymbolTable
 70
36
  0
LAYER
  5
10
100
AcDbSymbolTableRecord
100
AcDbLayerTableRecord
  2
0
 70
0
 62
7
  6
CONTINUOUS
370
-3
390
F
  0
LAYER
  5
1FA
100
AcDbSymbolTableRecord
100
AcDbLayerTableRecord
  2
DEFAULT_1
 70
0
 62
7
  6
CENTER
370
-3
390
F
  0
LAYER
  5
1FB
100
AcDbSymbolTableRecord
100
AcDbLayerTableRecord
  2
DEFAULT_2
 70
0
 62
8
  6
HIDDEN
370
-3
390
F
  0
LAYER
  5
1FC
100
AcDbSymbolTableRecord
100
AcDbLayerTableRecord
  2
DEFAULT_3
 70
0
 62
7
  6
PHANTOM
370
-3
390
F
  0
LAYER
  5
1FD
100
AcDbSymbolTableRecord
100
AcDbLayerTableRecord
  2
00_COMPONENTS
 70
0
 62
7
  6
CONTINUOUS
370
-3
390
F
  0
LAYER
  5
1FE
100
AcDbSymbolTableRecord
100
AcDbLayerTableRecord
  2
01_1_DEFAULT_DATUMS
 70
0
 62
7
  6
CONTINUOUS
370
-3
390
F
  0
LAYER
  5
1FF
100
AcDbSymbolTableRecord
100
AcDbLayerTableRecord
  2
01_PLANES
 70
0
 62
7
  6
CONTINUOUS
370
-3
390
F
  0
LAYER
  5
200
100
AcDbSymbolTableRecord
100
AcDbLayerTableRecord
  2
02_COORD_SYS
 70
0
 62
7
  6
CONTINUOUS
370
-3
390
F
  0
LAYER
  5
201
100
AcDbSymbolTableRecord
100
AcDbLayerTableRecord
  2
03_AXES
 70
0
 62
7
  6
CONTINUOUS
370
-3
390
F
  0
LAYER
  5
202
100
AcDbSymbolTableRecord
100
AcDbLayerTableRecord
  2
04_POINTS
 70
0
 62
7
  6
CONTINUOUS
370
-3
390
F
  0
LAYER
  5
203
100
AcDbSymbolTableRecord
100
AcDbLayerTableRecord
  2
05_CURVES
 70
0
 62
7
  6
CONTINUOUS
370
-3
390
F
  0
LAYER
  5
204
100
AcDbSymbolTableRecord
100
AcDbLayerTableRecord
  2
06_SURFS
 70
0
 62
7
  6
CONTINUOUS
370
-3
390
F
  0
LAYER
  5
205
100
AcDbSymbolTableRecord
100
AcDbLayerTableRecord
  2
07_COSMETICS
 70
0
 62
7
  6
CONTINUOUS
370
-3
390
F
  0
LAYER
  5
206
100
AcDbSymbolTableRecord
100
AcDbLayerTableRecord
  2
10_NOTES
 70
0
 62
7
  6
CONTINUOUS
370
-3
390
F
  0
LAYER
  5
207
100
AcDbSymbolTableRecord
100
AcDbLayerTableRecord
  2
11_NOTES_PUB
 70
0
 62
7
  6
CONTINUOUS
370
-3
390
F
  0
LAYER
  5
208
100
AcDbSymbolTableRecord
100
AcDbLayerTableRecord
  2
13_REF_GTOL
 70
0
 62
7
  6
CONTINUOUS
370
-3
390
F
  0
LAYER
  5
209
100
AcDbSymbolTableRecord
100
AcDbLayerTableRecord
  2
16_MISC
 70
0
 62
7
  6
CONTINUOUS
370
-3
390
F
  0
LAYER
  5
20A
100
AcDbSymbolTableRecord
100
AcDbLayerTableRecord
  2
17_NO_PRINT
 70
0
 62
7
  6
CONTINUOUS
370
-3
390
F
  0
LAYER
  5
20B
100
AcDbSymbolTableRecord
100
AcDbLayerTableRecord
  2
18_DATUM_CAMS_JOINTS
 70
0
 62
7
  6
CONTINUOUS
370
-3
390
F
  0
LAYER
  5
20C
100
AcDbSymbolTableRecord
100
AcDbLayerTableRecord
  2
19_DATUM_FUNCTIONAL
 70
0
 62
7
  6
CONTINUOUS
370
-3
390
F
  0
LAYER
  5
20D
100
AcDbSymbolTableRecord
100
AcDbLayerTableRecord
  2
20_DATUM_KINEMATIC_SCHEME
 70
0
 62
7
  6
CONTINUOUS
370
-3
390
F
  0
ENDTAB
  0
TABLE
  2
STYLE
  5
3
100
AcDbSymbolTable
 70
1
  0
STYLE
  5
11
100
AcDbSymbolTableRecord
100
AcDbTextStyleTableRecord
  2
STANDARD
 70
0
 40
0.0
 41
0.8
 50
0.0
 71
0
 42
0.2
  3
txt
  4

  0
STYLE
  5
20E
100
AcDbSymbolTableRecord
100
AcDbTextStyleTableRecord
  2
TEXTSTYLE_1
 70
0
 40
0.0
 41
0.8
 50
0.0
 71
0
 42
0.2
  3
gdt
  4

  0
ENDTAB
  0
TABLE
  2
VIEW
  5
6
100
AcDbSymbolTable
 70
0
  0
ENDTAB
  0
TABLE
  2
UCS
  5
7
100
AcDbSymbolTable
 70
0
  0
ENDTAB
  0
TABLE
  2
APPID
  5
9
100
AcDbSymbolTable
 70
1
  0
APPID
  5
20F
100
AcDbSymbolTableRecord
100
AcDbRegAppTableRecord
  2
ACAD
 70
0
  0
ENDTAB
  0
TABLE
  2
BLOCK_RECORD
  5
1
100
AcDbSymbolTable
 70
0
  0
BLOCK_RECORD
  5
210
100
AcDbSymbolTableRecord
100
AcDbBlockTableRecord
  2
*Model_Space
  0
BLOCK_RECORD
  5
211
100
AcDbSymbolTableRecord
100
AcDbBlockTableRecord
  2
*Paper_Space
  0
BLOCK_RECORD
  5
212
100
AcDbSymbolTableRecord
100
AcDbBlockTableRecord
  2
_FILLED
  0
ENDTAB
  0
TABLE
  2
DIMSTYLE
  5
A
100
AcDbSymbolTable
 70
1
100
AcDbDimStyleTable
 71
0
  0
DIMSTYLE
105
213
100
AcDbSymbolTableRecord
100
AcDbDimStyleTableRecord
  2
STANDARD
 70
0
  3

  4

 40
1.0
 41
4.6017282936
 42
1.0
 43
0.38
 44
1.0
 45
0.0
 46
0.0
 47
0.01
 48
0.01
140
6.442419611
141
0.09
142
0.0
143
25.4
144
1.0
145
0.0
146
1.0
147
0.625
 71
1
 72
0
 73
0
 74
0
 75
0
 76
0
 77
1
 78
8
 79
2
170
0
171
1
172
0
173
0
174
0
175
0
176
0
177
0
178
0
270
2
179
2
271
2
272
2
273
2
274
2
275
0
280
0
281
0
282
0
283
1
284
8
285
0
286
0
287
3
288
0
340
11
278
46
341
212
342
212
343
212
344
212
  0
ENDTAB
  0
ENDSEC
  0
SECTION
  2
BLOCKS
  0
BLOCK
  5
20
100
AcDbEntity
  8
0
100
AcDbBlockBegin
  2
*Model_Space
 70
0
 10
0.0
 20
0.0
 30
0.0
  3
*Model_Space
  1

  0
ENDBLK
  5
21
100
AcDbEntity
  8
0
100
AcDbBlockEnd
  0
BLOCK
  5
1C
100
AcDbEntity
  8
0
100
AcDbBlockBegin
  2
*Paper_Space
 70
0
 10
0.0
 20
0.0
 30
0.0
  3
*Paper_Space
  1

  0
ENDBLK
  5
1D
100
AcDbEntity
  8
0
100
AcDbBlockEnd
  0
BLOCK
  5
214
100
AcDbEntity
  8
0
100
AcDbBlockBegin
  2
_FILLED
 70
64
 10
0.0
 20
0.0
  3
_FILLED
  1

  0
SOLID
  5
215
100
AcDbEntity
  8
0
  6
BYBLOCK
 62
0
100
AcDbTrace
 10
0.0
 20
0.0
 11
-1.0
 21
0.25
 12
-1.0
 22
-0.25
 13
-1.0
 23
-0.25
  0
ENDBLK
  5
216
100
AcDbEntity
  8
0
  6
BYBLOCK
 62
0
100
AcDbBlockEnd
  0
ENDSEC
  0
SECTION
  2
ENTITIES
  0
LINE
  5
217
100
AcDbEntity
  8
0
100
AcDbLine
 62
7
  6
CONTINUOUS
 10
45.4714777685
 20
388.9721974682
 11
46.1158363732
 21
390.278576172
  0
LINE
  5
218
100
AcDbEntity
  8
0
100
AcDbLine
 62
7
  6
CONTINUOUS
 10
44.8436878005
 20
364.3960565375
 11
45.1542658288
 21
365.06526076
  0
LINE
  5
219
100
AcDbEntity
  8
0
100
AcDbLine
 62
7
  6
CONTINUOUS
 10
45.5785316639
 20
365.3102177576
 11
44.8436878005
 21
364.3960565375
  0
LINE
  5
21A
100
AcDbEntity
  8
0
100
AcDbLine
 62
7
  6
CONTINUOUS
 10
46.1158363732
 20
390.278576172
 11
135.7766099974
 21
442.0439558934
  0
LINE
  5
21B
100
AcDbEntity
  8
0
100
AcDbLine
 62
7
  6
CONTINUOUS
 10
44.8436878005
 20
227.2236504597
 11
44.8436878005
 21
364.3960565375
  0
LINE
  5
21C
100
AcDbEntity
  8
0
100
AcDbLine
 62
7
  6
CONTINUOUS
 10
45.4714777685
 20
388.5639440949
 11
45.4714777685
 21
365.1770404604
  0
LINE
  5
21D
100
AcDbEntity
  8
0
100
AcDbLine
 62
7
  6
CONTINUOUS
 10
46.1158493267
 20
365.0000042783
 11
46.1158493267
 21
387.6658069564
  0
LINE
  5
21E
100
AcDbEntity
  8
0
100
AcDbLine
 62
7
  6
CONTINUOUS
 10
234.3490941399
 20
117.8151282483
 11
235.5082038383
 21
117.9944435654
  0
LINE
  5
21F
100
AcDbEntity
  8
0
100
AcDbLine
 62
7
  6
CONTINUOUS
 10
236.7426706045
 20
127.4729169001
 11
237.742631945
 21
127.5719350958
  0
LINE
  5
220
100
AcDbEntity
  8
0
100
AcDbLine
 62
7
  6
CONTINUOUS
 10
257.4002222471
 20
105.975558196
 11
255.9466918116
 21
106.0707138998
  0
LINE
  5
221
100
AcDbEntity
  8
0
100
AcDbLine
 62
7
  6
CONTINUOUS
 10
234.3490941399
 20
117.8151282482
 11
235.0839380032
 21
117.7494865678
  0
LINE
  5
222
100
AcDbEntity
  8
0
100
AcDbLine
 62
7
  6
CONTINUOUS
 10
49.7512555905
 20
360.0442660196
 11
49.7512555905
 21
230.0570812126
  0
LINE
  5
223
100
AcDbEntity
  8
0
100
AcDbLine
 62
7
  6
CONTINUOUS
 10
51.8762900376
 20
231.2839786194
 11
51.8762900376
 21
358.7308366091
  0
LINE
  5
224
100
AcDbEntity
  8
0
100
AcDbLine
 62
7
  6
CONTINUOUS
 10
58.2074256267
 20
366.7226987212
 11
58.2074256267
 21
364.109922027
  0
LINE
  5
225
100
AcDbEntity
  8
0
100
AcDbLine
 62
7
  6
CONTINUOUS
 10
59.0559631848
 20
354.5857441595
 11
59.0559631848
 21
235.4291401004
  0
LINE
  5
226
100
AcDbEntity
  8
0
100
AcDbLine
 62
7
  6
CONTINUOUS
 10
59.7003217895
 20
235.8011494022
 11
59.7003217895
 21
354.2137319616
  0
LINE
  5
227
100
AcDbEntity
  8
0
100
AcDbLine
 62
7
  6
CONTINUOUS
 10
52.9325326797
 20
361.0644793429
 11
59.0559631848
 21
364.5998224903
  0
LINE
  5
228
100
AcDbEntity
  8
0
100
AcDbLine
 62
7
  6
CONTINUOUS
 10
132.5948829577
 20
406.8942729386
 11
114.2101831901
 21
396.2799249379
  0
LINE
  5
229
100
AcDbEntity
  8
0
100
AcDbLine
 62
7
  6
CONTINUOUS
 10
114.2101831901
 20
395.3001220374
 11
132.5948829577
 21
405.914470038
  0
LINE
  5
22A
100
AcDbEntity
  8
0
100
AcDbLine
 62
7
  6
CONTINUOUS
 10
151.934326073
 20
399.1980874271
 11
157.9447086894
 21
402.668162735
  0
LINE
  5
22B
100
AcDbEntity
  8
0
100
AcDbLine
 62
7
  6
CONTINUOUS
 10
143.1813137181
 20
390.6804671075
 11
152.7272155205
 21
396.1917631848
  0
LINE
  5
22C
100
AcDbEntity
  8
0
100
AcDbLine
 62
7
  6
CONTINUOUS
 10
147.1812958106
 20
383.7522535383
 11
156.727197613
 21
389.2635496156
  0
LINE
  5
22D
100
AcDbEntity
  8
0
100
AcDbLine
 62
7
  6
CONTINUOUS
 10
158.9342947349
 20
387.073713681
 11
164.9446773512
 21
390.5437889889
  0
LINE
  5
22E
100
AcDbEntity
  8
0
100
AcDbLine
 62
7
  6
CONTINUOUS
 10
234.3490941399
 20
117.8151282483
 11
44.8436878005
 21
227.2236504597
  0
LINE
  5
22F
100
AcDbEntity
  8
0
100
AcDbLine
 62
7
  6
CONTINUOUS
 10
235.3390458671
 20
117.9682746745
 11
255.5931311857
 21
106.2748376045
  0
LINE
  5
230
100
AcDbEntity
  8
0
100
AcDbLine
 62
7
  6
CONTINUOUS
 10
255.1374840801
 20
107.2819671297
 11
235.5646367956
 21
118.5821001351
  0
LINE
  5
231
100
AcDbEntity
  8
0
100
AcDbLine
 62
7
  6
CONTINUOUS
 10
49.7512555905
 20
230.0570812125
 11
233.0340963486
 21
124.2410776409
  0
LINE
  5
232
100
AcDbEntity
  8
0
100
AcDbLine
 62
7
  6
CONTINUOUS
 10
232.9591307957
 20
126.7381169055
 11
51.8762900376
 21
231.2839786194
  0
LINE
  5
233
100
AcDbEntity
  8
0
100
AcDbLine
 62
7
  6
CONTINUOUS
 10
235.6819843243
 20
128.0852404584
 11
236.742648912
 21
127.4728793266
  0
LINE
  5
234
100
AcDbEntity
  8
0
100
AcDbLine
 62
7
  6
CONTINUOUS
 10
236.3284242705
 20
128.3884516223
 11
235.5082038383
 21
128.8619953966
  0
LINE
  5
235
100
AcDbEntity
  8
0
100
AcDbLine
 62
7
  6
CONTINUOUS
 10
58.9815221448
 20
364.8760877461
 11
59.0559631848
 21
364.5998224903
  0
LINE
  5
236
100
AcDbEntity
  8
0
100
AcDbLine
 62
7
  6
CONTINUOUS
 10
240.9598919345
 20
129.4294099292
 11
243.0459077801
 21
128.2250753649
  0
LINE
  5
237
100
AcDbEntity
  8
0
100
AcDbLine
 62
7
  6
CONTINUOUS
 10
59.0559631848
 20
235.4291401004
 11
232.9591307957
 21
135.0283708361
  0
LINE
  5
238
100
AcDbEntity
  8
0
100
AcDbLine
 62
7
  6
CONTINUOUS
 10
235.5082038383
 20
134.2801310625
 11
236.2196515137
 21
133.8693858479
  0
LINE
  5
239
100
AcDbEntity
  8
0
100
AcDbLine
 62
7
  6
CONTINUOUS
 10
232.9591307957
 20
135.7723923358
 11
59.7003217895
 21
235.8011494022
  0
LINE
  5
23A
100
AcDbEntity
  8
0
100
AcDbLine
 62
7
  6
CONTINUOUS
 10
114.2101831901
 20
232.979441512
 11
114.2101831901
 21
233.9592444126
  0
LINE
  5
23B
100
AcDbEntity
  8
0
100
AcDbLine
 62
7
  6
CONTINUOUS
 10
114.2101831901
 20
395.3001220374
 11
114.2101831901
 21
396.2799249379
  0
LINE
  5
23C
100
AcDbEntity
  8
0
100
AcDbLine
 62
7
  6
CONTINUOUS
 10
114.2102891729
 20
219.2625160615
 11
232.9591307957
 21
150.7043913766
  0
LINE
  5
23D
100
AcDbEntity
  8
0
100
AcDbLine
 62
7
  6
CONTINUOUS
 10
236.6819673572
 20
158.762311749
 11
237.742631945
 21
158.1499506173
  0
LINE
  5
23E
100
AcDbEntity
  8
0
100
AcDbLine
 62
7
  6
CONTINUOUS
 10
235.5082038383
 20
161.4112221273
 11
238.2426298633
 21
159.8324796399
  0
LINE
  5
23F
100
AcDbEntity
  8
0
100
AcDbLine
 62
7
  6
CONTINUOUS
 10
238.0022119478
 20
154.2128449644
 11
239.0475879717
 21
153.5917824654
  0
LINE
  5
240
100
AcDbEntity
  8
0
100
AcDbLine
 62
7
  6
CONTINUOUS
 10
241.7522865605
 20
129.886896449
 11
241.8337416435
 21
129.8187745412
  0
LINE
  5
241
100
AcDbEntity
  8
0
100
AcDbLine
 62
7
  6
CONTINUOUS
 10
46.1158493267
 20
387.6658069564
 11
45.4714777685
 21
388.9721974682
  0
LINE
  5
242
100
AcDbEntity
  8
0
100
AcDbLine
 62
7
  6
CONTINUOUS
 10
132.5948829577
 20
406.8942729386
 11
132.5948829577
 21
405.914470038
  0
LINE
  5
243
100
AcDbEntity
  8
0
100
AcDbLine
 62
7
  6
CONTINUOUS
 10
132.5948829577
 20
244.5735924132
 11
132.5948829577
 21
243.5937895127
  0
LINE
  5
244
100
AcDbEntity
  8
0
100
AcDbLine
 62
7
  6
CONTINUOUS
 10
135.7766099975
 20
407.3742257187
 11
135.7766099975
 21
369.1321571336
  0
LINE
  5
245
100
AcDbEntity
  8
0
100
AcDbLine
 62
7
  6
CONTINUOUS
 10
135.7766099974
 20
310.2920601268
 11
135.7766099974
 21
279.723275368
  0
LINE
  5
246
100
AcDbEntity
  8
0
100
AcDbLine
 62
7
  6
CONTINUOUS
 10
137.1908235598
 20
280.5397811845
 11
137.1908235598
 21
309.4755820171
  0
LINE
  5
247
100
AcDbEntity
  8
0
100
AcDbLine
 62
7
  6
CONTINUOUS
 10
137.1908235598
 20
368.3156790238
 11
137.1908235598
 21
407.6592180348
  0
LINE
  5
248
100
AcDbEntity
  8
0
100
AcDbLine
 62
7
  6
CONTINUOUS
 10
236.7426706045
 20
212.3891682816
 11
237.742631945
 21
212.4881864772
  0
LINE
  5
249
100
AcDbEntity
  8
0
100
AcDbLine
 62
7
  6
CONTINUOUS
 10
235.5082038383
 20
166.8293577931
 11
236.3284242705
 21
166.3558140188
  0
LINE
  5
24A
100
AcDbEntity
  8
0
100
AcDbLine
 62
7
  6
CONTINUOUS
 10
237.742631945
 20
168.8053071608
 11
236.6819673572
 21
169.4176682926
  0
LINE
  5
24B
100
AcDbEntity
  8
0
100
AcDbLine
 62
7
  6
CONTINUOUS
 10
243.3994626427
 20
172.0712603918
 11
243.0459077801
 21
172.275380769
  0
LINE
  5
24C
100
AcDbEntity
  8
0
100
AcDbLine
 62
7
  6
CONTINUOUS
 10
46.1158493267
 20
387.6658069564
 11
58.2074256267
 21
366.7226987212
  0
LINE
  5
24D
100
AcDbEntity
  8
0
100
AcDbLine
 62
7
  6
CONTINUOUS
 10
142.3528717518
 20
285.9700158943
 11
142.3528658639
 21
286.7864940037
  0
LINE
  5
24E
100
AcDbEntity
  8
0
100
AcDbLine
 62
7
  6
CONTINUOUS
 10
142.3528717518
 20
388.0328180355
 11
142.3528658639
 21
388.8492961449
  0
LINE
  5
24F
100
AcDbEntity
  8
0
100
AcDbLine
 62
7
  6
CONTINUOUS
 10
158.0507270802
 20
243.593850701
 11
232.9591307957
 21
200.3464420384
  0
LINE
  5
250
100
AcDbEntity
  8
0
100
AcDbLine
 62
7
  6
CONTINUOUS
 10
232.9591307957
 20
201.3262449389
 11
158.0507270802
 21
244.5736536016
  0
LINE
  5
251
100
AcDbEntity
  8
0
100
AcDbLine
 62
7
  6
CONTINUOUS
 10
255.9466918116
 20
106.0707138998
 11
255.1374840801
 21
107.2819671297
  0
LINE
  5
252
100
AcDbEntity
  8
0
100
AcDbLine
 62
7
  6
CONTINUOUS
 10
158.0507270802
 20
243.593850701
 11
158.0507270802
 21
244.5736536016
  0
LINE
  5
253
100
AcDbEntity
  8
0
100
AcDbLine
 62
7
  6
CONTINUOUS
 10
158.0507270802
 20
405.9145312264
 11
158.0507270802
 21
406.8943341269
  0
LINE
  5
254
100
AcDbEntity
  8
0
100
AcDbLine
 62
7
  6
CONTINUOUS
 10
151.934326073
 20
297.1352852859
 11
155.2497994409
 21
299.0494633012
  0
LINE
  5
255
100
AcDbEntity
  8
0
100
AcDbLine
 62
7
  6
CONTINUOUS
 10
143.1813137181
 20
288.6176649663
 11
152.7272155205
 21
294.1289610436
  0
LINE
  5
256
100
AcDbEntity
  8
0
100
AcDbLine
 62
7
  6
CONTINUOUS
 10
49.7512555905
 20
230.0570812125
 11
44.8436878005
 21
227.2236504597
  0
LINE
  5
257
100
AcDbEntity
  8
0
100
AcDbLine
 62
7
  6
CONTINUOUS
 10
59.0559631848
 20
235.4291401004
 11
51.8762900376
 21
231.2839786194
  0
LINE
  5
258
100
AcDbEntity
  8
0
100
AcDbLine
 62
7
  6
CONTINUOUS
 10
135.7766099974
 20
279.723275368
 11
59.7005619665
 21
235.8010107391
  0
LINE
  5
259
100
AcDbEntity
  8
0
100
AcDbLine
 62
7
  6
CONTINUOUS
 10
147.1812958106
 20
281.6894513971
 11
156.727197613
 21
287.2007474744
  0
LINE
  5
25A
100
AcDbEntity
  8
0
100
AcDbLine
 62
7
  6
CONTINUOUS
 10
158.9342947349
 20
285.0109115398
 11
164.9446773512
 21
288.4809868477
  0
LINE
  5
25B
100
AcDbEntity
  8
0
100
AcDbLine
 62
7
  6
CONTINUOUS
 10
235.6819843243
 20
213.0014918399
 11
236.742648912
 21
212.3891307081
  0
LINE
  5
25C
100
AcDbEntity
  8
0
100
AcDbLine
 62
7
  6
CONTINUOUS
 10
236.3284242705
 20
213.3047030037
 11
235.5082038383
 21
213.7782467781
  0
LINE
  5
25D
100
AcDbEntity
  8
0
100
AcDbLine
 62
7
  6
CONTINUOUS
 10
44.8436878005
 20
364.3960565374
 11
49.7512555905
 21
360.0442660196
  0
LINE
  5
25E
100
AcDbEntity
  8
0
100
AcDbLine
 62
7
  6
CONTINUOUS
 10
45.1542658288
 20
365.06526076
 11
45.2701740277
 21
364.9624790517
  0
LINE
  5
25F
100
AcDbEntity
  8
0
100
AcDbLine
 62
7
  6
CONTINUOUS
 10
255.1374840801
 20
107.2819671297
 11
243.0459077801
 21
128.2250753649
  0
LINE
  5
260
100
AcDbEntity
  8
0
100
AcDbLine
 62
7
  6
CONTINUOUS
 10
235.5082038383
 20
255.1668496431
 11
234.3490941399
 21
254.987534326
  0
LINE
  5
261
100
AcDbEntity
  8
0
100
AcDbLine
 62
7
  6
CONTINUOUS
 10
235.5082038383
 20
219.1963824439
 11
236.2196515137
 21
218.7856372294
  0
LINE
  5
262
100
AcDbEntity
  8
0
100
AcDbLine
 62
7
  6
CONTINUOUS
 10
135.7766099974
 20
279.723275368
 11
232.9591307957
 21
223.6161901365
  0
LINE
  5
263
100
AcDbEntity
  8
0
100
AcDbLine
 62
7
  6
CONTINUOUS
 10
232.9591307957
 20
225.2491740627
 11
137.1908235598
 21
280.5397811845
  0
LINE
  5
264
100
AcDbEntity
  8
0
100
AcDbLine
 62
7
  6
CONTINUOUS
 10
144.4742009272
 20
282.2958067765
 11
145.1813047644
 21
281.8875485132
  0
LINE
  5
265
100
AcDbEntity
  8
0
100
AcDbLine
 62
7
  6
CONTINUOUS
 10
49.7512555905
 20
360.0442660196
 11
50.1929491423
 21
359.7026919419
  0
LINE
  5
266
100
AcDbEntity
  8
0
100
AcDbLine
 62
7
  6
CONTINUOUS
 10
236.3284242705
 20
128.3884516223
 11
236.7426706045
 21
127.4729169001
  0
LINE
  5
267
100
AcDbEntity
  8
0
100
AcDbLine
 62
7
  6
CONTINUOUS
 10
132.5948829577
 20
244.5735924132
 11
114.2101831901
 21
233.9592444126
  0
LINE
  5
268
100
AcDbEntity
  8
0
100
AcDbLine
 62
7
  6
CONTINUOUS
 10
114.2101831901
 20
232.979441512
 11
132.5948829577
 21
243.5937895127
  0
LINE
  5
269
100
AcDbEntity
  8
0
100
AcDbLine
 62
7
  6
CONTINUOUS
 10
236.6819673572
 20
243.6785631305
 11
237.742631945
 21
243.0662019987
  0
LINE
  5
26A
100
AcDbEntity
  8
0
100
AcDbLine
 62
7
  6
CONTINUOUS
 10
235.5082038383
 20
246.3274735087
 11
238.2426298633
 21
244.7487310215
  0
LINE
  5
26B
100
AcDbEntity
  8
0
100
AcDbLine
 62
7
  6
CONTINUOUS
 10
235.5082038383
 20
251.7456091746
 11
236.3284242705
 21
251.2720654003
  0
LINE
  5
26C
100
AcDbEntity
  8
0
100
AcDbLine
 62
7
  6
CONTINUOUS
 10
50.1929478822
 20
359.7026926694
 11
232.9591307957
 21
254.1849748952
  0
LINE
  5
26D
100
AcDbEntity
  8
0
100
AcDbLine
 62
7
  6
CONTINUOUS
 10
233.0340963486
 20
254.2282624479
 11
49.7512555905
 21
360.0442660196
  0
LINE
  5
26E
100
AcDbEntity
  8
0
100
AcDbLine
 62
7
  6
CONTINUOUS
 10
238.0022119478
 20
239.1290963458
 11
239.0475879717
 21
238.5080338468
  0
LINE
  5
26F
100
AcDbEntity
  8
0
100
AcDbLine
 62
7
  6
CONTINUOUS
 10
236.7657575746
 20
132.0813310829
 11
235.5082038383
 21
136.198800401
  0
LINE
  5
270
100
AcDbEntity
  8
0
100
AcDbLine
 62
7
  6
CONTINUOUS
 10
266.9458838218
 20
308.0999219616
 11
285.3305835894
 21
318.7142699622
  0
LINE
  5
271
100
AcDbEntity
  8
0
100
AcDbLine
 62
7
  6
CONTINUOUS
 10
346.2124642012
 20
320.5515073482
 11
346.9588964377
 21
320.8645857444
  0
LINE
  5
272
100
AcDbEntity
  8
0
100
AcDbLine
 62
7
  6
CONTINUOUS
 10
44.8436878005
 20
364.3960565375
 11
234.3490941399
 21
254.987534326
  0
LINE
  5
273
100
AcDbEntity
  8
0
100
AcDbLine
 62
7
  6
CONTINUOUS
 10
237.742631945
 20
253.7215585423
 11
236.6819673572
 21
254.3339196741
  0
LINE
  5
274
100
AcDbEntity
  8
0
100
AcDbLine
 62
7
  6
CONTINUOUS
 10
235.0839380032
 20
255.9016955461
 11
45.5785316639
 21
365.3102177576
  0
LINE
  5
275
100
AcDbEntity
  8
0
100
AcDbLine
 62
7
  6
CONTINUOUS
 10
243.3994626427
 20
256.9875117732
 11
243.0459077801
 21
257.1916321505
  0
LINE
  5
276
100
AcDbEntity
  8
0
100
AcDbLine
 62
7
  6
CONTINUOUS
 10
240.7831625476
 20
258.702145678
 11
241.6316942177
 21
258.2122567726
  0
LINE
  5
277
100
AcDbEntity
  8
0
100
AcDbLine
 62
7
  6
CONTINUOUS
 10
59.0559631848
 20
364.5998224903
 11
240.7831625476
 21
259.6819485785
  0
LINE
  5
278
100
AcDbEntity
  8
0
100
AcDbLine
 62
7
  6
CONTINUOUS
 10
243.0459077801
 20
260.0085654896
 11
58.2074256267
 21
366.7226987212
  0
LINE
  5
279
100
AcDbEntity
  8
0
100
AcDbLine
 62
7
  6
CONTINUOUS
 10
236.3284242705
 20
213.3047030037
 11
236.7426706045
 21
212.3891682816
  0
LINE
  5
27A
100
AcDbEntity
  8
0
100
AcDbLine
 62
7
  6
CONTINUOUS
 10
235.5082038383
 20
156.1214593792
 11
236.7657575748
 21
152.0039900605
  0
LINE
  5
27B
100
AcDbEntity
  8
0
100
AcDbLine
 62
7
  6
CONTINUOUS
 10
238.2429681199
 20
152.1543751946
 11
236.6181574648
 21
157.474313283
  0
LINE
  5
27C
100
AcDbEntity
  8
0
100
AcDbLine
 62
7
  6
CONTINUOUS
 10
233.0340963486
 20
124.2410776409
 11
234.3490941399
 21
117.8151282483
  0
LINE
  5
27D
100
AcDbEntity
  8
0
100
AcDbLine
 62
7
  6
CONTINUOUS
 10
235.0415089302
 20
117.9568230959
 11
235.0839380032
 21
117.7494865678
  0
LINE
  5
27E
100
AcDbEntity
  8
0
100
AcDbLine
 62
7
  6
CONTINUOUS
 10
232.9591307957
 20
124.79436003
 11
233.0340963486
 21
124.2410776409
  0
LINE
  5
27F
100
AcDbEntity
  8
0
100
AcDbLine
 62
7
  6
CONTINUOUS
 10
46.1158493267
 20
387.6658069564
 11
255.1374840801
 21
266.9898399202
  0
LINE
  5
280
100
AcDbEntity
  8
0
100
AcDbLine
 62
7
  6
CONTINUOUS
 10
258.2487539173
 20
267.8063498159
 11
257.4002222471
 21
268.2962387213
  0
LINE
  5
281
100
AcDbEntity
  8
0
100
AcDbLine
 62
7
  6
CONTINUOUS
 10
46.5572107139
 20
390.0237543424
 11
46.1158363732
 21
390.278576172
  0
LINE
  5
282
100
AcDbEntity
  8
0
100
AcDbLine
 62
7
  6
CONTINUOUS
 10
257.4002222471
 20
269.2760416219
 11
46.9643680434
 21
390.7684901671
  0
LINE
  5
283
100
AcDbEntity
  8
0
100
AcDbLine
 62
7
  6
CONTINUOUS
 10
236.7657575746
 20
216.9975824644
 11
235.5082038383
 21
221.1150517824
  0
LINE
  5
284
100
AcDbEntity
  8
0
100
AcDbLine
 62
7
  6
CONTINUOUS
 10
235.5082038383
 20
241.0377107606
 11
236.7657575748
 21
236.920241442
  0
LINE
  5
285
100
AcDbEntity
  8
0
100
AcDbLine
 62
7
  6
CONTINUOUS
 10
238.2429681199
 20
237.0706265761
 11
236.6181574648
 21
242.3905646645
  0
LINE
  5
286
100
AcDbEntity
  8
0
100
AcDbLine
 62
7
  6
CONTINUOUS
 10
232.9591307957
 20
254.1849748952
 11
232.9591307957
 21
124.7943585748
  0
LINE
  5
287
100
AcDbEntity
  8
0
100
AcDbLine
 62
7
  6
CONTINUOUS
 10
233.0340963486
 20
124.2410776409
 11
233.0340963486
 21
254.2282624479
  0
LINE
  5
288
100
AcDbEntity
  8
0
100
AcDbLine
 62
7
  6
CONTINUOUS
 10
234.3490941399
 20
254.987534326
 11
234.3490941399
 21
117.8151282483
  0
LINE
  5
289
100
AcDbEntity
  8
0
100
AcDbLine
 62
7
  6
CONTINUOUS
 10
235.5082038383
 20
117.9944435654
 11
235.5082038383
 21
255.1668496431
  0
LINE
  5
28A
100
AcDbEntity
  8
0
100
AcDbLine
 62
7
  6
CONTINUOUS
 10
236.3284242705
 20
218.4294946041
 11
236.3284242705
 21
213.3047030037
  0
LINE
  5
28B
100
AcDbEntity
  8
0
100
AcDbLine
 62
7
  6
CONTINUOUS
 10
236.3284242705
 20
133.5132432227
 11
236.3284242705
 21
128.3884516223
  0
LINE
  5
28C
100
AcDbEntity
  8
0
100
AcDbLine
 62
7
  6
CONTINUOUS
 10
236.3284242705
 20
160.9376783529
 11
236.3284242705
 21
166.3558140188
  0
LINE
  5
28D
100
AcDbEntity
  8
0
100
AcDbLine
 62
7
  6
CONTINUOUS
 10
236.3284242705
 20
245.8539297344
 11
236.3284242705
 21
251.2720654003
  0
LINE
  5
28E
100
AcDbEntity
  8
0
100
AcDbLine
 62
7
  6
CONTINUOUS
 10
236.6481059153
 20
157.474313283
 11
236.6481059153
 21
157.5180294915
  0
LINE
  5
28F
100
AcDbEntity
  8
0
100
AcDbLine
 62
7
  6
CONTINUOUS
 10
236.6481059153
 20
242.3905646645
 11
236.6481059153
 21
242.434280873
  0
LINE
  5
290
100
AcDbEntity
  8
0
100
AcDbLine
 62
7
  6
CONTINUOUS
 10
236.7657575747
 20
236.9202414423
 11
236.7657575747
 21
216.9975824645
  0
LINE
  5
291
100
AcDbEntity
  8
0
100
AcDbLine
 62
7
  6
CONTINUOUS
 10
236.7657575747
 20
152.0039900609
 11
236.7657575747
 21
132.081331083
  0
LINE
  5
292
100
AcDbEntity
  8
0
100
AcDbLine
 62
7
  6
CONTINUOUS
 10
238.0022119479
 20
152.9426565401
 11
238.0022119479
 21
154.2128449643
  0
LINE
  5
293
100
AcDbEntity
  8
0
100
AcDbLine
 62
7
  6
CONTINUOUS
 10
238.0022119479
 20
237.8589079215
 11
238.0022119479
 21
239.1290963458
  0
LINE
  5
294
100
AcDbEntity
  8
0
100
AcDbLine
 62
7
  6
CONTINUOUS
 10
239.0475879717
 20
238.5080338468
 11
239.0475879717
 21
236.293844142
  0
LINE
  5
295
100
AcDbEntity
  8
0
100
AcDbLine
 62
7
  6
CONTINUOUS
 10
239.0475879717
 20
153.5917824654
 11
239.0475879717
 21
151.3775927605
  0
LINE
  5
296
100
AcDbEntity
  8
0
100
AcDbLine
 62
7
  6
CONTINUOUS
 10
240.7831625476
 20
259.6819485785
 11
240.7831625476
 21
258.702145678
  0
LINE
  5
297
100
AcDbEntity
  8
0
100
AcDbLine
 62
7
  6
CONTINUOUS
 10
241.6316942177
 20
258.2122567726
 11
241.6316942177
 21
257.1916287512
  0
LINE
  5
298
100
AcDbEntity
  8
0
100
AcDbLine
 62
7
  6
CONTINUOUS
 10
241.6316942177
 20
214.7335242245
 11
241.6316942177
 21
172.2753773697
  0
LINE
  5
299
100
AcDbEntity
  8
0
100
AcDbLine
 62
7
  6
CONTINUOUS
 10
243.0459077801
 20
128.2250753649
 11
243.0459077801
 21
130.3449921643
  0
LINE
  5
29A
100
AcDbEntity
  8
0
100
AcDbLine
 62
7
  6
CONTINUOUS
 10
243.0459077801
 20
172.275380769
 11
243.0459077801
 21
215.2612435458
  0
LINE
  5
29B
100
AcDbEntity
  8
0
100
AcDbLine
 62
7
  6
CONTINUOUS
 10
243.0459077801
 20
257.1916321505
 11
243.0459077801
 21
260.0085654896
  0
LINE
  5
29C
100
AcDbEntity
  8
0
100
AcDbLine
 62
7
  6
CONTINUOUS
 10
243.3994626427
 20
256.9875117732
 11
243.3994626427
 21
239.3062159237
  0
LINE
  5
29D
100
AcDbEntity
  8
0
100
AcDbLine
 62
7
  6
CONTINUOUS
 10
243.3994626427
 20
172.0712603918
 11
243.3994626427
 21
154.3899645422
  0
LINE
  5
29E
100
AcDbEntity
  8
0
100
AcDbLine
 62
7
  6
CONTINUOUS
 10
234.3490941399
 20
254.987534326
 11
235.0839380032
 21
255.9016955461
  0
LINE
  5
29F
100
AcDbEntity
  8
0
100
AcDbLine
 62
7
  6
CONTINUOUS
 10
257.4002222471
 20
269.2760416219
 11
346.2124642012
 21
320.5515073482
  0
LINE
  5
2A0
100
AcDbEntity
  8
0
100
AcDbLine
 62
7
  6
CONTINUOUS
 10
234.6597320424
 20
256.1466054312
 11
240.7831625476
 21
259.6819485785
  0
LINE
  5
2A1
100
AcDbEntity
  8
0
100
AcDbLine
 62
7
  6
CONTINUOUS
 10
347.0609829179
 20
320.0615799235
 11
257.4002222471
 21
268.2962387214
  0
LINE
  5
2A2
100
AcDbEntity
  8
0
100
AcDbLine
 62
7
  6
CONTINUOUS
 10
255.9860086848
 20
267.4797329049
 11
243.0459077801
 21
260.0085654896
  0
LINE
  5
2A3
100
AcDbEntity
  8
0
100
AcDbLine
 62
7
  6
CONTINUOUS
 10
240.7831625476
 20
258.702145678
 11
233.0340963486
 21
254.2282624479
  0
LINE
  5
2A4
100
AcDbEntity
  8
0
100
AcDbLine
 62
7
  6
CONTINUOUS
 10
258.2487539173
 20
267.8063498159
 11
347.0609958714
 21
319.0818155422
  0
LINE
  5
2A5
100
AcDbEntity
  8
0
100
AcDbLine
 62
7
  6
CONTINUOUS
 10
235.5082038383
 20
254.676879057
 11
241.6316942177
 21
258.2122567726
  0
LINE
  5
2A6
100
AcDbEntity
  8
0
100
AcDbLine
 62
7
  6
CONTINUOUS
 10
236.6819673572
 20
254.3339196741
 11
241.6316942177
 21
257.1916287512
  0
LINE
  5
2A7
100
AcDbEntity
  8
0
100
AcDbLine
 62
7
  6
CONTINUOUS
 10
237.742631945
 20
253.7215585423
 11
243.3994626427
 21
256.9875117732
  0
LINE
  5
2A8
100
AcDbEntity
  8
0
100
AcDbLine
 62
7
  6
CONTINUOUS
 10
236.6819673572
 20
243.6785631305
 11
235.5874413276
 21
243.0466420047
  0
LINE
  5
2A9
100
AcDbEntity
  8
0
100
AcDbLine
 62
7
  6
CONTINUOUS
 10
245.2902844887
 20
237.3508331334
 11
245.2902844887
 21
217.4281741554
  0
LINE
  5
2AA
100
AcDbEntity
  8
0
100
AcDbLine
 62
7
  6
CONTINUOUS
 10
245.2902844887
 20
152.4345817519
 11
245.2902844887
 21
132.5119227739
  0
LINE
  5
2AB
100
AcDbEntity
  8
0
100
AcDbLine
 62
7
  6
CONTINUOUS
 10
255.1374840801
 20
266.9898399202
 11
255.1374840801
 21
107.2819671297
  0
LINE
  5
2AC
100
AcDbEntity
  8
0
100
AcDbLine
 62
7
  6
CONTINUOUS
 10
257.4002222471
 20
105.975558196
 11
257.4002222471
 21
106.4852339207
  0
LINE
  5
2AD
100
AcDbEntity
  8
0
100
AcDbLine
 62
7
  6
CONTINUOUS
 10
257.4002222471
 20
268.2962387214
 11
257.4002222471
 21
269.2760416219
  0
LINE
  5
2AE
100
AcDbEntity
  8
0
100
AcDbLine
 62
7
  6
CONTINUOUS
 10
258.2487539173
 20
106.4654721911
 11
258.2487539173
 21
267.8063498159
  0
LINE
  5
2AF
100
AcDbEntity
  8
0
100
AcDbLine
 62
7
  6
CONTINUOUS
 10
235.5082038383
 20
219.751663607
 11
235.7805410527
 21
220.2233681176
  0
LINE
  5
2B0
100
AcDbEntity
  8
0
100
AcDbLine
 62
7
  6
CONTINUOUS
 10
347.705354476
 20
319.5716961585
 11
347.0609958714
 21
319.0818155422
  0
LINE
  5
2B1
100
AcDbEntity
  8
0
100
AcDbLine
 62
7
  6
CONTINUOUS
 10
236.6481059153
 20
242.434280873
 11
237.742631945
 21
243.0662019987
  0
LINE
  5
2B2
100
AcDbEntity
  8
0
100
AcDbLine
 62
7
  6
CONTINUOUS
 10
114.2102891729
 20
381.5831965869
 11
241.4900396994
 21
308.0998607732
  0
LINE
  5
2B3
100
AcDbEntity
  8
0
100
AcDbLine
 62
7
  6
CONTINUOUS
 10
242.3805531459
 20
215.1658755474
 11
237.742631945
 21
212.4881864772
  0
LINE
  5
2B4
100
AcDbEntity
  8
0
100
AcDbLine
 62
7
  6
CONTINUOUS
 10
144.4742009272
 20
384.3586089177
 11
145.1813047644
 21
383.9503506544
  0
LINE
  5
2B5
100
AcDbEntity
  8
0
100
AcDbLine
 62
7
  6
CONTINUOUS
 10
285.3304776066
 20
333.4109983133
 11
285.3304776066
 21
332.4311954127
  0
LINE
  5
2B6
100
AcDbEntity
  8
0
100
AcDbLine
 62
7
  6
CONTINUOUS
 10
235.5082038383
 20
134.8354122255
 11
235.7805410527
 21
135.3071167361
  0
LINE
  5
2B7
100
AcDbEntity
  8
0
100
AcDbLine
 62
7
  6
CONTINUOUS
 10
158.0507270802
 20
405.9145312264
 11
285.3304776066
 21
332.4311954127
  0
LINE
  5
2B8
100
AcDbEntity
  8
0
100
AcDbLine
 62
7
  6
CONTINUOUS
 10
285.3304776066
 20
333.4109983133
 11
158.0507270802
 21
406.8943341269
  0
LINE
  5
2B9
100
AcDbEntity
  8
0
100
AcDbLine
 62
7
  6
CONTINUOUS
 10
236.6819673572
 20
169.4176682926
 11
241.6316942177
 21
172.2753773697
  0
LINE
  5
2BA
100
AcDbEntity
  8
0
100
AcDbLine
 62
7
  6
CONTINUOUS
 10
237.742631945
 20
168.8053071608
 11
243.3994626427
 21
172.0712603918
  0
LINE
  5
2BB
100
AcDbEntity
  8
0
100
AcDbLine
 62
7
  6
CONTINUOUS
 10
236.6819673572
 20
158.762311749
 11
235.5874413276
 21
158.1303906233
  0
LINE
  5
2BC
100
AcDbEntity
  8
0
100
AcDbLine
 62
7
  6
CONTINUOUS
 10
236.6481059153
 20
157.5180294915
 11
237.742631945
 21
158.1499506173
  0
LINE
  5
2BD
100
AcDbEntity
  8
0
100
AcDbLine
 62
7
  6
CONTINUOUS
 10
346.2124642012
 20
319.5717044476
 11
347.0609958714
 21
319.0818155422
  0
LINE
  5
2BE
100
AcDbEntity
  8
0
100
AcDbLine
 62
7
  6
CONTINUOUS
 10
135.7766099974
 20
442.0439558934
 11
346.2124642012
 21
320.5515073482
  0
LINE
  5
2BF
100
AcDbEntity
  8
0
100
AcDbLine
 62
7
  6
CONTINUOUS
 10
346.9588964393
 20
320.8645857435
 11
137.2301404319
 21
441.9488001902
  0
LINE
  5
2C0
100
AcDbEntity
  8
0
100
AcDbLine
 62
7
  6
CONTINUOUS
 10
347.0609829179
 20
320.0615799235
 11
347.705354476
 21
319.5716961585
  0
LINE
  5
2C1
100
AcDbEntity
  8
0
100
AcDbLine
 62
7
  6
CONTINUOUS
 10
346.2124642012
 20
320.5515073482
 11
346.2124642012
 21
319.5717044476
  0
LINE
  5
2C2
100
AcDbEntity
  8
0
100
AcDbLine
 62
7
  6
CONTINUOUS
 10
347.0609958714
 20
319.0818155422
 11
347.0609958714
 21
157.7409379174
  0
LINE
  5
2C3
100
AcDbEntity
  8
0
100
AcDbLine
 62
7
  6
CONTINUOUS
 10
347.705354476
 20
159.0473166215
 11
347.705354476
 21
319.571696158
  0
LINE
  5
2C4
100
AcDbEntity
  8
0
100
AcDbLine
 62
7
  6
CONTINUOUS
 10
235.5082038383
 20
126.4859995676
 11
236.8614031415
 21
127.2672648861
  0
LINE
  5
2C5
100
AcDbEntity
  8
0
100
AcDbLine
 62
7
  6
CONTINUOUS
 10
242.3805531459
 20
130.2496241659
 11
237.742631945
 21
127.5719350958
  0
LINE
  5
2C6
100
AcDbEntity
  8
0
100
AcDbLine
 62
7
  6
CONTINUOUS
 10
137.230140432
 20
441.9488001901
 11
135.7766099974
 21
442.0439558934
  0
LINE
  5
2C7
100
AcDbEntity
  8
0
100
AcDbLine
 62
7
  6
CONTINUOUS
 10
346.9588964377
 20
320.8645857444
 11
347.0609829179
 21
320.0615799235
  0
LINE
  5
2C8
100
AcDbEntity
  8
0
100
AcDbLine
 62
7
  6
CONTINUOUS
 10
347.0609958714
 20
157.7409379174
 11
257.4002222471
 21
105.975558196
  0
LINE
  5
2C9
100
AcDbEntity
  8
0
100
AcDbLine
 62
7
  6
CONTINUOUS
 10
347.0609958714
 20
157.7409379174
 11
347.705354476
 21
159.0473166222
  0
ARC
  5
2CA
100
AcDbEntity
  8
0
100
AcDbCircle
 62
7
  6
CONTINUOUS
 10
267.6908396587
 20
156.0442373093
 40
36.8288438903
100
AcDbArc
 50
225.2362121251
 51
225.4055592381
  0
ARC
  5
2CB
100
AcDbEntity
  8
0
100
AcDbCircle
 62
7
  6
CONTINUOUS
 10
277.1501738545
 20
319.2363623089
 40
16.3657470142
100
AcDbArc
 50
57.9015266355
 51
60.0103878377
  0
ARC
  5
2CC
100
AcDbEntity
  8
0
100
AcDbCircle
 62
7
  6
CONTINUOUS
 10
122.3904811078
 20
382.1055348673
 40
16.3655310912
100
AcDbArc
 50
119.9900248431
 51
122.0989379333
  0
ARC
  5
2CD
100
AcDbEntity
  8
0
100
AcDbCircle
 62
7
  6
CONTINUOUS
 10
122.3904811079
 20
219.7848543419
 40
16.3655310913
100
AcDbArc
 50
119.9900248431
 51
122.0989379333
  0
ARC
  5
2CE
100
AcDbEntity
  8
0
100
AcDbCircle
 62
7
  6
CONTINUOUS
 10
236.6315300259
 20
124.2681338237
 40
7.6037691624
100
AcDbArc
 50
41.9273415447
 51
44.2296923383
  0
ARC
  5
2CF
100
AcDbEntity
  8
0
100
AcDbCircle
 62
7
  6
CONTINUOUS
 10
248.0108837461
 20
254.2886862411
 40
7.5552823782
100
AcDbArc
 50
135.7654926747
 51
138.171821286
  0
ARC
  5
2D0
100
AcDbEntity
  8
0
100
AcDbCircle
 62
7
  6
CONTINUOUS
 10
115.1065672488
 20
226.6296041014
 40
6.1695137649
100
AcDbArc
 50
189.2373374583
 51
191.0049417306
  0
ARC
  5
2D1
100
AcDbEntity
  8
0
100
AcDbCircle
 62
7
  6
CONTINUOUS
 10
284.4341995304
 20
325.0641073728
 40
6.1695137652
100
AcDbArc
 50
9.2373374583
 51
11.0049417305
  0
ARC
  5
2D2
100
AcDbEntity
  8
0
100
AcDbCircle
 62
7
  6
CONTINUOUS
 10
115.1065672489
 20
388.9502846268
 40
6.169513765
100
AcDbArc
 50
189.2373374583
 51
191.0049417306
  0
ARC
  5
2D3
100
AcDbEntity
  8
0
100
AcDbCircle
 62
7
  6
CONTINUOUS
 10
284.4342177797
 20
326.0812939274
 40
6.1694952938
100
AcDbArc
 50
348.9958657933
 51
350.7626527269
  0
ARC
  5
2D4
100
AcDbEntity
  8
0
100
AcDbCircle
 62
7
  6
CONTINUOUS
 10
115.1065490001
 20
225.6124175468
 40
6.169495294
100
AcDbArc
 50
168.9958657933
 51
170.7626527268
  0
ARC
  5
2D5
100
AcDbEntity
  8
0
100
AcDbCircle
 62
7
  6
CONTINUOUS
 10
115.1065490001
 20
387.9330980722
 40
6.169495294
100
AcDbArc
 50
168.9958657933
 51
170.7626527268
  0
ARC
  5
2D6
100
AcDbEntity
  8
0
100
AcDbCircle
 62
7
  6
CONTINUOUS
 10
284.5128927609
 20
325.0764929084
 40
6.0898528715
100
AcDbArc
 50
4.6807058405
 51
9.241169197
  0
ARC
  5
2D7
100
AcDbEntity
  8
0
100
AcDbCircle
 62
7
  6
CONTINUOUS
 10
115.0278736155
 20
225.62480012
 40
6.0898524905
100
AcDbArc
 50
170.758820301
 51
175.3189426198
  0
ARC
  5
2D8
100
AcDbEntity
  8
0
100
AcDbCircle
 62
7
  6
CONTINUOUS
 10
115.0278736156
 20
387.9454806453
 40
6.0898524905
100
AcDbArc
 50
170.758820301
 51
175.3189426198
  0
ARC
  5
2D9
100
AcDbEntity
  8
0
100
AcDbCircle
 62
7
  6
CONTINUOUS
 10
115.0022100205
 20
226.6134700607
 40
6.0639200037
100
AcDbArc
 50
180.0241812309
 51
189.2451521661
  0
ARC
  5
2DA
100
AcDbEntity
  8
0
100
AcDbCircle
 62
7
  6
CONTINUOUS
 10
115.0022100205
 20
388.934150586
 40
6.0639200037
100
AcDbArc
 50
180.0241812309
 51
189.2451521661
  0
ARC
  5
2DB
100
AcDbEntity
  8
0
100
AcDbCircle
 62
7
  6
CONTINUOUS
 10
284.5385589736
 20
326.0651625643
 40
6.063917789
100
AcDbArc
 50
350.7548371925
 51
359.9758207316
  0
ARC
  5
2DC
100
AcDbEntity
  8
0
100
AcDbCircle
 62
7
  6
CONTINUOUS
 10
158.0174415851
 20
290.6446559073
 40
5.870294599
100
AcDbArc
 50
240.3310411313
 51
241.8507122397
  0
ARC
  5
2DD
100
AcDbEntity
  8
0
100
AcDbCircle
 62
7
  6
CONTINUOUS
 10
158.017441585
 20
392.7074580484
 40
5.8702945989
100
AcDbArc
 50
240.3310411312
 51
241.8507122397
  0
ARC
  5
2DE
100
AcDbEntity
  8
0
100
AcDbCircle
 62
7
  6
CONTINUOUS
 10
160.6202058109
 20
292.5016480438
 40
5.7741447698
100
AcDbArc
 50
0.0042317555
 51
1.1360192022
  0
ARC
  5
2DF
100
AcDbEntity
  8
0
100
AcDbCircle
 62
7
  6
CONTINUOUS
 10
157.9490262557
 20
392.5805626993
 40
5.7261319405
100
AcDbArc
 50
241.85529269
 51
242.2606437057
  0
ARC
  5
2E0
100
AcDbEntity
  8
0
100
AcDbCircle
 62
7
  6
CONTINUOUS
 10
157.9490262551
 20
290.5177605569
 40
5.7261319391
100
AcDbArc
 50
241.85529269
 51
242.2606437057
  0
ARC
  5
2E1
100
AcDbEntity
  8
0
100
AcDbCircle
 62
7
  6
CONTINUOUS
 10
153.3358424019
 20
292.0436558131
 40
3.659354245
100
AcDbArc
 50
168.4745792421
 51
171.8389724127
  0
ARC
  5
2E2
100
AcDbEntity
  8
0
100
AcDbCircle
 62
7
  6
CONTINUOUS
 10
240.5699747315
 20
126.5493821067
 40
2.9819497588
100
AcDbArc
 50
60.0008233134
 51
68.6565762664
  0
ARC
  5
2E3
100
AcDbEntity
  8
0
100
AcDbCircle
 62
7
  6
CONTINUOUS
 10
154.9618934291
 20
287.120269525
 40
1.9723124421
100
AcDbArc
 50
278.159345855
 51
279.0708306118
  0
ARC
  5
2E4
100
AcDbEntity
  8
0
100
AcDbCircle
 62
7
  6
CONTINUOUS
 10
236.287729888
 20
156.9154664235
 40
1.4022998535
100
AcDbArc
 50
119.9593696895
 51
124.3701020388
  0
ARC
  5
2E5
100
AcDbEntity
  8
0
100
AcDbCircle
 62
7
  6
CONTINUOUS
 10
236.2877298881
 20
241.8317178049
 40
1.4022998535
100
AcDbArc
 50
119.9593696896
 51
124.3701020386
  0
ARC
  5
2E6
100
AcDbEntity
  8
0
100
AcDbCircle
 62
7
  6
CONTINUOUS
 10
219.0195748643
 20
153.943440058
 40
0.6427668894
100
AcDbArc
 50
167.8883332548
 51
179.9520256515
  0
ARC
  5
2E7
100
AcDbEntity
  8
0
100
AcDbCircle
 62
7
  6
CONTINUOUS
 10
127.0953105952
 20
207.0147381456
 40
0.6427668894
100
AcDbArc
 50
167.8883332548
 51
179.9520256515
  0
ARC
  5
2E8
100
AcDbEntity
  8
0
100
AcDbCircle
 62
7
  6
CONTINUOUS
 10
118.6097819279
 20
241.307083902
 40
0.6427668894
100
AcDbArc
 50
167.8883332548
 51
179.9520256515
  0
ARC
  5
2E9
100
AcDbEntity
  8
0
100
AcDbCircle
 62
7
  6
CONTINUOUS
 10
178.0067868746
 20
236.4083172244
 40
0.6427668894
100
AcDbArc
 50
167.8883332548
 51
179.9520256515
  0
ARC
  5
2EA
100
AcDbEntity
  8
0
100
AcDbCircle
 62
7
  6
CONTINUOUS
 10
278.4165798111
 20
311.3653539057
 40
0.6427668894
100
AcDbArc
 50
167.8883332548
 51
179.9520256515
  0
ARC
  5
2EB
100
AcDbEntity
  8
0
100
AcDbCircle
 62
7
  6
CONTINUOUS
 10
127.0953105952
 20
369.335418671
 40
0.6427668894
100
AcDbArc
 50
167.8883332548
 51
179.9520256515
  0
ARC
  5
2EC
100
AcDbEntity
  8
0
100
AcDbCircle
 62
7
  6
CONTINUOUS
 10
219.0195748643
 20
316.2641205833
 40
0.6427668894
100
AcDbArc
 50
167.8883332548
 51
179.9520256516
  0
ARC
  5
2ED
100
AcDbEntity
  8
0
100
AcDbCircle
 62
7
  6
CONTINUOUS
 10
118.6097819279
 20
403.6277644273
 40
0.6427668894
100
AcDbArc
 50
167.8883332548
 51
179.9520256515
  0
ARC
  5
2EE
100
AcDbEntity
  8
0
100
AcDbCircle
 62
7
  6
CONTINUOUS
 10
178.0067868746
 20
398.7289977497
 40
0.6427668894
100
AcDbArc
 50
167.8883332548
 51
179.9520256515
  0
ARC
  5
2EF
100
AcDbEntity
  8
0
100
AcDbCircle
 62
7
  6
CONTINUOUS
 10
269.9310511437
 20
345.6576996621
 40
0.6427668894
100
AcDbArc
 50
167.8883332548
 51
179.9520256516
  0
SPLINE
  5
2F0
100
AcDbEntity
  8
0
100
AcDbSpline
 62
7
  6
CONTINUOUS
 70
0
 71
3
 72
9
 73
5
 74
0
 42
0.0000001
 43
0.0000001
 44
0.0000000001
 40
0.0
 40
0.0
 40
0.0
 40
0.0
 40
0.4594134537
 40
1.0
 40
1.0
 40
1.0
 40
1.0
 10
181.1639585793
 20
236.4088555962
 30
0.0
 10
181.1640145603
 20
236.2851502569
 30
0.0
 10
181.0775631161
 20
236.0137570846
 30
0.0
 10
180.8787360036
 20
235.8208254616
 30
0.0
 10
180.761807422
 20
235.7341294542
 30
0.0
  0
SPLINE
  5
2F1
100
AcDbEntity
  8
0
100
AcDbSpline
 62
7
  6
CONTINUOUS
 70
0
 71
3
 72
8
 73
4
 74
0
 42
0.0000001
 43
0.0000001
 44
0.0000000001
 40
0.0
 40
0.0
 40
0.0
 40
0.0
 40
1.0
 40
1.0
 40
1.0
 40
1.0
 10
180.761807422
 20
235.7341294542
 30
0.0
 10
180.7124355259
 20
235.697522953
 30
0.0
 10
180.6607259056
 20
235.66392911
 30
0.0
 10
180.6074978727
 20
235.6331980743
 30
0.0
  0
SPLINE
  5
2F2
100
AcDbEntity
  8
0
100
AcDbSpline
 62
7
  6
CONTINUOUS
 70
0
 71
3
 72
8
 73
4
 74
0
 42
0.0000001
 43
0.0000001
 44
0.0000000001
 40
0.0
 40
0.0
 40
0.0
 40
0.0
 40
1.0
 40
1.0
 40
1.0
 40
1.0
 10
180.9292692406
 20
235.9570557918
 30
0.0
 10
180.8775815342
 20
236.0113340755
 30
0.0
 10
180.8203551837
 20
236.0606155987
 30
0.0
 10
180.7600545752
 20
236.1051306263
 30
0.0
  0
SPLINE
  5
2F3
100
AcDbEntity
  8
0
100
AcDbSpline
 62
7
  6
CONTINUOUS
 70
0
 71
3
 72
8
 73
4
 74
0
 42
0.0000001
 43
0.0000001
 44
0.0000000001
 40
0.0
 40
0.0
 40
0.0
 40
0.0
 40
1.0
 40
1.0
 40
1.0
 40
1.0
 10
180.7600545752
 20
236.1051306263
 30
0.0
 10
180.7128123162
 20
236.1400057381
 30
0.0
 10
180.6634462377
 20
236.1721247038
 30
0.0
 10
180.6126924553
 20
236.2016570255
 30
0.0
  0
SPLINE
  5
2F4
100
AcDbEntity
  8
0
100
AcDbSpline
 62
7
  6
CONTINUOUS
 70
0
 71
3
 72
11
 73
7
 74
0
 42
0.0000001
 43
0.0000001
 44
0.0000000001
 40
0.0
 40
0.0
 40
0.0
 40
0.0
 40
0.2369608633
 40
0.4997120899
 40
0.7626392301
 40
1.0
 40
1.0
 40
1.0
 40
1.0
 10
180.6126924553
 20
236.2016570255
 30
0.0
 10
180.4221448092
 20
236.312531804
 30
0.0
 10
179.9781806262
 20
236.4745057111
 30
0.0
 10
179.267660753
 20
236.5526313844
 30
0.0
 10
178.5565942585
 20
236.4760684573
 30
0.0
 10
178.1117254284
 20
236.3151244519
 30
0.0
 10
177.9204809171
 20
236.2047100409
 30
0.0
  0
SPLINE
  5
2F5
100
AcDbEntity
  8
0
100
AcDbSpline
 62
7
  6
CONTINUOUS
 70
0
 71
3
 72
11
 73
7
 74
0
 42
0.0000001
 43
0.0000001
 44
0.0000000001
 40
0.0
 40
0.0
 40
0.0
 40
0.0
 40
0.2853972519
 40
0.5451517076
 40
0.7812616578
 40
1.0
 40
1.0
 40
1.0
 40
1.0
 10
114.2102891729
 20
219.2625160615
 30
0.0
 10
113.5273559623
 20
219.6567988146
 30
0.0
 10
112.2719840907
 20
220.5021257308
 30
0.0
 10
110.7059346036
 20
222.0066017806
 30
0.0
 10
109.5903301287
 20
223.6560119135
 30
0.0
 10
109.1658680952
 20
224.8586006459
 30
0.0
 10
109.0505063838
 20
225.4518830416
 30
0.0
  0
SPLINE
  5
2F6
100
AcDbEntity
  8
0
100
AcDbSpline
 62
7
  6
CONTINUOUS
 70
0
 71
3
 72
11
 73
7
 74
0
 42
0.0000001
 43
0.0000001
 44
0.0000000001
 40
0.0
 40
0.0
 40
0.0
 40
0.0
 40
0.2371258703
 40
0.499773851
 40
0.7625351413
 40
1.0
 40
1.0
 40
1.0
 40
1.0
 10
180.6074978727
 20
235.6331980743
 30
0.0
 10
180.4172636605
 20
235.5233669563
 30
0.0
 10
179.9749597515
 20
235.3629199511
 30
0.0
 10
179.2675920544
 20
235.2855229711
 30
0.0
 10
178.5597433814
 20
235.3614236587
 30
0.0
 10
178.1166693309
 20
235.5208444713
 30
0.0
 10
177.9257913881
 20
235.6301861315
 30
0.0
  0
SPLINE
  5
2F7
100
AcDbEntity
  8
0
100
AcDbSpline
 62
7
  6
CONTINUOUS
 70
0
 71
3
 72
8
 73
4
 74
0
 42
0.0000001
 43
0.0000001
 44
0.0000000001
 40
0.0
 40
0.0
 40
0.0
 40
0.0
 40
1.0
 40
1.0
 40
1.0
 40
1.0
 10
177.9257913881
 20
235.6301861315
 30
0.0
 10
177.8700381495
 20
235.6621235653
 30
0.0
 10
177.8158935755
 20
235.6971379676
 30
0.0
 10
177.7643154086
 20
235.7354539694
 30
0.0
  0
SPLINE
  5
2F8
100
AcDbEntity
  8
0
100
AcDbSpline
 62
7
  6
CONTINUOUS
 70
0
 71
3
 72
9
 73
5
 74
0
 42
0.0000001
 43
0.0000001
 44
0.0000000001
 40
0.0
 40
0.0
 40
0.0
 40
0.0
 40
0.5399992506
 40
1.0
 40
1.0
 40
1.0
 40
1.0
 10
177.7643154086
 20
235.7354539694
 30
0.0
 10
177.6479230621
 20
235.821918643
 30
0.0
 10
177.4501829807
 20
236.0148219968
 30
0.0
 10
177.3640761049
 20
236.2853414817
 30
0.0
 10
177.3640202105
 20
236.4088554197
 30
0.0
  0
SPLINE
  5
2F9
100
AcDbEntity
  8
0
100
AcDbSpline
 62
7
  6
CONTINUOUS
 70
0
 71
3
 72
11
 73
7
 74
0
 42
0.0000001
 43
0.0000001
 44
0.0000000001
 40
0.0
 40
0.0
 40
0.0
 40
0.0
 40
0.2371258703
 40
0.499773851
 40
0.7625351413
 40
1.0
 40
1.0
 40
1.0
 40
1.0
 10
221.6202858624
 20
153.1683209079
 30
0.0
 10
221.4300516502
 20
153.0584897899
 30
0.0
 10
220.9877477412
 20
152.8980427848
 30
0.0
 10
220.2803800441
 20
152.8206458047
 30
0.0
 10
219.5725313711
 20
152.8965464923
 30
0.0
 10
219.1294573206
 20
153.0559673049
 30
0.0
 10
218.9385793778
 20
153.1653089651
 30
0.0
  0
SPLINE
  5
2FA
100
AcDbEntity
  8
0
100
AcDbSpline
 62
7
  6
CONTINUOUS
 70
0
 71
3
 72
8
 73
4
 74
0
 42
0.0000001
 43
0.0000001
 44
0.0000000001
 40
0.0
 40
0.0
 40
0.0
 40
0.0
 40
1.0
 40
1.0
 40
1.0
 40
1.0
 10
218.9385793778
 20
153.1653089651
 30
0.0
 10
218.8828261392
 20
153.1972463989
 30
0.0
 10
218.8286815652
 20
153.2322608012
 30
0.0
 10
218.7771033983
 20
153.270576803
 30
0.0
  0
SPLINE
  5
2FB
100
AcDbEntity
  8
0
100
AcDbSpline
 62
7
  6
CONTINUOUS
 70
0
 71
3
 72
9
 73
5
 74
0
 42
0.0000001
 43
0.0000001
 44
0.0000000001
 40
0.0
 40
0.0
 40
0.0
 40
0.0
 40
0.5399992506
 40
1.0
 40
1.0
 40
1.0
 40
1.0
 10
218.7771033983
 20
153.270576803
 30
0.0
 10
218.6607110518
 20
153.3570414766
 30
0.0
 10
218.4629709704
 20
153.5499448304
 30
0.0
 10
218.3768640946
 20
153.8204643153
 30
0.0
 10
218.3768082003
 20
153.9439782533
 30
0.0
  0
SPLINE
  5
2FC
100
AcDbEntity
  8
0
100
AcDbSpline
 62
7
  6
CONTINUOUS
 70
0
 71
3
 72
11
 73
7
 74
0
 42
0.0000001
 43
0.0000001
 44
0.0000000001
 40
0.0
 40
0.0
 40
0.0
 40
0.0
 40
0.2371258703
 40
0.499773851
 40
0.7625351413
 40
1.0
 40
1.0
 40
1.0
 40
1.0
 10
129.6960215933
 20
206.2396189956
 30
0.0
 10
129.5057873811
 20
206.1297878776
 30
0.0
 10
129.0634834721
 20
205.9693408724
 30
0.0
 10
128.356115775
 20
205.8919438924
 30
0.0
 10
127.648267102
 20
205.9678445799
 30
0.0
 10
127.2051930515
 20
206.1272653925
 30
0.0
 10
127.0143151087
 20
206.2366070527
 30
0.0
  0
SPLINE
  5
2FD
100
AcDbEntity
  8
0
100
AcDbSpline
 62
7
  6
CONTINUOUS
 70
0
 71
3
 72
8
 73
4
 74
0
 42
0.0000001
 43
0.0000001
 44
0.0000000001
 40
0.0
 40
0.0
 40
0.0
 40
0.0
 40
1.0
 40
1.0
 40
1.0
 40
1.0
 10
127.0143151087
 20
206.2366070527
 30
0.0
 10
126.9585618701
 20
206.2685444866
 30
0.0
 10
126.9044172961
 20
206.3035588889
 30
0.0
 10
126.8528391292
 20
206.3418748907
 30
0.0
  0
SPLINE
  5
2FE
100
AcDbEntity
  8
0
100
AcDbSpline
 62
7
  6
CONTINUOUS
 70
0
 71
3
 72
9
 73
5
 74
0
 42
0.0000001
 43
0.0000001
 44
0.0000000001
 40
0.0
 40
0.0
 40
0.0
 40
0.0
 40
0.5399992506
 40
1.0
 40
1.0
 40
1.0
 40
1.0
 10
126.8528391292
 20
206.3418748907
 30
0.0
 10
126.7364467827
 20
206.4283395642
 30
0.0
 10
126.5387067013
 20
206.621242918
 30
0.0
 10
126.4525998255
 20
206.8917624029
 30
0.0
 10
126.4525439311
 20
207.0152763409
 30
0.0
  0
SPLINE
  5
2FF
100
AcDbEntity
  8
0
100
AcDbSpline
 62
7
  6
CONTINUOUS
 70
0
 71
3
 72
11
 73
7
 74
0
 42
0.0000001
 43
0.0000001
 44
0.0000000001
 40
0.0
 40
0.0
 40
0.0
 40
0.0
 40
0.2371258703
 40
0.499773851
 40
0.7625351413
 40
1.0
 40
1.0
 40
1.0
 40
1.0
 10
121.2104929259
 20
240.5319647519
 30
0.0
 10
121.0202587138
 20
240.4221336339
 30
0.0
 10
120.5779548048
 20
240.2616866287
 30
0.0
 10
119.8705871077
 20
240.1842896487
 30
0.0
 10
119.1627384347
 20
240.2601903363
 30
0.0
 10
118.7196643842
 20
240.4196111489
 30
0.0
 10
118.5287864413
 20
240.5289528091
 30
0.0
  0
SPLINE
  5
300
100
AcDbEntity
  8
0
100
AcDbSpline
 62
7
  6
CONTINUOUS
 70
0
 71
3
 72
8
 73
4
 74
0
 42
0.0000001
 43
0.0000001
 44
0.0000000001
 40
0.0
 40
0.0
 40
0.0
 40
0.0
 40
1.0
 40
1.0
 40
1.0
 40
1.0
 10
118.5287864413
 20
240.5289528091
 30
0.0
 10
118.4730332027
 20
240.5608902429
 30
0.0
 10
118.4188886287
 20
240.5959046452
 30
0.0
 10
118.3673104618
 20
240.634220647
 30
0.0
  0
SPLINE
  5
301
100
AcDbEntity
  8
0
100
AcDbSpline
 62
7
  6
CONTINUOUS
 70
0
 71
3
 72
9
 73
5
 74
0
 42
0.0000001
 43
0.0000001
 44
0.0000000001
 40
0.0
 40
0.0
 40
0.0
 40
0.0
 40
0.5399992506
 40
1.0
 40
1.0
 40
1.0
 40
1.0
 10
118.3673104618
 20
240.634220647
 30
0.0
 10
118.2509181153
 20
240.7206853206
 30
0.0
 10
118.0531780339
 20
240.9135886744
 30
0.0
 10
117.9670711582
 20
241.1841081593
 30
0.0
 10
117.9670152638
 20
241.3076220973
 30
0.0
  0
SPLINE
  5
302
100
AcDbEntity
  8
0
100
AcDbSpline
 62
7
  6
CONTINUOUS
 70
0
 71
3
 72
9
 73
5
 74
0
 42
0.0000001
 43
0.0000001
 44
0.0000000001
 40
0.0
 40
0.0
 40
0.0
 40
0.0
 40
0.4594134537
 40
1.0
 40
1.0
 40
1.0
 40
1.0
 10
222.176746569
 20
153.9439784298
 30
0.0
 10
222.17680255
 20
153.8202730905
 30
0.0
 10
222.0903511058
 20
153.5488799182
 30
0.0
 10
221.8915239933
 20
153.3559482952
 30
0.0
 10
221.7745954117
 20
153.2692522878
 30
0.0
  0
SPLINE
  5
303
100
AcDbEntity
  8
0
100
AcDbSpline
 62
7
  6
CONTINUOUS
 70
0
 71
3
 72
8
 73
4
 74
0
 42
0.0000001
 43
0.0000001
 44
0.0000000001
 40
0.0
 40
0.0
 40
0.0
 40
0.0
 40
1.0
 40
1.0
 40
1.0
 40
1.0
 10
221.7745954117
 20
153.2692522878
 30
0.0
 10
221.7252235157
 20
153.2326457866
 30
0.0
 10
221.6735138954
 20
153.1990519437
 30
0.0
 10
221.6202858624
 20
153.1683209079
 30
0.0
  0
SPLINE
  5
304
100
AcDbEntity
  8
0
100
AcDbSpline
 62
7
  6
CONTINUOUS
 70
0
 71
3
 72
8
 73
4
 74
0
 42
0.0000001
 43
0.0000001
 44
0.0000000001
 40
0.0
 40
0.0
 40
0.0
 40
0.0
 40
1.0
 40
1.0
 40
1.0
 40
1.0
 10
221.9420572303
 20
153.4921786255
 30
0.0
 10
221.8903695239
 20
153.5464569091
 30
0.0
 10
221.8331431734
 20
153.5957384323
 30
0.0
 10
221.7728425649
 20
153.6402534599
 30
0.0
  0
SPLINE
  5
305
100
AcDbEntity
  8
0
100
AcDbSpline
 62
7
  6
CONTINUOUS
 70
0
 71
3
 72
8
 73
4
 74
0
 42
0.0000001
 43
0.0000001
 44
0.0000000001
 40
0.0
 40
0.0
 40
0.0
 40
0.0
 40
1.0
 40
1.0
 40
1.0
 40
1.0
 10
221.7728425649
 20
153.6402534599
 30
0.0
 10
221.7256003059
 20
153.6751285717
 30
0.0
 10
221.6762342274
 20
153.7072475374
 30
0.0
 10
221.625480445
 20
153.7367798591
 30
0.0
  0
SPLINE
  5
306
100
AcDbEntity
  8
0
100
AcDbSpline
 62
7
  6
CONTINUOUS
 70
0
 71
3
 72
11
 73
7
 74
0
 42
0.0000001
 43
0.0000001
 44
0.0000000001
 40
0.0
 40
0.0
 40
0.0
 40
0.0
 40
0.2369608633
 40
0.4997120899
 40
0.7626392301
 40
1.0
 40
1.0
 40
1.0
 40
1.0
 10
221.625480445
 20
153.7367798591
 30
0.0
 10
221.4349327989
 20
153.8476546376
 30
0.0
 10
220.9909686159
 20
154.0096285447
 30
0.0
 10
220.2804487427
 20
154.087754218
 30
0.0
 10
219.5693822482
 20
154.011191291
 30
0.0
 10
219.1245134181
 20
153.8502472855
 30
0.0
 10
218.9332689068
 20
153.7398328746
 30
0.0
  0
SPLINE
  5
307
100
AcDbEntity
  8
0
100
AcDbSpline
 62
7
  6
CONTINUOUS
 70
0
 71
3
 72
9
 73
5
 74
0
 42
0.0000001
 43
0.0000001
 44
0.0000000001
 40
0.0
 40
0.0
 40
0.0
 40
0.0
 40
0.4594134537
 40
1.0
 40
1.0
 40
1.0
 40
1.0
 10
130.2524822999
 20
207.0152765174
 30
0.0
 10
130.2525382809
 20
206.8915711782
 30
0.0
 10
130.1660868367
 20
206.6201780058
 30
0.0
 10
129.9672597242
 20
206.4272463828
 30
0.0
 10
129.8503311426
 20
206.3405503754
 30
0.0
  0
SPLINE
  5
308
100
AcDbEntity
  8
0
100
AcDbSpline
 62
7
  6
CONTINUOUS
 70
0
 71
3
 72
8
 73
4
 74
0
 42
0.0000001
 43
0.0000001
 44
0.0000000001
 40
0.0
 40
0.0
 40
0.0
 40
0.0
 40
1.0
 40
1.0
 40
1.0
 40
1.0
 10
129.8503311426
 20
206.3405503754
 30
0.0
 10
129.8009592465
 20
206.3039438742
 30
0.0
 10
129.7492496262
 20
206.2703500313
 30
0.0
 10
129.6960215933
 20
206.2396189956
 30
0.0
  0
SPLINE
  5
309
100
AcDbEntity
  8
0
100
AcDbSpline
 62
7
  6
CONTINUOUS
 70
0
 71
3
 72
8
 73
4
 74
0
 42
0.0000001
 43
0.0000001
 44
0.0000000001
 40
0.0
 40
0.0
 40
0.0
 40
0.0
 40
1.0
 40
1.0
 40
1.0
 40
1.0
 10
130.0177929612
 20
206.5634767131
 30
0.0
 10
129.9661052548
 20
206.6177549967
 30
0.0
 10
129.9088789043
 20
206.66703652
 30
0.0
 10
129.8485782958
 20
206.7115515475
 30
0.0
  0
SPLINE
  5
30A
100
AcDbEntity
  8
0
100
AcDbSpline
 62
7
  6
CONTINUOUS
 70
0
 71
3
 72
8
 73
4
 74
0
 42
0.0000001
 43
0.0000001
 44
0.0000000001
 40
0.0
 40
0.0
 40
0.0
 40
0.0
 40
1.0
 40
1.0
 40
1.0
 40
1.0
 10
129.8485782958
 20
206.7115515475
 30
0.0
 10
129.8013360368
 20
206.7464266593
 30
0.0
 10
129.7519699583
 20
206.778545625
 30
0.0
 10
129.7012161759
 20
206.8080779467
 30
0.0
  0
SPLINE
  5
30B
100
AcDbEntity
  8
0
100
AcDbSpline
 62
7
  6
CONTINUOUS
 70
0
 71
3
 72
11
 73
7
 74
0
 42
0.0000001
 43
0.0000001
 44
0.0000000001
 40
0.0
 40
0.0
 40
0.0
 40
0.0
 40
0.2369608633
 40
0.4997120899
 40
0.7626392301
 40
1.0
 40
1.0
 40
1.0
 40
1.0
 10
129.7012161759
 20
206.8080779467
 30
0.0
 10
129.5106685298
 20
206.9189527253
 30
0.0
 10
129.0667043468
 20
207.0809266323
 30
0.0
 10
128.3561844736
 20
207.1590523057
 30
0.0
 10
127.6451179791
 20
207.0824893786
 30
0.0
 10
127.200249149
 20
206.9215453732
 30
0.0
 10
127.0090046377
 20
206.8111309622
 30
0.0
  0
SPLINE
  5
30C
100
AcDbEntity
  8
0
100
AcDbSpline
 62
7
  6
CONTINUOUS
 70
0
 71
3
 72
9
 73
5
 74
0
 42
0.0000001
 43
0.0000001
 44
0.0000000001
 40
0.0
 40
0.0
 40
0.0
 40
0.0
 40
0.4594134537
 40
1.0
 40
1.0
 40
1.0
 40
1.0
 10
121.7669536325
 20
241.3076222738
 30
0.0
 10
121.7670096135
 20
241.1839169345
 30
0.0
 10
121.6805581693
 20
240.9125237622
 30
0.0
 10
121.4817310569
 20
240.7195921392
 30
0.0
 10
121.3648024752
 20
240.6328961318
 30
0.0
  0
SPLINE
  5
30D
100
AcDbEntity
  8
0
100
AcDbSpline
 62
7
  6
CONTINUOUS
 70
0
 71
3
 72
8
 73
4
 74
0
 42
0.0000001
 43
0.0000001
 44
0.0000000001
 40
0.0
 40
0.0
 40
0.0
 40
0.0
 40
1.0
 40
1.0
 40
1.0
 40
1.0
 10
121.3648024752
 20
240.6328961318
 30
0.0
 10
121.3154305792
 20
240.5962896306
 30
0.0
 10
121.2637209589
 20
240.5626957876
 30
0.0
 10
121.2104929259
 20
240.5319647519
 30
0.0
  0
SPLINE
  5
30E
100
AcDbEntity
  8
0
100
AcDbSpline
 62
7
  6
CONTINUOUS
 70
0
 71
3
 72
8
 73
4
 74
0
 42
0.0000001
 43
0.0000001
 44
0.0000000001
 40
0.0
 40
0.0
 40
0.0
 40
0.0
 40
1.0
 40
1.0
 40
1.0
 40
1.0
 10
121.5322642939
 20
240.8558224694
 30
0.0
 10
121.4805765875
 20
240.9101007531
 30
0.0
 10
121.4233502369
 20
240.9593822763
 30
0.0
 10
121.3630496284
 20
241.0038973039
 30
0.0
  0
SPLINE
  5
30F
100
AcDbEntity
  8
0
100
AcDbSpline
 62
7
  6
CONTINUOUS
 70
0
 71
3
 72
8
 73
4
 74
0
 42
0.0000001
 43
0.0000001
 44
0.0000000001
 40
0.0
 40
0.0
 40
0.0
 40
0.0
 40
1.0
 40
1.0
 40
1.0
 40
1.0
 10
121.3630496284
 20
241.0038973039
 30
0.0
 10
121.3158073694
 20
241.0387724157
 30
0.0
 10
121.266441291
 20
241.0708913814
 30
0.0
 10
121.2156875085
 20
241.1004237031
 30
0.0
  0
SPLINE
  5
310
100
AcDbEntity
  8
0
100
AcDbSpline
 62
7
  6
CONTINUOUS
 70
0
 71
3
 72
11
 73
7
 74
0
 42
0.0000001
 43
0.0000001
 44
0.0000000001
 40
0.0
 40
0.0
 40
0.0
 40
0.0
 40
0.2369608633
 40
0.4997120899
 40
0.7626392301
 40
1.0
 40
1.0
 40
1.0
 40
1.0
 10
121.2156875085
 20
241.1004237031
 30
0.0
 10
121.0251398624
 20
241.2112984816
 30
0.0
 10
120.5811756794
 20
241.3732723887
 30
0.0
 10
119.8706558062
 20
241.451398062
 30
0.0
 10
119.1595893118
 20
241.3748351349
 30
0.0
 10
118.7147204816
 20
241.2138911295
 30
0.0
 10
118.5234759704
 20
241.1034767185
 30
0.0
  0
SPLINE
  5
311
100
AcDbEntity
  8
0
100
AcDbSpline
 62
7
  6
CONTINUOUS
 70
0
 71
3
 72
9
 73
5
 74
0
 42
0.0000001
 43
0.0000001
 44
0.0000000001
 40
0.0
 40
0.0
 40
0.0
 40
0.0
 40
0.4594134537
 40
1.0
 40
1.0
 40
1.0
 40
1.0
 10
281.5737515157
 20
311.3658922775
 30
0.0
 10
281.5738074967
 20
311.2421869383
 30
0.0
 10
281.4873560526
 20
310.970793766
 30
0.0
 10
281.2885289401
 20
310.7778621429
 30
0.0
 10
281.1716003585
 20
310.6911661355
 30
0.0
  0
SPLINE
  5
312
100
AcDbEntity
  8
0
100
AcDbSpline
 62
7
  6
CONTINUOUS
 70
0
 71
3
 72
8
 73
4
 74
0
 42
0.0000001
 43
0.0000001
 44
0.0000000001
 40
0.0
 40
0.0
 40
0.0
 40
0.0
 40
1.0
 40
1.0
 40
1.0
 40
1.0
 10
281.1716003585
 20
310.6911661355
 30
0.0
 10
281.1222284624
 20
310.6545596343
 30
0.0
 10
281.0705188421
 20
310.6209657914
 30
0.0
 10
281.0172908091
 20
310.5902347557
 30
0.0
  0
SPLINE
  5
313
100
AcDbEntity
  8
0
100
AcDbSpline
 62
7
  6
CONTINUOUS
 70
0
 71
3
 72
8
 73
4
 74
0
 42
0.0000001
 43
0.0000001
 44
0.0000000001
 40
0.0
 40
0.0
 40
0.0
 40
0.0
 40
1.0
 40
1.0
 40
1.0
 40
1.0
 10
281.3390621771
 20
310.9140924732
 30
0.0
 10
281.2873744707
 20
310.9683707568
 30
0.0
 10
281.2301481202
 20
311.0176522801
 30
0.0
 10
281.1698475117
 20
311.0621673077
 30
0.0
  0
SPLINE
  5
314
100
AcDbEntity
  8
0
100
AcDbSpline
 62
7
  6
CONTINUOUS
 70
0
 71
3
 72
8
 73
4
 74
0
 42
0.0000001
 43
0.0000001
 44
0.0000000001
 40
0.0
 40
0.0
 40
0.0
 40
0.0
 40
1.0
 40
1.0
 40
1.0
 40
1.0
 10
281.1698475117
 20
311.0621673077
 30
0.0
 10
281.1226052526
 20
311.0970424194
 30
0.0
 10
281.0732391742
 20
311.1291613851
 30
0.0
 10
281.0224853917
 20
311.1586937069
 30
0.0
  0
SPLINE
  5
315
100
AcDbEntity
  8
0
100
AcDbSpline
 62
7
  6
CONTINUOUS
 70
0
 71
3
 72
11
 73
7
 74
0
 42
0.0000001
 43
0.0000001
 44
0.0000000001
 40
0.0
 40
0.0
 40
0.0
 40
0.0
 40
0.2369608633
 40
0.4997120899
 40
0.7626392301
 40
1.0
 40
1.0
 40
1.0
 40
1.0
 10
281.0224853917
 20
311.1586937069
 30
0.0
 10
280.8319377457
 20
311.2695684854
 30
0.0
 10
280.3879735627
 20
311.4315423924
 30
0.0
 10
279.6774536895
 20
311.5096680658
 30
0.0
 10
278.966387195
 20
311.4331051387
 30
0.0
 10
278.5215183648
 20
311.2721611333
 30
0.0
 10
278.3302738536
 20
311.1617467223
 30
0.0
  0
SPLINE
  5
316
100
AcDbEntity
  8
0
100
AcDbSpline
 62
7
  6
CONTINUOUS
 70
0
 71
3
 72
9
 73
5
 74
0
 42
0.0000001
 43
0.0000001
 44
0.0000000001
 40
0.0
 40
0.0
 40
0.0
 40
0.0
 40
0.4594134537
 40
1.0
 40
1.0
 40
1.0
 40
1.0
 10
130.2524822999
 20
369.3359570428
 30
0.0
 10
130.2525382809
 20
369.2122517035
 30
0.0
 10
130.1660868367
 20
368.9408585312
 30
0.0
 10
129.9672597242
 20
368.7479269082
 30
0.0
 10
129.8503311426
 20
368.6612309008
 30
0.0
  0
SPLINE
  5
317
100
AcDbEntity
  8
0
100
AcDbSpline
 62
7
  6
CONTINUOUS
 70
0
 71
3
 72
8
 73
4
 74
0
 42
0.0000001
 43
0.0000001
 44
0.0000000001
 40
0.0
 40
0.0
 40
0.0
 40
0.0
 40
1.0
 40
1.0
 40
1.0
 40
1.0
 10
129.8503311426
 20
368.6612309008
 30
0.0
 10
129.8009592465
 20
368.6246243996
 30
0.0
 10
129.7492496262
 20
368.5910305567
 30
0.0
 10
129.6960215933
 20
368.5602995209
 30
0.0
  0
SPLINE
  5
318
100
AcDbEntity
  8
0
100
AcDbSpline
 62
7
  6
CONTINUOUS
 70
0
 71
3
 72
8
 73
4
 74
0
 42
0.0000001
 43
0.0000001
 44
0.0000000001
 40
0.0
 40
0.0
 40
0.0
 40
0.0
 40
1.0
 40
1.0
 40
1.0
 40
1.0
 10
130.0177929612
 20
368.8841572385
 30
0.0
 10
129.9661052548
 20
368.9384355221
 30
0.0
 10
129.9088789043
 20
368.9877170453
 30
0.0
 10
129.8485782958
 20
369.0322320729
 30
0.0
  0
SPLINE
  5
319
100
AcDbEntity
  8
0
100
AcDbSpline
 62
7
  6
CONTINUOUS
 70
0
 71
3
 72
8
 73
4
 74
0
 42
0.0000001
 43
0.0000001
 44
0.0000000001
 40
0.0
 40
0.0
 40
0.0
 40
0.0
 40
1.0
 40
1.0
 40
1.0
 40
1.0
 10
129.8485782958
 20
369.0322320729
 30
0.0
 10
129.8013360368
 20
369.0671071847
 30
0.0
 10
129.7519699583
 20
369.0992261504
 30
0.0
 10
129.7012161759
 20
369.1287584721
 30
0.0
  0
SPLINE
  5
31A
100
AcDbEntity
  8
0
100
AcDbSpline
 62
7
  6
CONTINUOUS
 70
0
 71
3
 72
11
 73
7
 74
0
 42
0.0000001
 43
0.0000001
 44
0.0000000001
 40
0.0
 40
0.0
 40
0.0
 40
0.0
 40
0.2369608633
 40
0.4997120899
 40
0.7626392301
 40
1.0
 40
1.0
 40
1.0
 40
1.0
 10
129.7012161759
 20
369.1287584721
 30
0.0
 10
129.5106685298
 20
369.2396332506
 30
0.0
 10
129.0667043468
 20
369.4016071577
 30
0.0
 10
128.3561844736
 20
369.479732831
 30
0.0
 10
127.6451179791
 20
369.403169904
 30
0.0
 10
127.200249149
 20
369.2422258985
 30
0.0
 10
127.0090046377
 20
369.1318114876
 30
0.0
  0
SPLINE
  5
31B
100
AcDbEntity
  8
0
100
AcDbSpline
 62
7
  6
CONTINUOUS
 70
0
 71
3
 72
9
 73
5
 74
0
 42
0.0000001
 43
0.0000001
 44
0.0000000001
 40
0.0
 40
0.0
 40
0.0
 40
0.0
 40
0.4594134537
 40
1.0
 40
1.0
 40
1.0
 40
1.0
 10
222.176746569
 20
316.2646589551
 30
0.0
 10
222.17680255
 20
316.1409536159
 30
0.0
 10
222.0903511058
 20
315.8695604436
 30
0.0
 10
221.8915239933
 20
315.6766288205
 30
0.0
 10
221.7745954117
 20
315.5899328131
 30
0.0
  0
SPLINE
  5
31C
100
AcDbEntity
  8
0
100
AcDbSpline
 62
7
  6
CONTINUOUS
 70
0
 71
3
 72
8
 73
4
 74
0
 42
0.0000001
 43
0.0000001
 44
0.0000000001
 40
0.0
 40
0.0
 40
0.0
 40
0.0
 40
1.0
 40
1.0
 40
1.0
 40
1.0
 10
221.7745954117
 20
315.5899328131
 30
0.0
 10
221.7252235157
 20
315.5533263119
 30
0.0
 10
221.6735138954
 20
315.519732469
 30
0.0
 10
221.6202858624
 20
315.4890014333
 30
0.0
  0
SPLINE
  5
31D
100
AcDbEntity
  8
0
100
AcDbSpline
 62
7
  6
CONTINUOUS
 70
0
 71
3
 72
8
 73
4
 74
0
 42
0.0000001
 43
0.0000001
 44
0.0000000001
 40
0.0
 40
0.0
 40
0.0
 40
0.0
 40
1.0
 40
1.0
 40
1.0
 40
1.0
 10
221.9420572303
 20
315.8128591508
 30
0.0
 10
221.8903695239
 20
315.8671374344
 30
0.0
 10
221.8331431734
 20
315.9164189577
 30
0.0
 10
221.7728425649
 20
315.9609339853
 30
0.0
  0
SPLINE
  5
31E
100
AcDbEntity
  8
0
100
AcDbSpline
 62
7
  6
CONTINUOUS
 70
0
 71
3
 72
8
 73
4
 74
0
 42
0.0000001
 43
0.0000001
 44
0.0000000001
 40
0.0
 40
0.0
 40
0.0
 40
0.0
 40
1.0
 40
1.0
 40
1.0
 40
1.0
 10
221.7728425649
 20
315.9609339853
 30
0.0
 10
221.7256003059
 20
315.995809097
 30
0.0
 10
221.6762342274
 20
316.0279280627
 30
0.0
 10
221.625480445
 20
316.0574603845
 30
0.0
  0
SPLINE
  5
31F
100
AcDbEntity
  8
0
100
AcDbSpline
 62
7
  6
CONTINUOUS
 70
0
 71
3
 72
11
 73
7
 74
0
 42
0.0000001
 43
0.0000001
 44
0.0000000001
 40
0.0
 40
0.0
 40
0.0
 40
0.0
 40
0.2369608633
 40
0.4997120899
 40
0.7626392301
 40
1.0
 40
1.0
 40
1.0
 40
1.0
 10
221.625480445
 20
316.0574603845
 30
0.0
 10
221.4349327989
 20
316.168335163
 30
0.0
 10
220.9909686159
 20
316.33030907
 30
0.0
 10
220.2804487427
 20
316.4084347434
 30
0.0
 10
219.5693822482
 20
316.3318718163
 30
0.0
 10
219.1245134181
 20
316.1709278109
 30
0.0
 10
218.9332689068
 20
316.0605133999
 30
0.0
  0
SPLINE
  5
320
100
AcDbEntity
  8
0
100
AcDbSpline
 62
7
  6
CONTINUOUS
 70
0
 71
3
 72
9
 73
5
 74
0
 42
0.0000001
 43
0.0000001
 44
0.0000000001
 40
0.0
 40
0.0
 40
0.0
 40
0.0
 40
0.4594134537
 40
1.0
 40
1.0
 40
1.0
 40
1.0
 10
181.1639585793
 20
398.7295361215
 30
0.0
 10
181.1640145603
 20
398.6058307823
 30
0.0
 10
181.0775631161
 20
398.33443761
 30
0.0
 10
180.8787360036
 20
398.1415059869
 30
0.0
 10
180.761807422
 20
398.0548099795
 30
0.0
  0
SPLINE
  5
321
100
AcDbEntity
  8
0
100
AcDbSpline
 62
7
  6
CONTINUOUS
 70
0
 71
3
 72
8
 73
4
 74
0
 42
0.0000001
 43
0.0000001
 44
0.0000000001
 40
0.0
 40
0.0
 40
0.0
 40
0.0
 40
1.0
 40
1.0
 40
1.0
 40
1.0
 10
180.761807422
 20
398.0548099795
 30
0.0
 10
180.7124355259
 20
398.0182034783
 30
0.0
 10
180.6607259056
 20
397.9846096354
 30
0.0
 10
180.6074978727
 20
397.9538785997
 30
0.0
  0
SPLINE
  5
322
100
AcDbEntity
  8
0
100
AcDbSpline
 62
7
  6
CONTINUOUS
 70
0
 71
3
 72
8
 73
4
 74
0
 42
0.0000001
 43
0.0000001
 44
0.0000000001
 40
0.0
 40
0.0
 40
0.0
 40
0.0
 40
1.0
 40
1.0
 40
1.0
 40
1.0
 10
180.9292692406
 20
398.2777363172
 30
0.0
 10
180.8775815342
 20
398.3320146008
 30
0.0
 10
180.8203551837
 20
398.3812961241
 30
0.0
 10
180.7600545752
 20
398.4258111516
 30
0.0
  0
SPLINE
  5
323
100
AcDbEntity
  8
0
100
AcDbSpline
 62
7
  6
CONTINUOUS
 70
0
 71
3
 72
8
 73
4
 74
0
 42
0.0000001
 43
0.0000001
 44
0.0000000001
 40
0.0
 40
0.0
 40
0.0
 40
0.0
 40
1.0
 40
1.0
 40
1.0
 40
1.0
 10
180.7600545752
 20
398.4258111516
 30
0.0
 10
180.7128123162
 20
398.4606862634
 30
0.0
 10
180.6634462377
 20
398.4928052291
 30
0.0
 10
180.6126924553
 20
398.5223375509
 30
0.0
  0
SPLINE
  5
324
100
AcDbEntity
  8
0
100
AcDbSpline
 62
7
  6
CONTINUOUS
 70
0
 71
3
 72
11
 73
7
 74
0
 42
0.0000001
 43
0.0000001
 44
0.0000000001
 40
0.0
 40
0.0
 40
0.0
 40
0.0
 40
0.2369608633
 40
0.4997120899
 40
0.7626392301
 40
1.0
 40
1.0
 40
1.0
 40
1.0
 10
180.6126924553
 20
398.5223375509
 30
0.0
 10
180.4221448092
 20
398.6332123294
 30
0.0
 10
179.9781806262
 20
398.7951862364
 30
0.0
 10
179.267660753
 20
398.8733119098
 30
0.0
 10
178.5565942585
 20
398.7967489827
 30
0.0
 10
178.1117254284
 20
398.6358049773
 30
0.0
 10
177.9204809171
 20
398.5253905663
 30
0.0
  0
SPLINE
  5
325
100
AcDbEntity
  8
0
100
AcDbSpline
 62
7
  6
CONTINUOUS
 70
0
 71
3
 72
9
 73
5
 74
0
 42
0.0000001
 43
0.0000001
 44
0.0000000001
 40
0.0
 40
0.0
 40
0.0
 40
0.0
 40
0.4594134537
 40
1.0
 40
1.0
 40
1.0
 40
1.0
 10
273.0882228484
 20
345.6582380339
 30
0.0
 10
273.0882788294
 20
345.5345326946
 30
0.0
 10
273.0018273852
 20
345.2631395223
 30
0.0
 10
272.8030002727
 20
345.0702078993
 30
0.0
 10
272.6860716911
 20
344.9835118919
 30
0.0
  0
SPLINE
  5
326
100
AcDbEntity
  8
0
100
AcDbSpline
 62
7
  6
CONTINUOUS
 70
0
 71
3
 72
8
 73
4
 74
0
 42
0.0000001
 43
0.0000001
 44
0.0000000001
 40
0.0
 40
0.0
 40
0.0
 40
0.0
 40
1.0
 40
1.0
 40
1.0
 40
1.0
 10
272.6860716911
 20
344.9835118919
 30
0.0
 10
272.6366997951
 20
344.9469053907
 30
0.0
 10
272.5849901747
 20
344.9133115478
 30
0.0
 10
272.5317621418
 20
344.882580512
 30
0.0
  0
SPLINE
  5
327
100
AcDbEntity
  8
0
100
AcDbSpline
 62
7
  6
CONTINUOUS
 70
0
 71
3
 72
8
 73
4
 74
0
 42
0.0000001
 43
0.0000001
 44
0.0000000001
 40
0.0
 40
0.0
 40
0.0
 40
0.0
 40
1.0
 40
1.0
 40
1.0
 40
1.0
 10
272.8535335097
 20
345.2064382296
 30
0.0
 10
272.8018458033
 20
345.2607165132
 30
0.0
 10
272.7446194528
 20
345.3099980364
 30
0.0
 10
272.6843188443
 20
345.354513064
 30
0.0
  0
SPLINE
  5
328
100
AcDbEntity
  8
0
100
AcDbSpline
 62
7
  6
CONTINUOUS
 70
0
 71
3
 72
8
 73
4
 74
0
 42
0.0000001
 43
0.0000001
 44
0.0000000001
 40
0.0
 40
0.0
 40
0.0
 40
0.0
 40
1.0
 40
1.0
 40
1.0
 40
1.0
 10
272.6843188443
 20
345.354513064
 30
0.0
 10
272.6370765853
 20
345.3893881758
 30
0.0
 10
272.5877105068
 20
345.4215071415
 30
0.0
 10
272.5369567244
 20
345.4510394632
 30
0.0
  0
SPLINE
  5
329
100
AcDbEntity
  8
0
100
AcDbSpline
 62
7
  6
CONTINUOUS
 70
0
 71
3
 72
11
 73
7
 74
0
 42
0.0000001
 43
0.0000001
 44
0.0000000001
 40
0.0
 40
0.0
 40
0.0
 40
0.0
 40
0.2369608633
 40
0.4997120899
 40
0.7626392301
 40
1.0
 40
1.0
 40
1.0
 40
1.0
 10
272.5369567244
 20
345.4510394632
 30
0.0
 10
272.3464090783
 20
345.5619142417
 30
0.0
 10
271.9024448953
 20
345.7238881488
 30
0.0
 10
271.1919250221
 20
345.8020138221
 30
0.0
 10
270.4808585276
 20
345.7254508951
 30
0.0
 10
270.0359896975
 20
345.5645068896
 30
0.0
 10
269.8447451862
 20
345.4540924787
 30
0.0
  0
SPLINE
  5
32A
100
AcDbEntity
  8
0
100
AcDbSpline
 62
7
  6
CONTINUOUS
 70
0
 71
3
 72
11
 73
7
 74
0
 42
0.0000001
 43
0.0000001
 44
0.0000000001
 40
0.0
 40
0.0
 40
0.0
 40
0.0
 40
0.218738618
 40
0.4548485201
 40
0.7146028229
 40
1.0
 40
1.0
 40
1.0
 40
1.0
 10
290.4902771113
 20
324.9036617472
 30
0.0
 10
290.3749240899
 20
324.3103794825
 30
0.0
 10
289.9504799547
 20
323.1077892271
 30
0.0
 10
288.8348988477
 20
321.4583727688
 30
0.0
 10
287.2688704958
 20
319.9538886847
 30
0.0
 10
286.013510897
 20
319.1085558735
 30
0.0
 10
285.3305835894
 20
318.7142699622
 30
0.0
  0
SPLINE
  5
32B
100
AcDbEntity
  8
0
100
AcDbSpline
 62
7
  6
CONTINUOUS
 70
0
 71
3
 72
11
 73
7
 74
0
 42
0.0000001
 43
0.0000001
 44
0.0000000001
 40
0.0
 40
0.0
 40
0.0
 40
0.0
 40
0.2187383422
 40
0.4548482924
 40
0.7146027481
 40
1.0
 40
1.0
 40
1.0
 40
1.0
 10
290.4902603957
 20
326.2418284327
 30
0.0
 10
290.3748986843
 20
326.8351108283
 30
0.0
 10
289.9504366508
 20
328.0376995608
 30
0.0
 10
288.8348321759
 20
329.6871096936
 30
0.0
 10
287.2687826888
 20
331.1915857434
 30
0.0
 10
286.0134108172
 20
332.0369126596
 30
0.0
 10
285.3304776066
 20
332.4311954127
 30
0.0
  0
SPLINE
  5
32C
100
AcDbEntity
  8
0
100
AcDbSpline
 62
7
  6
CONTINUOUS
 70
0
 71
3
 72
11
 73
7
 74
0
 42
0.0000001
 43
0.0000001
 44
0.0000000001
 40
0.0
 40
0.0
 40
0.0
 40
0.0
 40
0.2372029694
 40
0.4999721295
 40
0.7627356375
 40
1.0
 40
1.0
 40
1.0
 40
1.0
 10
142.3529967731
 20
388.0327456952
 30
0.0
 10
142.3529935855
 20
387.6850527765
 30
0.0
 10
142.483368796
 20
386.9517091099
 30
0.0
 10
142.9379854777
 20
385.9212403913
 30
0.0
 10
143.6030394228
 20
385.0121418477
 30
0.0
 10
144.1730103896
 20
384.5324974217
 30
0.0
 10
144.4742009272
 20
384.3586089177
 30
0.0
  0
SPLINE
  5
32D
100
AcDbEntity
  8
0
100
AcDbSpline
 62
7
  6
CONTINUOUS
 70
0
 71
3
 72
10
 73
6
 74
0
 42
0.0000001
 43
0.0000001
 44
0.0000000001
 40
0.0
 40
0.0
 40
0.0
 40
0.0
 40
0.218437134
 40
0.4523378738
 40
1.0
 40
1.0
 40
1.0
 40
1.0
 10
143.1813861716
 20
390.680341609
 30
0.0
 10
143.0494408507
 20
390.6041717701
 30
0.0
 10
142.8022829819
 20
390.3967353453
 30
0.0
 10
142.4342401014
 20
389.7938252482
 30
0.0
 10
142.3528630859
 20
389.2312729741
 30
0.0
 10
142.3528658639
 20
388.8492961449
 30
0.0
  0
SPLINE
  5
32E
100
AcDbEntity
  8
0
100
AcDbSpline
 62
7
  6
CONTINUOUS
 70
0
 71
3
 72
8
 73
4
 74
0
 42
0.0000001
 43
0.0000001
 44
0.0000000001
 40
0.0
 40
0.0
 40
0.0
 40
0.0
 40
1.0
 40
1.0
 40
1.0
 40
1.0
 10
118.5234759704
 20
241.1034767185
 30
0.0
 10
118.4702491802
 20
241.0727464003
 30
0.0
 10
118.4185405009
 20
241.0391538584
 30
0.0
 10
118.3691691501
 20
241.0025490312
 30
0.0
  0
SPLINE
  5
32F
100
AcDbEntity
  8
0
100
AcDbSpline
 62
7
  6
CONTINUOUS
 70
0
 71
3
 72
8
 73
4
 74
0
 42
0.0000001
 43
0.0000001
 44
0.0000000001
 40
0.0
 40
0.0
 40
0.0
 40
0.0
 40
1.0
 40
1.0
 40
1.0
 40
1.0
 10
118.3691691501
 20
241.0025490312
 30
0.0
 10
118.3097756706
 20
240.9585136136
 30
0.0
 10
118.253390054
 20
240.9098543657
 30
0.0
 10
118.2023398727
 20
240.856369953
 30
0.0
  0
SPLINE
  5
330
100
AcDbEntity
  8
0
100
AcDbSpline
 62
7
  6
CONTINUOUS
 70
0
 71
3
 72
8
 73
4
 74
0
 42
0.0000001
 43
0.0000001
 44
0.0000000001
 40
0.0
 40
0.0
 40
0.0
 40
0.0
 40
1.0
 40
1.0
 40
1.0
 40
1.0
 10
127.0090046377
 20
206.8111309622
 30
0.0
 10
126.9557778476
 20
206.780400644
 30
0.0
 10
126.9040691683
 20
206.746808102
 30
0.0
 10
126.8546978175
 20
206.7102032749
 30
0.0
  0
SPLINE
  5
331
100
AcDbEntity
  8
0
100
AcDbSpline
 62
7
  6
CONTINUOUS
 70
0
 71
3
 72
8
 73
4
 74
0
 42
0.0000001
 43
0.0000001
 44
0.0000000001
 40
0.0
 40
0.0
 40
0.0
 40
0.0
 40
1.0
 40
1.0
 40
1.0
 40
1.0
 10
126.8546978175
 20
206.7102032749
 30
0.0
 10
126.795304338
 20
206.6661678572
 30
0.0
 10
126.7389187213
 20
206.6175086094
 30
0.0
 10
126.6878685401
 20
206.5640241966
 30
0.0
  0
SPLINE
  5
332
100
AcDbEntity
  8
0
100
AcDbSpline
 62
7
  6
CONTINUOUS
 70
0
 71
3
 72
8
 73
4
 74
0
 42
0.0000001
 43
0.0000001
 44
0.0000000001
 40
0.0
 40
0.0
 40
0.0
 40
0.0
 40
1.0
 40
1.0
 40
1.0
 40
1.0
 10
218.9332689068
 20
153.7398328746
 30
0.0
 10
218.8800421167
 20
153.7091025564
 30
0.0
 10
218.8283334374
 20
153.6755100144
 30
0.0
 10
218.7789620866
 20
153.6389051873
 30
0.0
  0
SPLINE
  5
333
100
AcDbEntity
  8
0
100
AcDbSpline
 62
7
  6
CONTINUOUS
 70
0
 71
3
 72
8
 73
4
 74
0
 42
0.0000001
 43
0.0000001
 44
0.0000000001
 40
0.0
 40
0.0
 40
0.0
 40
0.0
 40
1.0
 40
1.0
 40
1.0
 40
1.0
 10
218.7789620866
 20
153.6389051873
 30
0.0
 10
218.7195686071
 20
153.5948697696
 30
0.0
 10
218.6631829904
 20
153.5462105217
 30
0.0
 10
218.6121328092
 20
153.492726109
 30
0.0
  0
SPLINE
  5
334
100
AcDbEntity
  8
0
100
AcDbSpline
 62
7
  6
CONTINUOUS
 70
0
 71
3
 72
8
 73
4
 74
0
 42
0.0000001
 43
0.0000001
 44
0.0000000001
 40
0.0
 40
0.0
 40
0.0
 40
0.0
 40
1.0
 40
1.0
 40
1.0
 40
1.0
 10
177.9204809171
 20
236.2047100409
 30
0.0
 10
177.867254127
 20
236.1739797227
 30
0.0
 10
177.8155454477
 20
236.1403871808
 30
0.0
 10
177.7661740969
 20
236.1037823536
 30
0.0
  0
SPLINE
  5
335
100
AcDbEntity
  8
0
100
AcDbSpline
 62
7
  6
CONTINUOUS
 70
0
 71
3
 72
8
 73
4
 74
0
 42
0.0000001
 43
0.0000001
 44
0.0000000001
 40
0.0
 40
0.0
 40
0.0
 40
0.0
 40
1.0
 40
1.0
 40
1.0
 40
1.0
 10
177.7661740969
 20
236.1037823536
 30
0.0
 10
177.7067806174
 20
236.059746936
 30
0.0
 10
177.6503950007
 20
236.0110876881
 30
0.0
 10
177.5993448195
 20
235.9576032754
 30
0.0
  0
LINE
  5
336
100
AcDbEntity
  8
0
100
AcDbLine
 62
7
  6
CONTINUOUS
 10
155.1843146457
 20
387.3956196919
 11
155.2178150983
 21
387.3764740752
  0
SPLINE
  5
337
100
AcDbEntity
  8
0
100
AcDbSpline
 62
7
  6
CONTINUOUS
 70
0
 71
3
 72
11
 73
7
 74
0
 42
0.0000001
 43
0.0000001
 44
0.0000000001
 40
0.0
 40
0.0
 40
0.0
 40
0.0
 40
0.237228705
 40
0.5000005261
 40
0.7627720609
 40
1.0
 40
1.0
 40
1.0
 40
1.0
 10
158.0507270802
 20
243.593850701
 30
0.0
 10
156.2438000119
 20
244.6370569298
 30
0.0
 10
152.0416522556
 20
246.1595037397
 30
0.0
 10
145.3227850079
 20
246.8887704593
 30
0.0
 10
138.6039278979
 20
246.1594730784
 30
0.0
 10
134.4017966691
 20
244.6370054033
 30
0.0
 10
132.5948829577
 20
243.5937895127
 30
0.0
  0
SPLINE
  5
338
100
AcDbEntity
  8
0
100
AcDbSpline
 62
7
  6
CONTINUOUS
 70
0
 71
3
 72
11
 73
7
 74
0
 42
0.0000001
 43
0.0000001
 44
0.0000000001
 40
0.0
 40
0.0
 40
0.0
 40
0.0
 40
0.2777104325
 40
0.5333764563
 40
0.7710771437
 40
1.0
 40
1.0
 40
1.0
 40
1.0
 10
155.2178110681
 20
387.3764112381
 30
0.0
 10
155.5310369146
 20
387.1980104696
 30
0.0
 10
156.1627044761
 20
386.9033919675
 30
0.0
 10
157.1468876712
 20
386.6767071637
 30
0.0
 10
158.0963956036
 20
386.7110910308
 30
0.0
 10
158.6769619607
 20
386.9251434214
 30
0.0
 10
158.9342947349
 20
387.073713681
 30
0.0
  0
SPLINE
  5
339
100
AcDbEntity
  8
0
100
AcDbSpline
 62
7
  6
CONTINUOUS
 70
0
 71
3
 72
11
 73
7
 74
0
 42
0.0000001
 43
0.0000001
 44
0.0000000001
 40
0.0
 40
0.0
 40
0.0
 40
0.0
 40
0.2853971771
 40
0.5451514799
 40
0.781261382
 40
1.0
 40
1.0
 40
1.0
 40
1.0
 10
114.2101831901
 20
232.979441512
 30
0.0
 10
113.5272558825
 20
232.5851556007
 30
0.0
 10
112.2718962837
 20
231.7398227895
 30
0.0
 10
110.7058679318
 20
230.2353387055
 30
0.0
 10
109.5902868248
 20
228.5859222471
 30
0.0
 10
109.1658426896
 20
227.3833319917
 30
0.0
 10
109.0504896682
 20
226.790049727
 30
0.0
  0
SPLINE
  5
33A
100
AcDbEntity
  8
0
100
AcDbSpline
 62
7
  6
CONTINUOUS
 70
0
 71
3
 72
11
 73
7
 74
0
 42
0.0000001
 43
0.0000001
 44
0.0000000001
 40
0.0
 40
0.0
 40
0.0
 40
0.0
 40
0.2230348538
 40
0.458064892
 40
0.715679298
 40
1.0
 40
1.0
 40
1.0
 40
1.0
 10
151.934326073
 20
399.1980874271
 30
0.0
 10
151.632575731
 20
399.0238728258
 30
0.0
 10
151.0810106003
 20
398.5356117814
 30
0.0
 10
150.5546176835
 20
397.5280689816
 30
0.0
 10
150.3137386947
 20
396.3259081686
 30
0.0
 10
150.3324633397
 20
395.4733236507
 30
0.0
 10
150.3791780537
 20
395.0316139446
 30
0.0
  0
SPLINE
  5
33B
100
AcDbEntity
  8
0
100
AcDbSpline
 62
7
  6
CONTINUOUS
 70
0
 71
3
 72
9
 73
5
 74
0
 42
0.0000001
 43
0.0000001
 44
0.0000000001
 40
0.0
 40
0.0
 40
0.0
 40
0.0
 40
0.2555590502
 40
1.0
 40
1.0
 40
1.0
 40
1.0
 10
154.5080870697
 20
387.8398903394
 30
0.0
 10
154.5635819094
 20
387.7989791728
 30
0.0
 10
154.7827952307
 20
387.6417252102
 30
0.0
 10
155.0103847269
 20
387.4960359056
 30
0.0
 10
155.1843146457
 20
387.3956196919
 30
0.0
  0
SPLINE
  5
33C
100
AcDbEntity
  8
0
100
AcDbSpline
 62
7
  6
CONTINUOUS
 70
0
 71
3
 72
11
 73
7
 74
0
 42
0.0000001
 43
0.0000001
 44
0.0000000001
 40
0.0
 40
0.0
 40
0.0
 40
0.0
 40
0.2177750473
 40
0.4509034352
 40
0.7103655473
 40
1.0
 40
1.0
 40
1.0
 40
1.0
 10
157.9447578527
 20
402.6680775534
 30
0.0
 10
158.1757057167
 20
402.8012846786
 30
0.0
 10
158.7060654395
 20
402.9941694961
 30
0.0
 10
159.5874382023
 20
403.0163078896
 30
0.0
 10
160.526530494
 20
402.7893601519
 30
0.0
 10
161.1376126031
 20
402.4987817326
 30
0.0
 10
161.4446930203
 20
402.3214927819
 30
0.0
  0
SPLINE
  5
33D
100
AcDbEntity
  8
0
100
AcDbSpline
 62
7
  6
CONTINUOUS
 70
0
 71
3
 72
11
 73
7
 74
0
 42
0.0000001
 43
0.0000001
 44
0.0000000001
 40
0.0
 40
0.0
 40
0.0
 40
0.0
 40
0.2898028096
 40
0.549057616
 40
0.7822262574
 40
1.0
 40
1.0
 40
1.0
 40
1.0
 10
166.3943756542
 20
393.7483875015
 30
0.0
 10
166.3943782041
 20
393.3935795877
 30
0.0
 10
166.3408577265
 20
392.7190475385
 30
0.0
 10
166.067446274
 20
391.7923120963
 30
0.0
 10
165.6076317035
 20
391.040385845
 30
0.0
 10
165.1755863109
 20
390.6770872129
 30
0.0
 10
164.9446281879
 20
390.5438741705
 30
0.0
  0
SPLINE
  5
33E
100
AcDbEntity
  8
0
100
AcDbSpline
 62
7
  6
CONTINUOUS
 70
0
 71
3
 72
8
 73
4
 74
0
 42
0.0000001
 43
0.0000001
 44
0.0000000001
 40
0.0
 40
0.0
 40
0.0
 40
0.0
 40
1.0
 40
1.0
 40
1.0
 40
1.0
 10
58.2074315146
 20
364.1099084951
 30
0.0
 10
58.3924741732
 20
364.516002474
 30
0.0
 10
58.5002226275
 20
364.9700314156
 30
0.0
 10
58.5002226182
 20
365.4162971494
 30
0.0
  0
SPLINE
  5
33F
100
AcDbEntity
  8
0
100
AcDbSpline
 62
7
  6
CONTINUOUS
 70
0
 71
3
 72
9
 73
5
 74
0
 42
0.0000001
 43
0.0000001
 44
0.0000000001
 40
0.0
 40
0.0
 40
0.0
 40
0.0
 40
0.2406008725
 40
1.0
 40
1.0
 40
1.0
 40
1.0
 10
255.1374840801
 20
107.2819671297
 30
0.0
 10
255.2178797454
 20
107.2086883355
 30
0.0
 10
255.5714836912
 20
106.9256366256
 30
0.0
 10
255.9856447446
 20
106.7230025512
 30
0.0
 10
256.3105270602
 20
106.611943729
 30
0.0
  0
SPLINE
  5
340
100
AcDbEntity
  8
0
100
AcDbSpline
 62
7
  6
CONTINUOUS
 70
0
 71
3
 72
9
 73
5
 74
0
 42
0.0000001
 43
0.0000001
 44
0.0000000001
 40
0.0
 40
0.0
 40
0.0
 40
0.0
 40
0.5427448998
 40
1.0
 40
1.0
 40
1.0
 40
1.0
 10
256.3105270602
 20
106.611943729
 30
0.0
 10
256.64630456
 20
106.4971604618
 30
0.0
 10
257.293772873
 20
106.3657214539
 30
0.0
 10
257.9582615346
 20
106.394823188
 30
0.0
 10
258.2487539173
 20
106.4654721911
 30
0.0
  0
SPLINE
  5
341
100
AcDbEntity
  8
0
100
AcDbSpline
 62
7
  6
CONTINUOUS
 70
0
 71
3
 72
11
 73
7
 74
0
 42
0.0000001
 43
0.0000001
 44
0.0000000001
 40
0.0
 40
0.0
 40
0.0
 40
0.0
 40
0.2372029694
 40
0.4999721295
 40
0.7627356375
 40
1.0
 40
1.0
 40
1.0
 40
1.0
 10
142.3529967731
 20
285.969943554
 30
0.0
 10
142.3529935855
 20
285.6222506353
 30
0.0
 10
142.483368796
 20
284.8889069687
 30
0.0
 10
142.9379854777
 20
283.8584382501
 30
0.0
 10
143.6030394228
 20
282.9493397065
 30
0.0
 10
144.1730103896
 20
282.4696952805
 30
0.0
 10
144.4742009272
 20
282.2958067765
 30
0.0
  0
SPLINE
  5
342
100
AcDbEntity
  8
0
100
AcDbSpline
 62
7
  6
CONTINUOUS
 70
0
 71
3
 72
12
 73
8
 74
0
 42
0.0000001
 43
0.0000001
 44
0.0000000001
 40
0.0
 40
0.0
 40
0.0
 40
0.0
 40
0.2624449608
 40
0.5486611313
 40
0.6840890642
 40
0.8061545482
 40
1.0
 40
1.0
 40
1.0
 40
1.0
 10
242.9716885288
 20
151.2935939451
 30
0.0
 10
242.5733832274
 20
151.0636336449
 30
0.0
 10
241.624033717
 20
150.7888523427
 30
0.0
 10
240.4092419027
 20
150.8083528872
 30
0.0
 10
239.4815364164
 20
151.0562173461
 30
0.0
 10
238.7711024232
 20
151.394950205
 30
0.0
 10
238.3421957227
 20
151.829485213
 30
0.0
 10
238.2429681199
 20
152.1543751946
 30
0.0
  0
SPLINE
  5
343
100
AcDbEntity
  8
0
100
AcDbSpline
 62
7
  6
CONTINUOUS
 70
0
 71
3
 72
12
 73
8
 74
0
 42
0.0000001
 43
0.0000001
 44
0.0000000001
 40
0.0
 40
0.0
 40
0.0
 40
0.0
 40
0.2624239069
 40
0.5486591005
 40
0.6840818978
 40
0.8061720388
 40
1.0
 40
1.0
 40
1.0
 40
1.0
 10
244.0323531165
 20
130.7585738354
 30
0.0
 10
243.4203268045
 20
130.4052223886
 30
0.0
 10
241.9614876215
 20
129.9828750131
 30
0.0
 10
240.0947443428
 20
130.0129757101
 30
0.0
 10
238.6690067657
 20
130.3937505113
 30
0.0
 10
237.57728301
 20
130.9143272378
 30
0.0
 10
236.9182267881
 20
131.5821179754
 30
0.0
 10
236.7657575746
 20
132.0813310829
 30
0.0
  0
SPLINE
  5
344
100
AcDbEntity
  8
0
100
AcDbSpline
 62
7
  6
CONTINUOUS
 70
0
 71
3
 72
10
 73
6
 74
0
 42
0.0000001
 43
0.0000001
 44
0.0000000001
 40
0.0
 40
0.0
 40
0.0
 40
0.0
 40
0.218437134
 40
0.4523378738
 40
1.0
 40
1.0
 40
1.0
 40
1.0
 10
143.1813861716
 20
288.6175394678
 30
0.0
 10
143.0494408507
 20
288.5413696289
 30
0.0
 10
142.8022829819
 20
288.3339332041
 30
0.0
 10
142.4342401014
 20
287.731023107
 30
0.0
 10
142.3528630859
 20
287.1684708329
 30
0.0
 10
142.3528658639
 20
286.7864940037
 30
0.0
  0
LINE
  5
345
100
AcDbEntity
  8
0
100
AcDbLine
 62
7
  6
CONTINUOUS
 10
155.1843146457
 20
285.3328175507
 11
155.2178150983
 21
285.313671934
  0
SPLINE
  5
346
100
AcDbEntity
  8
0
100
AcDbSpline
 62
7
  6
CONTINUOUS
 70
0
 71
3
 72
11
 73
7
 74
0
 42
0.0000001
 43
0.0000001
 44
0.0000000001
 40
0.0
 40
0.0
 40
0.0
 40
0.0
 40
0.2777104325
 40
0.5333764563
 40
0.7710771437
 40
1.0
 40
1.0
 40
1.0
 40
1.0
 10
155.2178110681
 20
285.3136090969
 30
0.0
 10
155.5310369146
 20
285.1352083284
 30
0.0
 10
156.1627044761
 20
284.8405898263
 30
0.0
 10
157.1468876712
 20
284.6139050225
 30
0.0
 10
158.0963956036
 20
284.6482888896
 30
0.0
 10
158.6769619607
 20
284.8623412803
 30
0.0
 10
158.9342947349
 20
285.0109115398
 30
0.0
  0
SPLINE
  5
347
100
AcDbEntity
  8
0
100
AcDbSpline
 62
7
  6
CONTINUOUS
 70
0
 71
3
 72
11
 73
7
 74
0
 42
0.0000001
 43
0.0000001
 44
0.0000000001
 40
0.0
 40
0.0
 40
0.0
 40
0.0
 40
0.2230348538
 40
0.458064892
 40
0.715679298
 40
1.0
 40
1.0
 40
1.0
 40
1.0
 10
151.934326073
 20
297.1352852859
 30
0.0
 10
151.6325757311
 20
296.9610706846
 30
0.0
 10
151.0810106004
 20
296.4728096402
 30
0.0
 10
150.5546176835
 20
295.4652668404
 30
0.0
 10
150.3137386947
 20
294.2631060274
 30
0.0
 10
150.3324633398
 20
293.4105215095
 30
0.0
 10
150.3791780537
 20
292.9688118034
 30
0.0
  0
SPLINE
  5
348
100
AcDbEntity
  8
0
100
AcDbSpline
 62
7
  6
CONTINUOUS
 70
0
 71
3
 72
9
 73
5
 74
0
 42
0.0000001
 43
0.0000001
 44
0.0000000001
 40
0.0
 40
0.0
 40
0.0
 40
0.0
 40
0.2555590502
 40
1.0
 40
1.0
 40
1.0
 40
1.0
 10
154.5080870697
 20
285.7770881982
 30
0.0
 10
154.5635819094
 20
285.7361770316
 30
0.0
 10
154.7827952307
 20
285.578923069
 30
0.0
 10
155.0103847269
 20
285.4332337644
 30
0.0
 10
155.1843146457
 20
285.3328175507
 30
0.0
  0
SPLINE
  5
349
100
AcDbEntity
  8
0
100
AcDbSpline
 62
7
  6
CONTINUOUS
 70
0
 71
3
 72
9
 73
5
 74
0
 42
0.0000001
 43
0.0000001
 44
0.0000000001
 40
0.0
 40
0.0
 40
0.0
 40
0.0
 40
0.2351729545
 40
1.0
 40
1.0
 40
1.0
 40
1.0
 10
243.0459077801
 20
260.0085654896
 30
0.0
 10
243.0326068778
 20
259.994733894
 30
0.0
 10
242.9756702899
 20
259.9362829875
 30
0.0
 10
242.9176780528
 20
259.87887455
 30
0.0
 10
242.8732785774
 20
259.8350187943
 30
0.0
  0
LINE
  5
34A
100
AcDbEntity
  8
0
100
AcDbLine
 62
7
  6
CONTINUOUS
 10
242.8732785774
 20
259.8350187943
 11
242.8437303756
 21
259.8058477601
  0
SPLINE
  5
34B
100
AcDbEntity
  8
0
100
AcDbSpline
 62
7
  6
CONTINUOUS
 70
0
 71
3
 72
12
 73
8
 74
0
 42
0.0000001
 43
0.0000001
 44
0.0000000001
 40
0.0
 40
0.0
 40
0.0
 40
0.0
 40
0.2624239069
 40
0.5486591005
 40
0.6840818978
 40
0.8061720388
 40
1.0
 40
1.0
 40
1.0
 40
1.0
 10
244.0323531165
 20
215.6748252169
 30
0.0
 10
243.4203268045
 20
215.3214737701
 30
0.0
 10
241.9614876215
 20
214.8991263946
 30
0.0
 10
240.0947443428
 20
214.9292270916
 30
0.0
 10
238.6690067657
 20
215.3100018928
 30
0.0
 10
237.57728301
 20
215.8305786192
 30
0.0
 10
236.9182267881
 20
216.4983693569
 30
0.0
 10
236.7657575746
 20
216.9975824644
 30
0.0
  0
SPLINE
  5
34C
100
AcDbEntity
  8
0
100
AcDbSpline
 62
7
  6
CONTINUOUS
 70
0
 71
3
 72
11
 73
7
 74
0
 42
0.0000001
 43
0.0000001
 44
0.0000000001
 40
0.0
 40
0.0
 40
0.0
 40
0.0
 40
0.2898028096
 40
0.549057616
 40
0.7822262574
 40
1.0
 40
1.0
 40
1.0
 40
1.0
 10
166.3943756542
 20
291.6855853603
 30
0.0
 10
166.3943782041
 20
291.3307774465
 30
0.0
 10
166.3408577265
 20
290.6562453973
 30
0.0
 10
166.067446274
 20
289.7295099551
 30
0.0
 10
165.6076317035
 20
288.9775837038
 30
0.0
 10
165.1755863109
 20
288.6142850717
 30
0.0
 10
164.9446281879
 20
288.4810720293
 30
0.0
  0
SPLINE
  5
34D
100
AcDbEntity
  8
0
100
AcDbSpline
 62
7
  6
CONTINUOUS
 70
0
 71
3
 72
12
 73
8
 74
0
 42
0.0000001
 43
0.0000001
 44
0.0000000001
 40
0.0
 40
0.0
 40
0.0
 40
0.0
 40
0.2624449608
 40
0.5486611313
 40
0.6840890642
 40
0.8061545482
 40
1.0
 40
1.0
 40
1.0
 40
1.0
 10
242.9716885288
 20
236.2098453266
 30
0.0
 10
242.5733832274
 20
235.9798850263
 30
0.0
 10
241.624033717
 20
235.7051037242
 30
0.0
 10
240.4092419027
 20
235.7246042687
 30
0.0
 10
239.4815364164
 20
235.9724687276
 30
0.0
 10
238.7711024232
 20
236.3112015865
 30
0.0
 10
238.3421957227
 20
236.7457365945
 30
0.0
 10
238.2429681199
 20
237.0706265761
 30
0.0
  0
SPLINE
  5
34E
100
AcDbEntity
  8
0
100
AcDbSpline
 62
7
  6
CONTINUOUS
 70
0
 71
3
 72
11
 73
7
 74
0
 42
0.0000001
 43
0.0000001
 44
0.0000000001
 40
0.0
 40
0.0
 40
0.0
 40
0.0
 40
0.2371258703
 40
0.499773851
 40
0.7625351413
 40
1.0
 40
1.0
 40
1.0
 40
1.0
 10
121.2104929259
 20
402.8526452773
 30
0.0
 10
121.0202587138
 20
402.7428141593
 30
0.0
 10
120.5779548048
 20
402.5823671541
 30
0.0
 10
119.8705871077
 20
402.5049701741
 30
0.0
 10
119.1627384347
 20
402.5808708616
 30
0.0
 10
118.7196643842
 20
402.7402916742
 30
0.0
 10
118.5287864413
 20
402.8496333344
 30
0.0
  0
SPLINE
  5
34F
100
AcDbEntity
  8
0
100
AcDbSpline
 62
7
  6
CONTINUOUS
 70
0
 71
3
 72
8
 73
4
 74
0
 42
0.0000001
 43
0.0000001
 44
0.0000000001
 40
0.0
 40
0.0
 40
0.0
 40
0.0
 40
1.0
 40
1.0
 40
1.0
 40
1.0
 10
118.5287864413
 20
402.8496333344
 30
0.0
 10
118.4730332027
 20
402.8815707683
 30
0.0
 10
118.4188886287
 20
402.9165851706
 30
0.0
 10
118.3673104618
 20
402.9549011724
 30
0.0
  0
SPLINE
  5
350
100
AcDbEntity
  8
0
100
AcDbSpline
 62
7
  6
CONTINUOUS
 70
0
 71
3
 72
9
 73
5
 74
0
 42
0.0000001
 43
0.0000001
 44
0.0000000001
 40
0.0
 40
0.0
 40
0.0
 40
0.0
 40
0.5399992506
 40
1.0
 40
1.0
 40
1.0
 40
1.0
 10
118.3673104618
 20
402.9549011724
 30
0.0
 10
118.2509181153
 20
403.0413658459
 30
0.0
 10
118.0531780339
 20
403.2342691997
 30
0.0
 10
117.9670711582
 20
403.5047886847
 30
0.0
 10
117.9670152638
 20
403.6283026226
 30
0.0
  0
SPLINE
  5
351
100
AcDbEntity
  8
0
100
AcDbSpline
 62
7
  6
CONTINUOUS
 70
0
 71
3
 72
11
 73
7
 74
0
 42
0.0000001
 43
0.0000001
 44
0.0000000001
 40
0.0
 40
0.0
 40
0.0
 40
0.0
 40
0.2371258703
 40
0.499773851
 40
0.7625351413
 40
1.0
 40
1.0
 40
1.0
 40
1.0
 10
281.0172908091
 20
310.5902347557
 30
0.0
 10
280.827056597
 20
310.4804036377
 30
0.0
 10
280.384752688
 20
310.3199566325
 30
0.0
 10
279.6773849909
 20
310.2425596525
 30
0.0
 10
278.9695363179
 20
310.31846034
 30
0.0
 10
278.5264622674
 20
310.4778811526
 30
0.0
 10
278.3355843246
 20
310.5872228128
 30
0.0
  0
SPLINE
  5
352
100
AcDbEntity
  8
0
100
AcDbSpline
 62
7
  6
CONTINUOUS
 70
0
 71
3
 72
8
 73
4
 74
0
 42
0.0000001
 43
0.0000001
 44
0.0000000001
 40
0.0
 40
0.0
 40
0.0
 40
0.0
 40
1.0
 40
1.0
 40
1.0
 40
1.0
 10
278.3355843246
 20
310.5872228128
 30
0.0
 10
278.2798310859
 20
310.6191602467
 30
0.0
 10
278.225686512
 20
310.654174649
 30
0.0
 10
278.1741083451
 20
310.6924906508
 30
0.0
  0
SPLINE
  5
353
100
AcDbEntity
  8
0
100
AcDbSpline
 62
7
  6
CONTINUOUS
 70
0
 71
3
 72
9
 73
5
 74
0
 42
0.0000001
 43
0.0000001
 44
0.0000000001
 40
0.0
 40
0.0
 40
0.0
 40
0.0
 40
0.5399992506
 40
1.0
 40
1.0
 40
1.0
 40
1.0
 10
278.1741083451
 20
310.6924906508
 30
0.0
 10
278.0577159985
 20
310.7789553243
 30
0.0
 10
277.8599759172
 20
310.9718586781
 30
0.0
 10
277.7738690414
 20
311.2423781631
 30
0.0
 10
277.773813147
 20
311.365892101
 30
0.0
  0
SPLINE
  5
354
100
AcDbEntity
  8
0
100
AcDbSpline
 62
7
  6
CONTINUOUS
 70
0
 71
3
 72
11
 73
7
 74
0
 42
0.0000001
 43
0.0000001
 44
0.0000000001
 40
0.0
 40
0.0
 40
0.0
 40
0.0
 40
0.2371258703
 40
0.499773851
 40
0.7625351413
 40
1.0
 40
1.0
 40
1.0
 40
1.0
 10
129.6960215933
 20
368.5602995209
 30
0.0
 10
129.5057873811
 20
368.4504684029
 30
0.0
 10
129.0634834721
 20
368.2900213978
 30
0.0
 10
128.356115775
 20
368.2126244177
 30
0.0
 10
127.648267102
 20
368.2885251053
 30
0.0
 10
127.2051930515
 20
368.4479459179
 30
0.0
 10
127.0143151087
 20
368.5572875781
 30
0.0
  0
SPLINE
  5
355
100
AcDbEntity
  8
0
100
AcDbSpline
 62
7
  6
CONTINUOUS
 70
0
 71
3
 72
8
 73
4
 74
0
 42
0.0000001
 43
0.0000001
 44
0.0000000001
 40
0.0
 40
0.0
 40
0.0
 40
0.0
 40
1.0
 40
1.0
 40
1.0
 40
1.0
 10
127.0143151087
 20
368.5572875781
 30
0.0
 10
126.9585618701
 20
368.5892250119
 30
0.0
 10
126.9044172961
 20
368.6242394142
 30
0.0
 10
126.8528391292
 20
368.662555416
 30
0.0
  0
SPLINE
  5
356
100
AcDbEntity
  8
0
100
AcDbSpline
 62
7
  6
CONTINUOUS
 70
0
 71
3
 72
9
 73
5
 74
0
 42
0.0000001
 43
0.0000001
 44
0.0000000001
 40
0.0
 40
0.0
 40
0.0
 40
0.0
 40
0.5399992506
 40
1.0
 40
1.0
 40
1.0
 40
1.0
 10
126.8528391292
 20
368.662555416
 30
0.0
 10
126.7364467827
 20
368.7490200896
 30
0.0
 10
126.5387067013
 20
368.9419234434
 30
0.0
 10
126.4525998255
 20
369.2124429283
 30
0.0
 10
126.4525439311
 20
369.3359568663
 30
0.0
  0
SPLINE
  5
357
100
AcDbEntity
  8
0
100
AcDbSpline
 62
7
  6
CONTINUOUS
 70
0
 71
3
 72
11
 73
7
 74
0
 42
0.0000001
 43
0.0000001
 44
0.0000000001
 40
0.0
 40
0.0
 40
0.0
 40
0.0
 40
0.2371258703
 40
0.499773851
 40
0.7625351413
 40
1.0
 40
1.0
 40
1.0
 40
1.0
 10
221.6202858624
 20
315.4890014333
 30
0.0
 10
221.4300516502
 20
315.3791703153
 30
0.0
 10
220.9877477412
 20
315.2187233101
 30
0.0
 10
220.2803800441
 20
315.1413263301
 30
0.0
 10
219.5725313711
 20
315.2172270176
 30
0.0
 10
219.1294573206
 20
315.3766478302
 30
0.0
 10
218.9385793778
 20
315.4859894904
 30
0.0
  0
SPLINE
  5
358
100
AcDbEntity
  8
0
100
AcDbSpline
 62
7
  6
CONTINUOUS
 70
0
 71
3
 72
8
 73
4
 74
0
 42
0.0000001
 43
0.0000001
 44
0.0000000001
 40
0.0
 40
0.0
 40
0.0
 40
0.0
 40
1.0
 40
1.0
 40
1.0
 40
1.0
 10
218.9385793778
 20
315.4859894904
 30
0.0
 10
218.8828261392
 20
315.5179269243
 30
0.0
 10
218.8286815652
 20
315.5529413266
 30
0.0
 10
218.7771033983
 20
315.5912573284
 30
0.0
  0
SPLINE
  5
359
100
AcDbEntity
  8
0
100
AcDbSpline
 62
7
  6
CONTINUOUS
 70
0
 71
3
 72
9
 73
5
 74
0
 42
0.0000001
 43
0.0000001
 44
0.0000000001
 40
0.0
 40
0.0
 40
0.0
 40
0.0
 40
0.5399992506
 40
1.0
 40
1.0
 40
1.0
 40
1.0
 10
218.7771033983
 20
315.5912573284
 30
0.0
 10
218.6607110518
 20
315.6777220019
 30
0.0
 10
218.4629709704
 20
315.8706253557
 30
0.0
 10
218.3768640946
 20
316.1411448407
 30
0.0
 10
218.3768082003
 20
316.2646587786
 30
0.0
  0
SPLINE
  5
35A
100
AcDbEntity
  8
0
100
AcDbSpline
 62
7
  6
CONTINUOUS
 70
0
 71
3
 72
11
 73
7
 74
0
 42
0.0000001
 43
0.0000001
 44
0.0000000001
 40
0.0
 40
0.0
 40
0.0
 40
0.0
 40
0.2371258703
 40
0.499773851
 40
0.7625351413
 40
1.0
 40
1.0
 40
1.0
 40
1.0
 10
180.6074978727
 20
397.9538785997
 30
0.0
 10
180.4172636605
 20
397.8440474817
 30
0.0
 10
179.9749597515
 20
397.6836004765
 30
0.0
 10
179.2675920544
 20
397.6062034965
 30
0.0
 10
178.5597433814
 20
397.682104184
 30
0.0
 10
178.1166693309
 20
397.8415249966
 30
0.0
 10
177.9257913881
 20
397.9508666568
 30
0.0
  0
SPLINE
  5
35B
100
AcDbEntity
  8
0
100
AcDbSpline
 62
7
  6
CONTINUOUS
 70
0
 71
3
 72
8
 73
4
 74
0
 42
0.0000001
 43
0.0000001
 44
0.0000000001
 40
0.0
 40
0.0
 40
0.0
 40
0.0
 40
1.0
 40
1.0
 40
1.0
 40
1.0
 10
177.9257913881
 20
397.9508666568
 30
0.0
 10
177.8700381495
 20
397.9828040907
 30
0.0
 10
177.8158935755
 20
398.017818493
 30
0.0
 10
177.7643154086
 20
398.0561344948
 30
0.0
  0
SPLINE
  5
35C
100
AcDbEntity
  8
0
100
AcDbSpline
 62
7
  6
CONTINUOUS
 70
0
 71
3
 72
9
 73
5
 74
0
 42
0.0000001
 43
0.0000001
 44
0.0000000001
 40
0.0
 40
0.0
 40
0.0
 40
0.0
 40
0.5399992506
 40
1.0
 40
1.0
 40
1.0
 40
1.0
 10
177.7643154086
 20
398.0561344948
 30
0.0
 10
177.6479230621
 20
398.1425991683
 30
0.0
 10
177.4501829807
 20
398.3355025221
 30
0.0
 10
177.3640761049
 20
398.6060220071
 30
0.0
 10
177.3640202105
 20
398.729535945
 30
0.0
  0
SPLINE
  5
35D
100
AcDbEntity
  8
0
100
AcDbSpline
 62
7
  6
CONTINUOUS
 70
0
 71
3
 72
11
 73
7
 74
0
 42
0.0000001
 43
0.0000001
 44
0.0000000001
 40
0.0
 40
0.0
 40
0.0
 40
0.0
 40
0.2371258703
 40
0.499773851
 40
0.7625351413
 40
1.0
 40
1.0
 40
1.0
 40
1.0
 10
272.5317621418
 20
344.882580512
 30
0.0
 10
272.3415279296
 20
344.7727493941
 30
0.0
 10
271.8992240206
 20
344.6123023889
 30
0.0
 10
271.1918563235
 20
344.5349054088
 30
0.0
 10
270.4840076505
 20
344.6108060964
 30
0.0
 10
270.0409336
 20
344.770226909
 30
0.0
 10
269.8500556572
 20
344.8795685692
 30
0.0
  0
SPLINE
  5
35E
100
AcDbEntity
  8
0
100
AcDbSpline
 62
7
  6
CONTINUOUS
 70
0
 71
3
 72
8
 73
4
 74
0
 42
0.0000001
 43
0.0000001
 44
0.0000000001
 40
0.0
 40
0.0
 40
0.0
 40
0.0
 40
1.0
 40
1.0
 40
1.0
 40
1.0
 10
269.8500556572
 20
344.8795685692
 30
0.0
 10
269.7943024186
 20
344.911506003
 30
0.0
 10
269.7401578446
 20
344.9465204053
 30
0.0
 10
269.6885796777
 20
344.9848364071
 30
0.0
  0
SPLINE
  5
35F
100
AcDbEntity
  8
0
100
AcDbSpline
 62
7
  6
CONTINUOUS
 70
0
 71
3
 72
9
 73
5
 74
0
 42
0.0000001
 43
0.0000001
 44
0.0000000001
 40
0.0
 40
0.0
 40
0.0
 40
0.0
 40
0.5399992506
 40
1.0
 40
1.0
 40
1.0
 40
1.0
 10
269.6885796777
 20
344.9848364071
 30
0.0
 10
269.5721873312
 20
345.0713010807
 30
0.0
 10
269.3744472498
 20
345.2642044345
 30
0.0
 10
269.288340374
 20
345.5347239194
 30
0.0
 10
269.2882844797
 20
345.6582378574
 30
0.0
  0
SPLINE
  5
360
100
AcDbEntity
  8
0
100
AcDbSpline
 62
7
  6
CONTINUOUS
 70
0
 71
3
 72
11
 73
7
 74
0
 42
0.0000001
 43
0.0000001
 44
0.0000000001
 40
0.0
 40
0.0
 40
0.0
 40
0.0
 40
0.2853972519
 40
0.5451517076
 40
0.7812616578
 40
1.0
 40
1.0
 40
1.0
 40
1.0
 10
114.2102891729
 20
381.5831965869
 30
0.0
 10
113.5273559623
 20
381.97747934
 30
0.0
 10
112.2719840907
 20
382.8228062562
 30
0.0
 10
110.7059346036
 20
384.327282306
 30
0.0
 10
109.5903301287
 20
385.9766924388
 30
0.0
 10
109.1658680952
 20
387.1792811713
 30
0.0
 10
109.0505063838
 20
387.7725635669
 30
0.0
  0
SPLINE
  5
361
100
AcDbEntity
  8
0
100
AcDbSpline
 62
7
  6
CONTINUOUS
 70
0
 71
3
 72
11
 73
7
 74
0
 42
0.0000001
 43
0.0000001
 44
0.0000000001
 40
0.0
 40
0.0
 40
0.0
 40
0.0
 40
0.2372279391
 40
0.4999994739
 40
0.762771295
 40
1.0
 40
1.0
 40
1.0
 40
1.0
 10
266.9458838218
 20
308.0999219616
 30
0.0
 10
265.1389701104
 20
307.056706071
 30
0.0
 10
260.9368388816
 20
305.5342383958
 30
0.0
 10
254.2179817716
 20
304.804941015
 30
0.0
 10
247.4991145239
 20
305.5342077346
 30
0.0
 10
243.2969667676
 20
307.0566545445
 30
0.0
 10
241.4900396994
 20
308.0998607732
 30
0.0
  0
SPLINE
  5
362
100
AcDbEntity
  8
0
100
AcDbSpline
 62
7
  6
CONTINUOUS
 70
0
 71
3
 72
9
 73
5
 74
0
 42
0.0000001
 43
0.0000001
 44
0.0000000001
 40
0.0
 40
0.0
 40
0.0
 40
0.0
 40
0.4580270462
 40
1.0
 40
1.0
 40
1.0
 40
1.0
 10
46.9643680434
 20
390.7684901671
 30
0.0
 10
46.7992771104
 20
390.5955494825
 30
0.0
 10
46.5000791433
 20
390.1599737293
 30
0.0
 10
46.2992644957
 20
389.6741352411
 30
0.0
 10
46.2179291374
 20
389.4031707831
 30
0.0
  0
SPLINE
  5
363
100
AcDbEntity
  8
0
100
AcDbSpline
 62
7
  6
CONTINUOUS
 70
0
 71
3
 72
9
 73
5
 74
0
 42
0.0000001
 43
0.0000001
 44
0.0000000001
 40
0.0
 40
0.0
 40
0.0
 40
0.0
 40
0.2555748923
 40
1.0
 40
1.0
 40
1.0
 40
1.0
 10
46.2179291374
 20
389.4031707831
 30
0.0
 10
46.1750707087
 20
389.2603901877
 30
0.0
 10
46.0378432428
 20
388.6940764493
 30
0.0
 10
46.0229866462
 20
388.0899765428
 30
0.0
 10
46.1158493267
 20
387.6658069564
 30
0.0
  0
SPLINE
  5
364
100
AcDbEntity
  8
0
100
AcDbSpline
 62
7
  6
CONTINUOUS
 70
0
 71
3
 72
9
 73
5
 74
0
 42
0.0000001
 43
0.0000001
 44
0.0000000001
 40
0.0
 40
0.0
 40
0.0
 40
0.0
 40
0.26581734
 40
1.0
 40
1.0
 40
1.0
 40
1.0
 10
58.2074256267
 20
366.7226987212
 30
0.0
 10
58.2929957043
 20
366.6027471063
 30
0.0
 10
58.586968474
 20
366.1311661692
 30
0.0
 10
58.7799194636
 20
365.6042474378
 30
0.0
 10
58.8909830729
 20
365.2127307117
 30
0.0
  0
SPLINE
  5
365
100
AcDbEntity
  8
0
100
AcDbSpline
 62
7
  6
CONTINUOUS
 70
0
 71
3
 72
9
 73
5
 74
0
 42
0.0000001
 43
0.0000001
 44
0.0000000001
 40
0.0
 40
0.0
 40
0.0
 40
0.0
 40
0.2622186326
 40
1.0
 40
1.0
 40
1.0
 40
1.0
 10
58.8909830729
 20
365.2127307117
 30
0.0
 10
58.8992936987
 20
365.1834344457
 30
0.0
 10
58.930445103
 20
365.0715553169
 30
0.0
 10
58.9598526284
 20
364.9592019712
 30
0.0
 10
58.9814862371
 20
364.8762973738
 30
0.0
  0
SPLINE
  5
366
100
AcDbEntity
  8
0
100
AcDbSpline
 62
7
  6
CONTINUOUS
 70
0
 71
3
 72
11
 73
7
 74
0
 42
0.0000001
 43
0.0000001
 44
0.0000000001
 40
0.0
 40
0.0
 40
0.0
 40
0.0
 40
0.237228705
 40
0.5000005261
 40
0.7627720609
 40
1.0
 40
1.0
 40
1.0
 40
1.0
 10
158.0507270802
 20
405.9145312264
 30
0.0
 10
156.2438000119
 20
406.9577374551
 30
0.0
 10
152.0416522556
 20
408.480184265
 30
0.0
 10
145.3227850079
 20
409.2094509846
 30
0.0
 10
138.6039278979
 20
408.4801536038
 30
0.0
 10
134.4017966691
 20
406.9576859286
 30
0.0
 10
132.5948829577
 20
405.914470038
 30
0.0
  0
SPLINE
  5
367
100
AcDbEntity
  8
0
100
AcDbSpline
 62
7
  6
CONTINUOUS
 70
0
 71
3
 72
11
 73
7
 74
0
 42
0.0000001
 43
0.0000001
 44
0.0000000001
 40
0.0
 40
0.0
 40
0.0
 40
0.0
 40
0.2853971771
 40
0.5451514799
 40
0.781261382
 40
1.0
 40
1.0
 40
1.0
 40
1.0
 10
114.2101831901
 20
395.3001220374
 30
0.0
 10
113.5272558825
 20
394.905836126
 30
0.0
 10
112.2718962837
 20
394.0605033148
 30
0.0
 10
110.7058679318
 20
392.5560192308
 30
0.0
 10
109.5902868248
 20
390.9066027725
 30
0.0
 10
109.1658426896
 20
389.7040125171
 30
0.0
 10
109.0504896682
 20
389.1107302524
 30
0.0
  0
SPLINE
  5
368
100
AcDbEntity
  8
0
100
AcDbSpline
 62
7
  6
CONTINUOUS
 70
0
 71
3
 72
8
 73
4
 74
0
 42
0.0000001
 43
0.0000001
 44
0.0000000001
 40
0.0
 40
0.0
 40
0.0
 40
0.0
 40
1.0
 40
1.0
 40
1.0
 40
1.0
 10
269.8447451862
 20
345.4540924787
 30
0.0
 10
269.7915183961
 20
345.4233621605
 30
0.0
 10
269.7398097168
 20
345.3897696185
 30
0.0
 10
269.690438366
 20
345.3531647914
 30
0.0
  0
SPLINE
  5
369
100
AcDbEntity
  8
0
100
AcDbSpline
 62
7
  6
CONTINUOUS
 70
0
 71
3
 72
8
 73
4
 74
0
 42
0.0000001
 43
0.0000001
 44
0.0000000001
 40
0.0
 40
0.0
 40
0.0
 40
0.0
 40
1.0
 40
1.0
 40
1.0
 40
1.0
 10
269.690438366
 20
345.3531647914
 30
0.0
 10
269.6310448865
 20
345.3091293737
 30
0.0
 10
269.5746592698
 20
345.2604701259
 30
0.0
 10
269.5236090886
 20
345.2069857131
 30
0.0
  0
SPLINE
  5
36A
100
AcDbEntity
  8
0
100
AcDbSpline
 62
7
  6
CONTINUOUS
 70
0
 71
3
 72
8
 73
4
 74
0
 42
0.0000001
 43
0.0000001
 44
0.0000000001
 40
0.0
 40
0.0
 40
0.0
 40
0.0
 40
1.0
 40
1.0
 40
1.0
 40
1.0
 10
177.9204809171
 20
398.5253905663
 30
0.0
 10
177.867254127
 20
398.4946602481
 30
0.0
 10
177.8155454477
 20
398.4610677062
 30
0.0
 10
177.7661740969
 20
398.424462879
 30
0.0
  0
SPLINE
  5
36B
100
AcDbEntity
  8
0
100
AcDbSpline
 62
7
  6
CONTINUOUS
 70
0
 71
3
 72
8
 73
4
 74
0
 42
0.0000001
 43
0.0000001
 44
0.0000000001
 40
0.0
 40
0.0
 40
0.0
 40
0.0
 40
1.0
 40
1.0
 40
1.0
 40
1.0
 10
177.7661740969
 20
398.424462879
 30
0.0
 10
177.7067806174
 20
398.3804274614
 30
0.0
 10
177.6503950007
 20
398.3317682135
 30
0.0
 10
177.5993448195
 20
398.2782838007
 30
0.0
  0
SPLINE
  5
36C
100
AcDbEntity
  8
0
100
AcDbSpline
 62
7
  6
CONTINUOUS
 70
0
 71
3
 72
8
 73
4
 74
0
 42
0.0000001
 43
0.0000001
 44
0.0000000001
 40
0.0
 40
0.0
 40
0.0
 40
0.0
 40
1.0
 40
1.0
 40
1.0
 40
1.0
 10
218.9332689068
 20
316.0605133999
 30
0.0
 10
218.8800421167
 20
316.0297830817
 30
0.0
 10
218.8283334374
 20
315.9961905398
 30
0.0
 10
218.7789620866
 20
315.9595857126
 30
0.0
  0
SPLINE
  5
36D
100
AcDbEntity
  8
0
100
AcDbSpline
 62
7
  6
CONTINUOUS
 70
0
 71
3
 72
8
 73
4
 74
0
 42
0.0000001
 43
0.0000001
 44
0.0000000001
 40
0.0
 40
0.0
 40
0.0
 40
0.0
 40
1.0
 40
1.0
 40
1.0
 40
1.0
 10
218.7789620866
 20
315.9595857126
 30
0.0
 10
218.7195686071
 20
315.915550295
 30
0.0
 10
218.6631829904
 20
315.8668910471
 30
0.0
 10
218.6121328092
 20
315.8134066343
 30
0.0
  0
SPLINE
  5
36E
100
AcDbEntity
  8
0
100
AcDbSpline
 62
7
  6
CONTINUOUS
 70
0
 71
3
 72
8
 73
4
 74
0
 42
0.0000001
 43
0.0000001
 44
0.0000000001
 40
0.0
 40
0.0
 40
0.0
 40
0.0
 40
1.0
 40
1.0
 40
1.0
 40
1.0
 10
127.0090046377
 20
369.1318114876
 30
0.0
 10
126.9557778476
 20
369.1010811694
 30
0.0
 10
126.9040691683
 20
369.0674886274
 30
0.0
 10
126.8546978175
 20
369.0308838003
 30
0.0
  0
SPLINE
  5
36F
100
AcDbEntity
  8
0
100
AcDbSpline
 62
7
  6
CONTINUOUS
 70
0
 71
3
 72
8
 73
4
 74
0
 42
0.0000001
 43
0.0000001
 44
0.0000000001
 40
0.0
 40
0.0
 40
0.0
 40
0.0
 40
1.0
 40
1.0
 40
1.0
 40
1.0
 10
126.8546978175
 20
369.0308838003
 30
0.0
 10
126.795304338
 20
368.9868483826
 30
0.0
 10
126.7389187213
 20
368.9381891347
 30
0.0
 10
126.6878685401
 20
368.884704722
 30
0.0
  0
SPLINE
  5
370
100
AcDbEntity
  8
0
100
AcDbSpline
 62
7
  6
CONTINUOUS
 70
0
 71
3
 72
8
 73
4
 74
0
 42
0.0000001
 43
0.0000001
 44
0.0000000001
 40
0.0
 40
0.0
 40
0.0
 40
0.0
 40
1.0
 40
1.0
 40
1.0
 40
1.0
 10
278.3302738536
 20
311.1617467223
 30
0.0
 10
278.2770470634
 20
311.1310164041
 30
0.0
 10
278.2253383841
 20
311.0974238622
 30
0.0
 10
278.1759670334
 20
311.060819035
 30
0.0
  0
SPLINE
  5
371
100
AcDbEntity
  8
0
100
AcDbSpline
 62
7
  6
CONTINUOUS
 70
0
 71
3
 72
8
 73
4
 74
0
 42
0.0000001
 43
0.0000001
 44
0.0000000001
 40
0.0
 40
0.0
 40
0.0
 40
0.0
 40
1.0
 40
1.0
 40
1.0
 40
1.0
 10
278.1759670334
 20
311.060819035
 30
0.0
 10
278.1165735539
 20
311.0167836174
 30
0.0
 10
278.0601879372
 20
310.9681243695
 30
0.0
 10
278.0091377559
 20
310.9146399567
 30
0.0
  0
SPLINE
  5
372
100
AcDbEntity
  8
0
100
AcDbSpline
 62
7
  6
CONTINUOUS
 70
0
 71
3
 72
8
 73
4
 74
0
 42
0.0000001
 43
0.0000001
 44
0.0000000001
 40
0.0
 40
0.0
 40
0.0
 40
0.0
 40
1.0
 40
1.0
 40
1.0
 40
1.0
 10
118.5234759704
 20
403.4241572439
 30
0.0
 10
118.4702491802
 20
403.3934269257
 30
0.0
 10
118.4185405009
 20
403.3598343838
 30
0.0
 10
118.3691691501
 20
403.3232295566
 30
0.0
  0
SPLINE
  5
373
100
AcDbEntity
  8
0
100
AcDbSpline
 62
7
  6
CONTINUOUS
 70
0
 71
3
 72
8
 73
4
 74
0
 42
0.0000001
 43
0.0000001
 44
0.0000000001
 40
0.0
 40
0.0
 40
0.0
 40
0.0
 40
1.0
 40
1.0
 40
1.0
 40
1.0
 10
118.3691691501
 20
403.3232295566
 30
0.0
 10
118.3097756706
 20
403.279194139
 30
0.0
 10
118.253390054
 20
403.2305348911
 30
0.0
 10
118.2023398727
 20
403.1770504783
 30
0.0
  0
SPLINE
  5
374
100
AcDbEntity
  8
0
100
AcDbSpline
 62
7
  6
CONTINUOUS
 70
0
 71
3
 72
9
 73
5
 74
0
 42
0.0000001
 43
0.0000001
 44
0.0000000001
 40
0.0
 40
0.0
 40
0.0
 40
0.0
 40
0.5501449867
 40
1.0
 40
1.0
 40
1.0
 40
1.0
 10
257.4002222471
 20
268.2962387213
 30
0.0
 10
257.0984016175
 20
268.2575482404
 30
0.0
 10
256.5682454065
 20
268.0390496589
 30
0.0
 10
256.1424753913
 20
267.6731989131
 30
0.0
 10
255.9860086848
 20
267.4797329049
 30
0.0
  0
SPLINE
  5
375
100
AcDbEntity
  8
0
100
AcDbSpline
 62
7
  6
CONTINUOUS
 70
0
 71
3
 72
9
 73
5
 74
0
 42
0.0000001
 43
0.0000001
 44
0.0000000001
 40
0.0
 40
0.0
 40
0.0
 40
0.0
 40
0.2772802003
 40
1.0
 40
1.0
 40
1.0
 40
1.0
 10
346.3589066193
 20
319.8253493815
 30
0.0
 10
346.3525682221
 20
319.829008746
 30
0.0
 10
346.3284662408
 20
319.8001284008
 30
0.0
 10
346.3163873897
 20
319.7840049168
 30
0.0
 10
346.3062793543
 20
319.7678266291
 30
0.0
  0
SPLINE
  5
376
100
AcDbEntity
  8
0
100
AcDbSpline
 62
7
  6
CONTINUOUS
 70
0
 71
3
 72
9
 73
5
 74
0
 42
0.0000001
 43
0.0000001
 44
0.0000000001
 40
0.0
 40
0.0
 40
0.0
 40
0.0
 40
0.1934275468
 40
1.0
 40
1.0
 40
1.0
 40
1.0
 10
346.3062793543
 20
319.7678266291
 30
0.0
 10
346.2988460786
 20
319.7559293943
 30
0.0
 10
346.2626411893
 20
319.6930426108
 30
0.0
 10
346.2334611653
 20
319.6263034512
 30
0.0
 10
346.2124642012
 20
319.5717044476
 30
0.0
  0
SPLINE
  5
377
100
AcDbEntity
  8
0
100
AcDbSpline
 62
7
  6
CONTINUOUS
 70
0
 71
3
 72
9
 73
5
 74
0
 42
0.0000001
 43
0.0000001
 44
0.0000000001
 40
0.0
 40
0.0
 40
0.0
 40
0.0
 40
0.4594134537
 40
1.0
 40
1.0
 40
1.0
 40
1.0
 10
121.7669536325
 20
403.6283027991
 30
0.0
 10
121.7670096135
 20
403.5045974599
 30
0.0
 10
121.6805581693
 20
403.2332042876
 30
0.0
 10
121.4817310569
 20
403.0402726645
 30
0.0
 10
121.3648024752
 20
402.9535766571
 30
0.0
  0
SPLINE
  5
378
100
AcDbEntity
  8
0
100
AcDbSpline
 62
7
  6
CONTINUOUS
 70
0
 71
3
 72
8
 73
4
 74
0
 42
0.0000001
 43
0.0000001
 44
0.0000000001
 40
0.0
 40
0.0
 40
0.0
 40
0.0
 40
1.0
 40
1.0
 40
1.0
 40
1.0
 10
121.3648024752
 20
402.9535766571
 30
0.0
 10
121.3154305792
 20
402.9169701559
 30
0.0
 10
121.2637209589
 20
402.883376313
 30
0.0
 10
121.2104929259
 20
402.8526452773
 30
0.0
  0
SPLINE
  5
379
100
AcDbEntity
  8
0
100
AcDbSpline
 62
7
  6
CONTINUOUS
 70
0
 71
3
 72
8
 73
4
 74
0
 42
0.0000001
 43
0.0000001
 44
0.0000000001
 40
0.0
 40
0.0
 40
0.0
 40
0.0
 40
1.0
 40
1.0
 40
1.0
 40
1.0
 10
121.5322642939
 20
403.1765029948
 30
0.0
 10
121.4805765875
 20
403.2307812784
 30
0.0
 10
121.4233502369
 20
403.2800628017
 30
0.0
 10
121.3630496284
 20
403.3245778292
 30
0.0
  0
SPLINE
  5
37A
100
AcDbEntity
  8
0
100
AcDbSpline
 62
7
  6
CONTINUOUS
 70
0
 71
3
 72
8
 73
4
 74
0
 42
0.0000001
 43
0.0000001
 44
0.0000000001
 40
0.0
 40
0.0
 40
0.0
 40
0.0
 40
1.0
 40
1.0
 40
1.0
 40
1.0
 10
121.3630496284
 20
403.3245778292
 30
0.0
 10
121.3158073694
 20
403.359452941
 30
0.0
 10
121.266441291
 20
403.3915719067
 30
0.0
 10
121.2156875085
 20
403.4211042285
 30
0.0
  0
SPLINE
  5
37B
100
AcDbEntity
  8
0
100
AcDbSpline
 62
7
  6
CONTINUOUS
 70
0
 71
3
 72
11
 73
7
 74
0
 42
0.0000001
 43
0.0000001
 44
0.0000000001
 40
0.0
 40
0.0
 40
0.0
 40
0.0
 40
0.2369608633
 40
0.4997120899
 40
0.7626392301
 40
1.0
 40
1.0
 40
1.0
 40
1.0
 10
121.2156875085
 20
403.4211042285
 30
0.0
 10
121.0251398624
 20
403.531979007
 30
0.0
 10
120.5811756794
 20
403.693952914
 30
0.0
 10
119.8706558062
 20
403.7720785874
 30
0.0
 10
119.1595893118
 20
403.6955156603
 30
0.0
 10
118.7147204816
 20
403.5345716549
 30
0.0
 10
118.5234759704
 20
403.4241572439
 30
0.0
  0
SPLINE
  5
37C
100
AcDbEntity
  8
0
100
AcDbSpline
 62
7
  6
CONTINUOUS
 70
0
 71
3
 72
9
 73
5
 74
0
 42
0.0000001
 43
0.0000001
 44
0.0000000001
 40
0.0
 40
0.0
 40
0.0
 40
0.0
 40
0.3046846476
 40
1.0
 40
1.0
 40
1.0
 40
1.0
 10
346.2124642012
 20
319.5717044476
 30
0.0
 10
346.2342908721
 20
319.5682609261
 30
0.0
 10
346.3061136596
 20
319.558449127
 30
0.0
 10
346.3788208891
 20
319.5531305632
 30
0.0
 10
346.4292166807
 20
319.5548855323
 30
0.0
  0
SPLINE
  5
37D
100
AcDbEntity
  8
0
100
AcDbSpline
 62
7
  6
CONTINUOUS
 70
0
 71
3
 72
9
 73
5
 74
0
 42
0.0000001
 43
0.0000001
 44
0.0000000001
 40
0.0
 40
0.0
 40
0.0
 40
0.0
 40
0.7227334254
 40
1.0
 40
1.0
 40
1.0
 40
1.0
 10
346.4292166807
 20
319.5548855323
 30
0.0
 10
346.4482834388
 20
319.5555495078
 30
0.0
 10
346.4682861741
 20
319.5579490634
 30
0.0
 10
346.5053544785
 20
319.5643770276
 30
0.0
 10
346.505354476
 20
319.5716961567
 30
0.0
  0
SPLINE
  5
37E
100
AcDbEntity
  8
0
100
AcDbSpline
 62
7
  6
CONTINUOUS
 70
0
 71
3
 72
9
 73
5
 74
0
 42
0.0000001
 43
0.0000001
 44
0.0000000001
 40
0.0
 40
0.0
 40
0.0
 40
0.0
 40
0.4498544101
 40
1.0
 40
1.0
 40
1.0
 40
1.0
 10
255.9860086848
 20
267.4797329049
 30
0.0
 10
256.2317871259
 20
267.5185094137
 30
0.0
 10
256.7615045548
 20
267.7043179805
 30
0.0
 10
257.2158055379
 20
268.054199106
 30
0.0
 10
257.4002222471
 20
268.2962387213
 30
0.0
  0
SPLINE
  5
37F
100
AcDbEntity
  8
0
100
AcDbSpline
 62
7
  6
CONTINUOUS
 70
0
 71
3
 72
11
 73
7
 74
0
 42
0.0000001
 43
0.0000001
 44
0.0000000001
 40
0.0
 40
0.0
 40
0.0
 40
0.0
 40
0.2177293803
 40
0.4508671862
 40
0.7104534375
 40
1.0
 40
1.0
 40
1.0
 40
1.0
 10
245.2900990399
 20
217.4281739282
 30
0.0
 10
245.2900956042
 20
217.2646321178
 30
0.0
 10
245.2299757553
 20
216.9236634397
 30
0.0
 10
244.9713479807
 20
216.4484687836
 30
0.0
 10
244.5624929868
 20
216.0192434241
 30
0.0
 10
244.2207013095
 20
215.7835674477
 30
0.0
 10
244.0323531165
 20
215.6748252169
 30
0.0
  0
SPLINE
  5
380
100
AcDbEntity
  8
0
100
AcDbSpline
 62
7
  6
CONTINUOUS
 70
0
 71
3
 72
15
 73
11
 74
0
 42
0.0000001
 43
0.0000001
 44
0.0000000001
 40
0.0
 40
0.0
 40
0.0
 40
0.0
 40
0.086894768
 40
0.1861907894
 40
0.3032771841
 40
0.4367578782
 40
0.581038112
 40
0.7283624546
 40
0.8704820917
 40
1.0
 40
1.0
 40
1.0
 40
1.0
 10
245.2900990399
 20
237.3508329062
 30
0.0
 10
245.2901042112
 20
237.5969957222
 30
0.0
 10
245.1427207125
 20
238.1293156284
 30
0.0
 10
244.5653927738
 20
238.7908384703
 30
0.0
 10
243.7121824642
 20
239.3155959225
 30
0.0
 10
242.6457196894
 20
239.6771371251
 30
0.0
 10
241.4482041378
 20
239.8510996647
 30
0.0
 10
240.2139740023
 20
239.8239488806
 30
0.0
 10
239.0432102267
 20
239.5980147077
 30
0.0
 10
238.3221987772
 20
239.3086257791
 30
0.0
 10
238.0022119478
 20
239.1290963458
 30
0.0
  0
SPLINE
  5
381
100
AcDbEntity
  8
0
100
AcDbSpline
 62
7
  6
CONTINUOUS
 70
0
 71
3
 72
9
 73
5
 74
0
 42
0.0000001
 43
0.0000001
 44
0.0000000001
 40
0.0
 40
0.0
 40
0.0
 40
0.0
 40
0.4491586877
 40
1.0
 40
1.0
 40
1.0
 40
1.0
 10
243.7901553881
 20
237.3508323974
 30
0.0
 10
243.7903182212
 20
237.1331745433
 30
0.0
 10
243.599978759
 20
236.6473357663
 30
0.0
 10
243.2028590458
 20
236.3433108901
 30
0.0
 10
242.9716885288
 20
236.2098453266
 30
0.0
  0
SPLINE
  5
382
100
AcDbEntity
  8
0
100
AcDbSpline
 62
7
  6
CONTINUOUS
 70
0
 71
3
 72
11
 73
7
 74
0
 42
0.0000001
 43
0.0000001
 44
0.0000000001
 40
0.0
 40
0.0
 40
0.0
 40
0.0
 40
0.2177293803
 40
0.4508671862
 40
0.7104534375
 40
1.0
 40
1.0
 40
1.0
 40
1.0
 10
245.2900990399
 20
132.5119225467
 30
0.0
 10
245.2900956042
 20
132.3483807363
 30
0.0
 10
245.2299757553
 20
132.0074120582
 30
0.0
 10
244.9713479807
 20
131.5322174021
 30
0.0
 10
244.5624929868
 20
131.1029920426
 30
0.0
 10
244.2207013095
 20
130.8673160662
 30
0.0
 10
244.0323531165
 20
130.7585738354
 30
0.0
  0
SPLINE
  5
383
100
AcDbEntity
  8
0
100
AcDbSpline
 62
7
  6
CONTINUOUS
 70
0
 71
3
 72
9
 73
5
 74
0
 42
0.0000001
 43
0.0000001
 44
0.0000000001
 40
0.0
 40
0.0
 40
0.0
 40
0.0
 40
0.4498549249
 40
1.0
 40
1.0
 40
1.0
 40
1.0
 10
137.1908235598
 20
280.5397811845
 30
0.0
 10
137.0343568843
 20
280.3463152145
 30
0.0
 10
136.6085868828
 20
279.9804644622
 30
0.0
 10
136.0784306752
 20
279.7619658552
 30
0.0
 10
135.7766099974
 20
279.723275368
 30
0.0
  0
SPLINE
  5
384
100
AcDbEntity
  8
0
100
AcDbSpline
 62
7
  6
CONTINUOUS
 70
0
 71
3
 72
9
 73
5
 74
0
 42
0.0000001
 43
0.0000001
 44
0.0000000001
 40
0.0
 40
0.0
 40
0.0
 40
0.0
 40
0.5501455015
 40
1.0
 40
1.0
 40
1.0
 40
1.0
 10
135.7766099974
 20
279.723275368
 30
0.0
 10
135.9610266772
 20
279.9653149448
 30
0.0
 10
136.4153276399
 20
280.315196086
 30
0.0
 10
136.9450450701
 20
280.501004668
 30
0.0
 10
137.1908235598
 20
280.5397811845
 30
0.0
  0
SPLINE
  5
385
100
AcDbEntity
  8
0
100
AcDbSpline
 62
7
  6
CONTINUOUS
 70
0
 71
3
 72
15
 73
11
 74
0
 42
0.0000001
 43
0.0000001
 44
0.0000000001
 40
0.0
 40
0.0
 40
0.0
 40
0.0
 40
0.086894768
 40
0.1861907894
 40
0.3032771841
 40
0.4367578782
 40
0.581038112
 40
0.7283624546
 40
0.8704820917
 40
1.0
 40
1.0
 40
1.0
 40
1.0
 10
245.2900990399
 20
152.4345815247
 30
0.0
 10
245.2901042112
 20
152.6807443407
 30
0.0
 10
245.1427207125
 20
153.2130642469
 30
0.0
 10
244.5653927738
 20
153.8745870889
 30
0.0
 10
243.7121824642
 20
154.3993445411
 30
0.0
 10
242.6457196894
 20
154.7608857436
 30
0.0
 10
241.4482041378
 20
154.9348482832
 30
0.0
 10
240.2139740023
 20
154.9076974991
 30
0.0
 10
239.0432102267
 20
154.6817633262
 30
0.0
 10
238.3221987772
 20
154.3923743976
 30
0.0
 10
238.0022119478
 20
154.2128449644
 30
0.0
  0
SPLINE
  5
386
100
AcDbEntity
  8
0
100
AcDbSpline
 62
7
  6
CONTINUOUS
 70
0
 71
3
 72
11
 73
7
 74
0
 42
0.0000001
 43
0.0000001
 44
0.0000000001
 40
0.0
 40
0.0
 40
0.0
 40
0.0
 40
0.2895385909
 40
0.5491110546
 40
0.7822561902
 40
1.0
 40
1.0
 40
1.0
 40
1.0
 10
145.1813047644
 20
281.8875485132
 30
0.0
 10
145.3567196686
 20
281.7862749622
 30
0.0
 10
145.7059570939
 20
281.6203375666
 30
0.0
 10
146.242548219
 20
281.490467052
 30
0.0
 10
146.7462717981
 20
281.5031264142
 30
0.0
 10
147.0493017368
 20
281.6134207388
 30
0.0
 10
147.1812233571
 20
281.6895768957
 30
0.0
  0
SPLINE
  5
387
100
AcDbEntity
  8
0
100
AcDbSpline
 62
7
  6
CONTINUOUS
 70
0
 71
3
 72
9
 73
5
 74
0
 42
0.0000001
 43
0.0000001
 44
0.0000000001
 40
0.0
 40
0.0
 40
0.0
 40
0.0
 40
0.4491586877
 40
1.0
 40
1.0
 40
1.0
 40
1.0
 10
243.7901553881
 20
152.4345810159
 30
0.0
 10
243.7903182212
 20
152.2169231618
 30
0.0
 10
243.599978759
 20
151.7310843848
 30
0.0
 10
243.2028590458
 20
151.4270595087
 30
0.0
 10
242.9716885288
 20
151.2935939451
 30
0.0
  0
SPLINE
  5
388
100
AcDbEntity
  8
0
100
AcDbSpline
 62
7
  6
CONTINUOUS
 70
0
 71
3
 72
11
 73
7
 74
0
 42
0.0000001
 43
0.0000001
 44
0.0000000001
 40
0.0
 40
0.0
 40
0.0
 40
0.0
 40
0.2895385909
 40
0.5491110546
 40
0.7822561902
 40
1.0
 40
1.0
 40
1.0
 40
1.0
 10
145.1813047644
 20
383.9503506544
 30
0.0
 10
145.3567196686
 20
383.8490771033
 30
0.0
 10
145.7059570939
 20
383.6831397078
 30
0.0
 10
146.242548219
 20
383.5532691932
 30
0.0
 10
146.7462717981
 20
383.5659285554
 30
0.0
 10
147.0493017368
 20
383.67622288
 30
0.0
 10
147.1812233571
 20
383.7523790369
 30
0.0
  0
SPLINE
  5
389
100
AcDbEntity
  8
0
100
AcDbSpline
 62
7
  6
CONTINUOUS
 70
0
 71
3
 72
8
 73
4
 74
0
 42
0.0000001
 43
0.0000001
 44
0.0000000001
 40
0.0
 40
0.0
 40
0.0
 40
0.0
 40
1.0
 40
1.0
 40
1.0
 40
1.0
 10
241.6552769441
 20
129.3268167992
 30
0.0
 10
241.4563546896
 20
129.4044985892
 30
0.0
 10
241.2481619755
 20
129.4609776071
 30
0.0
 10
241.0377233932
 20
129.4973111576
 30
0.0
  0
LINE
  5
38A
100
AcDbEntity
  8
0
100
AcDbLine
 62
7
  6
CONTINUOUS
 10
242.7692908484
 20
259.9348358092
 11
242.8092700916
 21
259.945824737
  0
SPLINE
  5
38B
100
AcDbEntity
  8
0
100
AcDbSpline
 62
7
  6
CONTINUOUS
 70
0
 71
3
 72
9
 73
5
 74
0
 42
0.0000001
 43
0.0000001
 44
0.0000000001
 40
0.0
 40
0.0
 40
0.0
 40
0.0
 40
0.264509825
 40
1.0
 40
1.0
 40
1.0
 40
1.0
 10
242.8092700916
 20
259.945824737
 30
0.0
 10
242.8300851136
 20
259.951540217
 30
0.0
 10
242.908791867
 20
259.9730917345
 30
0.0
 10
242.987640513
 20
259.9941665112
 30
0.0
 10
243.0459077801
 20
260.0085654896
 30
0.0
  0
SPLINE
  5
38C
100
AcDbEntity
  8
0
100
AcDbSpline
 62
7
  6
CONTINUOUS
 70
0
 71
3
 72
9
 73
5
 74
0
 42
0.0000001
 43
0.0000001
 44
0.0000000001
 40
0.0
 40
0.0
 40
0.0
 40
0.0
 40
0.2373795343
 40
1.0
 40
1.0
 40
1.0
 40
1.0
 10
241.8338989531
 20
129.8186322706
 30
0.0
 10
241.8535190275
 20
129.7992674199
 30
0.0
 10
241.9361708054
 20
129.7176904833
 30
0.0
 10
242.0183025393
 20
129.6355729967
 30
0.0
 10
242.0800048896
 20
129.572040604
 30
0.0
  0
SPLINE
  5
38D
100
AcDbEntity
  8
0
100
AcDbSpline
 62
7
  6
CONTINUOUS
 70
0
 71
3
 72
9
 73
5
 74
0
 42
0.0000001
 43
0.0000001
 44
0.0000000001
 40
0.0
 40
0.0
 40
0.0
 40
0.0
 40
0.236971845
 40
1.0
 40
1.0
 40
1.0
 40
1.0
 10
242.2886793213
 20
129.3488785846
 30
0.0
 10
242.3602456476
 20
129.2690051094
 30
0.0
 10
242.6537634061
 20
128.924844513
 30
0.0
 10
242.9027208541
 20
128.5393095928
 30
0.0
 10
243.0459077801
 20
128.2250753649
 30
0.0
  0
SPLINE
  5
38E
100
AcDbEntity
  8
0
100
AcDbSpline
 62
7
  6
CONTINUOUS
 70
0
 71
3
 72
10
 73
6
 74
0
 42
0.0000001
 43
0.0000001
 44
0.0000000001
 40
0.0
 40
0.0
 40
0.0
 40
0.0
 40
0.4393478709
 40
0.7071062822
 40
1.0
 40
1.0
 40
1.0
 40
1.0
 10
67.5070974854
 20
231.3341939402
 30
0.0
 10
67.2683220542
 20
231.8095972973
 30
0.0
 10
66.5813339324
 20
232.4134479887
 30
0.0
 10
65.4844779046
 20
232.9179818876
 30
0.0
 10
64.8246231892
 20
233.0981530591
 30
0.0
 10
64.4766294747
 20
233.1665912031
 30
0.0
  0
SPLINE
  5
38F
100
AcDbEntity
  8
0
100
AcDbSpline
 62
7
  6
CONTINUOUS
 70
0
 71
3
 72
13
 73
9
 74
0
 42
0.0000001
 43
0.0000001
 44
0.0000000001
 40
0.0
 40
0.0
 40
0.0
 40
0.0
 40
0.2699335874
 40
0.5613258182
 40
0.6954698829
 40
0.8131403132
 40
0.9128521763
 40
1.0
 40
1.0
 40
1.0
 40
1.0
 10
118.5234759704
 20
242.0832796191
 30
0.0
 10
118.8174417194
 20
242.2529998103
 30
0.0
 10
119.5200677792
 20
242.4431368205
 30
0.0
 10
120.4084575026
 20
242.3981599424
 30
0.0
 10
121.0607416744
 20
242.1808053915
 30
0.0
 10
121.4422248515
 20
241.9482057158
 30
0.0
 10
121.7006762802
 20
241.65430806
 30
0.0
 10
121.7669040399
 20
241.4172107852
 30
0.0
 10
121.7669536325
 20
241.3076222738
 30
0.0
  0
SPLINE
  5
390
100
AcDbEntity
  8
0
100
AcDbSpline
 62
7
  6
CONTINUOUS
 70
0
 71
3
 72
9
 73
5
 74
0
 42
0.0000001
 43
0.0000001
 44
0.0000000001
 40
0.0
 40
0.0
 40
0.0
 40
0.0
 40
0.5000005437
 40
1.0
 40
1.0
 40
1.0
 40
1.0
 10
243.0459077801
 20
257.1916321505
 30
0.0
 10
242.8360273469
 20
257.3128039338
 30
0.0
 10
242.3388003068
 20
257.4086321166
 30
0.0
 10
241.8415733207
 20
257.3128017844
 30
0.0
 10
241.6316942177
 20
257.1916287512
 30
0.0
  0
SPLINE
  5
391
100
AcDbEntity
  8
0
100
AcDbSpline
 62
7
  6
CONTINUOUS
 70
0
 71
3
 72
12
 73
8
 74
0
 42
0.0000001
 43
0.0000001
 44
0.0000000001
 40
0.0
 40
0.0
 40
0.0
 40
0.0
 40
0.1833539553
 40
0.3015261608
 40
0.4362507104
 40
0.7288553884
 40
1.0
 40
1.0
 40
1.0
 40
1.0
 10
238.2426298633
 20
244.7487310215
 30
0.0
 10
238.3472636198
 20
244.6883189667
 30
0.0
 10
238.4516179556
 20
244.4840528112
 30
0.0
 10
238.4539141837
 20
244.1977950581
 30
0.0
 10
238.3824975771
 20
243.8420299308
 30
0.0
 10
238.1688147243
 20
243.4258913101
 30
0.0
 10
237.8973661276
 20
243.1555372875
 30
0.0
 10
237.742631945
 20
243.0662019987
 30
0.0
  0
SPLINE
  5
392
100
AcDbEntity
  8
0
100
AcDbSpline
 62
7
  6
CONTINUOUS
 70
0
 71
3
 72
11
 73
7
 74
0
 42
0.0000001
 43
0.0000001
 44
0.0000000001
 40
0.0
 40
0.0
 40
0.0
 40
0.0
 40
0.2372423294
 40
0.4999983821
 40
0.7627553152
 40
1.0
 40
1.0
 40
1.0
 40
1.0
 10
237.742631945
 20
253.7215585423
 30
0.0
 10
237.5418521967
 20
253.6056389925
 30
0.0
 10
237.1619213134
 20
253.2858481092
 30
0.0
 10
236.7184803567
 20
252.6798633299
 30
0.0
 10
236.4154052765
 20
251.9928361072
 30
0.0
 10
236.3284242705
 20
251.5039078395
 30
0.0
 10
236.3284242705
 20
251.2720654003
 30
0.0
  0
SPLINE
  5
393
100
AcDbEntity
  8
0
100
AcDbSpline
 62
7
  6
CONTINUOUS
 70
0
 71
3
 72
15
 73
11
 74
0
 42
0.0000001
 43
0.0000001
 44
0.0000000001
 40
0.0
 40
0.0
 40
0.0
 40
0.0
 40
0.0869354378
 40
0.1864073112
 40
0.3037994922
 40
0.4376155045
 40
0.5821180193
 40
0.7294355102
 40
0.8711773053
 40
1.0
 40
1.0
 40
1.0
 40
1.0
 10
158.9342417626
 20
285.0110033199
 30
0.0
 10
159.283993717
 20
285.2127412812
 30
0.0
 10
159.9186794006
 20
285.8608282059
 30
0.0
 10
160.3804574675
 20
287.2269405448
 30
0.0
 10
160.4193802858
 20
288.8725651701
 30
0.0
 10
160.0497063916
 20
290.6854832265
 30
0.0
 10
159.3053791156
 20
292.5272976405
 30
0.0
 10
158.2456476709
 20
294.2509089463
 30
0.0
 10
156.9582766032
 20
295.715494958
 30
0.0
 10
155.9524600903
 20
296.4894682395
 30
0.0
 10
155.434310404
 20
296.7886153328
 30
0.0
  0
SPLINE
  5
394
100
AcDbEntity
  8
0
100
AcDbSpline
 62
7
  6
CONTINUOUS
 70
0
 71
3
 72
8
 73
4
 74
0
 42
0.0000001
 43
0.0000001
 44
0.0000000001
 40
0.0
 40
0.0
 40
0.0
 40
0.0
 40
1.0
 40
1.0
 40
1.0
 40
1.0
 10
243.0459077801
 20
128.2250753649
 30
0.0
 10
242.7867356893
 20
128.5883812274
 30
0.0
 10
242.4474001091
 20
128.908714066
 30
0.0
 10
242.0609125022
 20
129.1318477749
 30
0.0
  0
SPLINE
  5
395
100
AcDbEntity
  8
0
100
AcDbSpline
 62
7
  6
CONTINUOUS
 70
0
 71
3
 72
9
 73
5
 74
0
 42
0.0000001
 43
0.0000001
 44
0.0000000001
 40
0.0
 40
0.0
 40
0.0
 40
0.0
 40
0.2209367731
 40
1.0
 40
1.0
 40
1.0
 40
1.0
 10
218.3911156231
 20
154.0783039012
 30
0.0
 10
218.4042814284
 20
154.1398669053
 30
0.0
 10
218.5045429252
 20
154.4106117514
 30
0.0
 10
218.7410187302
 20
154.6086407464
 30
0.0
 10
218.9332689068
 20
154.7196357751
 30
0.0
  0
SPLINE
  5
396
100
AcDbEntity
  8
0
100
AcDbSpline
 62
7
  6
CONTINUOUS
 70
0
 71
3
 72
8
 73
4
 74
0
 42
0.0000001
 43
0.0000001
 44
0.0000000001
 40
0.0
 40
0.0
 40
0.0
 40
0.0
 40
1.0
 40
1.0
 40
1.0
 40
1.0
 10
236.6181574648
 20
242.3905646645
 30
0.0
 10
236.6129979496
 20
242.4074578952
 30
0.0
 10
236.6328087888
 20
242.4254491256
 30
0.0
 10
236.6481059153
 20
242.434280873
 30
0.0
  0
SPLINE
  5
397
100
AcDbEntity
  8
0
100
AcDbSpline
 62
7
  6
CONTINUOUS
 70
0
 71
3
 72
13
 73
9
 74
0
 42
0.0000001
 43
0.0000001
 44
0.0000000001
 40
0.0
 40
0.0
 40
0.0
 40
0.0
 40
0.2709651261
 40
0.5621788698
 40
0.6959816228
 40
0.8133574981
 40
0.9128960069
 40
1.0
 40
1.0
 40
1.0
 40
1.0
 10
239.0475879717
 20
238.5080338468
 30
0.0
 10
239.4821869113
 20
238.7518666992
 30
0.0
 10
240.5122596
 20
239.02299765
 30
0.0
 10
241.8121671638
 20
238.9509795376
 30
0.0
 10
242.7633056187
 20
238.629523628
 30
0.0
 10
243.3185491241
 20
238.287936277
 30
0.0
 10
243.6943745022
 20
237.8574599855
 30
0.0
 10
243.7900355464
 20
237.5110240009
 30
0.0
 10
243.7901553881
 20
237.3508323974
 30
0.0
  0
SPLINE
  5
398
100
AcDbEntity
  8
0
100
AcDbSpline
 62
7
  6
CONTINUOUS
 70
0
 71
3
 72
11
 73
7
 74
0
 42
0.0000001
 43
0.0000001
 44
0.0000000001
 40
0.0
 40
0.0
 40
0.0
 40
0.0
 40
0.2895465625
 40
0.5491328138
 40
0.7822706197
 40
1.0
 40
1.0
 40
1.0
 40
1.0
 10
244.0323531165
 20
235.5974841948
 30
0.0
 10
244.2207013095
 20
235.7062264257
 30
0.0
 10
244.5624929868
 20
235.941902402
 30
0.0
 10
244.9713479807
 20
236.3711277616
 30
0.0
 10
245.2299757553
 20
236.8463224177
 30
0.0
 10
245.2900956042
 20
237.1872910957
 30
0.0
 10
245.2900990399
 20
237.3508329062
 30
0.0
  0
SPLINE
  5
399
100
AcDbEntity
  8
0
100
AcDbSpline
 62
7
  6
CONTINUOUS
 70
0
 71
3
 72
12
 73
8
 74
0
 42
0.0000001
 43
0.0000001
 44
0.0000000001
 40
0.0
 40
0.0
 40
0.0
 40
0.0
 40
0.1938279612
 40
0.3159181023
 40
0.4513408996
 40
0.7375760932
 40
1.0
 40
1.0
 40
1.0
 40
1.0
 10
236.7657575748
 20
236.920241442
 30
0.0
 10
236.9182267883
 20
236.4210283344
 30
0.0
 10
237.5772830104
 20
235.753237597
 30
0.0
 10
238.669006766
 20
235.2326608706
 30
0.0
 10
240.0947443431
 20
234.8518860695
 30
0.0
 10
241.9614876217
 20
234.8217853726
 30
0.0
 10
243.4203268046
 20
235.2441327481
 30
0.0
 10
244.0323531165
 20
235.5974841948
 30
0.0
  0
SPLINE
  5
39A
100
AcDbEntity
  8
0
100
AcDbSpline
 62
7
  6
CONTINUOUS
 70
0
 71
3
 72
11
 73
7
 74
0
 42
0.0000001
 43
0.0000001
 44
0.0000000001
 40
0.0
 40
0.0
 40
0.0
 40
0.0
 40
0.2177453337
 40
0.4508894043
 40
0.7104568613
 40
1.0
 40
1.0
 40
1.0
 40
1.0
 10
152.7272866434
 20
396.1916399886
 30
0.0
 10
152.8592112627
 20
396.2677932179
 30
0.0
 10
153.1622403058
 20
396.3780895727
 30
0.0
 10
153.6659610529
 20
396.3907444114
 30
0.0
 10
154.2025534554
 20
396.2608842269
 30
0.0
 10
154.5517888294
 20
396.0949412554
 30
0.0
 10
154.7272065668
 20
395.9936660687
 30
0.0
  0
SPLINE
  5
39B
100
AcDbEntity
  8
0
100
AcDbSpline
 62
7
  6
CONTINUOUS
 70
0
 71
3
 72
9
 73
5
 74
0
 42
0.0000001
 43
0.0000001
 44
0.0000000001
 40
0.0
 40
0.0
 40
0.0
 40
0.0
 40
0.2209367731
 40
1.0
 40
1.0
 40
1.0
 40
1.0
 10
126.466851354
 20
207.1496019889
 30
0.0
 10
126.4800171593
 20
207.2111649929
 30
0.0
 10
126.5802786561
 20
207.481909839
 30
0.0
 10
126.8167544611
 20
207.6799388341
 30
0.0
 10
127.0090046377
 20
207.7909338628
 30
0.0
  0
SPLINE
  5
39C
100
AcDbEntity
  8
0
100
AcDbSpline
 62
7
  6
CONTINUOUS
 70
0
 71
3
 72
9
 73
5
 74
0
 42
0.0000001
 43
0.0000001
 44
0.0000000001
 40
0.0
 40
0.0
 40
0.0
 40
0.0
 40
0.2392881778
 40
1.0
 40
1.0
 40
1.0
 40
1.0
 10
155.2418170349
 20
285.167922439
 30
0.0
 10
155.1791225772
 20
285.1589323565
 30
0.0
 10
154.9153460619
 20
285.1338819336
 30
0.0
 10
154.6480010344
 20
285.157797373
 30
0.0
 10
154.4504751997
 20
285.1968441741
 30
0.0
  0
SPLINE
  5
39D
100
AcDbEntity
  8
0
100
AcDbSpline
 62
7
  6
CONTINUOUS
 70
0
 71
3
 72
9
 73
5
 74
0
 42
0.0000001
 43
0.0000001
 44
0.0000000001
 40
0.0
 40
0.0
 40
0.0
 40
0.0
 40
0.241355873
 40
1.0
 40
1.0
 40
1.0
 40
1.0
 10
154.4504751997
 20
285.1968441741
 30
0.0
 10
154.4027812254
 20
285.2062722934
 30
0.0
 10
154.2061863474
 20
285.2504074833
 30
0.0
 10
154.0141126662
 20
285.3138310705
 30
0.0
 10
153.8721231389
 20
285.3703251115
 30
0.0
  0
SPLINE
  5
39E
100
AcDbEntity
  8
0
100
AcDbSpline
 62
7
  6
CONTINUOUS
 70
0
 71
3
 72
13
 73
9
 74
0
 42
0.0000001
 43
0.0000001
 44
0.0000000001
 40
0.0
 40
0.0
 40
0.0
 40
0.0
 40
0.2699335874
 40
0.5613258182
 40
0.6954698829
 40
0.8131403132
 40
0.9128521763
 40
1.0
 40
1.0
 40
1.0
 40
1.0
 10
118.5234759704
 20
404.4039601445
 30
0.0
 10
118.8174417194
 20
404.5736803357
 30
0.0
 10
119.5200677792
 20
404.7638173459
 30
0.0
 10
120.4084575026
 20
404.7188404678
 30
0.0
 10
121.0607416744
 20
404.5014859169
 30
0.0
 10
121.4422248515
 20
404.2688862411
 30
0.0
 10
121.7006762802
 20
403.9749885854
 30
0.0
 10
121.7669040399
 20
403.7378913105
 30
0.0
 10
121.7669536325
 20
403.6283027991
 30
0.0
  0
SPLINE
  5
39F
100
AcDbEntity
  8
0
100
AcDbSpline
 62
7
  6
CONTINUOUS
 70
0
 71
3
 72
13
 73
9
 74
0
 42
0.0000001
 43
0.0000001
 44
0.0000000001
 40
0.0
 40
0.0
 40
0.0
 40
0.0
 40
0.2699335874
 40
0.5613258182
 40
0.6954698829
 40
0.8131403132
 40
0.9128521763
 40
1.0
 40
1.0
 40
1.0
 40
1.0
 10
278.3302738536
 20
312.1415496229
 30
0.0
 10
278.6242396026
 20
312.3112698141
 30
0.0
 10
279.3268656624
 20
312.5014068243
 30
0.0
 10
280.2152553858
 20
312.4564299462
 30
0.0
 10
280.8675395576
 20
312.2390753953
 30
0.0
 10
281.2490227347
 20
312.0064757196
 30
0.0
 10
281.5074741634
 20
311.7125780638
 30
0.0
 10
281.5737019231
 20
311.4754807889
 30
0.0
 10
281.5737515157
 20
311.3658922775
 30
0.0
  0
SPLINE
  5
3A0
100
AcDbEntity
  8
0
100
AcDbSpline
 62
7
  6
CONTINUOUS
 70
0
 71
3
 72
13
 73
9
 74
0
 42
0.0000001
 43
0.0000001
 44
0.0000000001
 40
0.0
 40
0.0
 40
0.0
 40
0.0
 40
0.2699335874
 40
0.5613258182
 40
0.6954698829
 40
0.8131403132
 40
0.9128521763
 40
1.0
 40
1.0
 40
1.0
 40
1.0
 10
127.0090046377
 20
370.1116143881
 30
0.0
 10
127.3029703867
 20
370.2813345793
 30
0.0
 10
128.0055964466
 20
370.4714715895
 30
0.0
 10
128.8939861699
 20
370.4264947114
 30
0.0
 10
129.5462703417
 20
370.2091401605
 30
0.0
 10
129.9277535189
 20
369.9765404848
 30
0.0
 10
130.1862049475
 20
369.682642829
 30
0.0
 10
130.2524327072
 20
369.4455455542
 30
0.0
 10
130.2524822999
 20
369.3359570428
 30
0.0
  0
SPLINE
  5
3A1
100
AcDbEntity
  8
0
100
AcDbSpline
 62
7
  6
CONTINUOUS
 70
0
 71
3
 72
13
 73
9
 74
0
 42
0.0000001
 43
0.0000001
 44
0.0000000001
 40
0.0
 40
0.0
 40
0.0
 40
0.0
 40
0.2699335874
 40
0.5613258182
 40
0.6954698829
 40
0.8131403132
 40
0.9128521763
 40
1.0
 40
1.0
 40
1.0
 40
1.0
 10
218.9332689068
 20
317.0403163005
 30
0.0
 10
219.2272346558
 20
317.2100364917
 30
0.0
 10
219.9298607157
 20
317.4001735019
 30
0.0
 10
220.8182504391
 20
317.3551966238
 30
0.0
 10
221.4705346108
 20
317.1378420729
 30
0.0
 10
221.852017788
 20
316.9052423972
 30
0.0
 10
222.1104692167
 20
316.6113447414
 30
0.0
 10
222.1766969763
 20
316.3742474665
 30
0.0
 10
222.176746569
 20
316.2646589551
 30
0.0
  0
SPLINE
  5
3A2
100
AcDbEntity
  8
0
100
AcDbSpline
 62
7
  6
CONTINUOUS
 70
0
 71
3
 72
13
 73
9
 74
0
 42
0.0000001
 43
0.0000001
 44
0.0000000001
 40
0.0
 40
0.0
 40
0.0
 40
0.0
 40
0.2699335874
 40
0.5613258182
 40
0.6954698829
 40
0.8131403132
 40
0.9128521763
 40
1.0
 40
1.0
 40
1.0
 40
1.0
 10
177.9204809171
 20
399.5051934669
 30
0.0
 10
178.2144466661
 20
399.6749136581
 30
0.0
 10
178.917072726
 20
399.8650506683
 30
0.0
 10
179.8054624493
 20
399.8200737902
 30
0.0
 10
180.4577466211
 20
399.6027192393
 30
0.0
 10
180.8392297982
 20
399.3701195635
 30
0.0
 10
181.0976812269
 20
399.0762219078
 30
0.0
 10
181.1639089866
 20
398.8391246329
 30
0.0
 10
181.1639585793
 20
398.7295361215
 30
0.0
  0
SPLINE
  5
3A3
100
AcDbEntity
  8
0
100
AcDbSpline
 62
7
  6
CONTINUOUS
 70
0
 71
3
 72
15
 73
11
 74
0
 42
0.0000001
 43
0.0000001
 44
0.0000000001
 40
0.0
 40
0.0
 40
0.0
 40
0.0
 40
0.0869357781
 40
0.1864067954
 40
0.3037976277
 40
0.4376116061
 40
0.5821168388
 40
0.7294261041
 40
0.8711884686
 40
1.0
 40
1.0
 40
1.0
 40
1.0
 10
147.1812233571
 20
383.7523790369
 30
0.0
 10
147.3810388217
 20
383.8677291806
 30
0.0
 10
147.7438057108
 20
384.2379207757
 30
0.0
 10
148.0076146741
 20
385.018614877
 30
0.0
 10
148.0298751258
 20
385.9589247335
 30
0.0
 10
147.8186603841
 20
386.9948832157
 30
0.0
 10
147.3932986393
 20
388.0472943066
 30
0.0
 10
146.7878126322
 20
389.0322983919
 30
0.0
 10
146.0520950793
 20
389.8691292574
 30
0.0
 10
145.4773616526
 20
390.3114453342
 30
0.0
 10
145.1813047644
 20
390.4823699914
 30
0.0
  0
SPLINE
  5
3A4
100
AcDbEntity
  8
0
100
AcDbSpline
 62
7
  6
CONTINUOUS
 70
0
 71
3
 72
13
 73
9
 74
0
 42
0.0000001
 43
0.0000001
 44
0.0000000001
 40
0.0
 40
0.0
 40
0.0
 40
0.0
 40
0.2699335874
 40
0.5613258182
 40
0.6954698829
 40
0.8131403132
 40
0.9128521763
 40
1.0
 40
1.0
 40
1.0
 40
1.0
 10
269.8447451862
 20
346.4338953792
 30
0.0
 10
270.1387109352
 20
346.6036155704
 30
0.0
 10
270.8413369951
 20
346.7937525806
 30
0.0
 10
271.7297267185
 20
346.7487757026
 30
0.0
 10
272.3820108902
 20
346.5314211517
 30
0.0
 10
272.7634940674
 20
346.2988214759
 30
0.0
 10
273.0219454961
 20
346.0049238201
 30
0.0
 10
273.0881732557
 20
345.7678265453
 30
0.0
 10
273.0882228484
 20
345.6582380339
 30
0.0
  0
SPLINE
  5
3A5
100
AcDbEntity
  8
0
100
AcDbSpline
 62
7
  6
CONTINUOUS
 70
0
 71
3
 72
11
 73
7
 74
0
 42
0.0000001
 43
0.0000001
 44
0.0000000001
 40
0.0
 40
0.0
 40
0.0
 40
0.0
 40
0.2372279391
 40
0.4999994739
 40
0.762771295
 40
1.0
 40
1.0
 40
1.0
 40
1.0
 10
132.5948829577
 20
406.8942729386
 30
0.0
 10
134.4017966691
 20
407.9374888292
 30
0.0
 10
138.6039278979
 20
409.4599565043
 30
0.0
 10
145.3227850079
 20
410.1892538852
 30
0.0
 10
152.0416522556
 20
409.4599871656
 30
0.0
 10
156.2438000119
 20
407.9375403557
 30
0.0
 10
158.0507270802
 20
406.8943341269
 30
0.0
  0
SPLINE
  5
3A6
100
AcDbEntity
  8
0
100
AcDbSpline
 62
7
  6
CONTINUOUS
 70
0
 71
3
 72
11
 73
7
 74
0
 42
0.0000001
 43
0.0000001
 44
0.0000000001
 40
0.0
 40
0.0
 40
0.0
 40
0.0
 40
0.2874497405
 40
0.5458126666
 40
0.7799406787
 40
1.0
 40
1.0
 40
1.0
 40
1.0
 10
285.8465391695
 20
333.1003770824
 30
0.0
 10
286.5644369242
 20
332.6498926191
 30
0.0
 10
287.8648950303
 20
331.6844171942
 30
0.0
 10
289.4073889387
 20
329.9524632678
 30
0.0
 10
290.3773384197
 20
328.0589199696
 30
0.0
 10
290.6024762143
 20
326.7114394025
 30
0.0
 10
290.6024762226
 20
326.0626035435
 30
0.0
  0
SPLINE
  5
3A7
100
AcDbEntity
  8
0
100
AcDbSpline
 62
7
  6
CONTINUOUS
 70
0
 71
3
 72
9
 73
5
 74
0
 42
0.0000001
 43
0.0000001
 44
0.0000000001
 40
0.0
 40
0.0
 40
0.0
 40
0.0
 40
0.2248545318
 40
1.0
 40
1.0
 40
1.0
 40
1.0
 10
255.1374840801
 20
266.9898399202
 30
0.0
 10
255.1544873803
 20
267.0478727501
 30
0.0
 10
255.2416856049
 20
267.3025272104
 30
0.0
 10
255.36766677
 20
267.5429957865
 30
0.0
 10
255.4792426712
 20
267.7190915653
 30
0.0
  0
SPLINE
  5
3A8
100
AcDbEntity
  8
0
100
AcDbSpline
 62
7
  6
CONTINUOUS
 70
0
 71
3
 72
9
 73
5
 74
0
 42
0.0000001
 43
0.0000001
 44
0.0000000001
 40
0.0
 40
0.0
 40
0.0
 40
0.0
 40
0.2414182583
 40
1.0
 40
1.0
 40
1.0
 40
1.0
 10
255.4792426712
 20
267.7190915653
 30
0.0
 10
255.5120241543
 20
267.770829268
 30
0.0
 10
255.6531834028
 20
267.9816919202
 30
0.0
 10
255.8146994148
 20
268.1788700314
 30
0.0
 10
255.9466680264
 20
268.3189533107
 30
0.0
  0
SPLINE
  5
3A9
100
AcDbEntity
  8
0
100
AcDbSpline
 62
7
  6
CONTINUOUS
 70
0
 71
3
 72
9
 73
5
 74
0
 42
0.0000001
 43
0.0000001
 44
0.0000000001
 40
0.0
 40
0.0
 40
0.0
 40
0.0
 40
0.7524742747
 40
1.0
 40
1.0
 40
1.0
 40
1.0
 10
255.9466680264
 20
268.3189533107
 30
0.0
 10
256.1605542029
 20
268.5459912151
 30
0.0
 10
256.4803999609
 20
268.8182470459
 30
0.0
 10
256.8379445014
 20
269.0287245431
 30
0.0
 10
256.9287209824
 20
269.0765525447
 30
0.0
  0
SPLINE
  5
3AA
100
AcDbEntity
  8
0
100
AcDbSpline
 62
7
  6
CONTINUOUS
 70
0
 71
3
 72
9
 73
5
 74
0
 42
0.0000001
 43
0.0000001
 44
0.0000000001
 40
0.0
 40
0.0
 40
0.0
 40
0.0
 40
0.255555437
 40
1.0
 40
1.0
 40
1.0
 40
1.0
 10
256.9287209824
 20
269.0765525447
 30
0.0
 10
256.9673323724
 20
269.0968959817
 30
0.0
 10
257.1199900397
 20
269.1734465683
 30
0.0
 10
257.2790741303
 20
269.2374922238
 30
0.0
 10
257.4002222471
 20
269.2760416219
 30
0.0
  0
SPLINE
  5
3AB
100
AcDbEntity
  8
0
100
AcDbSpline
 62
7
  6
CONTINUOUS
 70
0
 71
3
 72
9
 73
5
 74
0
 42
0.0000001
 43
0.0000001
 44
0.0000000001
 40
0.0
 40
0.0
 40
0.0
 40
0.0
 40
0.2209367731
 40
1.0
 40
1.0
 40
1.0
 40
1.0
 10
117.9813226866
 20
241.4419477452
 30
0.0
 10
117.9944884919
 20
241.5035107492
 30
0.0
 10
118.0947499887
 20
241.7742555954
 30
0.0
 10
118.3312257937
 20
241.9722845904
 30
0.0
 10
118.5234759704
 20
242.0832796191
 30
0.0
  0
SPLINE
  5
3AC
100
AcDbEntity
  8
0
100
AcDbSpline
 62
7
  6
CONTINUOUS
 70
0
 71
3
 72
9
 73
5
 74
0
 42
0.0000001
 43
0.0000001
 44
0.0000000001
 40
0.0
 40
0.0
 40
0.0
 40
0.0
 40
0.259925714
 40
1.0
 40
1.0
 40
1.0
 40
1.0
 10
240.7831625476
 20
259.6819485785
 30
0.0
 10
240.8993016478
 20
259.6707604188
 30
0.0
 10
241.348322795
 20
259.649994668
 30
0.0
 10
241.7982735267
 20
259.7057378648
 30
0.0
 10
242.1235123464
 20
259.7734285842
 30
0.0
  0
SPLINE
  5
3AD
100
AcDbEntity
  8
0
100
AcDbSpline
 62
7
  6
CONTINUOUS
 70
0
 71
3
 72
9
 73
5
 74
0
 42
0.0000001
 43
0.0000001
 44
0.0000000001
 40
0.0
 40
0.0
 40
0.0
 40
0.0
 40
0.2689773449
 40
1.0
 40
1.0
 40
1.0
 40
1.0
 10
242.1235123464
 20
259.7734285842
 30
0.0
 10
242.1819489469
 20
259.7855907717
 30
0.0
 10
242.3986034014
 20
259.83375807
 30
0.0
 10
242.6128760404
 20
259.8918220067
 30
0.0
 10
242.7692908484
 20
259.9348358092
 30
0.0
  0
SPLINE
  5
3AE
100
AcDbEntity
  8
0
100
AcDbSpline
 62
7
  6
CONTINUOUS
 70
0
 71
3
 72
9
 73
5
 74
0
 42
0.0000001
 43
0.0000001
 44
0.0000000001
 40
0.0
 40
0.0
 40
0.0
 40
0.0
 40
0.2209367731
 40
1.0
 40
1.0
 40
1.0
 40
1.0
 10
177.3783276334
 20
236.5431810676
 30
0.0
 10
177.3914934387
 20
236.6047440716
 30
0.0
 10
177.4917549355
 20
236.8754889178
 30
0.0
 10
177.7282307405
 20
237.0735179128
 30
0.0
 10
177.9204809171
 20
237.1845129415
 30
0.0
  0
SPLINE
  5
3AF
100
AcDbEntity
  8
0
100
AcDbSpline
 62
7
  6
CONTINUOUS
 70
0
 71
3
 72
15
 73
11
 74
0
 42
0.0000001
 43
0.0000001
 44
0.0000000001
 40
0.0
 40
0.0
 40
0.0
 40
0.0
 40
0.0869354378
 40
0.1864073112
 40
0.3037994922
 40
0.4376155045
 40
0.5821180193
 40
0.7294355102
 40
0.8711773053
 40
1.0
 40
1.0
 40
1.0
 40
1.0
 10
158.9342417626
 20
387.0738054611
 30
0.0
 10
159.283993717
 20
387.2755434224
 30
0.0
 10
159.9186794006
 20
387.9236303471
 30
0.0
 10
160.3804574675
 20
389.289742686
 30
0.0
 10
160.4193802858
 20
390.9353673112
 30
0.0
 10
160.0497063916
 20
392.7482853677
 30
0.0
 10
159.3053791156
 20
394.5900997817
 30
0.0
 10
158.2456476709
 20
396.3137110875
 30
0.0
 10
156.9582766032
 20
397.7782970992
 30
0.0
 10
155.9524600903
 20
398.5522703807
 30
0.0
 10
155.434310404
 20
398.851417474
 30
0.0
  0
SPLINE
  5
3B0
100
AcDbEntity
  8
0
100
AcDbSpline
 62
7
  6
CONTINUOUS
 70
0
 71
3
 72
9
 73
5
 74
0
 42
0.0000001
 43
0.0000001
 44
0.0000000001
 40
0.0
 40
0.0
 40
0.0
 40
0.0
 40
0.2209367731
 40
1.0
 40
1.0
 40
1.0
 40
1.0
 10
277.7881205699
 20
311.500217749
 30
0.0
 10
277.8012863752
 20
311.561780753
 30
0.0
 10
277.901547872
 20
311.8325255991
 30
0.0
 10
278.1380236769
 20
312.0305545942
 30
0.0
 10
278.3302738536
 20
312.1415496229
 30
0.0
  0
SPLINE
  5
3B1
100
AcDbEntity
  8
0
100
AcDbSpline
 62
7
  6
CONTINUOUS
 70
0
 71
3
 72
9
 73
5
 74
0
 42
0.0000001
 43
0.0000001
 44
0.0000000001
 40
0.0
 40
0.0
 40
0.0
 40
0.0
 40
0.2772716082
 40
1.0
 40
1.0
 40
1.0
 40
1.0
 10
346.505354476
 20
319.5716961567
 30
0.0
 10
346.5053544736
 20
319.5790137961
 30
0.0
 10
346.4682956847
 20
319.5854425831
 30
0.0
 10
346.448296783
 20
319.5878417504
 30
0.0
 10
346.4292344049
 20
319.5885061643
 30
0.0
  0
SPLINE
  5
3B2
100
AcDbEntity
  8
0
100
AcDbSpline
 62
7
  6
CONTINUOUS
 70
0
 71
3
 72
9
 73
5
 74
0
 42
0.0000001
 43
0.0000001
 44
0.0000000001
 40
0.0
 40
0.0
 40
0.0
 40
0.0
 40
0.193420407
 40
1.0
 40
1.0
 40
1.0
 40
1.0
 10
346.4292344049
 20
319.5885061643
 30
0.0
 10
346.4152135537
 20
319.5889948572
 30
0.0
 10
346.3426422112
 20
319.5889050031
 30
0.0
 10
346.27024716
 20
319.5808042956
 30
0.0
 10
346.2124583133
 20
319.5716869389
 30
0.0
  0
SPLINE
  5
3B3
100
AcDbEntity
  8
0
100
AcDbSpline
 62
7
  6
CONTINUOUS
 70
0
 71
3
 72
9
 73
5
 74
0
 42
0.0000001
 43
0.0000001
 44
0.0000000001
 40
0.0
 40
0.0
 40
0.0
 40
0.0
 40
0.3046907416
 40
1.0
 40
1.0
 40
1.0
 40
1.0
 10
346.2124583133
 20
319.5716869389
 30
0.0
 10
346.2263551422
 20
319.5888699172
 30
0.0
 10
346.2707668319
 20
319.6461709785
 30
0.0
 10
346.3117288291
 20
319.7064852584
 30
0.0
 10
346.3354062083
 20
319.7510122283
 30
0.0
  0
SPLINE
  5
3B4
100
AcDbEntity
  8
0
100
AcDbSpline
 62
7
  6
CONTINUOUS
 70
0
 71
3
 72
9
 73
5
 74
0
 42
0.0000001
 43
0.0000001
 44
0.0000000001
 40
0.0
 40
0.0
 40
0.0
 40
0.0
 40
0.7227192647
 40
1.0
 40
1.0
 40
1.0
 40
1.0
 10
346.3354062083
 20
319.7510122283
 30
0.0
 10
346.344362457
 20
319.7678550812
 30
0.0
 10
346.3522858449
 20
319.7863772399
 30
0.0
 10
346.3652449176
 20
319.8216900741
 30
0.0
 10
346.3589066193
 20
319.8253493815
 30
0.0
  0
SPLINE
  5
3B5
100
AcDbEntity
  8
0
100
AcDbSpline
 62
7
  6
CONTINUOUS
 70
0
 71
3
 72
9
 73
5
 74
0
 42
0.0000001
 43
0.0000001
 44
0.0000000001
 40
0.0
 40
0.0
 40
0.0
 40
0.0
 40
0.2209367731
 40
1.0
 40
1.0
 40
1.0
 40
1.0
 10
126.466851354
 20
369.4702825142
 30
0.0
 10
126.4800171593
 20
369.5318455182
 30
0.0
 10
126.5802786561
 20
369.8025903644
 30
0.0
 10
126.8167544611
 20
370.0006193594
 30
0.0
 10
127.0090046377
 20
370.1116143881
 30
0.0
  0
SPLINE
  5
3B6
100
AcDbEntity
  8
0
100
AcDbSpline
 62
7
  6
CONTINUOUS
 70
0
 71
3
 72
11
 73
7
 74
0
 42
0.0000001
 43
0.0000001
 44
0.0000000001
 40
0.0
 40
0.0
 40
0.0
 40
0.0
 40
0.2372540899
 40
0.5000059038
 40
0.7627807363
 40
1.0
 40
1.0
 40
1.0
 40
1.0
 10
162.1517968575
 20
401.9132345186
 30
0.0
 10
162.7541622442
 20
401.565466568
 30
0.0
 10
163.8940303365
 20
400.6061627601
 30
0.0
 10
165.2242874052
 20
398.7880996141
 30
0.0
 10
166.1335873946
 20
396.727096493
 30
0.0
 10
166.3943383144
 20
395.2603222561
 30
0.0
 10
166.3943505649
 20
394.5648766522
 30
0.0
  0
SPLINE
  5
3B7
100
AcDbEntity
  8
0
100
AcDbSpline
 62
7
  6
CONTINUOUS
 70
0
 71
3
 72
9
 73
5
 74
0
 42
0.0000001
 43
0.0000001
 44
0.0000000001
 40
0.0
 40
0.0
 40
0.0
 40
0.0
 40
0.2209367731
 40
1.0
 40
1.0
 40
1.0
 40
1.0
 10
218.3911156231
 20
316.3989844266
 30
0.0
 10
218.4042814284
 20
316.4605474306
 30
0.0
 10
218.5045429252
 20
316.7312922767
 30
0.0
 10
218.7410187302
 20
316.9293212718
 30
0.0
 10
218.9332689068
 20
317.0403163005
 30
0.0
  0
SPLINE
  5
3B8
100
AcDbEntity
  8
0
100
AcDbSpline
 62
7
  6
CONTINUOUS
 70
0
 71
3
 72
9
 73
5
 74
0
 42
0.0000001
 43
0.0000001
 44
0.0000000001
 40
0.0
 40
0.0
 40
0.0
 40
0.0
 40
0.2209367731
 40
1.0
 40
1.0
 40
1.0
 40
1.0
 10
117.9813226866
 20
403.7626282706
 30
0.0
 10
117.9944884919
 20
403.8241912746
 30
0.0
 10
118.0947499887
 20
404.0949361207
 30
0.0
 10
118.3312257937
 20
404.2929651158
 30
0.0
 10
118.5234759704
 20
404.4039601445
 30
0.0
  0
SPLINE
  5
3B9
100
AcDbEntity
  8
0
100
AcDbSpline
 62
7
  6
CONTINUOUS
 70
0
 71
3
 72
9
 73
5
 74
0
 42
0.0000001
 43
0.0000001
 44
0.0000000001
 40
0.0
 40
0.0
 40
0.0
 40
0.0
 40
0.2209367731
 40
1.0
 40
1.0
 40
1.0
 40
1.0
 10
177.3783276334
 20
398.863861593
 30
0.0
 10
177.3914934387
 20
398.925424597
 30
0.0
 10
177.4917549355
 20
399.1961694431
 30
0.0
 10
177.7282307405
 20
399.3941984382
 30
0.0
 10
177.9204809171
 20
399.5051934669
 30
0.0
  0
SPLINE
  5
3BA
100
AcDbEntity
  8
0
100
AcDbSpline
 62
7
  6
CONTINUOUS
 70
0
 71
3
 72
9
 73
5
 74
0
 42
0.0000001
 43
0.0000001
 44
0.0000000001
 40
0.0
 40
0.0
 40
0.0
 40
0.0
 40
0.2410207206
 40
1.0
 40
1.0
 40
1.0
 40
1.0
 10
258.2487539173
 20
267.8063498159
 30
0.0
 10
258.1447811011
 20
267.7115797036
 30
0.0
 10
257.6811228243
 20
267.3541532262
 30
0.0
 10
257.1242731052
 20
267.1279326972
 30
0.0
 10
256.6931272712
 20
267.0260771533
 30
0.0
  0
SPLINE
  5
3BB
100
AcDbEntity
  8
0
100
AcDbSpline
 62
7
  6
CONTINUOUS
 70
0
 71
3
 72
9
 73
5
 74
0
 42
0.0000001
 43
0.0000001
 44
0.0000000001
 40
0.0
 40
0.0
 40
0.0
 40
0.0
 40
0.2576091967
 40
1.0
 40
1.0
 40
1.0
 40
1.0
 10
256.6931272712
 20
267.0260771533
 30
0.0
 10
256.6295213878
 20
267.0110506556
 30
0.0
 10
256.38126132
 20
266.958656496
 30
0.0
 10
256.1281103364
 20
266.9289513659
 30
0.0
 10
255.9399217566
 20
266.9211971162
 30
0.0
  0
SPLINE
  5
3BC
100
AcDbEntity
  8
0
100
AcDbSpline
 62
7
  6
CONTINUOUS
 70
0
 71
3
 72
9
 73
5
 74
0
 42
0.0000001
 43
0.0000001
 44
0.0000000001
 40
0.0
 40
0.0
 40
0.0
 40
0.0
 40
0.2734669659
 40
1.0
 40
1.0
 40
1.0
 40
1.0
 10
255.9399217566
 20
266.9211971162
 30
0.0
 10
255.8664445469
 20
266.9181695115
 30
0.0
 10
255.5976419338
 20
266.9154251449
 30
0.0
 10
255.3273267358
 20
266.9436706629
 30
0.0
 10
255.1374840801
 20
266.9898399202
 30
0.0
  0
SPLINE
  5
3BD
100
AcDbEntity
  8
0
100
AcDbSpline
 62
7
  6
CONTINUOUS
 70
0
 71
3
 72
9
 73
5
 74
0
 42
0.0000001
 43
0.0000001
 44
0.0000000001
 40
0.0
 40
0.0
 40
0.0
 40
0.0
 40
0.7382238877
 40
1.0
 40
1.0
 40
1.0
 40
1.0
 10
235.6820060168
 20
213.0015294134
 30
0.0
 10
235.5994878955
 20
213.0491701754
 30
0.0
 10
235.5010859199
 20
213.140011483
 30
0.0
 10
235.4310179034
 20
213.2484316406
 30
0.0
 10
235.4143021989
 20
213.2777947332
 30
0.0
  0
SPLINE
  5
3BE
100
AcDbEntity
  8
0
100
AcDbSpline
 62
7
  6
CONTINUOUS
 70
0
 71
3
 72
12
 73
8
 74
0
 42
0.0000001
 43
0.0000001
 44
0.0000000001
 40
0.0
 40
0.0
 40
0.0
 40
0.0
 40
0.1833539553
 40
0.3015261609
 40
0.4362507104
 40
0.7288553884
 40
1.0
 40
1.0
 40
1.0
 40
1.0
 10
238.2426298633
 20
159.8324796399
 30
0.0
 10
238.3472636198
 20
159.7720675852
 30
0.0
 10
238.4516179556
 20
159.5678014297
 30
0.0
 10
238.4539141837
 20
159.2815436765
 30
0.0
 10
238.3824975771
 20
158.9257785493
 30
0.0
 10
238.1688147243
 20
158.5096399286
 30
0.0
 10
237.8973661276
 20
158.239285906
 30
0.0
 10
237.742631945
 20
158.1499506173
 30
0.0
  0
SPLINE
  5
3BF
100
AcDbEntity
  8
0
100
AcDbSpline
 62
7
  6
CONTINUOUS
 70
0
 71
3
 72
11
 73
7
 74
0
 42
0.0000001
 43
0.0000001
 44
0.0000000001
 40
0.0
 40
0.0
 40
0.0
 40
0.0
 40
0.2372423294
 40
0.4999983821
 40
0.7627553152
 40
1.0
 40
1.0
 40
1.0
 40
1.0
 10
237.742631945
 20
168.8053071608
 30
0.0
 10
237.5418521967
 20
168.689387611
 30
0.0
 10
237.1619213134
 20
168.3695967277
 30
0.0
 10
236.7184803567
 20
167.7636119485
 30
0.0
 10
236.4154052765
 20
167.0765847257
 30
0.0
 10
236.3284242705
 20
166.587656458
 30
0.0
 10
236.3284242705
 20
166.3558140188
 30
0.0
  0
SPLINE
  5
3C0
100
AcDbEntity
  8
0
100
AcDbSpline
 62
7
  6
CONTINUOUS
 70
0
 71
3
 72
9
 73
5
 74
0
 42
0.0000001
 43
0.0000001
 44
0.0000000001
 40
0.0
 40
0.0
 40
0.0
 40
0.0
 40
0.5000005437
 40
1.0
 40
1.0
 40
1.0
 40
1.0
 10
243.0459077801
 20
172.275380769
 30
0.0
 10
242.8360273469
 20
172.3965525523
 30
0.0
 10
242.3388003068
 20
172.4923807351
 30
0.0
 10
241.8415733207
 20
172.3965504029
 30
0.0
 10
241.6316942177
 20
172.2753773697
 30
0.0
  0
SPLINE
  5
3C1
100
AcDbEntity
  8
0
100
AcDbSpline
 62
7
  6
CONTINUOUS
 70
0
 71
3
 72
9
 73
5
 74
0
 42
0.0000001
 43
0.0000001
 44
0.0000000001
 40
0.0
 40
0.0
 40
0.0
 40
0.0
 40
0.2570189689
 40
1.0
 40
1.0
 40
1.0
 40
1.0
 10
166.3277106705
 20
292.6594563657
 30
0.0
 10
166.3387215208
 20
292.576520919
 30
0.0
 10
166.3766251199
 20
292.2532172445
 30
0.0
 10
166.3943739162
 20
291.9274358105
 30
0.0
 10
166.3943756542
 20
291.6855853603
 30
0.0
  0
LINE
  5
3C2
100
AcDbEntity
  8
0
100
AcDbLine
 62
7
  6
CONTINUOUS
 10
155.434310404
 20
296.7886153328
 11
155.4009721575
 21
296.8076682795
  0
SPLINE
  5
3C3
100
AcDbEntity
  8
0
100
AcDbSpline
 62
7
  6
CONTINUOUS
 70
0
 71
3
 72
11
 73
7
 74
0
 42
0.0000001
 43
0.0000001
 44
0.0000000001
 40
0.0
 40
0.0
 40
0.0
 40
0.0
 40
0.2892446182
 40
0.5485667801
 40
0.7818536125
 40
1.0
 40
1.0
 40
1.0
 40
1.0
 10
155.4009713068
 20
296.8077335852
 30
0.0
 10
155.096474035
 20
296.9811629108
 30
0.0
 10
154.4907060349
 20
297.2649568835
 30
0.0
 10
153.5607175118
 20
297.4845676187
 30
0.0
 10
152.688271726
 20
297.4591285336
 30
0.0
 10
152.1633123333
 20
297.2672429031
 30
0.0
 10
151.9343790453
 20
297.1351935058
 30
0.0
  0
SPLINE
  5
3C4
100
AcDbEntity
  8
0
100
AcDbSpline
 62
7
  6
CONTINUOUS
 70
0
 71
3
 72
11
 73
7
 74
0
 42
0.0000001
 43
0.0000001
 44
0.0000000001
 40
0.0
 40
0.0
 40
0.0
 40
0.0
 40
0.2892741089
 40
0.5466069895
 40
0.7787641926
 40
1.0
 40
1.0
 40
1.0
 40
1.0
 10
155.2837975132
 20
285.4497093794
 30
0.0
 10
155.5799497864
 20
285.2939687297
 30
0.0
 10
156.1672906132
 20
285.0466810475
 30
0.0
 10
157.0652670275
 20
284.8940910536
 30
0.0
 10
157.894876196
 20
284.9988248615
 30
0.0
 10
158.3719900149
 20
285.2468673176
 30
0.0
 10
158.5744246121
 20
285.4034174073
 30
0.0
  0
SPLINE
  5
3C5
100
AcDbEntity
  8
0
100
AcDbSpline
 62
7
  6
CONTINUOUS
 70
0
 71
3
 72
15
 73
11
 74
0
 42
0.0000001
 43
0.0000001
 44
0.0000000001
 40
0.0
 40
0.0
 40
0.0
 40
0.0
 40
0.0881303627
 40
0.190160378
 40
0.3095020924
 40
0.4438682008
 40
0.5875428324
 40
0.7331100447
 40
0.8728387419
 40
1.0
 40
1.0
 40
1.0
 40
1.0
 10
158.5744246121
 20
285.4034174073
 30
0.0
 10
158.8683846075
 20
285.6307474403
 30
0.0
 10
159.3746911388
 20
286.2937321913
 30
0.0
 10
159.7064479541
 20
287.5787215468
 30
0.0
 10
159.675401417
 20
289.0921996334
 30
0.0
 10
159.291492145
 20
290.7334274587
 30
0.0
 10
158.5867686882
 20
292.3834855441
 30
0.0
 10
157.6138999238
 20
293.9180494241
 30
0.0
 10
156.4483770857
 20
295.2193699426
 30
0.0
 10
155.5451087513
 20
295.9081552866
 30
0.0
 10
155.0807584854
 20
296.1762419727
 30
0.0
  0
LINE
  5
3C6
100
AcDbEntity
  8
0
100
AcDbLine
 62
7
  6
CONTINUOUS
 10
155.0807584854
 20
285.5617106992
 11
155.1117154281
 21
285.5440186774
  0
SPLINE
  5
3C7
100
AcDbEntity
  8
0
100
AcDbSpline
 62
7
  6
CONTINUOUS
 70
0
 71
3
 72
15
 73
11
 74
0
 42
0.0000001
 43
0.0000001
 44
0.0000000001
 40
0.0
 40
0.0
 40
0.0
 40
0.0
 40
0.1464273383
 40
0.278473417
 40
0.3976408901
 40
0.5085966785
 40
0.6180582218
 40
0.7331882202
 40
0.8595313604
 40
1.0
 40
1.0
 40
1.0
 40
1.0
 10
155.0498007527
 20
296.1939946354
 30
0.0
 10
154.7800972337
 20
296.3476068472
 30
0.0
 10
154.2432584967
 20
296.6013264313
 30
0.0
 10
153.4198918946
 20
296.8094770105
 30
0.0
 10
152.6427973316
 20
296.8126259224
 30
0.0
 10
151.9420737861
 20
296.6013389575
 30
0.0
 10
151.3534315903
 20
296.179912371
 30
0.0
 10
150.9060546397
 20
295.5723238301
 30
0.0
 10
150.6111936908
 20
294.8104135304
 30
0.0
 10
150.5223834769
 20
294.2478295182
 30
0.0
 10
150.5002512121
 20
293.950902314
 30
0.0
  0
SPLINE
  5
3C8
100
AcDbEntity
  8
0
100
AcDbSpline
 62
7
  6
CONTINUOUS
 70
0
 71
3
 72
9
 73
5
 74
0
 42
0.0000001
 43
0.0000001
 44
0.0000000001
 40
0.0
 40
0.0
 40
0.0
 40
0.0
 40
0.2407575551
 40
1.0
 40
1.0
 40
1.0
 40
1.0
 10
150.5002512121
 20
293.950902314
 30
0.0
 10
150.4937895211
 20
293.864212051
 30
0.0
 10
150.4756699803
 20
293.5035082206
 30
0.0
 10
150.4907698308
 20
293.1414195929
 30
0.0
 10
150.5175934785
 20
292.8685940544
 30
0.0
  0
SPLINE
  5
3C9
100
AcDbEntity
  8
0
100
AcDbSpline
 62
7
  6
CONTINUOUS
 70
0
 71
3
 72
9
 73
5
 74
0
 42
0.0000001
 43
0.0000001
 44
0.0000000001
 40
0.0
 40
0.0
 40
0.0
 40
0.0
 40
0.2553717888
 40
1.0
 40
1.0
 40
1.0
 40
1.0
 10
154.5544724272
 20
285.9006524539
 30
0.0
 10
154.5979152456
 20
285.8697765221
 30
0.0
 10
154.7693573267
 20
285.7507547509
 30
0.0
 10
154.9461709559
 20
285.6394130877
 30
0.0
 10
155.0807584854
 20
285.5617106992
 30
0.0
  0
LINE
  5
3CA
100
AcDbEntity
  8
0
100
AcDbLine
 62
7
  6
CONTINUOUS
 10
155.0807584854
 20
296.1762419727
 11
155.0498015427
 21
296.1939339944
  0
SPLINE
  5
3CB
100
AcDbEntity
  8
0
100
AcDbSpline
 62
7
  6
CONTINUOUS
 70
0
 71
3
 72
15
 73
11
 74
0
 42
0.0000001
 43
0.0000001
 44
0.0000000001
 40
0.0
 40
0.0
 40
0.0
 40
0.0
 40
0.1317712769
 40
0.2766486633
 40
0.4262887157
 40
0.571432175
 40
0.7036967221
 40
0.8176386473
 40
0.9134700438
 40
1.0
 40
1.0
 40
1.0
 40
1.0
 10
155.1197650292
 20
294.5204407489
 30
0.0
 10
155.4677825499
 20
294.3145907384
 30
0.0
 10
156.1399134771
 20
293.7815753679
 30
0.0
 10
156.9885404319
 20
292.7776216209
 30
0.0
 10
157.6697756713
 20
291.6050316068
 30
0.0
 10
158.1228139753
 20
290.3677015607
 30
0.0
 10
158.3081096989
 20
289.1714557741
 30
0.0
 10
158.2060758273
 20
288.1125456488
 30
0.0
 10
157.7981941244
 20
287.2676977222
 30
0.0
 10
157.3098256826
 20
286.9341881584
 30
0.0
 10
157.058396185
 20
286.8488515303
 30
0.0
  0
SPLINE
  5
3CC
100
AcDbEntity
  8
0
100
AcDbSpline
 62
7
  6
CONTINUOUS
 70
0
 71
3
 72
8
 73
4
 74
0
 42
0.0000001
 43
0.0000001
 44
0.0000000001
 40
0.0
 40
0.0
 40
0.0
 40
0.0
 40
1.0
 40
1.0
 40
1.0
 40
1.0
 10
157.058396185
 20
286.8488515303
 30
0.0
 10
156.9439904164
 20
286.8100215496
 30
0.0
 10
156.8243874269
 20
286.7845825257
 30
0.0
 10
156.7042653435
 20
286.771654557
 30
0.0
  0
SPLINE
  5
3CD
100
AcDbEntity
  8
0
100
AcDbSpline
 62
7
  6
CONTINUOUS
 70
0
 71
3
 72
8
 73
4
 74
0
 42
0.0000001
 43
0.0000001
 44
0.0000000001
 40
0.0
 40
0.0
 40
0.0
 40
0.0
 40
1.0
 40
1.0
 40
1.0
 40
1.0
 10
156.7042653435
 20
286.771654557
 30
0.0
 10
156.5875306597
 20
286.7590911523
 30
0.0
 10
156.4691626283
 20
286.7580755787
 30
0.0
 10
156.3520733571
 20
286.7667316826
 30
0.0
  0
SPLINE
  5
3CE
100
AcDbEntity
  8
0
100
AcDbSpline
 62
7
  6
CONTINUOUS
 70
0
 71
3
 72
8
 73
4
 74
0
 42
0.0000001
 43
0.0000001
 44
0.0000000001
 40
0.0
 40
0.0
 40
0.0
 40
0.0
 40
1.0
 40
1.0
 40
1.0
 40
1.0
 10
155.0807584854
 20
294.5432367566
 30
0.0
 10
155.0938197403
 20
294.5356960081
 30
0.0
 10
155.1068817503
 20
294.528151038
 30
0.0
 10
155.1197617331
 20
294.5203046816
 30
0.0
  0
SPLINE
  5
3CF
100
AcDbEntity
  8
0
100
AcDbSpline
 62
7
  6
CONTINUOUS
 70
0
 71
3
 72
11
 73
7
 74
0
 42
0.0000001
 43
0.0000001
 44
0.0000000001
 40
0.0
 40
0.0
 40
0.0
 40
0.0
 40
0.2431875994
 40
0.4662671417
 40
0.7098393624
 40
1.0
 40
1.0
 40
1.0
 40
1.0
 10
152.0569692323
 20
293.7587302278
 30
0.0
 10
152.1516914287
 20
294.0378908148
 30
0.0
 10
152.4340768502
 20
294.5566758067
 30
0.0
 10
153.2202910005
 20
295.0065393068
 30
0.0
 10
154.1716944589
 20
294.9791780308
 30
0.0
 10
154.7761462362
 20
294.7191007421
 30
0.0
 10
155.0807584854
 20
294.5432367566
 30
0.0
  0
SPLINE
  5
3D0
100
AcDbEntity
  8
0
100
AcDbSpline
 62
7
  6
CONTINUOUS
 70
0
 71
3
 72
9
 73
5
 74
0
 42
0.0000001
 43
0.0000001
 44
0.0000000001
 40
0.0
 40
0.0
 40
0.0
 40
0.0
 40
0.7382238877
 40
1.0
 40
1.0
 40
1.0
 40
1.0
 10
235.6820060168
 20
128.0852780319
 30
0.0
 10
235.5994878955
 20
128.132918794
 30
0.0
 10
235.5010859199
 20
128.2237601015
 30
0.0
 10
235.4310179034
 20
128.3321802591
 30
0.0
 10
235.4143021989
 20
128.3615433517
 30
0.0
  0
SPLINE
  5
3D1
100
AcDbEntity
  8
0
100
AcDbSpline
 62
7
  6
CONTINUOUS
 70
0
 71
3
 72
14
 73
10
 74
0
 42
0.0000001
 43
0.0000001
 44
0.0000000001
 40
0.0
 40
0.0
 40
0.0
 40
0.0
 40
0.2704914974
 40
0.4180097794
 40
0.5625184135
 40
0.6962312203
 40
0.8135234191
 40
0.9129812009
 40
1.0
 40
1.0
 40
1.0
 40
1.0
 10
154.7618790545
 20
293.9106008071
 30
0.0
 10
155.3758389097
 20
293.5474477038
 30
0.0
 10
156.1802094223
 20
292.7376790991
 30
0.0
 10
156.9520362186
 20
291.469546727
 30
0.0
 10
157.3710976111
 20
290.4207587724
 30
0.0
 10
157.5768919236
 20
289.391370343
 30
0.0
 10
157.5515140208
 20
288.4576043445
 30
0.0
 10
157.2868956599
 20
287.6828756961
 30
0.0
 10
156.9258706356
 20
287.3155953411
 30
0.0
 10
156.7271264901
 20
287.2008706706
 30
0.0
  0
SPLINE
  5
3D2
100
AcDbEntity
  8
0
100
AcDbSpline
 62
7
  6
CONTINUOUS
 70
0
 71
3
 72
8
 73
4
 74
0
 42
0.0000001
 43
0.0000001
 44
0.0000000001
 40
0.0
 40
0.0
 40
0.0
 40
0.0
 40
1.0
 40
1.0
 40
1.0
 40
1.0
 10
154.7272065668
 20
293.9308639275
 30
0.0
 10
154.7388165726
 20
293.9241610392
 30
0.0
 10
154.7504272496
 20
293.9174543982
 30
0.0
 10
154.7618761246
 20
293.9104798583
 30
0.0
  0
SPLINE
  5
3D3
100
AcDbEntity
  8
0
100
AcDbSpline
 62
7
  6
CONTINUOUS
 70
0
 71
3
 72
11
 73
7
 74
0
 42
0.0000001
 43
0.0000001
 44
0.0000000001
 40
0.0
 40
0.0
 40
0.0
 40
0.0
 40
0.2895385909
 40
0.5491110546
 40
0.7822561902
 40
1.0
 40
1.0
 40
1.0
 40
1.0
 10
145.1813047644
 20
288.4195678502
 30
0.0
 10
145.0058898602
 20
288.5208414013
 30
0.0
 10
144.6566524349
 20
288.6867787968
 30
0.0
 10
144.1200613097
 20
288.8166493115
 30
0.0
 10
143.6163377307
 20
288.8039899493
 30
0.0
 10
143.3133077919
 20
288.6936956246
 30
0.0
 10
143.1813861716
 20
288.6175394678
 30
0.0
  0
SPLINE
  5
3D4
100
AcDbEntity
  8
0
100
AcDbSpline
 62
7
  6
CONTINUOUS
 70
0
 71
3
 72
9
 73
5
 74
0
 42
0.0000001
 43
0.0000001
 44
0.0000000001
 40
0.0
 40
0.0
 40
0.0
 40
0.0
 40
0.5210345494
 40
1.0
 40
1.0
 40
1.0
 40
1.0
 10
235.4143067122
 20
252.692920786
 30
0.0
 10
235.5329951239
 20
253.0384545878
 30
0.0
 10
235.8729689823
 20
253.6645419442
 30
0.0
 10
236.3911114193
 20
254.1659949223
 30
0.0
 10
236.6819673572
 20
254.3339196741
 30
0.0
  0
SPLINE
  5
3D5
100
AcDbEntity
  8
0
100
AcDbSpline
 62
7
  6
CONTINUOUS
 70
0
 71
3
 72
9
 73
5
 74
0
 42
0.0000001
 43
0.0000001
 44
0.0000000001
 40
0.0
 40
0.0
 40
0.0
 40
0.0
 40
0.5474077027
 40
1.0
 40
1.0
 40
1.0
 40
1.0
 10
144.4742009272
 20
282.2958067765
 30
0.0
 10
144.6981305996
 20
282.1665238446
 30
0.0
 10
145.1427614097
 20
281.978142075
 30
0.0
 10
145.6407579734
 20
282.003992158
 30
0.0
 10
145.8396399986
 20
282.0824106325
 30
0.0
  0
SPLINE
  5
3D6
100
AcDbEntity
  8
0
100
AcDbSpline
 62
7
  6
CONTINUOUS
 70
0
 71
3
 72
14
 73
10
 74
0
 42
0.0000001
 43
0.0000001
 44
0.0000000001
 40
0.0
 40
0.0
 40
0.0
 40
0.0
 40
0.0865936535
 40
0.1835303361
 40
0.2987289404
 40
0.4318457003
 40
0.5772441194
 40
0.7265352214
 40
1.0
 40
1.0
 40
1.0
 40
1.0
 10
145.8396399986
 20
282.0824106325
 30
0.0
 10
146.0036762944
 20
282.1470895599
 30
0.0
 10
146.3174153667
 20
282.3859722325
 30
0.0
 10
146.5696474868
 20
282.9590108845
 30
0.0
 10
146.6226802865
 20
283.6690494841
 30
0.0
 10
146.4872475571
 20
284.4652710219
 30
0.0
 10
146.1762710086
 20
285.2851213816
 30
0.0
 10
145.5848122661
 20
286.2803471381
 30
0.0
 10
144.9564458388
 20
286.9164033483
 30
0.0
 10
144.4742009272
 20
287.1948212792
 30
0.0
  0
SPLINE
  5
3D7
100
AcDbEntity
  8
0
100
AcDbSpline
 62
7
  6
CONTINUOUS
 70
0
 71
3
 72
9
 73
5
 74
0
 42
0.0000001
 43
0.0000001
 44
0.0000000001
 40
0.0
 40
0.0
 40
0.0
 40
0.0
 40
0.5474077027
 40
1.0
 40
1.0
 40
1.0
 40
1.0
 10
144.4742009272
 20
287.1948212792
 30
0.0
 10
144.2502712547
 20
287.3241042111
 30
0.0
 10
143.8056404446
 20
287.5124859807
 30
0.0
 10
143.3076438809
 20
287.4866358977
 30
0.0
 10
143.1087618557
 20
287.4082174232
 30
0.0
  0
SPLINE
  5
3D8
100
AcDbEntity
  8
0
100
AcDbSpline
 62
7
  6
CONTINUOUS
 70
0
 71
3
 72
11
 73
7
 74
0
 42
0.0000001
 43
0.0000001
 44
0.0000000001
 40
0.0
 40
0.0
 40
0.0
 40
0.0
 40
0.2188513147
 40
0.4496903656
 40
0.7077904138
 40
1.0
 40
1.0
 40
1.0
 40
1.0
 10
143.1087618557
 20
287.4082174232
 30
0.0
 10
142.991921906
 20
287.362147847
 30
0.0
 10
142.7677969342
 20
287.2198500941
 30
0.0
 10
142.5244061533
 20
286.8850360988
 30
0.0
 10
142.3805585026
 20
286.4548573394
 30
0.0
 10
142.3529983105
 20
286.1376369415
 30
0.0
 10
142.3529967731
 20
285.969943554
 30
0.0
  0
SPLINE
  5
3D9
100
AcDbEntity
  8
0
100
AcDbSpline
 62
7
  6
CONTINUOUS
 70
0
 71
3
 72
9
 73
5
 74
0
 42
0.0000001
 43
0.0000001
 44
0.0000000001
 40
0.0
 40
0.0
 40
0.0
 40
0.0
 40
0.2209367731
 40
1.0
 40
1.0
 40
1.0
 40
1.0
 10
269.3025919025
 20
345.7925635053
 30
0.0
 10
269.3157577078
 20
345.8541265094
 30
0.0
 10
269.4160192046
 20
346.1248713555
 30
0.0
 10
269.6524950096
 20
346.3229003505
 30
0.0
 10
269.8447451862
 20
346.4338953792
 30
0.0
  0
SPLINE
  5
3DA
100
AcDbEntity
  8
0
100
AcDbSpline
 62
7
  6
CONTINUOUS
 70
0
 71
3
 72
12
 73
8
 74
0
 42
0.0000001
 43
0.0000001
 44
0.0000000001
 40
0.0
 40
0.0
 40
0.0
 40
0.0
 40
0.2711460296
 40
0.5637510724
 40
0.6984754461
 40
0.8166470608
 40
1.0
 40
1.0
 40
1.0
 40
1.0
 10
236.6819673572
 20
243.6785631305
 30
0.0
 10
236.8367023565
 20
243.7678988907
 30
0.0
 10
237.1081516021
 20
244.0382541619
 30
0.0
 10
237.3218341682
 20
244.4543941629
 30
0.0
 10
237.3932499523
 20
244.8101592163
 30
0.0
 10
237.3909526938
 20
245.0964158577
 30
0.0
 10
237.2865984571
 20
245.3006804305
 30
0.0
 10
237.1819652755
 20
245.3610921533
 30
0.0
  0
SPLINE
  5
3DB
100
AcDbEntity
  8
0
100
AcDbSpline
 62
7
  6
CONTINUOUS
 70
0
 71
3
 72
11
 73
7
 74
0
 42
0.0000001
 43
0.0000001
 44
0.0000000001
 40
0.0
 40
0.0
 40
0.0
 40
0.0
 40
0.2372279391
 40
0.4999994739
 40
0.762771295
 40
1.0
 40
1.0
 40
1.0
 40
1.0
 10
132.5948829577
 20
244.5735924132
 30
0.0
 10
134.4017966691
 20
245.6168083038
 30
0.0
 10
138.6039278979
 20
247.139275979
 30
0.0
 10
145.3227850079
 20
247.8685733598
 30
0.0
 10
152.0416522556
 20
247.1393066402
 30
0.0
 10
156.2438000119
 20
245.6168598303
 30
0.0
 10
158.0507270802
 20
244.5736536016
 30
0.0
  0
SPLINE
  5
3DC
100
AcDbEntity
  8
0
100
AcDbSpline
 62
7
  6
CONTINUOUS
 70
0
 71
3
 72
8
 73
4
 74
0
 42
0.0000001
 43
0.0000001
 44
0.0000000001
 40
0.0
 40
0.0
 40
0.0
 40
0.0
 40
1.0
 40
1.0
 40
1.0
 40
1.0
 10
58.5002226182
 20
365.4162971494
 30
0.0
 10
58.5002226089
 20
365.862567514
 30
0.0
 10
58.392471817
 20
366.3166012628
 30
0.0
 10
58.2074256267
 20
366.7226987212
 30
0.0
  0
SPLINE
  5
3DD
100
AcDbEntity
  8
0
100
AcDbSpline
 62
7
  6
CONTINUOUS
 70
0
 71
3
 72
11
 73
7
 74
0
 42
0.0000001
 43
0.0000001
 44
0.0000000001
 40
0.0
 40
0.0
 40
0.0
 40
0.0
 40
0.2372444433
 40
0.4999999123
 40
0.7627830476
 40
1.0
 40
1.0
 40
1.0
 40
1.0
 10
161.4446930203
 20
402.3214927819
 30
0.0
 10
162.1474268178
 20
401.9157784132
 30
0.0
 10
163.477272562
 20
400.7966155951
 30
0.0
 10
165.0292658144
 20
398.6755367764
 30
0.0
 10
166.0901521681
 20
396.2710017148
 30
0.0
 10
166.3943698235
 20
394.5597359803
 30
0.0
 10
166.3943756542
 20
393.7483875015
 30
0.0
  0
LINE
  5
3DE
100
AcDbEntity
  8
0
100
AcDbLine
 62
7
  6
CONTINUOUS
 10
155.434310404
 20
398.851417474
 11
155.4009721575
 21
398.8704704207
  0
SPLINE
  5
3DF
100
AcDbEntity
  8
0
100
AcDbSpline
 62
7
  6
CONTINUOUS
 70
0
 71
3
 72
11
 73
7
 74
0
 42
0.0000001
 43
0.0000001
 44
0.0000000001
 40
0.0
 40
0.0
 40
0.0
 40
0.0
 40
0.2892446182
 40
0.5485667801
 40
0.7818536125
 40
1.0
 40
1.0
 40
1.0
 40
1.0
 10
155.4009713068
 20
398.8705357264
 30
0.0
 10
155.096474035
 20
399.043965052
 30
0.0
 10
154.4907060349
 20
399.3277590247
 30
0.0
 10
153.5607175118
 20
399.5473697599
 30
0.0
 10
152.688271726
 20
399.5219306748
 30
0.0
 10
152.1633123333
 20
399.3300450443
 30
0.0
 10
151.9343790453
 20
399.197995647
 30
0.0
  0
SPLINE
  5
3E0
100
AcDbEntity
  8
0
100
AcDbSpline
 62
7
  6
CONTINUOUS
 70
0
 71
3
 72
11
 73
7
 74
0
 42
0.0000001
 43
0.0000001
 44
0.0000000001
 40
0.0
 40
0.0
 40
0.0
 40
0.0
 40
0.2892741089
 40
0.5466069895
 40
0.7787641926
 40
1.0
 40
1.0
 40
1.0
 40
1.0
 10
155.2837975132
 20
387.5125115206
 30
0.0
 10
155.5799497864
 20
387.3567708709
 30
0.0
 10
156.1672906132
 20
387.1094831887
 30
0.0
 10
157.0652670275
 20
386.9568931948
 30
0.0
 10
157.894876196
 20
387.0616270027
 30
0.0
 10
158.3719900149
 20
387.3096694588
 30
0.0
 10
158.5744246121
 20
387.4662195485
 30
0.0
  0
SPLINE
  5
3E1
100
AcDbEntity
  8
0
100
AcDbSpline
 62
7
  6
CONTINUOUS
 70
0
 71
3
 72
15
 73
11
 74
0
 42
0.0000001
 43
0.0000001
 44
0.0000000001
 40
0.0
 40
0.0
 40
0.0
 40
0.0
 40
0.0881303627
 40
0.190160378
 40
0.3095020924
 40
0.4438682008
 40
0.5875428324
 40
0.7331100447
 40
0.8728387419
 40
1.0
 40
1.0
 40
1.0
 40
1.0
 10
158.5744246121
 20
387.4662195485
 30
0.0
 10
158.8683846075
 20
387.6935495815
 30
0.0
 10
159.3746911388
 20
388.3565343325
 30
0.0
 10
159.7064479541
 20
389.641523688
 30
0.0
 10
159.675401417
 20
391.1550017746
 30
0.0
 10
159.291492145
 20
392.7962295999
 30
0.0
 10
158.5867686882
 20
394.4462876853
 30
0.0
 10
157.6138999238
 20
395.9808515653
 30
0.0
 10
156.4483770857
 20
397.2821720838
 30
0.0
 10
155.5451087513
 20
397.9709574278
 30
0.0
 10
155.0807584854
 20
398.2390441139
 30
0.0
  0
LINE
  5
3E2
100
AcDbEntity
  8
0
100
AcDbLine
 62
7
  6
CONTINUOUS
 10
155.0807584854
 20
387.6245128404
 11
155.1117154281
 21
387.6068208186
  0
SPLINE
  5
3E3
100
AcDbEntity
  8
0
100
AcDbSpline
 62
7
  6
CONTINUOUS
 70
0
 71
3
 72
15
 73
11
 74
0
 42
0.0000001
 43
0.0000001
 44
0.0000000001
 40
0.0
 40
0.0
 40
0.0
 40
0.0
 40
0.1464273383
 40
0.278473417
 40
0.3976408901
 40
0.5085966785
 40
0.6180582218
 40
0.7331882202
 40
0.8595313603
 40
1.0
 40
1.0
 40
1.0
 40
1.0
 10
155.0498007527
 20
398.2567967766
 30
0.0
 10
154.7800972337
 20
398.4104089884
 30
0.0
 10
154.2432584967
 20
398.6641285725
 30
0.0
 10
153.4198918946
 20
398.8722791517
 30
0.0
 10
152.6427973316
 20
398.8754280636
 30
0.0
 10
151.942073786
 20
398.6641410986
 30
0.0
 10
151.3534315903
 20
398.2427145122
 30
0.0
 10
150.9060546396
 20
397.6351259713
 30
0.0
 10
150.6111936907
 20
396.8732156715
 30
0.0
 10
150.5223834768
 20
396.3106316593
 30
0.0
 10
150.5002512121
 20
396.0137044551
 30
0.0
  0
SPLINE
  5
3E4
100
AcDbEntity
  8
0
100
AcDbSpline
 62
7
  6
CONTINUOUS
 70
0
 71
3
 72
9
 73
5
 74
0
 42
0.0000001
 43
0.0000001
 44
0.0000000001
 40
0.0
 40
0.0
 40
0.0
 40
0.0
 40
0.2407575551
 40
1.0
 40
1.0
 40
1.0
 40
1.0
 10
150.5002512121
 20
396.0137044551
 30
0.0
 10
150.4937895211
 20
395.9270141921
 30
0.0
 10
150.4756699803
 20
395.5663103617
 30
0.0
 10
150.4907698308
 20
395.2042217341
 30
0.0
 10
150.5175934785
 20
394.9313961956
 30
0.0
  0
SPLINE
  5
3E5
100
AcDbEntity
  8
0
100
AcDbSpline
 62
7
  6
CONTINUOUS
 70
0
 71
3
 72
9
 73
5
 74
0
 42
0.0000001
 43
0.0000001
 44
0.0000000001
 40
0.0
 40
0.0
 40
0.0
 40
0.0
 40
0.2553717888
 40
1.0
 40
1.0
 40
1.0
 40
1.0
 10
154.5544724272
 20
387.9634545951
 30
0.0
 10
154.5979152456
 20
387.9325786633
 30
0.0
 10
154.7693573267
 20
387.8135568921
 30
0.0
 10
154.9461709559
 20
387.7022152289
 30
0.0
 10
155.0807584854
 20
387.6245128404
 30
0.0
  0
LINE
  5
3E6
100
AcDbEntity
  8
0
100
AcDbLine
 62
7
  6
CONTINUOUS
 10
155.0807584854
 20
398.2390441139
 11
155.0498015427
 21
398.2567361356
  0
SPLINE
  5
3E7
100
AcDbEntity
  8
0
100
AcDbSpline
 62
7
  6
CONTINUOUS
 70
0
 71
3
 72
15
 73
11
 74
0
 42
0.0000001
 43
0.0000001
 44
0.0000000001
 40
0.0
 40
0.0
 40
0.0
 40
0.0
 40
0.1317712769
 40
0.2766486633
 40
0.4262887157
 40
0.571432175
 40
0.7036967221
 40
0.8176386473
 40
0.9134700438
 40
1.0
 40
1.0
 40
1.0
 40
1.0
 10
155.1197650292
 20
396.5832428901
 30
0.0
 10
155.4677825499
 20
396.3773928796
 30
0.0
 10
156.1399134771
 20
395.8443775091
 30
0.0
 10
156.9885404319
 20
394.8404237621
 30
0.0
 10
157.6697756713
 20
393.667833748
 30
0.0
 10
158.1228139753
 20
392.4305037019
 30
0.0
 10
158.3081096989
 20
391.2342579153
 30
0.0
 10
158.2060758273
 20
390.17534779
 30
0.0
 10
157.7981941244
 20
389.3304998634
 30
0.0
 10
157.3098256826
 20
388.9969902996
 30
0.0
 10
157.058396185
 20
388.9116536715
 30
0.0
  0
SPLINE
  5
3E8
100
AcDbEntity
  8
0
100
AcDbSpline
 62
7
  6
CONTINUOUS
 70
0
 71
3
 72
8
 73
4
 74
0
 42
0.0000001
 43
0.0000001
 44
0.0000000001
 40
0.0
 40
0.0
 40
0.0
 40
0.0
 40
1.0
 40
1.0
 40
1.0
 40
1.0
 10
157.058396185
 20
388.9116536715
 30
0.0
 10
156.9439904164
 20
388.8728236908
 30
0.0
 10
156.8243874269
 20
388.8473846669
 30
0.0
 10
156.7042653435
 20
388.8344566982
 30
0.0
  0
SPLINE
  5
3E9
100
AcDbEntity
  8
0
100
AcDbSpline
 62
7
  6
CONTINUOUS
 70
0
 71
3
 72
8
 73
4
 74
0
 42
0.0000001
 43
0.0000001
 44
0.0000000001
 40
0.0
 40
0.0
 40
0.0
 40
0.0
 40
1.0
 40
1.0
 40
1.0
 40
1.0
 10
156.7042653435
 20
388.8344566982
 30
0.0
 10
156.5875306597
 20
388.8218932935
 30
0.0
 10
156.4691626283
 20
388.8208777199
 30
0.0
 10
156.3520733571
 20
388.8295338238
 30
0.0
  0
SPLINE
  5
3EA
100
AcDbEntity
  8
0
100
AcDbSpline
 62
7
  6
CONTINUOUS
 70
0
 71
3
 72
8
 73
4
 74
0
 42
0.0000001
 43
0.0000001
 44
0.0000000001
 40
0.0
 40
0.0
 40
0.0
 40
0.0
 40
1.0
 40
1.0
 40
1.0
 40
1.0
 10
155.0807584854
 20
396.6060388978
 30
0.0
 10
155.0938197403
 20
396.5984981493
 30
0.0
 10
155.1068817503
 20
396.5909531792
 30
0.0
 10
155.1197617331
 20
396.5831068228
 30
0.0
  0
SPLINE
  5
3EB
100
AcDbEntity
  8
0
100
AcDbSpline
 62
7
  6
CONTINUOUS
 70
0
 71
3
 72
11
 73
7
 74
0
 42
0.0000001
 43
0.0000001
 44
0.0000000001
 40
0.0
 40
0.0
 40
0.0
 40
0.0
 40
0.2431875994
 40
0.4662671417
 40
0.7098393624
 40
1.0
 40
1.0
 40
1.0
 40
1.0
 10
152.0569692323
 20
395.821532369
 30
0.0
 10
152.1516914287
 20
396.100692956
 30
0.0
 10
152.4340768502
 20
396.6194779479
 30
0.0
 10
153.2202910005
 20
397.069341448
 30
0.0
 10
154.1716944589
 20
397.041980172
 30
0.0
 10
154.7761462362
 20
396.7819028833
 30
0.0
 10
155.0807584854
 20
396.6060388978
 30
0.0
  0
SPLINE
  5
3EC
100
AcDbEntity
  8
0
100
AcDbSpline
 62
7
  6
CONTINUOUS
 70
0
 71
3
 72
9
 73
5
 74
0
 42
0.0000001
 43
0.0000001
 44
0.0000000001
 40
0.0
 40
0.0
 40
0.0
 40
0.0
 40
0.5210345494
 40
1.0
 40
1.0
 40
1.0
 40
1.0
 10
235.4143067122
 20
167.7766694045
 30
0.0
 10
235.5329951239
 20
168.1222032063
 30
0.0
 10
235.8729689823
 20
168.7482905627
 30
0.0
 10
236.3911114193
 20
169.2497435409
 30
0.0
 10
236.6819673572
 20
169.4176682926
 30
0.0
  0
SPLINE
  5
3ED
100
AcDbEntity
  8
0
100
AcDbSpline
 62
7
  6
CONTINUOUS
 70
0
 71
3
 72
14
 73
10
 74
0
 42
0.0000001
 43
0.0000001
 44
0.0000000001
 40
0.0
 40
0.0
 40
0.0
 40
0.0
 40
0.2704914974
 40
0.4180097794
 40
0.5625184135
 40
0.6962312203
 40
0.8135234191
 40
0.9129812009
 40
1.0
 40
1.0
 40
1.0
 40
1.0
 10
154.7618790545
 20
395.9734029483
 30
0.0
 10
155.3758389097
 20
395.610249845
 30
0.0
 10
156.1802094223
 20
394.8004812403
 30
0.0
 10
156.9520362186
 20
393.5323488682
 30
0.0
 10
157.3710976111
 20
392.4835609136
 30
0.0
 10
157.5768919236
 20
391.4541724842
 30
0.0
 10
157.5515140208
 20
390.5204064857
 30
0.0
 10
157.2868956599
 20
389.7456778373
 30
0.0
 10
156.9258706356
 20
389.3783974823
 30
0.0
 10
156.7271264901
 20
389.2636728118
 30
0.0
  0
SPLINE
  5
3EE
100
AcDbEntity
  8
0
100
AcDbSpline
 62
7
  6
CONTINUOUS
 70
0
 71
3
 72
8
 73
4
 74
0
 42
0.0000001
 43
0.0000001
 44
0.0000000001
 40
0.0
 40
0.0
 40
0.0
 40
0.0
 40
1.0
 40
1.0
 40
1.0
 40
1.0
 10
154.7272065668
 20
395.9936660687
 30
0.0
 10
154.7388165726
 20
395.9869631804
 30
0.0
 10
154.7504272496
 20
395.9802565394
 30
0.0
 10
154.7618761246
 20
395.9732819995
 30
0.0
  0
SPLINE
  5
3EF
100
AcDbEntity
  8
0
100
AcDbSpline
 62
7
  6
CONTINUOUS
 70
0
 71
3
 72
11
 73
7
 74
0
 42
0.0000001
 43
0.0000001
 44
0.0000000001
 40
0.0
 40
0.0
 40
0.0
 40
0.0
 40
0.2895385909
 40
0.5491110546
 40
0.7822561902
 40
1.0
 40
1.0
 40
1.0
 40
1.0
 10
145.1813047644
 20
390.4823699914
 30
0.0
 10
145.0058898602
 20
390.5836435425
 30
0.0
 10
144.6566524349
 20
390.749580938
 30
0.0
 10
144.1200613097
 20
390.8794514527
 30
0.0
 10
143.6163377307
 20
390.8667920905
 30
0.0
 10
143.3133077919
 20
390.7564977658
 30
0.0
 10
143.1813861716
 20
390.680341609
 30
0.0
  0
SPLINE
  5
3F0
100
AcDbEntity
  8
0
100
AcDbSpline
 62
7
  6
CONTINUOUS
 70
0
 71
3
 72
12
 73
8
 74
0
 42
0.0000001
 43
0.0000001
 44
0.0000000001
 40
0.0
 40
0.0
 40
0.0
 40
0.0
 40
0.2711460296
 40
0.5637510724
 40
0.6984754461
 40
0.8166470608
 40
1.0
 40
1.0
 40
1.0
 40
1.0
 10
236.6819673572
 20
158.762311749
 30
0.0
 10
236.8367023565
 20
158.8516475092
 30
0.0
 10
237.108151602
 20
159.1220027804
 30
0.0
 10
237.3218341682
 20
159.5381427814
 30
0.0
 10
237.3932499523
 20
159.8939078347
 30
0.0
 10
237.3909526938
 20
160.1801644761
 30
0.0
 10
237.2865984572
 20
160.3844290489
 30
0.0
 10
237.1819652756
 20
160.4448407717
 30
0.0
  0
SPLINE
  5
3F1
100
AcDbEntity
  8
0
100
AcDbSpline
 62
7
  6
CONTINUOUS
 70
0
 71
3
 72
9
 73
5
 74
0
 42
0.0000001
 43
0.0000001
 44
0.0000000001
 40
0.0
 40
0.0
 40
0.0
 40
0.0
 40
0.5474077027
 40
1.0
 40
1.0
 40
1.0
 40
1.0
 10
144.4742009272
 20
384.3586089177
 30
0.0
 10
144.6981305996
 20
384.2293259858
 30
0.0
 10
145.1427614097
 20
384.0409442162
 30
0.0
 10
145.6407579734
 20
384.0667942992
 30
0.0
 10
145.8396399986
 20
384.1452127737
 30
0.0
  0
SPLINE
  5
3F2
100
AcDbEntity
  8
0
100
AcDbSpline
 62
7
  6
CONTINUOUS
 70
0
 71
3
 72
14
 73
10
 74
0
 42
0.0000001
 43
0.0000001
 44
0.0000000001
 40
0.0
 40
0.0
 40
0.0
 40
0.0
 40
0.0865936535
 40
0.1835303361
 40
0.2987289404
 40
0.4318457003
 40
0.5772441194
 40
0.7265352214
 40
1.0
 40
1.0
 40
1.0
 40
1.0
 10
145.8396399986
 20
384.1452127737
 30
0.0
 10
146.0036762944
 20
384.2098917011
 30
0.0
 10
146.3174153667
 20
384.4487743737
 30
0.0
 10
146.5696474868
 20
385.0218130257
 30
0.0
 10
146.6226802865
 20
385.7318516253
 30
0.0
 10
146.4872475571
 20
386.5280731631
 30
0.0
 10
146.1762710086
 20
387.3479235228
 30
0.0
 10
145.5848122661
 20
388.3431492793
 30
0.0
 10
144.9564458388
 20
388.9792054895
 30
0.0
 10
144.4742009272
 20
389.2576234204
 30
0.0
  0
SPLINE
  5
3F3
100
AcDbEntity
  8
0
100
AcDbSpline
 62
7
  6
CONTINUOUS
 70
0
 71
3
 72
9
 73
5
 74
0
 42
0.0000001
 43
0.0000001
 44
0.0000000001
 40
0.0
 40
0.0
 40
0.0
 40
0.0
 40
0.5474077027
 40
1.0
 40
1.0
 40
1.0
 40
1.0
 10
144.4742009272
 20
389.2576234204
 30
0.0
 10
144.2502712547
 20
389.3869063523
 30
0.0
 10
143.8056404446
 20
389.5752881218
 30
0.0
 10
143.3076438809
 20
389.5494380389
 30
0.0
 10
143.1087618557
 20
389.4710195644
 30
0.0
  0
SPLINE
  5
3F4
100
AcDbEntity
  8
0
100
AcDbSpline
 62
7
  6
CONTINUOUS
 70
0
 71
3
 72
11
 73
7
 74
0
 42
0.0000001
 43
0.0000001
 44
0.0000000001
 40
0.0
 40
0.0
 40
0.0
 40
0.0
 40
0.2188513147
 40
0.4496903656
 40
0.7077904138
 40
1.0
 40
1.0
 40
1.0
 40
1.0
 10
143.1087618557
 20
389.4710195644
 30
0.0
 10
142.991921906
 20
389.4249499882
 30
0.0
 10
142.7677969342
 20
389.2826522353
 30
0.0
 10
142.5244061533
 20
388.94783824
 30
0.0
 10
142.3805585026
 20
388.5176594806
 30
0.0
 10
142.3529983105
 20
388.2004390827
 30
0.0
 10
142.3529967731
 20
388.0327456952
 30
0.0
  0
SPLINE
  5
3F5
100
AcDbEntity
  8
0
100
AcDbSpline
 62
7
  6
CONTINUOUS
 70
0
 71
3
 72
8
 73
4
 74
0
 42
0.0000001
 43
0.0000001
 44
0.0000000001
 40
0.0
 40
0.0
 40
0.0
 40
0.0
 40
1.0
 40
1.0
 40
1.0
 40
1.0
 10
236.6181574648
 20
157.474313283
 30
0.0
 10
236.6129979496
 20
157.4912065138
 30
0.0
 10
236.6328087888
 20
157.5091977441
 30
0.0
 10
236.6481059153
 20
157.5180294915
 30
0.0
  0
SPLINE
  5
3F6
100
AcDbEntity
  8
0
100
AcDbSpline
 62
7
  6
CONTINUOUS
 70
0
 71
3
 72
13
 73
9
 74
0
 42
0.0000001
 43
0.0000001
 44
0.0000000001
 40
0.0
 40
0.0
 40
0.0
 40
0.0
 40
0.2709651261
 40
0.5621788698
 40
0.6959816228
 40
0.8133574981
 40
0.9128960069
 40
1.0
 40
1.0
 40
1.0
 40
1.0
 10
239.0475879717
 20
153.5917824654
 30
0.0
 10
239.4821869113
 20
153.8356153177
 30
0.0
 10
240.5122596
 20
154.1067462686
 30
0.0
 10
241.8121671638
 20
154.0347281562
 30
0.0
 10
242.7633056187
 20
153.7132722465
 30
0.0
 10
243.3185491241
 20
153.3716848955
 30
0.0
 10
243.6943745022
 20
152.9412086041
 30
0.0
 10
243.7900355464
 20
152.5947726194
 30
0.0
 10
243.7901553881
 20
152.4345810159
 30
0.0
  0
SPLINE
  5
3F7
100
AcDbEntity
  8
0
100
AcDbSpline
 62
7
  6
CONTINUOUS
 70
0
 71
3
 72
11
 73
7
 74
0
 42
0.0000001
 43
0.0000001
 44
0.0000000001
 40
0.0
 40
0.0
 40
0.0
 40
0.0
 40
0.2895465625
 40
0.5491328138
 40
0.7822706197
 40
1.0
 40
1.0
 40
1.0
 40
1.0
 10
244.0323531165
 20
150.6812328134
 30
0.0
 10
244.2207013095
 20
150.7899750442
 30
0.0
 10
244.5624929868
 20
151.0256510206
 30
0.0
 10
244.9713479807
 20
151.4548763801
 30
0.0
 10
245.2299757553
 20
151.9300710362
 30
0.0
 10
245.2900956042
 20
152.2710397142
 30
0.0
 10
245.2900990399
 20
152.4345815247
 30
0.0
  0
SPLINE
  5
3F8
100
AcDbEntity
  8
0
100
AcDbSpline
 62
7
  6
CONTINUOUS
 70
0
 71
3
 72
12
 73
8
 74
0
 42
0.0000001
 43
0.0000001
 44
0.0000000001
 40
0.0
 40
0.0
 40
0.0
 40
0.0
 40
0.1938279612
 40
0.3159181023
 40
0.4513408996
 40
0.7375760932
 40
1.0
 40
1.0
 40
1.0
 40
1.0
 10
236.7657575748
 20
152.0039900605
 30
0.0
 10
236.9182267883
 20
151.504776953
 30
0.0
 10
237.5772830104
 20
150.8369862155
 30
0.0
 10
238.669006766
 20
150.3164094891
 30
0.0
 10
240.0947443431
 20
149.935634688
 30
0.0
 10
241.9614876217
 20
149.9055339911
 30
0.0
 10
243.4203268046
 20
150.3278813666
 30
0.0
 10
244.0323531165
 20
150.6812328134
 30
0.0
  0
SPLINE
  5
3F9
100
AcDbEntity
  8
0
100
AcDbSpline
 62
7
  6
CONTINUOUS
 70
0
 71
3
 72
11
 73
7
 74
0
 42
0.0000001
 43
0.0000001
 44
0.0000000001
 40
0.0
 40
0.0
 40
0.0
 40
0.0
 40
0.220059825
 40
0.4541880558
 40
0.7125507985
 40
1.0
 40
1.0
 40
1.0
 40
1.0
 10
108.9382905569
 20
388.9315913566
 30
0.0
 10
108.9382905486
 20
389.5804192723
 30
0.0
 10
109.1634225305
 20
390.9278822459
 30
0.0
 10
110.1333480806
 20
392.8214043361
 30
0.0
 10
111.6758060391
 20
394.55334289
 30
0.0
 10
112.9762357978
 20
395.5188133132
 30
0.0
 10
113.6941181179
 20
395.9692962128
 30
0.0
  0
SPLINE
  5
3FA
100
AcDbEntity
  8
0
100
AcDbSpline
 62
7
  6
CONTINUOUS
 70
0
 71
3
 72
11
 73
7
 74
0
 42
0.0000001
 43
0.0000001
 44
0.0000000001
 40
0.0
 40
0.0
 40
0.0
 40
0.0
 40
0.2177453337
 40
0.4508894043
 40
0.7104568613
 40
1.0
 40
1.0
 40
1.0
 40
1.0
 10
152.7272866434
 20
294.1288378474
 30
0.0
 10
152.8592112627
 20
294.2049910767
 30
0.0
 10
153.1622403058
 20
294.3152874315
 30
0.0
 10
153.6659610529
 20
294.3279422702
 30
0.0
 10
154.2025534554
 20
294.1980820857
 30
0.0
 10
154.5517888294
 20
294.0321391142
 30
0.0
 10
154.7272065668
 20
293.9308639275
 30
0.0
  0
SPLINE
  5
3FB
100
AcDbEntity
  8
0
100
AcDbSpline
 62
7
  6
CONTINUOUS
 70
0
 71
3
 72
9
 73
5
 74
0
 42
0.0000001
 43
0.0000001
 44
0.0000000001
 40
0.0
 40
0.0
 40
0.0
 40
0.0
 40
0.2373778125
 40
1.0
 40
1.0
 40
1.0
 40
1.0
 10
242.8437303756
 20
259.8058477601
 30
0.0
 10
242.8241080967
 20
259.7864807343
 30
0.0
 10
242.7414463857
 20
259.7048940909
 30
0.0
 10
242.6593047448
 20
259.6227668645
 30
0.0
 10
242.597594953
 20
259.5592266552
 30
0.0
  0
SPLINE
  5
3FC
100
AcDbEntity
  8
0
100
AcDbSpline
 62
7
  6
CONTINUOUS
 70
0
 71
3
 72
9
 73
5
 74
0
 42
0.0000001
 43
0.0000001
 44
0.0000000001
 40
0.0
 40
0.0
 40
0.0
 40
0.0
 40
0.2372131006
 40
1.0
 40
1.0
 40
1.0
 40
1.0
 10
242.3810794271
 20
259.3272966789
 30
0.0
 10
242.3102015682
 20
259.2479018665
 30
0.0
 10
242.0198550363
 20
258.9061490749
 30
0.0
 10
241.7736013732
 20
258.5236857253
 30
0.0
 10
241.6316942177
 20
258.2122567726
 30
0.0
  0
SPLINE
  5
3FD
100
AcDbEntity
  8
0
100
AcDbSpline
 62
7
  6
CONTINUOUS
 70
0
 71
3
 72
13
 73
9
 74
0
 42
0.0000001
 43
0.0000001
 44
0.0000000001
 40
0.0
 40
0.0
 40
0.0
 40
0.0
 40
0.2699335874
 40
0.5613258182
 40
0.6954698829
 40
0.8131403132
 40
0.9128521763
 40
1.0
 40
1.0
 40
1.0
 40
1.0
 10
177.9204809171
 20
237.1845129415
 30
0.0
 10
178.2144466661
 20
237.3542331327
 30
0.0
 10
178.917072726
 20
237.5443701429
 30
0.0
 10
179.8054624493
 20
237.4993932648
 30
0.0
 10
180.4577466211
 20
237.2820387139
 30
0.0
 10
180.8392297982
 20
237.0494390382
 30
0.0
 10
181.0976812269
 20
236.7555413824
 30
0.0
 10
181.1639089866
 20
236.5184441076
 30
0.0
 10
181.1639585793
 20
236.4088555962
 30
0.0
  0
SPLINE
  5
3FE
100
AcDbEntity
  8
0
100
AcDbSpline
 62
7
  6
CONTINUOUS
 70
0
 71
3
 72
13
 73
9
 74
0
 42
0.0000001
 43
0.0000001
 44
0.0000000001
 40
0.0
 40
0.0
 40
0.0
 40
0.0
 40
0.2699335874
 40
0.5613258182
 40
0.6954698829
 40
0.8131403132
 40
0.9128521763
 40
1.0
 40
1.0
 40
1.0
 40
1.0
 10
218.9332689068
 20
154.7196357751
 30
0.0
 10
219.2272346558
 20
154.8893559663
 30
0.0
 10
219.9298607157
 20
155.0794929765
 30
0.0
 10
220.8182504391
 20
155.0345160984
 30
0.0
 10
221.4705346108
 20
154.8171615475
 30
0.0
 10
221.852017788
 20
154.5845618718
 30
0.0
 10
222.1104692167
 20
154.290664216
 30
0.0
 10
222.1766969763
 20
154.0535669412
 30
0.0
 10
222.176746569
 20
153.9439784298
 30
0.0
  0
SPLINE
  5
3FF
100
AcDbEntity
  8
0
100
AcDbSpline
 62
7
  6
CONTINUOUS
 70
0
 71
3
 72
11
 73
7
 74
0
 42
0.0000001
 43
0.0000001
 44
0.0000000001
 40
0.0
 40
0.0
 40
0.0
 40
0.0
 40
0.220059825
 40
0.4541880558
 40
0.7125507985
 40
1.0
 40
1.0
 40
1.0
 40
1.0
 10
108.9382905569
 20
226.6109108312
 30
0.0
 10
108.9382905486
 20
227.259738747
 30
0.0
 10
109.1634225305
 20
228.6072017206
 30
0.0
 10
110.1333480806
 20
230.5007238108
 30
0.0
 10
111.6758060391
 20
232.2326623646
 30
0.0
 10
112.9762357978
 20
233.1981327879
 30
0.0
 10
113.6941181179
 20
233.6486156874
 30
0.0
  0
SPLINE
  5
400
100
AcDbEntity
  8
0
100
AcDbSpline
 62
7
  6
CONTINUOUS
 70
0
 71
3
 72
15
 73
11
 74
0
 42
0.0000001
 43
0.0000001
 44
0.0000000001
 40
0.0
 40
0.0
 40
0.0
 40
0.0
 40
0.0869357781
 40
0.1864067954
 40
0.3037976277
 40
0.4376116061
 40
0.5821168388
 40
0.7294261041
 40
0.8711884686
 40
1.0
 40
1.0
 40
1.0
 40
1.0
 10
147.1812233571
 20
281.6895768957
 30
0.0
 10
147.3810388217
 20
281.8049270394
 30
0.0
 10
147.7438057108
 20
282.1751186345
 30
0.0
 10
148.0076146741
 20
282.9558127358
 30
0.0
 10
148.0298751258
 20
283.8961225923
 30
0.0
 10
147.8186603841
 20
284.9320810745
 30
0.0
 10
147.3932986393
 20
285.9844921654
 30
0.0
 10
146.7878126322
 20
286.9694962507
 30
0.0
 10
146.0520950793
 20
287.8063271162
 30
0.0
 10
145.4773616526
 20
288.248643193
 30
0.0
 10
145.1813047644
 20
288.4195678502
 30
0.0
  0
SPLINE
  5
401
100
AcDbEntity
  8
0
100
AcDbSpline
 62
7
  6
CONTINUOUS
 70
0
 71
3
 72
13
 73
9
 74
0
 42
0.0000001
 43
0.0000001
 44
0.0000000001
 40
0.0
 40
0.0
 40
0.0
 40
0.0
 40
0.2699335874
 40
0.5613258182
 40
0.6954698829
 40
0.8131403132
 40
0.9128521763
 40
1.0
 40
1.0
 40
1.0
 40
1.0
 10
127.0090046377
 20
207.7909338628
 30
0.0
 10
127.3029703867
 20
207.960654054
 30
0.0
 10
128.0055964466
 20
208.1507910642
 30
0.0
 10
128.8939861699
 20
208.1058141861
 30
0.0
 10
129.5462703417
 20
207.8884596352
 30
0.0
 10
129.9277535189
 20
207.6558599594
 30
0.0
 10
130.1862049475
 20
207.3619623037
 30
0.0
 10
130.2524327072
 20
207.1248650288
 30
0.0
 10
130.2524822999
 20
207.0152765174
 30
0.0
  0
ENDSEC
  0
SECTION
  2
OBJECTS
  0
DICTIONARY
  5
C
100
AcDbDictionary
280
0
281
1
  3
ACAD_GROUP
350
D
  3
ACAD_MLINESTYLE
350
17
  3
ACAD_LAYOUT
350
1A
  3
ACAD_PLOTSETTINGS
350
19
  3
ACAD_PLOTSTYLENAME
350
E
  0
DICTIONARY
  5
D
102
{ACAD_REACTORS
330
C
102
}
100
AcDbDictionary
280
0
281
1
  0
ACDBDICTIONARYWDFLT
  5
E
102
{ACAD_REACTORS
330
C
102
}
100
AcDbDictionary
281
1
  3
Normal
350
F
100
AcDbDictionaryWithDefault
340
F
  0
DICTIONARY
  5
17
102
{ACAD_REACTORS
330
C
102
}
100
AcDbDictionary
280
0
281
1
  3
Standard
350
18
  0
DICTIONARY
  5
19
102
{ACAD_REACTORS
330
C
102
}
100
AcDbDictionary
281
1
  0
DICTIONARY
  5
1A
102
{ACAD_REACTORS
330
C
102
}
100
AcDbDictionary
281
1
  3
Model
350
402
  3
Layout1
350
403
  0
ACDBPLACEHOLDER
  5
F
102
{ACAD_REACTORS
330
E
102
}
  0
MLINESTYLE
  5
18
102
{ACAD_REACTORS
330
17
102
}
100
AcDbMlineStyle
  2
STANDARD
 70
0
  3

 62
256
 51
90.0
 52
90.0
 71
2
 49
0.5
 62
256
  6
BYLAYER
 49
-0.5
 62
256
  6
BYLAYER
  0
LAYOUT
  5
402
102
{ACAD_REACTORS
330
1A
102
}
100
AcDbPlotSettings
  1

  2
none_device
  4

  6

 40
0.0
 41
0.0
 42
0.0
 43
0.0
 44
210.0
 45
297.0
 46
0.0
 47
0.0
 48
0.0
 49
0.0
140
0.0
141
0.0
142
1.0
143
1.0
 70
1024
 72
1
 73
0
 74
0
  7

 75
0
147
1.0
148
0.0
149
0.0
100
AcDbLayout
  1
Model
 70
0
 71
0
 10
0.0
 20
0.0
 11
210.0
 21
297.0
 12
0.0
 22
0.0
 32
0.0
 14
0.0
 24
0.0
 34
0.0
 15
0.0
 25
0.0
 35
0.0
146
0.0
 13
0.0
 23
0.0
 33
0.0
 16
1.0
 26
0.0
 36
0.0
 17
0.0
 27
1.0
 37
0.0
 76
0
330
210
345
0
346
0
  0
LAYOUT
  5
403
102
{ACAD_REACTORS
330
1A
102
}
100
AcDbPlotSettings
  1

  2
none_device
  4

  6

 40
0.0
 41
0.0
 42
0.0
 43
0.0
 44
210.0
 45
297.0
 46
0.0
 47
0.0
 48
0.0
 49
0.0
140
0.0
141
0.0
142
1.0
143
1.0
 70
0
 72
1
 73
0
 74
0
  7

 75
0
147
1.0
148
0.0
149
0.0
100
AcDbLayout
  1
Layout1
 70
0
 71
1
 10
0.0
 20
0.0
 11
210.0
 21
297.0
 12
0.0
 22
0.0
 32
0.0
 14
0.0
 24
0.0
 34
0.0
 15
0.0
 25
0.0
 35
0.0
146
0.0
 13
0.0
 23
0.0
 33
0.0
 16
1.0
 26
0.0
 36
0.0
 17
0.0
 27
1.0
 37
0.0
 76
0
330
211
345
0
346
0
  0
ENDSEC
  0
EOF
