999
DXF file: C:\Users\sesa63760\Dev\_Creo\CAD\MCADID0005755_3D-CAD\mcadid0005755_3d-simplified_3.dxf
999
Pro/ENGINEER 2019471 by Parametric Technology Corporation
  0
SECTION
  2
HEADER
  9
$ACADVER
  1
AC1024
  9
$DWGCODEPAGE
  3
ANSI_1252
  9
$EXTMAX
 10
85.9562805296
 20
121.5667396061
 30
0.0
  9
$EXTMIN
 10
0.0
 20
0.0
 30
0.0
  9
$LIMMIN
 10
0.0
 20
0.0
  9
$LIMMAX
 10
85.9562805296
 20
121.5667396061
  9
$VIEWCTR
 10
42.9781402648
 20
60.7833698031
  9
$VIEWSIZE
 40
121.5667396061
  9
$CLAYER
  8
0
  9
$LTSCALE
 40
7.9243504336
  9
$CELTYPE
  6
BYLAYER
  9
$DIMSCALE
 40
1.0
  9
$DIMASZ
 40
1.0232890539
  9
$DIMEXO
 40
1.0
  9
$DIMDLI
 40
5.4750057541
  9
$DIMEXE
 40
1.0
  9
$DIMCEN
 40
1.2967118891
  9
$DIMLFAC
 40
1.0
  9
$DIMBLK
  1
_FILLED
  9
$DIMALT
 70
0
  9
$DIMALTF
 40
0.0393700787
  9
$DIMTXT
 40
1.4326046755
  9
$DIMTOL
 70
1
  9
$DIMLIM
 70
0
  9
$DIMTFAC
 40
1.0
  9
$DIMTP
 40
0.01
  9
$DIMTM
 40
0.01
  9
$DIMGAP
 40
0.625
  9
$DIMDSEP
 70
46
  9
$AUNITS
 70
0
  9
$PDMODE
 70
3
  9
$PDSIZE
 40
0.3125
  9
$HANDSEED
  5
571
  9
$TILEMODE
 70
1
  9
$MEASUREMENT
 70
1
  9
$INSUNITS
 70
4
  0
ENDSEC
  0
SECTION
  2
CLASSES
  0
CLASS
  1
ACDBDICTIONARYWDFLT
  2
AcDbDictionaryWithDefault
  3
AutoCAD 2000
 90
0
 91
1
280
0
281
0
  0
CLASS
  1
ACDBPLACEHOLDER
  2
AcDbPlaceHolder
  3
AutoCAD 2000
 90
0
 91
1
280
0
281
0
  0
CLASS
  1
LAYOUT
  2
AcDbLayout
  3
AutoCAD 2000
 90
0
 91
0
280
0
281
0
  0
ENDSEC
  0
SECTION
  2
TABLES
  0
TABLE
  2
VPORT
  5
8
100
AcDbSymbolTable
 70
2
  0
VPORT
  5
1F4
100
AcDbSymbolTableRecord
100
AcDbViewportTableRecord
  2
*ACTIVE
 70
0
 10
0.0
 20
0.0
 11
1.0
 21
1.0
 12
42.9781402648
 22
60.7833698031
 13
0.0
 23
0.0
 14
1.0
 24
1.0
 15
0.0
 25
0.0
 16
0.0
 26
0.0
 36
1.0
 17
0.0
 27
0.0
 37
0.0
 40
121.5667396061
 41
0.7070707071
 42
50.0
 43
0.0
 44
0.0
 50
0.0
 51
0.0
 71
0
 72
100
 73
1
 74
1
 75
0
 76
0
 77
0
 78
0
  0
ENDTAB
  0
TABLE
  2
LTYPE
  5
5
100
AcDbSymbolTable
 70
6
  0
LTYPE
  5
14
100
AcDbSymbolTableRecord
100
AcDbLinetypeTableRecord
  2
BYBLOCK
 70
0
  3

 72
65
 73
0
 40
0.0
  0
LTYPE
  5
15
100
AcDbSymbolTableRecord
100
AcDbLinetypeTableRecord
  2
BYLAYER
 70
0
  3

 72
65
 73
0
 40
0.0
  0
LTYPE
  5
16
100
AcDbSymbolTableRecord
100
AcDbLinetypeTableRecord
  2
CONTINUOUS
 70
64
  3
Solid line
 72
65
 73
0
 40
0.0
  0
LTYPE
  5
1F5
100
AcDbSymbolTableRecord
100
AcDbLinetypeTableRecord
  2
CENTER
 70
64
  3
____ _ ____ _ ____ _ ____ _ ____ _ ____ _ ____
 72
65
 73
4
 40
0.6
 49
0.375
 74
0
 49
-0.075
 74
0
 49
0.075
 74
0
 49
-0.075
 74
0
  0
LTYPE
  5
1F6
100
AcDbSymbolTableRecord
100
AcDbLinetypeTableRecord
  2
HIDDEN
 70
64
  3
- - - - - - - - - - - - - - - - - - - -
 72
65
 73
2
 40
0.2
 49
0.1
 74
0
 49
-0.1
 74
0
  0
LTYPE
  5
1F7
100
AcDbSymbolTableRecord
100
AcDbLinetypeTableRecord
  2
PHANTOM
 70
64
  3
_____ _ _ _____ _ _ _____ _ _ _____
 72
65
 73
6
 40
0.8
 49
0.45
 74
0
 49
-0.05
 74
0
 49
0.1
 74
0
 49
-0.05
 74
0
 49
0.1
 74
0
 49
-0.05
 74
0
  0
LTYPE
  5
1F8
100
AcDbSymbolTableRecord
100
AcDbLinetypeTableRecord
  2
DOT
 70
64
  3
. . . . . . . . . . . . . . . . . . . .
 72
65
 73
2
 40
0.2
 49
0.1
 74
0
 49
-0.1
 74
0
  0
LTYPE
  5
1F9
100
AcDbSymbolTableRecord
100
AcDbLinetypeTableRecord
  2
DASHED
 70
64
  3
- - - - - - - - - - - - - - - - - - - -
 72
65
 73
2
 40
0.2
 49
0.1
 74
0
 49
-0.1
 74
0
  0
ENDTAB
  0
TABLE
  2
LAYER
  5
2
100
AcDbSymbolTable
 70
36
  0
LAYER
  5
10
100
AcDbSymbolTableRecord
100
AcDbLayerTableRecord
  2
0
 70
0
 62
7
  6
CONTINUOUS
370
-3
390
F
  0
LAYER
  5
1FA
100
AcDbSymbolTableRecord
100
AcDbLayerTableRecord
  2
DEFAULT_1
 70
0
 62
7
  6
CENTER
370
-3
390
F
  0
LAYER
  5
1FB
100
AcDbSymbolTableRecord
100
AcDbLayerTableRecord
  2
DEFAULT_2
 70
0
 62
7
  6
HIDDEN
370
-3
390
F
  0
LAYER
  5
1FC
100
AcDbSymbolTableRecord
100
AcDbLayerTableRecord
  2
DEFAULT_3
 70
0
 62
7
  6
PHANTOM
370
-3
390
F
  0
LAYER
  5
1FD
100
AcDbSymbolTableRecord
100
AcDbLayerTableRecord
  2
00_COMPONENTS
 70
0
 62
7
  6
CONTINUOUS
370
-3
390
F
  0
LAYER
  5
1FE
100
AcDbSymbolTableRecord
100
AcDbLayerTableRecord
  2
01_1_DEFAULT_DATUMS
 70
0
 62
7
  6
CONTINUOUS
370
-3
390
F
  0
LAYER
  5
1FF
100
AcDbSymbolTableRecord
100
AcDbLayerTableRecord
  2
01_PLANES
 70
0
 62
7
  6
CONTINUOUS
370
-3
390
F
  0
LAYER
  5
200
100
AcDbSymbolTableRecord
100
AcDbLayerTableRecord
  2
02_COORD_SYS
 70
0
 62
7
  6
CONTINUOUS
370
-3
390
F
  0
LAYER
  5
201
100
AcDbSymbolTableRecord
100
AcDbLayerTableRecord
  2
03_AXES
 70
0
 62
7
  6
CONTINUOUS
370
-3
390
F
  0
LAYER
  5
202
100
AcDbSymbolTableRecord
100
AcDbLayerTableRecord
  2
04_POINTS
 70
0
 62
7
  6
CONTINUOUS
370
-3
390
F
  0
LAYER
  5
203
100
AcDbSymbolTableRecord
100
AcDbLayerTableRecord
  2
05_CURVES
 70
0
 62
7
  6
CONTINUOUS
370
-3
390
F
  0
LAYER
  5
204
100
AcDbSymbolTableRecord
100
AcDbLayerTableRecord
  2
06_SURFS
 70
0
 62
7
  6
CONTINUOUS
370
-3
390
F
  0
LAYER
  5
205
100
AcDbSymbolTableRecord
100
AcDbLayerTableRecord
  2
07_COSMETICS
 70
0
 62
7
  6
CONTINUOUS
370
-3
390
F
  0
LAYER
  5
206
100
AcDbSymbolTableRecord
100
AcDbLayerTableRecord
  2
10_NOTES
 70
0
 62
7
  6
CONTINUOUS
370
-3
390
F
  0
LAYER
  5
207
100
AcDbSymbolTableRecord
100
AcDbLayerTableRecord
  2
11_NOTES_PUB
 70
0
 62
7
  6
CONTINUOUS
370
-3
390
F
  0
LAYER
  5
208
100
AcDbSymbolTableRecord
100
AcDbLayerTableRecord
  2
13_REF_GTOL
 70
0
 62
7
  6
CONTINUOUS
370
-3
390
F
  0
LAYER
  5
209
100
AcDbSymbolTableRecord
100
AcDbLayerTableRecord
  2
16_MISC
 70
0
 62
7
  6
CONTINUOUS
370
-3
390
F
  0
LAYER
  5
20A
100
AcDbSymbolTableRecord
100
AcDbLayerTableRecord
  2
17_NO_PRINT
 70
0
 62
7
  6
CONTINUOUS
370
-3
390
F
  0
LAYER
  5
20B
100
AcDbSymbolTableRecord
100
AcDbLayerTableRecord
  2
18_DATUM_CAMS_JOINTS
 70
0
 62
7
  6
CONTINUOUS
370
-3
390
F
  0
LAYER
  5
20C
100
AcDbSymbolTableRecord
100
AcDbLayerTableRecord
  2
19_DATUM_FUNCTIONAL
 70
0
 62
7
  6
CONTINUOUS
370
-3
390
F
  0
LAYER
  5
20D
100
AcDbSymbolTableRecord
100
AcDbLayerTableRecord
  2
20_DATUM_KINEMATIC_SCHEME
 70
0
 62
7
  6
CONTINUOUS
370
-3
390
F
  0
LAYER
  5
20E
100
AcDbSymbolTableRecord
100
AcDbLayerTableRecord
  2
INTF_BLANK
 70
0
 62
7
  6
CONTINUOUS
370
-3
390
F
  0
LAYER
  5
20F
100
AcDbSymbolTableRecord
100
AcDbLayerTableRecord
  2
_BLACK_HOLE
 70
0
 62
7
  6
CONTINUOUS
370
-3
390
F
  0
LAYER
  5
210
100
AcDbSymbolTableRecord
100
AcDbLayerTableRecord
  2
black
 70
0
 62
7
  6
CONTINUOUS
370
-3
390
F
  0
ENDTAB
  0
TABLE
  2
STYLE
  5
3
100
AcDbSymbolTable
 70
1
  0
STYLE
  5
11
100
AcDbSymbolTableRecord
100
AcDbTextStyleTableRecord
  2
STANDARD
 70
0
 40
0.0
 41
1.0
 50
0.0
 71
0
 42
0.2
  3
ARIAL.TTF
  4

  0
STYLE
  5
211
100
AcDbSymbolTableRecord
100
AcDbTextStyleTableRecord
  2
TEXTSTYLE_1
 70
0
 40
0.0
 41
0.8
 50
0.0
 71
0
 42
0.2
  3
gdt
  4

  0
ENDTAB
  0
TABLE
  2
VIEW
  5
6
100
AcDbSymbolTable
 70
0
  0
ENDTAB
  0
TABLE
  2
UCS
  5
7
100
AcDbSymbolTable
 70
0
  0
ENDTAB
  0
TABLE
  2
APPID
  5
9
100
AcDbSymbolTable
 70
1
  0
APPID
  5
212
100
AcDbSymbolTableRecord
100
AcDbRegAppTableRecord
  2
ACAD
 70
0
  0
ENDTAB
  0
TABLE
  2
BLOCK_RECORD
  5
1
100
AcDbSymbolTable
 70
0
  0
BLOCK_RECORD
  5
213
100
AcDbSymbolTableRecord
100
AcDbBlockTableRecord
  2
*Model_Space
  0
BLOCK_RECORD
  5
214
100
AcDbSymbolTableRecord
100
AcDbBlockTableRecord
  2
*Paper_Space
  0
BLOCK_RECORD
  5
215
100
AcDbSymbolTableRecord
100
AcDbBlockTableRecord
  2
_FILLED
  0
ENDTAB
  0
TABLE
  2
DIMSTYLE
  5
A
100
AcDbSymbolTable
 70
1
100
AcDbDimStyleTable
 71
0
  0
DIMSTYLE
105
216
100
AcDbSymbolTableRecord
100
AcDbDimStyleTableRecord
  2
STANDARD
 70
0
  3

  4

 40
1.0
 41
1.0232890539
 42
1.0
 43
0.38
 44
1.0
 45
0.0
 46
0.0
 47
0.01
 48
0.01
140
1.4326046755
141
0.09
142
0.0
143
25.4
144
1.0
145
0.0
146
1.0
147
0.625
 71
1
 72
0
 73
0
 74
0
 75
0
 76
0
 77
1
 78
8
 79
2
170
0
171
1
172
0
173
0
174
0
175
0
176
0
177
0
178
0
270
2
179
2
271
2
272
2
273
2
274
2
275
0
280
0
281
0
282
0
283
1
284
8
285
0
286
0
287
3
288
0
340
11
278
46
341
215
342
215
343
215
344
215
  0
ENDTAB
  0
ENDSEC
  0
SECTION
  2
BLOCKS
  0
BLOCK
  5
20
100
AcDbEntity
  8
0
100
AcDbBlockBegin
  2
*Model_Space
 70
0
 10
0.0
 20
0.0
 30
0.0
  3
*Model_Space
  1

  0
ENDBLK
  5
21
100
AcDbEntity
  8
0
100
AcDbBlockEnd
  0
BLOCK
  5
1C
100
AcDbEntity
  8
0
100
AcDbBlockBegin
  2
*Paper_Space
 70
0
 10
0.0
 20
0.0
 30
0.0
  3
*Paper_Space
  1

  0
ENDBLK
  5
1D
100
AcDbEntity
  8
0
100
AcDbBlockEnd
  0
BLOCK
  5
217
100
AcDbEntity
  8
0
100
AcDbBlockBegin
  2
_FILLED
 70
64
 10
0.0
 20
0.0
  3
_FILLED
  1

  0
SOLID
  5
218
100
AcDbEntity
  8
0
  6
BYBLOCK
 62
0
100
AcDbTrace
 10
0.0
 20
0.0
 11
-1.0
 21
0.25
 12
-1.0
 22
-0.25
 13
-1.0
 23
-0.25
  0
ENDBLK
  5
219
100
AcDbEntity
  8
0
  6
BYBLOCK
 62
0
100
AcDbBlockEnd
  0
ENDSEC
  0
SECTION
  2
ENTITIES
  0
LINE
  5
21A
100
AcDbEntity
  8
0
100
AcDbLine
 62
7
  6
BYLAYER
 10
10.168512256
 20
13.5593810663
 11
78.168512256
 21
13.5593810663
  0
LINE
  5
21B
100
AcDbEntity
  8
0
100
AcDbLine
 62
7
  6
BYLAYER
 10
39.1616077046
 20
107.2823791554
 11
39.1736629724
 21
107.288790083
  0
LINE
  5
21C
100
AcDbEntity
  8
0
100
AcDbLine
 62
7
  6
BYLAYER
 10
39.477152067
 20
107.4439080881
 11
39.5408991958
 21
107.4757647997
  0
LINE
  5
21D
100
AcDbEntity
  8
0
100
AcDbLine
 62
7
  6
BYLAYER
 10
39.477146342
 20
107.4444866315
 11
39.5730356711
 21
107.4913694327
  0
LINE
  5
21E
100
AcDbEntity
  8
0
100
AcDbLine
 62
7
  6
BYLAYER
 10
39.5408991958
 20
107.4757647997
 11
39.5730393759
 21
107.4910244823
  0
LINE
  5
21F
100
AcDbEntity
  8
0
100
AcDbLine
 62
7
  6
BYLAYER
 10
39.6863828014
 20
107.3784647837
 11
39.7630790185
 21
107.4147436219
  0
LINE
  5
220
100
AcDbEntity
  8
0
100
AcDbLine
 62
7
  6
BYLAYER
 10
40.0068977703
 20
107.6913068392
 11
40.0157721555
 21
107.6952987591
  0
LINE
  5
221
100
AcDbEntity
  8
0
100
AcDbLine
 62
7
  6
BYLAYER
 10
40.0068968927
 20
107.6914130884
 11
40.0157721555
 21
107.6952987591
  0
LINE
  5
222
100
AcDbEntity
  8
0
100
AcDbLine
 62
7
  6
BYLAYER
 10
39.6096870254
 20
107.3059256365
 11
39.6724382352
 21
107.3430800093
  0
LINE
  5
223
100
AcDbEntity
  8
0
100
AcDbLine
 62
7
  6
BYLAYER
 10
41.062262256
 20
107.4320025718
 11
41.1025416898
 21
107.4686677093
  0
LINE
  5
224
100
AcDbEntity
  8
0
100
AcDbLine
 62
7
  6
BYLAYER
 10
41.1025416898
 20
107.4686677093
 11
41.1226894449
 21
107.4867828718
  0
LINE
  5
225
100
AcDbEntity
  8
0
100
AcDbLine
 62
7
  6
BYLAYER
 10
10.168512256
 20
13.5593810663
 11
10.168512256
 21
65.5593810663
  0
LINE
  5
226
100
AcDbEntity
  8
0
100
AcDbLine
 62
7
  6
BYLAYER
 10
39.2703654239
 20
107.3363773619
 11
39.2746623858
 21
107.3423112072
  0
LINE
  5
227
100
AcDbEntity
  8
0
100
AcDbLine
 62
7
  6
BYLAYER
 10
19.3718133577
 20
85.2677980638
 11
19.3826304696
 21
85.2750552157
  0
LINE
  5
228
100
AcDbEntity
  8
0
100
AcDbLine
 62
7
  6
BYLAYER
 10
13.6945339933
 20
65.5593810663
 11
13.6945339933
 21
13.5593810663
  0
LINE
  5
229
100
AcDbEntity
  8
0
100
AcDbLine
 62
7
  6
BYLAYER
 10
14.2305868332
 20
73.8724230659
 11
14.1711303164
 21
67.0593810663
  0
LINE
  5
22A
100
AcDbEntity
  8
0
100
AcDbLine
 62
7
  6
BYLAYER
 10
19.2590787431
 20
85.1724965687
 11
19.2908259268
 21
85.2982346372
  0
LINE
  5
22B
100
AcDbEntity
  8
0
100
AcDbLine
 62
7
  6
BYLAYER
 10
19.2563905135
 20
76.2546653852
 11
19.1554122807
 21
75.8546653852
  0
LINE
  5
22C
100
AcDbEntity
  8
0
100
AcDbLine
 62
7
  6
BYLAYER
 10
19.2590787431
 20
85.1724965687
 11
19.2933497575
 21
85.297545015
  0
LINE
  5
22D
100
AcDbEntity
  8
0
100
AcDbLine
 62
7
  6
BYLAYER
 10
17.5740405387
 20
76.2546599271
 11
17.5806443014
 21
76.2772854888
  0
LINE
  5
22E
100
AcDbEntity
  8
0
100
AcDbLine
 62
7
  6
BYLAYER
 10
17.5740336907
 20
76.2546610874
 11
17.5813490345
 21
76.2770575552
  0
LINE
  5
22F
100
AcDbEntity
  8
0
100
AcDbLine
 62
7
  6
BYLAYER
 10
18.5159533728
 20
67.0593810663
 11
18.5159533728
 21
66.5593810663
  0
LINE
  5
230
100
AcDbEntity
  8
0
100
AcDbLine
 62
7
  6
BYLAYER
 10
25.168512256
 20
13.5593810663
 11
25.168512256
 21
65.5593810663
  0
LINE
  5
231
100
AcDbEntity
  8
0
100
AcDbLine
 62
7
  6
BYLAYER
 10
25.3582026702
 20
66.5593810663
 11
25.168512256
 21
65.5593810663
  0
LINE
  5
232
100
AcDbEntity
  8
0
100
AcDbLine
 62
7
  6
BYLAYER
 10
10.168512256
 20
65.5593810663
 11
11.9005630636
 21
66.5593810663
  0
LINE
  5
233
100
AcDbEntity
  8
0
100
AcDbLine
 62
7
  6
BYLAYER
 10
28.0840786731
 20
105.8834533087
 11
27.9352081261
 21
97.3546653852
  0
LINE
  5
234
100
AcDbEntity
  8
0
100
AcDbLine
 62
7
  6
BYLAYER
 10
28.3770080784
 20
105.8755566563
 11
28.2292459866
 21
97.3546653852
  0
LINE
  5
235
100
AcDbEntity
  8
0
100
AcDbLine
 62
7
  6
BYLAYER
 10
31.7159533728
 20
67.0593810663
 11
31.7159533728
 21
66.5593810663
  0
LINE
  5
236
100
AcDbEntity
  8
0
100
AcDbLine
 62
7
  6
BYLAYER
 10
32.968512256
 20
66.5593810663
 11
32.968512256
 21
67.0593810663
  0
LINE
  5
237
100
AcDbEntity
  8
0
100
AcDbLine
 62
7
  6
BYLAYER
 10
32.9851789227
 20
67.0593810663
 11
32.9851789227
 21
66.5593810663
  0
LINE
  5
238
100
AcDbEntity
  8
0
100
AcDbLine
 62
7
  6
BYLAYER
 10
21.4401281804
 20
95.6386250018
 11
21.4401185415
 21
95.6386645074
  0
LINE
  5
239
100
AcDbEntity
  8
0
100
AcDbLine
 62
7
  6
BYLAYER
 10
35.581985873
 20
107.3170351834
 11
35.581985873
 21
107.3845566388
  0
LINE
  5
23A
100
AcDbEntity
  8
0
100
AcDbLine
 62
7
  6
BYLAYER
 10
35.6121994398
 20
107.3170351834
 11
35.6121994398
 21
107.3873553027
  0
LINE
  5
23B
100
AcDbEntity
  8
0
100
AcDbLine
 62
7
  6
BYLAYER
 10
36.0444858592
 20
107.6431726529
 11
36.0444858592
 21
107.4732536975
  0
LINE
  5
23C
100
AcDbEntity
  8
0
100
AcDbLine
 62
7
  6
BYLAYER
 10
36.1235059868
 20
107.4732536975
 11
36.1235059868
 21
107.5715397276
  0
LINE
  5
23D
100
AcDbEntity
  8
0
100
AcDbLine
 62
7
  6
BYLAYER
 10
36.3535939213
 20
107.408735656
 11
36.3535939213
 21
107.3431330321
  0
LINE
  5
23E
100
AcDbEntity
  8
0
100
AcDbLine
 62
7
  6
BYLAYER
 10
36.4000763233
 20
107.6805641861
 11
36.4000763233
 21
107.6233657811
  0
LINE
  5
23F
100
AcDbEntity
  8
0
100
AcDbLine
 62
7
  6
BYLAYER
 10
36.4585852136
 20
67.0593810663
 11
36.4585852136
 21
66.5593810663
  0
LINE
  5
240
100
AcDbEntity
  8
0
100
AcDbLine
 62
7
  6
BYLAYER
 10
36.5807653879
 20
108.1681721934
 11
36.5807653879
 21
108.079059128
  0
LINE
  5
241
100
AcDbEntity
  8
0
100
AcDbLine
 62
7
  6
BYLAYER
 10
36.5849774602
 20
67.0593810663
 11
36.5849774602
 21
66.5593810663
  0
LINE
  5
242
100
AcDbEntity
  8
0
100
AcDbLine
 62
7
  6
BYLAYER
 10
36.6929154675
 20
107.4728396067
 11
36.6929154675
 21
107.377524431
  0
LINE
  5
243
100
AcDbEntity
  8
0
100
AcDbLine
 62
7
  6
BYLAYER
 10
36.8649003993
 20
107.5809811778
 11
36.8649003993
 21
107.3981619676
  0
LINE
  5
244
100
AcDbEntity
  8
0
100
AcDbLine
 62
7
  6
BYLAYER
 10
39.1803789919
 20
107.2470811598
 11
39.1809060257
 21
107.2526916926
  0
LINE
  5
245
100
AcDbEntity
  8
0
100
AcDbLine
 62
7
  6
BYLAYER
 10
37.1879531931
 20
107.7197400253
 11
37.1879531931
 21
107.6667270782
  0
LINE
  5
246
100
AcDbEntity
  8
0
100
AcDbLine
 62
7
  6
BYLAYER
 10
37.4040963959
 20
107.5211231753
 11
37.4040963959
 21
107.5589558983
  0
LINE
  5
247
100
AcDbEntity
  8
0
100
AcDbLine
 62
7
  6
BYLAYER
 10
37.7434179973
 20
107.6617119074
 11
37.7434179973
 21
107.4573782378
  0
LINE
  5
248
100
AcDbEntity
  8
0
100
AcDbLine
 62
7
  6
BYLAYER
 10
37.9154030393
 20
107.4509098105
 11
37.9154030393
 21
107.5697092546
  0
LINE
  5
249
100
AcDbEntity
  8
0
100
AcDbLine
 62
7
  6
BYLAYER
 10
38.1780286442
 20
107.7061683867
 11
38.1780286442
 21
107.6474193194
  0
LINE
  5
24A
100
AcDbEntity
  8
0
100
AcDbLine
 62
7
  6
BYLAYER
 10
38.268669207
 20
107.5174331522
 11
38.268669207
 21
107.4569109889
  0
LINE
  5
24B
100
AcDbEntity
  8
0
100
AcDbLine
 62
7
  6
BYLAYER
 10
38.3012070428
 20
107.6638966817
 11
38.3012070428
 21
107.712531456
  0
LINE
  5
24C
100
AcDbEntity
  8
0
100
AcDbLine
 62
7
  6
BYLAYER
 10
38.3779030393
 20
107.4656754094
 11
38.3779030393
 21
107.519471227
  0
LINE
  5
24D
100
AcDbEntity
  8
0
100
AcDbLine
 62
7
  6
BYLAYER
 10
38.7799758505
 20
107.716482009
 11
38.7799758505
 21
107.6671616167
  0
LINE
  5
24E
100
AcDbEntity
  8
0
100
AcDbLine
 62
7
  6
BYLAYER
 10
38.7939206373
 20
107.5510650282
 11
38.7939206373
 21
107.5013253117
  0
LINE
  5
24F
100
AcDbEntity
  8
0
100
AcDbLine
 62
7
  6
BYLAYER
 10
39.01006384
 20
107.4971024545
 11
39.01006384
 21
107.840496941
  0
LINE
  5
250
100
AcDbEntity
  8
0
100
AcDbLine
 62
7
  6
BYLAYER
 10
39.2378273677
 20
107.2996595406
 11
39.2378273677
 21
107.194355467
  0
LINE
  5
251
100
AcDbEntity
  8
0
100
AcDbLine
 62
7
  6
BYLAYER
 10
39.3633302282
 20
107.373145
 11
39.3633302282
 21
107.336377922
  0
LINE
  5
252
100
AcDbEntity
  8
0
100
AcDbLine
 62
7
  6
BYLAYER
 10
39.4865086269
 20
107.2083264915
 11
39.4865086268
 21
107.1389441763
  0
LINE
  5
253
100
AcDbEntity
  8
0
100
AcDbLine
 62
7
  6
BYLAYER
 10
39.4888326477
 20
107.5084459865
 11
39.4888326477
 21
107.8582056768
  0
LINE
  5
254
100
AcDbEntity
  8
0
100
AcDbLine
 62
7
  6
BYLAYER
 10
39.6096870254
 20
107.3059256365
 11
39.6096870254
 21
107.27171237
  0
LINE
  5
255
100
AcDbEntity
  8
0
100
AcDbLine
 62
7
  6
BYLAYER
 10
39.6518763713
 20
66.5593810663
 11
39.6518763778
 21
66.7944265508
  0
LINE
  5
256
100
AcDbEntity
  8
0
100
AcDbLine
 62
7
  6
BYLAYER
 10
39.6724382352
 20
107.3430800093
 11
39.6724382352
 21
107.27171237
  0
LINE
  5
257
100
AcDbEntity
  8
0
100
AcDbLine
 62
7
  6
BYLAYER
 10
39.6863828014
 20
107.3784647837
 11
39.6863828014
 21
107.27171237
  0
LINE
  5
258
100
AcDbEntity
  8
0
100
AcDbLine
 62
7
  6
BYLAYER
 10
39.7362994354
 20
66.5593810663
 11
39.7362994354
 21
66.6577949153
  0
LINE
  5
259
100
AcDbEntity
  8
0
100
AcDbLine
 62
7
  6
BYLAYER
 10
39.7630790185
 20
107.4147436219
 11
39.7630790185
 21
107.2768487863
  0
LINE
  5
25A
100
AcDbEntity
  8
0
100
AcDbLine
 62
7
  6
BYLAYER
 10
39.9234430741
 20
107.770166867
 11
39.9234430741
 21
107.712779345
  0
LINE
  5
25B
100
AcDbEntity
  8
0
100
AcDbLine
 62
7
  6
BYLAYER
 10
39.9792222213
 20
107.1214284724
 11
39.9792222213
 21
107.2161024362
  0
LINE
  5
25C
100
AcDbEntity
  8
0
100
AcDbLine
 62
7
  6
BYLAYER
 10
40.0303528856
 20
107.6952987807
 11
40.0303528856
 21
107.7721639473
  0
LINE
  5
25D
100
AcDbEntity
  8
0
100
AcDbLine
 62
7
  6
BYLAYER
 10
40.0605664801
 20
107.5719966231
 11
40.0605664801
 21
107.6716534049
  0
LINE
  5
25E
100
AcDbEntity
  8
0
100
AcDbLine
 62
7
  6
BYLAYER
 10
40.5269734469
 20
107.7182803836
 11
40.5269734469
 21
107.6080407308
  0
LINE
  5
25F
100
AcDbEntity
  8
0
100
AcDbLine
 62
7
  6
BYLAYER
 10
40.5509556126
 20
107.3013092284
 11
40.5509556126
 21
107.1769375902
  0
LINE
  5
260
100
AcDbEntity
  8
0
100
AcDbLine
 62
7
  6
BYLAYER
 10
40.5556040954
 20
107.6860378706
 11
40.5556040954
 21
107.6080407308
  0
LINE
  5
261
100
AcDbEntity
  8
0
100
AcDbLine
 62
7
  6
BYLAYER
 10
40.7368852209
 20
107.5602598053
 11
40.7368852209
 21
107.4825755775
  0
LINE
  5
262
100
AcDbEntity
  8
0
100
AcDbLine
 62
7
  6
BYLAYER
 10
40.7531542491
 20
107.4284460197
 11
40.7531542491
 21
107.2066704629
  0
LINE
  5
263
100
AcDbEntity
  8
0
100
AcDbLine
 62
7
  6
BYLAYER
 10
40.7833678435
 20
107.2917832392
 11
40.7833678435
 21
107.2117507019
  0
LINE
  5
264
100
AcDbEntity
  8
0
100
AcDbLine
 62
7
  6
BYLAYER
 10
40.7880158852
 20
107.6085122736
 11
40.7880158852
 21
107.7752100221
  0
LINE
  5
265
100
AcDbEntity
  8
0
100
AcDbLine
 62
7
  6
BYLAYER
 10
37.6976481963
 20
105.884516169
 11
37.6805752579
 21
97.3546653852
  0
LINE
  5
266
100
AcDbEntity
  8
0
100
AcDbLine
 62
7
  6
BYLAYER
 10
44.5875008253
 20
107.8328532296
 11
44.5873889635
 21
107.9102414817
  0
LINE
  5
267
100
AcDbEntity
  8
0
100
AcDbLine
 62
7
  6
BYLAYER
 10
40.8926012348
 20
107.3625703199
 11
40.8926012348
 21
107.3265535163
  0
LINE
  5
268
100
AcDbEntity
  8
0
100
AcDbLine
 62
7
  6
BYLAYER
 10
41.062262256
 20
107.4320025727
 11
41.062262256
 21
107.3988148816
  0
LINE
  5
269
100
AcDbEntity
  8
0
100
AcDbLine
 62
7
  6
BYLAYER
 10
41.1226894449
 20
107.4867828718
 11
41.1226894449
 21
107.4010990726
  0
LINE
  5
26A
100
AcDbEntity
  8
0
100
AcDbLine
 62
7
  6
BYLAYER
 10
41.2807294797
 20
107.576493751
 11
41.2807294797
 21
107.7513687543
  0
LINE
  5
26B
100
AcDbEntity
  8
0
100
AcDbLine
 62
7
  6
BYLAYER
 10
41.2807294797
 20
107.7709260466
 11
41.2807294797
 21
107.7806264183
  0
LINE
  5
26C
100
AcDbEntity
  8
0
100
AcDbLine
 62
7
  6
BYLAYER
 10
41.3853148292
 20
107.4954045182
 11
41.3853148292
 21
107.4033832636
  0
LINE
  5
26D
100
AcDbEntity
  8
0
100
AcDbLine
 62
7
  6
BYLAYER
 10
41.6688577246
 20
107.7915093861
 11
41.6688577246
 21
107.7401576361
  0
LINE
  5
26E
100
AcDbEntity
  8
0
100
AcDbLine
 62
7
  6
BYLAYER
 10
41.8059806894
 20
107.7234528304
 11
41.8059806894
 21
107.7926692053
  0
LINE
  5
26F
100
AcDbEntity
  8
0
100
AcDbLine
 62
7
  6
BYLAYER
 10
41.852463312
 20
107.2225265265
 11
41.852463312
 21
107.4834350685
  0
LINE
  5
270
100
AcDbEntity
  8
0
100
AcDbLine
 62
7
  6
BYLAYER
 10
41.852463312
 20
107.5377223465
 11
41.852463312
 21
107.6864893251
  0
LINE
  5
271
100
AcDbEntity
  8
0
100
AcDbLine
 62
7
  6
BYLAYER
 10
42.0383929204
 20
107.4518059668
 11
42.0383929204
 21
107.2244288595
  0
LINE
  5
272
100
AcDbEntity
  8
0
100
AcDbLine
 62
7
  6
BYLAYER
 10
42.3312318992
 20
107.6799033496
 11
42.3312318992
 21
107.5411671472
  0
LINE
  5
273
100
AcDbEntity
  8
0
100
AcDbLine
 62
7
  6
BYLAYER
 10
42.5636441301
 20
107.4882567497
 11
42.5636441301
 21
107.4551917876
  0
LINE
  5
274
100
AcDbEntity
  8
0
100
AcDbLine
 62
7
  6
BYLAYER
 10
42.5636441301
 20
107.3790862566
 11
42.5636441301
 21
107.3434945671
  0
LINE
  5
275
100
AcDbEntity
  8
0
100
AcDbLine
 62
7
  6
BYLAYER
 10
42.5799131583
 20
107.2638010614
 11
42.5799131583
 21
107.2274755935
  0
LINE
  5
276
100
AcDbEntity
  8
0
100
AcDbLine
 62
7
  6
BYLAYER
 10
42.6808906263
 20
108.1904318147
 11
42.6808906263
 21
108.0167486375
  0
LINE
  5
277
100
AcDbEntity
  8
0
100
AcDbLine
 62
7
  6
BYLAYER
 10
43.0261434566
 20
107.6987880323
 11
43.0261441301
 21
107.5453342846
  0
LINE
  5
278
100
AcDbEntity
  8
0
100
AcDbLine
 62
7
  6
BYLAYER
 10
43.0426026896
 20
108.2242950849
 11
43.0426026896
 21
108.0100184252
  0
LINE
  5
279
100
AcDbEntity
  8
0
100
AcDbLine
 62
7
  6
BYLAYER
 10
43.0586821865
 20
107.2377397416
 11
43.0586821865
 21
107.4832657821
  0
LINE
  5
27A
100
AcDbEntity
  8
0
100
AcDbLine
 62
7
  6
BYLAYER
 10
43.1981287311
 20
107.800572876
 11
43.1981287311
 21
107.7484022683
  0
LINE
  5
27B
100
AcDbEntity
  8
0
100
AcDbLine
 62
7
  6
BYLAYER
 10
43.2283423256
 20
107.4838364146
 11
43.2283423256
 21
107.2383185296
  0
LINE
  5
27C
100
AcDbEntity
  8
0
100
AcDbLine
 62
7
  6
BYLAYER
 10
43.3677897524
 20
107.5897222273
 11
43.3677897524
 21
107.5348890036
  0
LINE
  5
27D
100
AcDbEntity
  8
0
100
AcDbLine
 62
7
  6
BYLAYER
 10
43.4444855284
 20
107.7575400519
 11
43.4444855284
 21
107.8012342152
  0
LINE
  5
27E
100
AcDbEntity
  8
0
100
AcDbLine
 62
7
  6
BYLAYER
 10
43.5513957809
 20
107.5385323218
 11
43.5513957809
 21
107.5872775128
  0
LINE
  5
27F
100
AcDbEntity
  8
0
100
AcDbLine
 62
7
  6
BYLAYER
 10
43.6338961402
 20
108.6024199124
 11
43.6338961402
 21
108.5895436391
  0
LINE
  5
280
100
AcDbEntity
  8
0
100
AcDbLine
 62
7
  6
BYLAYER
 10
43.6768982004
 20
107.3227324318
 11
43.6768982004
 21
107.331881712
  0
LINE
  5
281
100
AcDbEntity
  8
0
100
AcDbLine
 62
7
  6
BYLAYER
 10
43.7071141105
 20
107.6587528687
 11
43.7071144079
 21
107.7004653556
  0
LINE
  5
282
100
AcDbEntity
  8
0
100
AcDbLine
 62
7
  6
BYLAYER
 10
43.8605033468
 20
107.2445000628
 11
43.8605033457
 21
107.3384661146
  0
LINE
  5
283
100
AcDbEntity
  8
0
100
AcDbLine
 62
7
  6
BYLAYER
 10
43.902701773
 20
107.9870310599
 11
43.9027017163
 21
108.2884537791
  0
LINE
  5
284
100
AcDbEntity
  8
0
100
AcDbLine
 62
7
  6
BYLAYER
 10
44.0464329552
 20
107.7360205401
 11
44.0464329552
 21
107.6592588949
  0
LINE
  5
285
100
AcDbEntity
  8
0
100
AcDbLine
 62
7
  6
BYLAYER
 10
44.0627015423
 20
107.4067961849
 11
44.0627015423
 21
107.3805354691
  0
LINE
  5
286
100
AcDbEntity
  8
0
100
AcDbLine
 62
7
  6
BYLAYER
 10
44.109184606
 20
107.6200711839
 11
44.109184606
 21
107.5713487477
  0
LINE
  5
287
100
AcDbEntity
  8
0
100
AcDbLine
 62
7
  6
BYLAYER
 10
44.1231287311
 20
107.2645962856
 11
44.1231287311
 21
107.230141549
  0
LINE
  5
288
100
AcDbEntity
  8
0
100
AcDbLine
 62
7
  6
BYLAYER
 10
44.2927897433
 20
107.3169739877
 11
44.2927897433
 21
107.3384565578
  0
LINE
  5
289
100
AcDbEntity
  8
0
100
AcDbLine
 62
7
  6
BYLAYER
 10
44.3253278088
 20
107.5464748686
 11
44.3253278088
 21
107.7945444087
  0
LINE
  5
28A
100
AcDbEntity
  8
0
100
AcDbLine
 62
7
  6
BYLAYER
 10
44.4342109061
 20
108.2882714948
 11
44.4342108574
 21
107.9868499542
  0
LINE
  5
28B
100
AcDbEntity
  8
0
100
AcDbLine
 62
7
  6
BYLAYER
 10
44.4485057663
 20
107.2797039878
 11
44.4485057663
 21
107.2551018052
  0
LINE
  5
28C
100
AcDbEntity
  8
0
100
AcDbLine
 62
7
  6
BYLAYER
 10
44.6790503494
 20
107.9100985969
 11
44.679440944
 21
107.8467132963
  0
LINE
  5
28D
100
AcDbEntity
  8
0
100
AcDbLine
 62
7
  6
BYLAYER
 10
44.703066832
 20
108.5896316988
 11
44.703066832
 21
108.5986383245
  0
LINE
  5
28E
100
AcDbEntity
  8
0
100
AcDbLine
 62
7
  6
BYLAYER
 10
44.8040963959
 20
107.79365026
 11
44.8040963959
 21
107.5456077662
  0
LINE
  5
28F
100
AcDbEntity
  8
0
100
AcDbLine
 62
7
  6
BYLAYER
 10
44.8343099903
 20
107.8938401313
 11
44.8343099903
 21
107.882613112
  0
LINE
  5
290
100
AcDbEntity
  8
0
100
AcDbLine
 62
7
  6
BYLAYER
 10
44.9110057663
 20
107.3125345228
 11
44.9110057663
 21
107.3217155225
  0
LINE
  5
291
100
AcDbEntity
  8
0
100
AcDbLine
 62
7
  6
BYLAYER
 10
45.0039710115
 20
107.6603552708
 11
45.0039710115
 21
107.6782754696
  0
LINE
  5
292
100
AcDbEntity
  8
0
100
AcDbLine
 62
7
  6
BYLAYER
 10
45.0806667875
 20
107.3183892077
 11
45.0806667875
 21
107.248739698
  0
LINE
  5
293
100
AcDbEntity
  8
0
100
AcDbLine
 62
7
  6
BYLAYER
 10
45.2665963959
 20
107.4041504676
 11
45.2665963959
 21
107.3743375023
  0
LINE
  5
294
100
AcDbEntity
  8
0
100
AcDbLine
 62
7
  6
BYLAYER
 10
45.2943740072
 20
108.2234646778
 11
45.2943740072
 21
108.0090709714
  0
LINE
  5
295
100
AcDbEntity
  8
0
100
AcDbLine
 62
7
  6
BYLAYER
 10
45.3758302282
 20
107.3743375023
 11
45.3758302282
 21
107.4036485064
  0
LINE
  5
296
100
AcDbEntity
  8
0
100
AcDbLine
 62
7
  6
BYLAYER
 10
45.4362574171
 20
107.2611968169
 11
45.4362574171
 21
107.2270447324
  0
LINE
  5
297
100
AcDbEntity
  8
0
100
AcDbLine
 62
7
  6
BYLAYER
 10
45.4827395986
 20
107.6688147828
 11
45.4827395986
 21
107.5395174433
  0
LINE
  5
298
100
AcDbEntity
  8
0
100
AcDbLine
 62
7
  6
BYLAYER
 10
45.4990081858
 20
107.7933948612
 11
45.4990081858
 21
107.691345283
  0
LINE
  5
299
100
AcDbEntity
  8
0
100
AcDbLine
 62
7
  6
BYLAYER
 10
45.6524006199
 20
107.7972389115
 11
45.6524006199
 21
107.7310071036
  0
LINE
  5
29A
100
AcDbEntity
  8
0
100
AcDbLine
 62
7
  6
BYLAYER
 10
45.6588197552
 20
108.1893601507
 11
45.6588197552
 21
108.0156265426
  0
LINE
  5
29B
100
AcDbEntity
  8
0
100
AcDbLine
 62
7
  6
BYLAYER
 10
45.7755785774
 20
107.7449561311
 11
45.7755785774
 21
107.7964927878
  0
LINE
  5
29C
100
AcDbEntity
  8
0
100
AcDbLine
 62
7
  6
BYLAYER
 10
45.8685438227
 20
107.5845947419
 11
45.8685438227
 21
107.5329784671
  0
LINE
  5
29D
100
AcDbEntity
  8
0
100
AcDbLine
 62
7
  6
BYLAYER
 10
46.1637072634
 20
107.5385366689
 11
46.1637072634
 21
107.8959505897
  0
LINE
  5
29E
100
AcDbEntity
  8
0
100
AcDbLine
 62
7
  6
BYLAYER
 10
46.2101894449
 20
107.2749306465
 11
46.2101894449
 21
107.3658622919
  0
LINE
  5
29F
100
AcDbEntity
  8
0
100
AcDbLine
 62
7
  6
BYLAYER
 10
46.3798504661
 20
107.394349604
 11
46.3798504661
 21
107.2196400315
  0
LINE
  5
2A0
100
AcDbEntity
  8
0
100
AcDbLine
 62
7
  6
BYLAYER
 10
46.3798504661
 20
107.415803208
 11
46.3798504661
 21
107.4264607999
  0
LINE
  5
2A1
100
AcDbEntity
  8
0
100
AcDbLine
 62
7
  6
BYLAYER
 10
46.6099377941
 20
107.3624499653
 11
46.6099377941
 21
107.3923141104
  0
LINE
  5
2A2
100
AcDbEntity
  8
0
100
AcDbLine
 62
7
  6
BYLAYER
 10
46.6262072634
 20
107.8920192031
 11
46.6262072634
 21
107.5346042506
  0
LINE
  5
2A3
100
AcDbEntity
  8
0
100
AcDbLine
 62
7
  6
BYLAYER
 10
47.1351894449
 20
107.2225421732
 11
47.1351894449
 21
107.381189986
  0
LINE
  5
2A4
100
AcDbEntity
  8
0
100
AcDbLine
 62
7
  6
BYLAYER
 10
47.3048504661
 20
107.2206039415
 11
47.3048504661
 21
107.3792479877
  0
LINE
  5
2A5
100
AcDbEntity
  8
0
100
AcDbLine
 62
7
  6
BYLAYER
 10
47.3513326477
 20
107.6809687117
 11
47.3513326477
 21
107.5268229401
  0
LINE
  5
2A6
100
AcDbEntity
  8
0
100
AcDbLine
 62
7
  6
BYLAYER
 10
47.3838707041
 20
107.7770565717
 11
47.3838707041
 21
107.699094221
  0
LINE
  5
2A7
100
AcDbEntity
  8
0
100
AcDbLine
 62
7
  6
BYLAYER
 10
47.5535308432
 20
107.3846362154
 11
47.5535308432
 21
107.3556661927
  0
LINE
  5
2A8
100
AcDbEntity
  8
0
100
AcDbLine
 62
7
  6
BYLAYER
 10
47.5837444376
 20
107.7792797357
 11
47.5837444376
 21
107.7343525224
  0
LINE
  5
2A9
100
AcDbEntity
  8
0
100
AcDbLine
 62
7
  6
BYLAYER
 10
47.7231918644
 20
107.7343525224
 11
47.7231918644
 21
107.7774707634
  0
LINE
  5
2AA
100
AcDbEntity
  8
0
100
AcDbLine
 62
7
  6
BYLAYER
 10
47.7696740459
 20
107.5626975813
 11
47.7696740459
 21
107.5116077337
  0
LINE
  5
2AB
100
AcDbEntity
  8
0
100
AcDbLine
 62
7
  6
BYLAYER
 10
47.9230664801
 20
107.5124969543
 11
47.9230664801
 21
107.5605999016
  0
LINE
  5
2AC
100
AcDbEntity
  8
0
100
AcDbLine
 62
7
  6
BYLAYER
 10
48.0160308432
 20
107.632577524
 11
48.0160308432
 21
107.6722660991
  0
LINE
  5
2AD
100
AcDbEntity
  8
0
100
AcDbLine
 62
7
  6
BYLAYER
 10
48.2321740459
 20
107.2081965397
 11
48.2321740459
 21
107.3668253622
  0
LINE
  5
2AE
100
AcDbEntity
  8
0
100
AcDbLine
 62
7
  6
BYLAYER
 10
48.3878900693
 20
107.4369852219
 11
48.3878901317
 21
107.4192428919
  0
LINE
  5
2AF
100
AcDbEntity
  8
0
100
AcDbLine
 62
7
  6
BYLAYER
 10
48.4018350672
 20
107.3642237874
 11
48.4018350672
 21
107.2055965415
  0
LINE
  5
2B0
100
AcDbEntity
  8
0
100
AcDbLine
 62
7
  6
BYLAYER
 10
48.4181036543
 20
107.5855522848
 11
48.4181036543
 21
107.5397943507
  0
LINE
  5
2B1
100
AcDbEntity
  8
0
100
AcDbLine
 62
7
  6
BYLAYER
 10
50.6393744389
 20
105.8804631212
 11
50.6568214562
 21
97.3546653852
  0
LINE
  5
2B2
100
AcDbEntity
  8
0
100
AcDbLine
 62
7
  6
BYLAYER
 10
48.6007250767
 20
66.5593810663
 11
48.6007250767
 21
66.6577949166
  0
LINE
  5
2B3
100
AcDbEntity
  8
0
100
AcDbLine
 62
7
  6
BYLAYER
 10
48.6851481343
 20
66.7944265508
 11
48.6851481408
 21
66.5593810663
  0
LINE
  5
2B4
100
AcDbEntity
  8
0
100
AcDbLine
 62
7
  6
BYLAYER
 10
48.6969985079
 20
107.5262847737
 11
48.6969985079
 21
107.753324755
  0
LINE
  5
2B5
100
AcDbEntity
  8
0
100
AcDbLine
 62
7
  6
BYLAYER
 10
49.0363196682
 20
107.2043416433
 11
49.0363196682
 21
107.2755440523
  0
LINE
  5
2B6
100
AcDbEntity
  8
0
100
AcDbLine
 62
7
  6
BYLAYER
 10
49.175767095
 20
107.4976296894
 11
49.175767095
 21
107.7388947018
  0
LINE
  5
2B7
100
AcDbEntity
  8
0
100
AcDbLine
 62
7
  6
BYLAYER
 10
49.2222492765
 20
107.3583186626
 11
49.2222492765
 21
107.3274491671
  0
LINE
  5
2B8
100
AcDbEntity
  8
0
100
AcDbLine
 62
7
  6
BYLAYER
 10
49.3291595291
 20
107.3274491671
 11
49.3291595291
 21
107.3558652551
  0
LINE
  5
2B9
100
AcDbEntity
  8
0
100
AcDbLine
 62
7
  6
BYLAYER
 10
49.345428116
 20
107.2142294551
 11
49.3454281134
 21
107.1806903451
  0
LINE
  5
2BA
100
AcDbEntity
  8
0
100
AcDbLine
 62
7
  6
BYLAYER
 10
49.3919102978
 20
107.2132973209
 11
49.3919102912
 21
107.18069033
  0
LINE
  5
2BB
100
AcDbEntity
  8
0
100
AcDbLine
 62
7
  6
BYLAYER
 10
49.5453027319
 20
107.7292604155
 11
49.5453027319
 21
107.6633862162
  0
LINE
  5
2BC
100
AcDbEntity
  8
0
100
AcDbLine
 62
7
  6
BYLAYER
 10
49.7312323402
 20
107.634548958
 11
49.7312323402
 21
107.7235735952
  0
LINE
  5
2BD
100
AcDbEntity
  8
0
100
AcDbLine
 62
7
  6
BYLAYER
 10
51.7520470519
 20
66.5593810663
 11
51.7520470519
 21
67.0593810663
  0
LINE
  5
2BE
100
AcDbEntity
  8
0
100
AcDbLine
 62
7
  6
BYLAYER
 10
51.7562138286
 20
108.1774839051
 11
51.7562138286
 21
108.0818842045
  0
LINE
  5
2BF
100
AcDbEntity
  8
0
100
AcDbLine
 62
7
  6
BYLAYER
 10
51.8784392985
 20
67.0593810663
 11
51.8784392985
 21
66.5593810663
  0
LINE
  5
2C0
100
AcDbEntity
  8
0
100
AcDbLine
 62
7
  6
BYLAYER
 10
74.6424905188
 20
65.5593810663
 11
13.6945339933
 21
65.5593810663
  0
LINE
  5
2C1
100
AcDbEntity
  8
0
100
AcDbLine
 62
7
  6
BYLAYER
 10
11.9005630636
 20
66.5593810663
 11
76.4364614485
 21
66.5593810663
  0
LINE
  5
2C2
100
AcDbEntity
  8
0
100
AcDbLine
 62
7
  6
BYLAYER
 10
48.6007250767
 20
66.6577949153
 11
39.7362994354
 21
66.6577949153
  0
LINE
  5
2C3
100
AcDbEntity
  8
0
100
AcDbLine
 62
7
  6
BYLAYER
 10
14.1715252797
 20
67.0593810663
 11
74.1654992324
 21
67.0593810663
  0
LINE
  5
2C4
100
AcDbEntity
  8
0
100
AcDbLine
 62
7
  6
BYLAYER
 10
55.3518455894
 20
67.0593810663
 11
55.3518455894
 21
66.5593810663
  0
LINE
  5
2C5
100
AcDbEntity
  8
0
100
AcDbLine
 62
7
  6
BYLAYER
 10
55.368512256
 20
67.0593810663
 11
55.368512256
 21
66.5593810663
  0
LINE
  5
2C6
100
AcDbEntity
  8
0
100
AcDbLine
 62
7
  6
BYLAYER
 10
56.6210711393
 20
67.0593810663
 11
56.6210711393
 21
66.5593810663
  0
LINE
  5
2C7
100
AcDbEntity
  8
0
100
AcDbLine
 62
7
  6
BYLAYER
 10
74.1064376789
 20
73.8724230659
 11
14.2305868332
 21
73.8724230659
  0
LINE
  5
2C8
100
AcDbEntity
  8
0
100
AcDbLine
 62
7
  6
BYLAYER
 10
72.1413878693
 20
75.8546653852
 11
16.1956366428
 21
75.8546653852
  0
LINE
  5
2C9
100
AcDbEntity
  8
0
100
AcDbLine
 62
7
  6
BYLAYER
 10
16.2685310004
 20
76.2546653852
 11
72.068129977
 21
76.2546653852
  0
LWPOLYLINE
  5
2CA
100
AcDbEntity
  8
0
100
AcDbPolyline
 62
7
  6
BYLAYER
 90
3
 70
0
 10
60.2527535804
 20
105.8944674966
 10
60.2517931671
 20
105.9242415021
 10
60.1571568921
 20
106.3041167942
  0
LINE
  5
2CB
100
AcDbEntity
  8
0
100
AcDbLine
 62
7
  6
BYLAYER
 10
60.2527526596
 20
105.8945205499
 11
60.401816386
 21
97.3546653852
  0
LINE
  5
2CC
100
AcDbEntity
  8
0
100
AcDbLine
 62
7
  6
BYLAYER
 10
59.9599378623
 20
105.880196369
 11
60.1078329818
 21
97.3546653852
  0
LINE
  5
2CD
100
AcDbEntity
  8
0
100
AcDbLine
 62
7
  6
BYLAYER
 10
63.168512256
 20
13.5593810663
 11
63.168512256
 21
65.5593810663
  0
LINE
  5
2CE
100
AcDbEntity
  8
0
100
AcDbLine
 62
7
  6
BYLAYER
 10
63.168512256
 20
65.5593810663
 11
62.9788218419
 21
66.5593810663
  0
LINE
  5
2CF
100
AcDbEntity
  8
0
100
AcDbLine
 62
7
  6
BYLAYER
 10
76.4364614485
 20
66.5593810663
 11
78.168512256
 21
65.5593810663
  0
LINE
  5
2D0
100
AcDbEntity
  8
0
100
AcDbLine
 62
7
  6
BYLAYER
 10
44.4589880195
 20
107.3324614266
 11
44.4647752355
 21
107.3227271476
  0
LINE
  5
2D1
100
AcDbEntity
  8
0
100
AcDbLine
 62
7
  6
BYLAYER
 10
69.8210711393
 20
67.0593810663
 11
69.8210711393
 21
66.5593810663
  0
LINE
  5
2D2
100
AcDbEntity
  8
0
100
AcDbLine
 62
7
  6
BYLAYER
 10
19.3826304696
 20
85.1724441984
 11
19.2590768643
 21
85.1724441984
  0
LINE
  5
2D3
100
AcDbEntity
  8
0
100
AcDbLine
 62
7
  6
BYLAYER
 10
45.0202395986
 20
107.6338832239
 11
45.0039710115
 21
107.6603552708
  0
LINE
  5
2D4
100
AcDbEntity
  8
0
100
AcDbLine
 62
7
  6
BYLAYER
 10
74.1064376789
 20
73.8724230659
 11
74.1658941957
 21
67.0593810663
  0
LINE
  5
2D5
100
AcDbEntity
  8
0
100
AcDbLine
 62
7
  6
BYLAYER
 10
74.6424905188
 20
13.5593810663
 11
74.6424905188
 21
65.5593810663
  0
LWPOLYLINE
  5
2D6
100
AcDbEntity
  8
0
100
AcDbPolyline
 62
7
  6
BYLAYER
 90
4
 70
0
 10
72.068512256
 20
76.2546653852
 10
69.8609736336
 20
82.4960672976
 10
68.0967469229
 20
89.1057916648
 10
66.8968006586
 20
95.6392437402
  0
LINE
  5
2D7
100
AcDbEntity
  8
0
100
AcDbLine
 62
7
  6
BYLAYER
 10
70.7630084179
 20
76.2546051559
 11
70.7556752888
 21
76.277056055
  0
LINE
  5
2D8
100
AcDbEntity
  8
0
100
AcDbLine
 62
7
  6
BYLAYER
 10
70.7630039029
 20
76.2546043909
 11
70.7563840661
 21
76.2772849352
  0
LINE
  5
2D9
100
AcDbEntity
  8
0
100
AcDbLine
 62
7
  6
BYLAYER
 10
69.0806339986
 20
76.2546653852
 11
69.1816122314
 21
75.8546653852
  0
LINE
  5
2DA
100
AcDbEntity
  8
0
100
AcDbLine
 62
7
  6
BYLAYER
 10
78.168512256
 20
65.5593810663
 11
78.168512256
 21
13.5593810663
  0
LINE
  5
2DB
100
AcDbEntity
  8
0
100
AcDbLine
 62
7
  6
BYLAYER
 10
66.431784117
 20
95.6156635956
 11
66.8970772684
 21
95.6395026469
  0
LINE
  5
2DC
100
AcDbEntity
  8
0
100
AcDbLine
 62
7
  6
BYLAYER
 10
66.8440731565
 20
95.6370189789
 11
66.8968006579
 21
95.6392437409
  0
LINE
  5
2DD
100
AcDbEntity
  8
0
100
AcDbLine
 62
7
  6
BYLAYER
 10
21.4401185415
 20
95.6386645074
 11
21.4929919528
 21
95.6376583382
  0
LINE
  5
2DE
100
AcDbEntity
  8
0
100
AcDbLine
 62
7
  6
BYLAYER
 10
21.4401185476
 20
95.6386645201
 11
21.9050511697
 21
95.6156501058
  0
LINE
  5
2DF
100
AcDbEntity
  8
0
100
AcDbLine
 62
7
  6
BYLAYER
 10
21.6501533066
 20
95.6298601362
 11
21.9050511697
 21
95.6156501058
  0
LWPOLYLINE
  5
2E0
100
AcDbEntity
  8
0
100
AcDbPolyline
 62
7
  6
BYLAYER
 90
4
 70
0
 10
66.8967408434
 20
95.6396875183
 10
66.6186555507
 20
96.4058046399
 10
65.8912556813
 20
97.1014127484
 10
64.9171540279
 20
97.3546653852
  0
LINE
  5
2E1
100
AcDbEntity
  8
0
100
AcDbLine
 62
7
  6
BYLAYER
 10
64.9179303718
 20
97.3546653852
 11
23.4199367819
 21
97.3546653852
  0
LINE
  5
2E2
100
AcDbEntity
  8
0
100
AcDbLine
 62
7
  6
BYLAYER
 10
46.1637072634
 20
107.5385366689
 11
46.1474377941
 21
107.5523173891
  0
LWPOLYLINE
  5
2E3
100
AcDbEntity
  8
0
100
AcDbPolyline
 62
7
  6
BYLAYER
 90
5
 70
0
 10
60.1571568921
 20
106.3041167942
 10
59.9437219587
 20
106.6001497495
 10
59.8104488016
 20
106.7072690761
 10
59.530861362
 20
106.8377207579
 10
59.4787980151
 20
106.8512813111
  0
LINE
  5
2E4
100
AcDbEntity
  8
0
100
AcDbLine
 62
7
  6
BYLAYER
 10
59.9599337462
 20
105.8803883579
 11
60.012979306
 21
105.8870260278
  0
LINE
  5
2E5
100
AcDbEntity
  8
0
100
AcDbLine
 62
7
  6
BYLAYER
 10
28.3266752383
 20
105.8797050648
 11
28.3770080784
 21
105.8755566563
  0
LINE
  5
2E6
100
AcDbEntity
  8
0
100
AcDbLine
 62
7
  6
BYLAYER
 10
49.1807897305
 20
107.2836624921
 11
49.1167233646
 21
107.317280975
  0
LINE
  5
2E7
100
AcDbEntity
  8
0
100
AcDbLine
 62
7
  6
BYLAYER
 10
49.244840088
 20
107.2496147205
 11
49.1807897305
 21
107.2836624921
  0
LINE
  5
2E8
100
AcDbEntity
  8
0
100
AcDbLine
 62
7
  6
BYLAYER
 10
49.3088733932
 20
107.2151382701
 11
49.244840088
 21
107.2496147205
  0
LINE
  5
2E9
100
AcDbEntity
  8
0
100
AcDbLine
 62
7
  6
BYLAYER
 10
49.5672321311
 20
107.0715880623
 11
49.513316215
 21
107.101734985
  0
LINE
  5
2EA
100
AcDbEntity
  8
0
100
AcDbLine
 62
7
  6
BYLAYER
 10
49.5672321311
 20
107.0715880623
 11
49.513334932
 21
107.1021251611
  0
LINE
  5
2EB
100
AcDbEntity
  8
0
100
AcDbLine
 62
7
  6
BYLAYER
 10
49.6453417554
 20
107.0267803956
 11
49.5672321311
 21
107.0715880623
  0
LINE
  5
2EC
100
AcDbEntity
  8
0
100
AcDbLine
 62
7
  6
BYLAYER
 10
49.6453189035
 20
107.0263139737
 11
49.5672321311
 21
107.0715880623
  0
LINE
  5
2ED
100
AcDbEntity
  8
0
100
AcDbLine
 62
7
  6
BYLAYER
 10
37.1879531954
 20
107.6667270007
 11
37.1577395986
 21
107.660154251
  0
LINE
  5
2EE
100
AcDbEntity
  8
0
100
AcDbLine
 62
7
  6
BYLAYER
 10
46.271374493
 20
107.4089312376
 11
46.3798504652
 21
107.4264607783
  0
LINE
  5
2EF
100
AcDbEntity
  8
0
100
AcDbLine
 62
7
  6
BYLAYER
 10
45.2943740072
 20
108.1178395994
 11
45.2673698981
 21
108.1140471997
  0
LINE
  5
2F0
100
AcDbEntity
  8
0
100
AcDbLine
 62
7
  6
BYLAYER
 10
45.2943671668
 20
108.1180652005
 11
45.2673549191
 21
108.1145358801
  0
LINE
  5
2F1
100
AcDbEntity
  8
0
100
AcDbLine
 62
7
  6
BYLAYER
 10
59.4788374598
 20
106.8512607863
 11
59.4521183284
 21
106.8501014831
  0
LINE
  5
2F2
100
AcDbEntity
  8
0
100
AcDbLine
 62
7
  6
BYLAYER
 10
60.012979306
 20
105.8870260278
 11
60.2527526547
 21
105.8945205499
  0
LINE
  5
2F3
100
AcDbEntity
  8
0
100
AcDbLine
 62
7
  6
BYLAYER
 10
59.4788385729
 20
106.8512605281
 11
59.2391814302
 21
106.8440863315
  0
LINE
  5
2F4
100
AcDbEntity
  8
0
100
AcDbLine
 62
7
  6
BYLAYER
 10
46.5048241576
 20
107.2505789908
 11
46.688958032
 21
107.2553830028
  0
LINE
  5
2F5
100
AcDbEntity
  8
0
100
AcDbLine
 62
7
  6
BYLAYER
 10
47.4250393948
 20
108.047396919
 11
44.8321848398
 21
108.0007572127
  0
LINE
  5
2F6
100
AcDbEntity
  8
0
100
AcDbLine
 62
7
  6
BYLAYER
 10
39.7630790185
 20
107.4147436219
 11
39.6713080927
 21
107.4132711334
  0
LINE
  5
2F7
100
AcDbEntity
  8
0
100
AcDbLine
 62
7
  6
BYLAYER
 10
41.6688577246
 20
107.7915093861
 11
41.8059806894
 21
107.7926692053
  0
LINE
  5
2F8
100
AcDbEntity
  8
0
100
AcDbLine
 62
7
  6
BYLAYER
 10
37.6976482088
 20
105.8845161681
 11
38.3377312975
 21
105.8894985301
  0
LINE
  5
2F9
100
AcDbEntity
  8
0
100
AcDbLine
 62
7
  6
BYLAYER
 10
43.351021854
 20
107.65863093
 11
43.3681897491
 21
107.6587002042
  0
LINE
  5
2FA
100
AcDbEntity
  8
0
100
AcDbLine
 62
7
  6
BYLAYER
 10
43.2283423257
 20
107.2383183797
 11
43.0586821866
 21
107.2377397784
  0
LINE
  5
2FB
100
AcDbEntity
  8
0
100
AcDbLine
 62
7
  6
BYLAYER
 10
43.0586821863
 20
107.483265933
 11
43.2283423255
 21
107.4838363768
  0
LINE
  5
2FC
100
AcDbEntity
  8
0
100
AcDbLine
 62
7
  6
BYLAYER
 10
43.3676741639
 20
107.8010329295
 11
43.4444855284
 21
107.8012342152
  0
LINE
  5
2FD
100
AcDbEntity
  8
0
100
AcDbLine
 62
7
  6
BYLAYER
 10
28.8885446716
 20
106.8409595725
 11
28.8612344616
 21
106.8409101636
  0
LINE
  5
2FE
100
AcDbEntity
  8
0
100
AcDbLine
 62
7
  6
BYLAYER
 10
28.3770125275
 20
105.875821422
 11
37.6976481963
 21
105.884516169
  0
LINE
  5
2FF
100
AcDbEntity
  8
0
100
AcDbLine
 62
7
  6
BYLAYER
 10
43.7071131312
 20
107.6587418747
 11
43.7368323536
 21
107.6587528687
  0
LINE
  5
300
100
AcDbEntity
  8
0
100
AcDbLine
 62
7
  6
BYLAYER
 10
59.9599378623
 20
105.880196369
 11
50.6393751028
 21
105.880196369
  0
LINE
  5
301
100
AcDbEntity
  8
0
100
AcDbLine
 62
7
  6
BYLAYER
 10
59.1845235003
 20
106.839989605
 11
50.5513999872
 21
106.8401986733
  0
LINE
  5
302
100
AcDbEntity
  8
0
100
AcDbLine
 62
7
  6
BYLAYER
 10
43.8605033457
 20
107.3384661146
 11
44.0627309652
 21
107.338462241
  0
LINE
  5
303
100
AcDbEntity
  8
0
100
AcDbLine
 62
7
  6
BYLAYER
 10
44.1398655837
 20
107.3384599386
 11
44.2927897433
 21
107.3384565578
  0
LINE
  5
304
100
AcDbEntity
  8
0
100
AcDbLine
 62
7
  6
BYLAYER
 10
38.3377312975
 20
105.8894985301
 11
50.013853651
 21
105.8869246299
  0
LINE
  5
305
100
AcDbEntity
  8
0
100
AcDbLine
 62
7
  6
BYLAYER
 10
44.4328367319
 20
107.3169139832
 11
43.8605578369
 21
107.3169916832
  0
LINE
  5
306
100
AcDbEntity
  8
0
100
AcDbLine
 62
7
  6
BYLAYER
 10
44.6483935767
 20
107.910143984
 11
44.6790503494
 21
107.9100985969
  0
LINE
  5
307
100
AcDbEntity
  8
0
100
AcDbLine
 62
7
  6
BYLAYER
 10
44.3253278082
 20
107.7945479075
 11
44.4647032858
 21
107.7943079246
  0
LINE
  5
308
100
AcDbEntity
  8
0
100
AcDbLine
 62
7
  6
BYLAYER
 10
44.8040964022
 20
107.5456068057
 11
44.3253278169
 21
107.5464757477
  0
LINE
  5
309
100
AcDbEntity
  8
0
100
AcDbLine
 62
7
  6
BYLAYER
 10
49.3919102978
 20
107.2132973067
 11
49.561571319
 21
107.2127611098
  0
LINE
  5
30A
100
AcDbEntity
  8
0
100
AcDbLine
 62
7
  6
BYLAYER
 10
45.2665963959
 20
107.4041504676
 11
45.3758302282
 21
107.4036485064
  0
LINE
  5
30B
100
AcDbEntity
  8
0
100
AcDbLine
 62
7
  6
BYLAYER
 10
45.6524006199
 20
107.7972389115
 11
45.7755785774
 21
107.7964927878
  0
LINE
  5
30C
100
AcDbEntity
  8
0
100
AcDbLine
 62
7
  6
BYLAYER
 10
46.2101894449
 20
107.3658622979
 11
46.0846870254
 21
107.3668146242
  0
LINE
  5
30D
100
AcDbEntity
  8
0
100
AcDbLine
 62
7
  6
BYLAYER
 10
46.6099377941
 20
107.3624499653
 11
46.3798504661
 21
107.3644844302
  0
LINE
  5
30E
100
AcDbEntity
  8
0
100
AcDbLine
 62
7
  6
BYLAYER
 10
46.3798504661
 20
107.394349604
 11
46.6099377941
 21
107.3923141104
  0
LINE
  5
30F
100
AcDbEntity
  8
0
100
AcDbLine
 62
7
  6
BYLAYER
 10
50.013853651
 20
105.8869246299
 11
50.6393744389
 21
105.8804631212
  0
LINE
  5
310
100
AcDbEntity
  8
0
100
AcDbLine
 62
7
  6
BYLAYER
 10
47.6910182185
 20
107.6327684267
 11
47.7092590333
 21
107.6325810838
  0
LINE
  5
311
100
AcDbEntity
  8
0
100
AcDbLine
 62
7
  6
BYLAYER
 10
47.3048504661
 20
107.220603938
 11
47.1351894449
 21
107.2225421781
  0
LINE
  5
312
100
AcDbEntity
  8
0
100
AcDbLine
 62
7
  6
BYLAYER
 10
47.135189445
 20
107.3811900177
 11
47.3048504661
 21
107.3792479877
  0
LINE
  5
313
100
AcDbEntity
  8
0
100
AcDbLine
 62
7
  6
BYLAYER
 10
29.1031149729
 20
106.8375277818
 11
28.861369758
 21
106.8408604423
  0
LINE
  5
314
100
AcDbEntity
  8
0
100
AcDbLine
 62
7
  6
BYLAYER
 10
28.0840783036
 20
105.8834321413
 11
28.3266761095
 21
105.8797547572
  0
LINE
  5
315
100
AcDbEntity
  8
0
100
AcDbLine
 62
7
  6
BYLAYER
 10
48.7382501484
 20
107.5069642199
 11
48.6969985079
 21
107.507653743
  0
LINE
  5
316
100
AcDbEntity
  8
0
100
AcDbLine
 62
7
  6
BYLAYER
 10
49.3292014657
 20
107.1801208117
 11
49.2989459347
 21
107.1806903487
  0
LINE
  5
317
100
AcDbEntity
  8
0
100
AcDbLine
 62
7
  6
BYLAYER
 10
47.6910201823
 20
107.6329374452
 11
47.7092590706
 21
107.6325852949
  0
LINE
  5
318
100
AcDbEntity
  8
0
100
AcDbLine
 62
7
  6
BYLAYER
 10
48.3878900693
 20
107.4369852219
 11
48.4181036543
 21
107.43048349
  0
LINE
  5
319
100
AcDbEntity
  8
0
100
AcDbLine
 62
7
  6
BYLAYER
 10
48.4607718205
 20
107.634832702
 11
48.4487879916
 21
107.6402129301
  0
LINE
  5
31A
100
AcDbEntity
  8
0
100
AcDbLine
 62
7
  6
BYLAYER
 10
48.9506122035
 20
107.4024094573
 11
48.9353408891
 21
107.4100143611
  0
LWPOLYLINE
  5
31B
100
AcDbEntity
  8
0
100
AcDbPolyline
 62
7
  6
BYLAYER
 90
7
 70
0
 10
28.8612424266
 20
106.8409122949
 10
28.8313176068
 20
106.8335878572
 10
28.5433226391
 20
106.7072872059
 10
28.4071956727
 20
106.6022387917
 10
28.1884649174
 20
106.3111465443
 10
28.0856701793
 20
105.925066568
 10
28.0840765948
 20
105.8834533448
  0
LINE
  5
31C
100
AcDbEntity
  8
0
100
AcDbLine
 62
7
  6
BYLAYER
 10
35.0653197728
 20
107.9773532581
 11
35.063219352
 21
107.9768831377
  0
LINE
  5
31D
100
AcDbEntity
  8
0
100
AcDbLine
 62
7
  6
BYLAYER
 10
36.5829386575
 20
108.1685759489
 11
36.5807653879
 21
108.1682426761
  0
LWPOLYLINE
  5
31E
100
AcDbEntity
  8
0
100
AcDbPolyline
 62
7
  6
BYLAYER
 90
4
 70
0
 10
35.0653197776
 20
107.9772874133
 10
33.3414767895
 20
107.7185172422
 10
30.9611645005
 20
107.2889424958
 10
28.8612328745
 20
106.840909803
  0
LINE
  5
31F
100
AcDbEntity
  8
0
100
AcDbLine
 62
7
  6
BYLAYER
 10
36.6415328538
 20
108.1740786215
 11
36.5829386575
 21
108.1685759489
  0
LWPOLYLINE
  5
320
100
AcDbEntity
  8
0
100
AcDbPolyline
 62
7
  6
BYLAYER
 90
3
 70
0
 10
38.9017462861
 20
108.3940067393
 10
37.6300358723
 20
108.2803158093
 10
36.5829386639
 20
108.1684810375
  0
LINE
  5
321
100
AcDbEntity
  8
0
100
AcDbLine
 62
7
  6
BYLAYER
 10
37.1082925958
 20
108.2144802504
 11
36.582943119
 21
108.1685478217
  0
LINE
  5
322
100
AcDbEntity
  8
0
100
AcDbLine
 62
7
  6
BYLAYER
 10
38.9017462861
 20
108.3940067393
 11
39.2803985468
 21
108.4231380408
  0
LINE
  5
323
100
AcDbEntity
  8
0
100
AcDbLine
 62
7
  6
BYLAYER
 10
40.0439178457
 20
108.4747433434
 11
39.839240484
 21
108.4605658571
  0
LINE
  5
324
100
AcDbEntity
  8
0
100
AcDbLine
 62
7
  6
BYLAYER
 10
39.2194130448
 20
108.4186201226
 11
39.2804092765
 21
108.4225114663
  0
LINE
  5
325
100
AcDbEntity
  8
0
100
AcDbLine
 62
7
  6
BYLAYER
 10
40.9931758101
 20
108.5255224102
 11
40.3597779653
 21
108.4943863707
  0
LINE
  5
326
100
AcDbEntity
  8
0
100
AcDbLine
 62
7
  6
BYLAYER
 10
42.210755012
 20
108.5754873847
 11
42.1094787609
 21
108.5712249078
  0
LINE
  5
327
100
AcDbEntity
  8
0
100
AcDbLine
 62
7
  6
BYLAYER
 10
43.6338961402
 20
108.6024874803
 11
42.210755012
 21
108.5754873847
  0
LINE
  5
328
100
AcDbEntity
  8
0
100
AcDbLine
 62
7
  6
BYLAYER
 10
43.6148894112
 20
108.6022553235
 11
43.6338953872
 21
108.6024179308
  0
LINE
  5
329
100
AcDbEntity
  8
0
100
AcDbLine
 62
7
  6
BYLAYER
 10
44.7803539348
 20
108.6017767094
 11
44.7030668988
 21
108.6024603064
  0
LINE
  5
32A
100
AcDbEntity
  8
0
100
AcDbLine
 62
7
  6
BYLAYER
 10
46.1257856705
 20
108.5762531928
 11
44.703066832
 21
108.6025447678
  0
LINE
  5
32B
100
AcDbEntity
  8
0
100
AcDbLine
 62
7
  6
BYLAYER
 10
46.3469495212
 20
108.5694683336
 11
46.2322860769
 21
108.5730748862
  0
LINE
  5
32C
100
AcDbEntity
  8
0
100
AcDbLine
 62
7
  6
BYLAYER
 10
47.5226559988
 20
108.5189706316
 11
46.1257856705
 21
108.5762531928
  0
LINE
  5
32D
100
AcDbEntity
  8
0
100
AcDbLine
 62
7
  6
BYLAYER
 10
48.0792524627
 20
108.4912824986
 11
47.8112973929
 21
108.5058599143
  0
LINE
  5
32E
100
AcDbEntity
  8
0
100
AcDbLine
 62
7
  6
BYLAYER
 10
49.2456721547
 20
108.4135547597
 11
49.1916935377
 21
108.4175819118
  0
LINE
  5
32F
100
AcDbEntity
  8
0
100
AcDbLine
 62
7
  6
BYLAYER
 10
51.2538169762
 20
108.2177933006
 11
51.756213823
 21
108.1774163149
  0
LINE
  5
330
100
AcDbEntity
  8
0
100
AcDbLine
 62
7
  6
BYLAYER
 10
49.9911110568
 20
108.3532869606
 11
49.1916885085
 21
108.417581642
  0
LINE
  5
331
100
AcDbEntity
  8
0
100
AcDbLine
 62
7
  6
BYLAYER
 10
50.9829061559
 20
108.2602570422
 11
49.9911110568
 21
108.3532869606
  0
LINE
  5
332
100
AcDbEntity
  8
0
100
AcDbLine
 62
7
  6
BYLAYER
 10
53.2739966929
 20
107.9887653747
 11
52.6708477626
 21
108.0472510145
  0
LINE
  5
333
100
AcDbEntity
  8
0
100
AcDbLine
 62
7
  6
BYLAYER
 10
51.7550920171
 20
108.1776416836
 11
50.9829061559
 21
108.2602570422
  0
LINE
  5
334
100
AcDbEntity
  8
0
100
AcDbLine
 62
7
  6
BYLAYER
 10
53.3189511865
 20
107.9828352617
 11
53.2740300886
 21
107.9889448697
  0
LINE
  5
335
100
AcDbEntity
  8
0
100
AcDbLine
 62
7
  6
BYLAYER
 10
55.0365157546
 20
107.7262773241
 11
53.2728996711
 21
107.9891348256
  0
LINE
  5
336
100
AcDbEntity
  8
0
100
AcDbLine
 62
7
  6
BYLAYER
 10
57.4132024535
 20
107.2963140434
 11
55.0365157546
 21
107.7262773241
  0
LINE
  5
337
100
AcDbEntity
  8
0
100
AcDbLine
 62
7
  6
BYLAYER
 10
57.4132369823
 20
107.2964873205
 11
57.2458954789
 21
107.3296144551
  0
LINE
  5
338
100
AcDbEntity
  8
0
100
AcDbLine
 62
7
  6
BYLAYER
 10
59.4788006781
 20
106.8512806976
 11
57.4004389849
 21
107.299063934
  0
LINE
  5
339
100
AcDbEntity
  8
0
100
AcDbLine
 62
7
  6
BYLAYER
 10
59.4788376512
 20
106.8512607419
 11
59.4131053964
 21
106.8664721921
  0
LINE
  5
33A
100
AcDbEntity
  8
0
100
AcDbLine
 62
7
  6
BYLAYER
 10
59.4788006781
 20
106.8512806976
 11
59.4788376512
 21
106.8512607419
  0
ARC
  5
33B
100
AcDbEntity
  8
0
100
AcDbCircle
 62
7
  6
BYLAYER
 10
43.5773441194
 20
-2843.9299725474
 40
2950.7811965309
100
AcDbArc
 50
89.8762159264
 51
90.1006790179
  0
ARC
  5
33C
100
AcDbEntity
  8
0
100
AcDbCircle
 62
7
  6
BYLAYER
 10
43.5453853056
 20
-53.0562995224
 40
160.7151227706
100
AcDbArc
 50
89.9423431769
 51
90.0631711732
  0
ARC
  5
33D
100
AcDbEntity
  8
0
100
AcDbCircle
 62
7
  6
BYLAYER
 10
43.479791906
 20
15.7228615328
 40
91.9770452469
100
AcDbArc
 50
90.1413980944
 51
90.2825949327
  0
ARC
  5
33E
100
AcDbEntity
  8
0
100
AcDbCircle
 62
7
  6
BYLAYER
 10
-82.0717466196
 20
108.4484612128
 40
104.7973901702
100
AcDbArc
 50
342.1093847456
 51
352.9661665968
  0
ARC
  5
33F
100
AcDbEntity
  8
0
100
AcDbCircle
 62
7
  6
BYLAYER
 10
-80.8041425838
 20
108.4275960887
 40
103.505372271
100
AcDbArc
 50
341.9035762928
 51
352.8896501614
  0
ARC
  5
340
100
AcDbEntity
  8
0
100
AcDbCircle
 62
7
  6
BYLAYER
 10
-62.8448979468
 20
107.742637311
 40
85.149714645
100
AcDbArc
 50
344.7164786706
 51
351.8277359474
  0
ARC
  5
341
100
AcDbEntity
  8
0
100
AcDbCircle
 62
7
  6
BYLAYER
 10
-62.5869600794
 20
107.6574261193
 40
84.8782592858
100
AcDbArc
 50
338.2860192336
 51
343.6926597844
  0
ARC
  5
342
100
AcDbEntity
  8
0
100
AcDbCircle
 62
7
  6
BYLAYER
 10
42.6000307984
 20
38.5439427274
 40
69.8413688609
100
AcDbArc
 50
95.674977939
 51
95.9623804251
  0
ARC
  5
343
100
AcDbEntity
  8
0
100
AcDbCircle
 62
7
  6
BYLAYER
 10
44.1448052702
 20
40.69751255
 40
67.907875874
100
AcDbArc
 50
80.6437042957
 51
82.2357747748
  0
ARC
  5
344
100
AcDbEntity
  8
0
100
AcDbCircle
 62
7
  6
BYLAYER
 10
44.1456063916
 20
40.7067332187
 40
67.8986269858
100
AcDbArc
 50
83.5643066114
 51
84.2538623358
  0
ARC
  5
345
100
AcDbEntity
  8
0
100
AcDbCircle
 62
7
  6
BYLAYER
 10
44.148318327
 20
40.7337890758
 40
67.8714355553
100
AcDbArc
 50
84.2538534293
 51
85.0381375347
  0
ARC
  5
346
100
AcDbEntity
  8
0
100
AcDbCircle
 62
7
  6
BYLAYER
 10
44.1557683915
 20
40.7636161004
 40
67.8408694234
100
AcDbArc
 50
78.8748077676
 51
80.6437639181
  0
ARC
  5
347
100
AcDbEntity
  8
0
100
AcDbCircle
 62
7
  6
BYLAYER
 10
44.1515786475
 20
40.7712109385
 40
67.8338719378
100
AcDbArc
 50
85.0381471528
 51
85.6932296524
  0
ARC
  5
348
100
AcDbEntity
  8
0
100
AcDbCircle
 62
7
  6
BYLAYER
 10
44.1627824087
 20
40.9593961682
 40
67.645343108
100
AcDbArc
 50
87.1529112541
 51
88.1496832384
  0
ARC
  5
349
100
AcDbEntity
  8
0
100
AcDbCircle
 62
7
  6
BYLAYER
 10
44.1654421763
 20
41.0378099742
 40
67.5668842736
100
AcDbArc
 50
88.2470716275
 51
88.4484206041
  0
ARC
  5
34A
100
AcDbEntity
  8
0
100
AcDbCircle
 62
7
  6
BYLAYER
 10
44.1674128889
 20
41.1182168492
 40
67.486453519
100
AcDbArc
 50
88.4482447127
 51
89.5452266388
  0
ARC
  5
34B
100
AcDbEntity
  8
0
100
AcDbCircle
 62
7
  6
BYLAYER
 10
44.0389472834
 20
42.3930501535
 40
66.2192055458
100
AcDbArc
 50
76.7297613583
 51
82.5100083748
  0
ARC
  5
34C
100
AcDbEntity
  8
0
100
AcDbCircle
 62
7
  6
BYLAYER
 10
44.1370743491
 20
43.1143640859
 40
65.4911939626
100
AcDbArc
 50
83.7615265695
 51
86.3421392814
  0
ARC
  5
34D
100
AcDbEntity
  8
0
100
AcDbCircle
 62
7
  6
BYLAYER
 10
44.1653936647
 20
43.5896594466
 40
65.0150257028
100
AcDbArc
 50
87.1822843889
 51
89.4580459966
  0
ARC
  5
34E
100
AcDbEntity
  8
0
100
AcDbCircle
 62
7
  6
BYLAYER
 10
38.4999702366
 20
54.3139195809
 40
52.5332448635
100
AcDbArc
 50
90.1173207897
 51
90.7794424065
  0
ARC
  5
34F
100
AcDbEntity
  8
0
100
AcDbCircle
 62
7
  6
BYLAYER
 10
41.9845071926
 20
71.5714067508
 40
36.9508092285
100
AcDbArc
 50
93.0101684252
 51
94.1967318703
  0
ARC
  5
350
100
AcDbEntity
  8
0
100
AcDbCircle
 62
7
  6
BYLAYER
 10
42.4827607291
 20
71.795545955
 40
36.7601887327
100
AcDbArc
 50
93.3108009017
 51
93.8040642006
  0
ARC
  5
351
100
AcDbEntity
  8
0
100
AcDbCircle
 62
7
  6
BYLAYER
 10
16.2305106793
 20
73.8549699949
 40
2.0
100
AcDbArc
 50
91.0000000002
 51
179.4999999999
  0
ARC
  5
352
100
AcDbEntity
  8
0
100
AcDbCircle
 62
7
  6
BYLAYER
 10
32.3770933821
 20
107.2525259161
 40
14.0796781991
100
AcDbArc
 50
359.8690495898
 51
359.9932871389
  0
ARC
  5
353
100
AcDbEntity
  8
0
100
AcDbCircle
 62
7
  6
BYLAYER
 10
23.4198523994
 20
95.3546706026
 40
1.9999996715
100
AcDbArc
 50
90.0
 51
171.8365808581
  0
ARC
  5
354
100
AcDbEntity
  8
0
100
AcDbCircle
 62
7
  6
BYLAYER
 10
23.9018493674
 20
95.3796820359
 40
1.9750053195
100
AcDbArc
 50
90.8085471596
 51
103.4565025849
  0
ARC
  5
355
100
AcDbEntity
  8
0
100
AcDbCircle
 62
7
  6
BYLAYER
 10
23.8999053918
 20
95.4306218046
 40
1.9240435807
100
AcDbArc
 50
90.0003945705
 51
90.7720694655
  0
ARC
  5
356
100
AcDbEntity
  8
0
100
AcDbCircle
 62
7
  6
BYLAYER
 10
39.4284301317
 20
88.8492722979
 40
19.7173359084
100
AcDbArc
 50
79.5476442693
 51
82.1617321427
  0
ARC
  5
357
100
AcDbEntity
  8
0
100
AcDbCircle
 62
7
  6
BYLAYER
 10
36.7974777579
 20
88.9094108182
 40
18.5791081392
100
AcDbArc
 50
91.6223764275
 51
92.3227744508
  0
ARC
  5
358
100
AcDbEntity
  8
0
100
AcDbCircle
 62
7
  6
BYLAYER
 10
37.7923315128
 20
93.016345068
 40
14.7308876049
100
AcDbArc
 50
96.3249556636
 51
96.8142978691
  0
ARC
  5
359
100
AcDbEntity
  8
0
100
AcDbCircle
 62
7
  6
BYLAYER
 10
37.4421624364
 20
93.7109290897
 40
14.0111172139
100
AcDbArc
 50
91.0395970415
 51
91.1677375829
  0
ARC
  5
35A
100
AcDbEntity
  8
0
100
AcDbCircle
 62
7
  6
BYLAYER
 10
37.4213623067
 20
94.5877013011
 40
13.1341035239
100
AcDbArc
 50
91.1549660106
 51
92.2601379777
  0
ARC
  5
35B
100
AcDbEntity
  8
0
100
AcDbCircle
 62
7
  6
BYLAYER
 10
37.3572211
 20
96.1177718544
 40
11.6026943462
100
AcDbArc
 50
92.2416174725
 51
93.5138984453
  0
ARC
  5
35C
100
AcDbEntity
  8
0
100
AcDbCircle
 62
7
  6
BYLAYER
 10
37.4155178842
 20
96.4230038414
 40
11.3034524543
100
AcDbArc
 50
95.7269330681
 51
96.3289203742
  0
ARC
  5
35D
100
AcDbEntity
  8
0
100
AcDbCircle
 62
7
  6
BYLAYER
 10
37.2859993237
 20
97.2803250201
 40
10.4379615983
100
AcDbArc
 50
93.5148084017
 51
94.2870683886
  0
ARC
  5
35E
100
AcDbEntity
  8
0
100
AcDbCircle
 62
7
  6
BYLAYER
 10
37.2143315144
 20
98.2401940914
 40
9.4754207844
100
AcDbArc
 50
94.2888004419
 51
94.9297015568
  0
ARC
  5
35F
100
AcDbEntity
  8
0
100
AcDbCircle
 62
7
  6
BYLAYER
 10
37.1624753085
 20
98.9400661021
 40
8.7737029622
100
AcDbArc
 50
95.2165795421
 51
95.7229608257
  0
ARC
  5
360
100
AcDbEntity
  8
0
100
AcDbCircle
 62
7
  6
BYLAYER
 10
38.7004689736
 20
99.8351134908
 40
7.8875296442
100
AcDbArc
 50
92.3527953815
 51
92.9015173521
  0
ARC
  5
361
100
AcDbEntity
  8
0
100
AcDbCircle
 62
7
  6
BYLAYER
 10
37.0425063532
 20
100.2429465888
 40
7.465311237
100
AcDbArc
 50
94.9367148028
 51
95.2088034164
  0
ARC
  5
362
100
AcDbEntity
  8
0
100
AcDbCircle
 62
7
  6
BYLAYER
 10
38.3128352519
 20
105.1940896184
 40
4.897469151
100
AcDbArc
 50
29.7775265794
 51
30.4817147552
  0
ARC
  5
363
100
AcDbEntity
  8
0
100
AcDbCircle
 62
7
  6
BYLAYER
 10
40.1472967324
 20
111.0355588965
 40
3.8796621973
100
AcDbArc
 50
279.5640609253
 51
279.7609134399
  0
ARC
  5
364
100
AcDbEntity
  8
0
100
AcDbCircle
 62
7
  6
BYLAYER
 10
40.4663103897
 20
103.6635753259
 40
3.8727599046
100
AcDbArc
 50
101.9533646465
 51
103.776555684
  0
ARC
  5
365
100
AcDbEntity
  8
0
100
AcDbCircle
 62
7
  6
BYLAYER
 10
40.4136339935
 20
103.8834646418
 40
3.6466524566
100
AcDbArc
 50
103.7954505745
 51
104.3569749496
  0
ARC
  5
366
100
AcDbEntity
  8
0
100
AcDbCircle
 62
7
  6
BYLAYER
 10
40.1432708431
 20
104.1347304979
 40
3.6464836467
100
AcDbArc
 50
97.8501360037
 51
100.3389504658
  0
ARC
  5
367
100
AcDbEntity
  8
0
100
AcDbCircle
 62
7
  6
BYLAYER
 10
40.3983330468
 20
103.9433963197
 40
3.5847984062
100
AcDbArc
 50
104.3575777468
 51
104.7355844401
  0
ARC
  5
368
100
AcDbEntity
  8
0
100
AcDbCircle
 62
7
  6
BYLAYER
 10
39.9306974723
 20
110.6163900739
 40
3.400633863
100
AcDbArc
 50
270.8175998317
 51
272.65001089
  0
ARC
  5
369
100
AcDbEntity
  8
0
100
AcDbCircle
 62
7
  6
BYLAYER
 10
40.0924531945
 20
104.4707458961
 40
3.3020020589
100
AcDbArc
 50
89.1409799763
 51
91.0776175561
  0
ARC
  5
36A
100
AcDbEntity
  8
0
100
AcDbCircle
 62
7
  6
BYLAYER
 10
40.251489035
 20
110.4442152946
 40
3.2792154388
100
AcDbArc
 50
279.7184687889
 51
281.09838916
  0
ARC
  5
36B
100
AcDbEntity
  8
0
100
AcDbCircle
 62
7
  6
BYLAYER
 10
40.1015355715
 20
105.1120374752
 40
2.6606464427
100
AcDbArc
 50
88.0321724818
 51
89.1295022059
  0
ARC
  5
36C
100
AcDbEntity
  8
0
100
AcDbCircle
 62
7
  6
BYLAYER
 10
40.3871348876
 20
109.7568594094
 40
2.5786034901
100
AcDbArc
 50
281.0806829381
 51
282.3205548611
  0
ARC
  5
36D
100
AcDbEntity
  8
0
100
AcDbCircle
 62
7
  6
BYLAYER
 10
39.9844668747
 20
105.430252597
 40
2.3409423184
100
AcDbArc
 50
93.8740995723
 51
94.7188288549
  0
ARC
  5
36E
100
AcDbEntity
  8
0
100
AcDbCircle
 62
7
  6
BYLAYER
 10
39.5103186691
 20
109.6228433484
 40
2.2832824295
100
AcDbArc
 50
270.6951453651
 51
271.2843844708
  0
ARC
  5
36F
100
AcDbEntity
  8
0
100
AcDbCircle
 62
7
  6
BYLAYER
 10
39.724752985
 20
109.2525485064
 40
2.1300097735
100
AcDbArc
 50
263.3892831157
 51
266.1373825087
  0
ARC
  5
370
100
AcDbEntity
  8
0
100
AcDbCircle
 62
7
  6
BYLAYER
 10
39.9671022398
 20
105.6946902681
 40
2.0759357493
100
AcDbArc
 50
91.2050808273
 51
93.8890473393
  0
ARC
  5
371
100
AcDbEntity
  8
0
100
AcDbCircle
 62
7
  6
BYLAYER
 10
38.3730340707
 20
105.9247890026
 40
1.7347639823
100
AcDbArc
 50
96.7335135164
 51
98.0532477412
  0
ARC
  5
372
100
AcDbEntity
  8
0
100
AcDbCircle
 62
7
  6
BYLAYER
 10
39.5276484731
 20
106.604105207
 40
0.786398556
100
AcDbArc
 50
102.0608465292
 51
103.7791416514
  0
ARC
  5
373
100
AcDbEntity
  8
0
100
AcDbCircle
 62
7
  6
BYLAYER
 10
40.5232162705
 20
88.996931123
 40
19.5852946945
100
AcDbArc
 50
80.0637580822
 51
82.6555545992
  0
ARC
  5
374
100
AcDbEntity
  8
0
100
AcDbCircle
 62
7
  6
BYLAYER
 10
40.5140373979
 20
88.7237524328
 40
19.5590617204
100
AcDbArc
 50
80.165547663
 51
82.492047922
  0
ARC
  5
375
100
AcDbEntity
  8
0
100
AcDbCircle
 62
7
  6
BYLAYER
 10
40.5435660711
 20
89.1506243851
 40
19.4302610077
100
AcDbArc
 50
82.6571340237
 51
83.9555786729
  0
ARC
  5
376
100
AcDbEntity
  8
0
100
AcDbCircle
 62
7
  6
BYLAYER
 10
42.2863786394
 20
94.2949765193
 40
14.7055488877
100
AcDbArc
 50
58.580607426
 51
59.9721535914
  0
ARC
  5
377
100
AcDbEntity
  8
0
100
AcDbCircle
 62
7
  6
BYLAYER
 10
42.6345715051
 20
94.8996060676
 40
14.0078141946
100
AcDbArc
 50
60.5893191758
 51
61.2395407861
  0
ARC
  5
378
100
AcDbEntity
  8
0
100
AcDbCircle
 62
7
  6
BYLAYER
 10
42.9809332168
 20
95.5494873532
 40
13.2713537219
100
AcDbArc
 50
62.7539257039
 51
63.26806393
  0
ARC
  5
379
100
AcDbEntity
  8
0
100
AcDbCircle
 62
7
  6
BYLAYER
 10
43.0972601559
 20
95.7815901661
 40
13.0117313702
100
AcDbArc
 50
63.3410720064
 51
64.3081391836
  0
ARC
  5
37A
100
AcDbEntity
  8
0
100
AcDbCircle
 62
7
  6
BYLAYER
 10
43.2135493113
 20
96.0331836486
 40
12.7336556022
100
AcDbArc
 50
64.4982854454
 51
64.9091965807
  0
ARC
  5
37B
100
AcDbEntity
  8
0
100
AcDbCircle
 62
7
  6
BYLAYER
 10
43.2847561242
 20
96.1856471393
 40
12.5653835055
100
AcDbArc
 50
64.9084430844
 51
65.668433951
  0
ARC
  5
37C
100
AcDbEntity
  8
0
100
AcDbCircle
 62
7
  6
BYLAYER
 10
43.4924911044
 20
96.6476369544
 40
12.059632788
100
AcDbArc
 50
66.7841904592
 51
67.6901605889
  0
ARC
  5
37D
100
AcDbEntity
  8
0
100
AcDbCircle
 62
7
  6
BYLAYER
 10
43.5581522702
 20
96.8071161888
 40
11.8871654806
100
AcDbArc
 50
67.6911503844
 51
68.1995792779
  0
ARC
  5
37E
100
AcDbEntity
  8
0
100
AcDbCircle
 62
7
  6
BYLAYER
 10
43.6786421912
 20
97.1116927889
 40
11.5596244185
100
AcDbArc
 50
68.1934372586
 51
71.0893670073
  0
ARC
  5
37F
100
AcDbEntity
  8
0
100
AcDbCircle
 62
7
  6
BYLAYER
 10
41.4205959541
 20
97.0521368447
 40
11.4809849818
100
AcDbArc
 50
86.1330941154
 51
87.7854729578
  0
ARC
  5
380
100
AcDbEntity
  8
0
100
AcDbCircle
 62
7
  6
BYLAYER
 10
42.1442106503
 20
96.311344167
 40
10.9137709409
100
AcDbArc
 50
90.2619093262
 51
90.5555456936
  0
ARC
  5
381
100
AcDbEntity
  8
0
100
AcDbCircle
 62
7
  6
BYLAYER
 10
41.4898463022
 20
98.0514292874
 40
10.479297493
100
AcDbArc
 50
83.9761873137
 51
86.1423965225
  0
ARC
  5
382
100
AcDbEntity
  8
0
100
AcDbCircle
 62
7
  6
BYLAYER
 10
44.0081644103
 20
98.142143095
 40
10.4773878773
100
AcDbArc
 50
74.0831451469
 51
77.7790179251
  0
ARC
  5
383
100
AcDbEntity
  8
0
100
AcDbCircle
 62
7
  6
BYLAYER
 10
44.1510155299
 20
98.8655876043
 40
9.7396889787
100
AcDbArc
 50
80.5352978012
 51
86.7506983593
  0
ARC
  5
384
100
AcDbEntity
  8
0
100
AcDbCircle
 62
7
  6
BYLAYER
 10
40.820134915
 20
100.5050740854
 40
7.0556768671
100
AcDbArc
 50
90.6760466622
 51
92.2986471749
  0
ARC
  5
385
100
AcDbEntity
  8
0
100
AcDbCircle
 62
7
  6
BYLAYER
 10
42.1591559286
 20
102.0440105281
 40
5.7745624032
100
AcDbArc
 50
97.6226569859
 51
98.7498038633
  0
ARC
  5
386
100
AcDbEntity
  8
0
100
AcDbCircle
 62
7
  6
BYLAYER
 10
41.442611959
 20
101.9687572312
 40
5.4349280651
100
AcDbArc
 50
90.604045626
 51
91.1009808478
  0
ARC
  5
387
100
AcDbEntity
  8
0
100
AcDbCircle
 62
7
  6
BYLAYER
 10
40.7058935247
 20
102.1983563504
 40
5.3581170904
100
AcDbArc
 50
95.6136811085
 51
97.448821446
  0
ARC
  5
388
100
AcDbEntity
  8
0
100
AcDbCircle
 62
7
  6
BYLAYER
 10
40.6376937946
 20
102.7298020391
 40
4.8223149596
100
AcDbArc
 50
97.4639430471
 51
99.4688216622
  0
ARC
  5
389
100
AcDbEntity
  8
0
100
AcDbCircle
 62
7
  6
BYLAYER
 10
41.8431211273
 20
103.343071139
 40
4.4497530678
100
AcDbArc
 50
89.8477648079
 51
90.4782321667
  0
ARC
  5
38A
100
AcDbEntity
  8
0
100
AcDbCircle
 62
7
  6
BYLAYER
 10
40.5531605035
 20
103.2428031671
 40
4.3023968072
100
AcDbArc
 50
99.4823082234
 51
101.9243129191
  0
ARC
  5
38B
100
AcDbEntity
  8
0
100
AcDbCircle
 62
7
  6
BYLAYER
 10
44.1273306072
 20
111.3790027568
 40
4.1144086167
100
AcDbArc
 50
269.9414861698
 51
271.673072802
  0
ARC
  5
38C
100
AcDbEntity
  8
0
100
AcDbCircle
 62
7
  6
BYLAYER
 10
43.4828384697
 20
105.0969012327
 40
2.7036340717
100
AcDbArc
 50
84.9437296816
 51
86.3677211736
  0
ARC
  5
38D
100
AcDbEntity
  8
0
100
AcDbCircle
 62
7
  6
BYLAYER
 10
43.5136375369
 20
105.4377947633
 40
2.3613527251
100
AcDbArc
 50
81.6638433601
 51
84.9591344736
  0
ARC
  5
38E
100
AcDbEntity
  8
0
100
AcDbCircle
 62
7
  6
BYLAYER
 10
44.0602366427
 20
105.2454210627
 40
2.1613765277
100
AcDbArc
 50
89.934658136
 51
92.189890501
  0
ARC
  5
38F
100
AcDbEntity
  8
0
100
AcDbCircle
 62
7
  6
BYLAYER
 10
43.3710150758
 20
105.6709814505
 40
2.0865610923
100
AcDbArc
 50
90.0885335123
 51
92.0994360919
  0
ARC
  5
390
100
AcDbEntity
  8
0
100
AcDbCircle
 62
7
  6
BYLAYER
 10
44.0743304692
 20
105.6103084156
 40
1.7702285687
100
AcDbArc
 50
89.9250369842
 51
91.7976116736
  0
ARC
  5
391
100
AcDbEntity
  8
0
100
AcDbCircle
 62
7
  6
BYLAYER
 10
41.7045769243
 20
106.096522693
 40
1.6956003783
100
AcDbArc
 50
92.8820395347
 51
94.0024515245
  0
ARC
  5
392
100
AcDbEntity
  8
0
100
AcDbCircle
 62
7
  6
BYLAYER
 10
41.0577326157
 20
106.4446778307
 40
1.1033586874
100
AcDbArc
 50
78.7232887703
 51
80.4897790695
  0
ARC
  5
393
100
AcDbEntity
  8
0
100
AcDbCircle
 62
7
  6
BYLAYER
 10
42.8369667383
 20
108.2781331919
 40
0.7073448239
100
AcDbArc
 50
251.9019137409
 51
253.2200407598
  0
ARC
  5
394
100
AcDbEntity
  8
0
100
AcDbCircle
 62
7
  6
BYLAYER
 10
42.8154816353
 20
108.212234118
 40
0.6380318026
100
AcDbArc
 50
250.8040396713
 51
251.8975094143
  0
ARC
  5
395
100
AcDbEntity
  8
0
100
AcDbCircle
 62
7
  6
BYLAYER
 10
41.2252713945
 20
107.0877946073
 40
0.4379038028
100
AcDbArc
 50
68.5631058152
 51
69.7346569089
  0
ARC
  5
396
100
AcDbEntity
  8
0
100
AcDbCircle
 62
7
  6
BYLAYER
 10
41.0063146061
 20
106.9766557904
 40
0.3860188699
100
AcDbArc
 50
122.6468364118
 51
125.2786909537
  0
ARC
  5
397
100
AcDbEntity
  8
0
100
AcDbCircle
 62
7
  6
BYLAYER
 10
41.4305927575
 20
107.3383644399
 40
0.3838228833
100
AcDbArc
 50
108.4566462631
 51
110.0422649191
  0
ARC
  5
398
100
AcDbEntity
  8
0
100
AcDbCircle
 62
7
  6
BYLAYER
 10
35.8329534681
 20
134.8746077438
 40
27.3097238253
100
AcDbArc
 50
271.0444512048
 51
271.1964762606
  0
ARC
  5
399
100
AcDbEntity
  8
0
100
AcDbCircle
 62
7
  6
BYLAYER
 10
37.1734656434
 20
126.0876328769
 40
18.6072626199
100
AcDbArc
 50
274.1329767685
 51
274.9960596317
  0
ARC
  5
39A
100
AcDbEntity
  8
0
100
AcDbCircle
 62
7
  6
BYLAYER
 10
37.3220097107
 20
124.0601763449
 40
16.5743728847
100
AcDbArc
 50
273.6525803256
 51
274.1259388368
  0
ARC
  5
39B
100
AcDbEntity
  8
0
100
AcDbCircle
 62
7
  6
BYLAYER
 10
35.7535611381
 20
116.4809423728
 40
9.0933711449
100
AcDbArc
 50
271.1549033346
 51
272.0977869545
  0
ARC
  5
39C
100
AcDbEntity
  8
0
100
AcDbCircle
 62
7
  6
BYLAYER
 10
43.3309448939
 20
113.7766270039
 40
6.2417719157
100
AcDbArc
 50
268.6611963736
 51
270.1888783604
  0
ARC
  5
39D
100
AcDbEntity
  8
0
100
AcDbCircle
 62
7
  6
BYLAYER
 10
35.9320395466
 20
112.766609726
 40
5.3744323087
100
AcDbArc
 50
274.1355727612
 51
274.4987303906
  0
ARC
  5
39E
100
AcDbEntity
  8
0
100
AcDbCircle
 62
7
  6
BYLAYER
 10
40.8020330463
 20
112.1034432703
 40
4.7772422243
100
AcDbArc
 50
270.6960058851
 51
271.0863003838
  0
ARC
  5
39F
100
AcDbEntity
  8
0
100
AcDbCircle
 62
7
  6
BYLAYER
 10
43.2982543002
 20
112.2947823228
 40
4.7595683554
100
AcDbArc
 50
267.1094944325
 51
268.6378335888
  0
ARC
  5
3A0
100
AcDbEntity
  8
0
100
AcDbCircle
 62
7
  6
BYLAYER
 10
38.3271867328
 20
111.9733803119
 40
4.4563313826
100
AcDbArc
 50
268.2472287407
 51
269.2476090011
  0
ARC
  5
3A1
100
AcDbEntity
  8
0
100
AcDbCircle
 62
7
  6
BYLAYER
 10
44.7764622958
 20
39.761115553
 40
68.8832251483
100
AcDbArc
 50
97.5768761047
 51
103.1520673714
  0
ARC
  5
3A2
100
AcDbEntity
  8
0
100
AcDbCircle
 62
7
  6
BYLAYER
 10
44.1840308209
 20
40.9061140415
 40
67.6955948329
100
AcDbArc
 50
76.9992363423
 51
78.7306253409
  0
ARC
  5
3A3
100
AcDbEntity
  8
0
100
AcDbCircle
 62
7
  6
BYLAYER
 10
44.2508578557
 20
43.4716188319
 40
65.1355917241
100
AcDbArc
 50
93.7030002436
 51
96.2955268987
  0
ARC
  5
3A4
100
AcDbEntity
  8
0
100
AcDbCircle
 62
7
  6
BYLAYER
 10
44.1742433364
 20
44.6670171777
 40
63.9376849251
100
AcDbArc
 50
90.50125412
 51
92.8517858982
  0
ARC
  5
3A5
100
AcDbEntity
  8
0
100
AcDbCircle
 62
7
  6
BYLAYER
 10
49.8239436936
 20
53.8104528512
 40
53.0344079847
100
AcDbArc
 50
89.2139497378
 51
89.8614161675
  0
ARC
  5
3A6
100
AcDbEntity
  8
0
100
AcDbCircle
 62
7
  6
BYLAYER
 10
45.8651705724
 20
70.2250355418
 40
38.3302612075
100
AcDbArc
 50
87.089693297
 51
87.7628194055
  0
ARC
  5
3A7
100
AcDbEntity
  8
0
100
AcDbCircle
 62
7
  6
BYLAYER
 10
46.3741044459
 20
70.2101089425
 40
38.3112406302
100
AcDbArc
 50
86.2203026377
 51
87.0956394477
  0
ARC
  5
3A8
100
AcDbEntity
  8
0
100
AcDbCircle
 62
7
  6
BYLAYER
 10
45.8791344174
 20
70.5818542437
 40
37.9732244484
100
AcDbArc
 50
85.809015074
 51
86.2250808442
  0
ARC
  5
3A9
100
AcDbEntity
  8
0
100
AcDbCircle
 62
7
  6
BYLAYER
 10
46.3980398558
 20
70.585483755
 40
37.9351044791
100
AcDbArc
 50
85.7767455458
 51
86.2190014859
  0
ARC
  5
3AA
100
AcDbEntity
  8
0
100
AcDbCircle
 62
7
  6
BYLAYER
 10
45.8949448896
 20
70.8259178584
 40
37.7286494434
100
AcDbArc
 50
86.2246369883
 51
86.6809936594
  0
ARC
  5
3AB
100
AcDbEntity
  8
0
100
AcDbCircle
 62
7
  6
BYLAYER
 10
45.9606755895
 20
94.4103652709
 40
14.5582294275
100
AcDbArc
 50
117.8414514005
 51
121.3235189267
  0
ARC
  5
3AC
100
AcDbEntity
  8
0
100
AcDbCircle
 62
7
  6
BYLAYER
 10
45.516673268
 20
95.2285809951
 40
13.6273706804
100
AcDbArc
 50
117.3169283739
 51
117.7401120141
  0
ARC
  5
3AD
100
AcDbEntity
  8
0
100
AcDbCircle
 62
7
  6
BYLAYER
 10
45.3834392806
 20
95.488456929
 40
13.3353268623
100
AcDbArc
 50
116.2894268809
 51
117.1234556166
  0
ARC
  5
3AE
100
AcDbEntity
  8
0
100
AcDbCircle
 62
7
  6
BYLAYER
 10
45.2091043273
 20
95.844214837
 40
12.9391452605
100
AcDbArc
 50
115.2064833239
 51
115.822381852
  0
ARC
  5
3AF
100
AcDbEntity
  8
0
100
AcDbCircle
 62
7
  6
BYLAYER
 10
45.1414247855
 20
95.9877528464
 40
12.7804516268
100
AcDbArc
 50
114.8118092338
 51
115.2060134462
  0
ARC
  5
3B0
100
AcDbEntity
  8
0
100
AcDbCircle
 62
7
  6
BYLAYER
 10
45.0877369147
 20
96.1039244428
 40
12.6524741798
100
AcDbArc
 50
114.3639498626
 51
114.8118914495
  0
ARC
  5
3B1
100
AcDbEntity
  8
0
100
AcDbCircle
 62
7
  6
BYLAYER
 10
45.0185377912
 20
96.257010916
 40
12.4844742594
100
AcDbArc
 50
113.667597131
 51
114.3644844529
  0
ARC
  5
3B2
100
AcDbEntity
  8
0
100
AcDbCircle
 62
7
  6
BYLAYER
 10
44.7274504513
 20
96.9484091543
 40
11.7342714203
100
AcDbArc
 50
108.9091335331
 51
112.7329586797
  0
ARC
  5
3B3
100
AcDbEntity
  8
0
100
AcDbCircle
 62
7
  6
BYLAYER
 10
45.3929721608
 20
96.183131237
 40
11.6217422989
100
AcDbArc
 50
86.197445984
 51
86.8877907462
  0
ARC
  5
3B4
100
AcDbEntity
  8
0
100
AcDbCircle
 62
7
  6
BYLAYER
 10
44.3359844862
 20
98.1532614714
 40
10.466949736
100
AcDbArc
 50
102.2371377973
 51
105.9076498771
  0
ARC
  5
3B5
100
AcDbEntity
  8
0
100
AcDbCircle
 62
7
  6
BYLAYER
 10
44.1867768815
 20
98.9081591261
 40
9.6971474566
100
AcDbArc
 50
93.2684793177
 51
99.4803592835
  0
ARC
  5
3B6
100
AcDbEntity
  8
0
100
AcDbCircle
 62
7
  6
BYLAYER
 10
44.880982397
 20
100.759203189
 40
8.4078260346
100
AcDbArc
 50
129.233296792
 51
129.9113430165
  0
ARC
  5
3B7
100
AcDbEntity
  8
0
100
AcDbCircle
 62
7
  6
BYLAYER
 10
45.6265368566
 20
100.5910737873
 40
7.2076228948
100
AcDbArc
 50
86.8393475177
 51
87.8591978397
  0
ARC
  5
3B8
100
AcDbEntity
  8
0
100
AcDbCircle
 62
7
  6
BYLAYER
 10
45.6572780024
 20
100.7227233154
 40
7.0256969503
100
AcDbArc
 50
85.8663964733
 51
86.7004943814
  0
ARC
  5
3B9
100
AcDbEntity
  8
0
100
AcDbCircle
 62
7
  6
BYLAYER
 10
45.6968390027
 20
101.4100551778
 40
6.3372275195
100
AcDbArc
 50
86.6999135019
 51
88.4474021839
  0
ARC
  5
3BA
100
AcDbEntity
  8
0
100
AcDbCircle
 62
7
  6
BYLAYER
 10
45.8541232037
 20
102.1259210181
 40
5.6785884195
100
AcDbArc
 50
93.585376385
 51
93.8518798456
  0
ARC
  5
3BB
100
AcDbEntity
  8
0
100
AcDbCircle
 62
7
  6
BYLAYER
 10
46.3213427935
 20
115.8484902886
 40
8.6301796353
100
AcDbArc
 50
271.0056747803
 51
271.2133265225
  0
ARC
  5
3BC
100
AcDbEntity
  8
0
100
AcDbCircle
 62
7
  6
BYLAYER
 10
45.5451943659
 20
113.041796636
 40
5.8172178841
100
AcDbArc
 50
268.0937887338
 51
268.3316386111
  0
ARC
  5
3BD
100
AcDbEntity
  8
0
100
AcDbCircle
 62
7
  6
BYLAYER
 10
45.3526023084
 20
102.4717073851
 40
4.9319958192
100
AcDbArc
 50
89.3633389247
 51
89.7301565647
  0
ARC
  5
3BE
100
AcDbEntity
  8
0
100
AcDbCircle
 62
7
  6
BYLAYER
 10
45.3669077208
 20
103.6263400179
 40
3.7772758004
100
AcDbArc
 50
88.5379990278
 51
89.3857081238
  0
ARC
  5
3BF
100
AcDbEntity
  8
0
100
AcDbCircle
 62
7
  6
BYLAYER
 10
45.4524865535
 20
111.0338923359
 40
3.7727304256
100
AcDbArc
 50
268.5352738454
 51
269.7535302597
  0
ARC
  5
3C0
100
AcDbEntity
  8
0
100
AcDbCircle
 62
7
  6
BYLAYER
 10
44.1976239375
 20
110.1067603092
 40
2.843140143
100
AcDbArc
 50
267.4683709783
 51
268.4985793045
  0
ARC
  5
3C1
100
AcDbEntity
  8
0
100
AcDbCircle
 62
7
  6
BYLAYER
 10
45.4180764367
 20
109.7321377797
 40
2.4705218972
100
AcDbArc
 50
266.8653345646
 51
268.5613428282
  0
ARC
  5
3C2
100
AcDbEntity
  8
0
100
AcDbCircle
 62
7
  6
BYLAYER
 10
46.5418767026
 20
109.5959769116
 40
2.3773402176
100
AcDbArc
 50
266.6409595809
 51
268.3353200342
  0
ARC
  5
3C3
100
AcDbEntity
  8
0
100
AcDbCircle
 62
7
  6
BYLAYER
 10
44.1731162809
 20
109.5296141619
 40
2.265474996
100
AcDbArc
 50
266.989576564
 51
267.4428444272
  0
ARC
  5
3C4
100
AcDbEntity
  8
0
100
AcDbCircle
 62
7
  6
BYLAYER
 10
45.3463575412
 20
105.2118145481
 40
2.1625632652
100
AcDbArc
 50
89.6501633447
 51
91.648191334
  0
ARC
  5
3C5
100
AcDbEntity
  8
0
100
AcDbCircle
 62
7
  6
BYLAYER
 10
45.8823510046
 20
109.4155116526
 40
1.8309689708
100
AcDbArc
 50
269.5679332833
 51
278.2140492465
  0
ARC
  5
3C6
100
AcDbEntity
  8
0
100
AcDbCircle
 62
7
  6
BYLAYER
 10
45.8826063555
 20
109.3987223309
 40
1.8143166737
100
AcDbArc
 50
278.2818191102
 51
278.9130186266
  0
ARC
  5
3C7
100
AcDbEntity
  8
0
100
AcDbCircle
 62
7
  6
BYLAYER
 10
44.8117831347
 20
107.2522319986
 40
1.6930646768
100
AcDbArc
 50
358.9175101956
 51
359.944059793
  0
ARC
  5
3C8
100
AcDbEntity
  8
0
100
AcDbCircle
 62
7
  6
BYLAYER
 10
44.5842538241
 20
106.5792655739
 40
1.3282469368
100
AcDbArc
 50
95.5475835967
 51
96.9647127395
  0
ARC
  5
3C9
100
AcDbEntity
  8
0
100
AcDbCircle
 62
7
  6
BYLAYER
 10
48.9195312991
 20
88.7336443148
 40
19.8322093289
100
AcDbArc
 50
97.8056365723
 51
100.4233913022
  0
ARC
  5
3CA
100
AcDbEntity
  8
0
100
AcDbCircle
 62
7
  6
BYLAYER
 10
47.8331394308
 20
88.8029594458
 40
19.7795374254
100
AcDbArc
 50
97.3403339505
 51
99.8948554817
  0
ARC
  5
3CB
100
AcDbEntity
  8
0
100
AcDbCircle
 62
7
  6
BYLAYER
 10
47.8383473203
 20
88.5590539546
 40
19.7237776078
100
AcDbArc
 50
98.8400915241
 51
99.8018616188
  0
ARC
  5
3CC
100
AcDbEntity
  8
0
100
AcDbCircle
 62
7
  6
BYLAYER
 10
47.8256121151
 20
88.6438340305
 40
19.6380475199
100
AcDbArc
 50
97.4852205919
 51
98.841389407
  0
ARC
  5
3CD
100
AcDbEntity
  8
0
100
AcDbCircle
 62
7
  6
BYLAYER
 10
47.8103721581
 20
88.9667132019
 40
19.6142169315
100
AcDbArc
 50
96.0220821228
 51
97.3354876538
  0
ARC
  5
3CE
100
AcDbEntity
  8
0
100
AcDbCircle
 62
7
  6
BYLAYER
 10
46.9327339932
 20
96.8976967333
 40
11.6355881396
100
AcDbArc
 50
92.2527241702
 51
93.8855423661
  0
ARC
  5
3CF
100
AcDbEntity
  8
0
100
AcDbCircle
 62
7
  6
BYLAYER
 10
46.8607670487
 20
97.9335715876
 40
10.5972177242
100
AcDbArc
 50
93.8768539624
 51
96.002423739
  0
ARC
  5
3D0
100
AcDbEntity
  8
0
100
AcDbCircle
 62
7
  6
BYLAYER
 10
47.9941378382
 20
100.7540090728
 40
6.8789360527
100
AcDbArc
 50
89.4076647976
 51
89.8176399508
  0
ARC
  5
3D1
100
AcDbEntity
  8
0
100
AcDbCircle
 62
7
  6
BYLAYER
 10
49.4670196539
 20
114.416081104
 40
7.2372722132
100
AcDbArc
 50
268.9088599116
 51
269.2667960743
  0
ARC
  5
3D2
100
AcDbEntity
  8
0
100
AcDbCircle
 62
7
  6
BYLAYER
 10
48.0566393455
 20
113.3411206846
 40
5.7855442825
100
AcDbArc
 50
266.5598314018
 51
267.1569399644
  0
ARC
  5
3D3
100
AcDbEntity
  8
0
100
AcDbCircle
 62
7
  6
BYLAYER
 10
47.9015330866
 20
112.4662146483
 40
4.9079232123
100
AcDbArc
 50
274.0686476634
 51
276.0417070748
  0
ARC
  5
3D4
100
AcDbEntity
  8
0
100
AcDbCircle
 62
7
  6
BYLAYER
 10
48.0002558107
 20
112.3907740427
 40
4.8335268567
100
AcDbArc
 50
266.201344819
 51
266.5510031717
  0
ARC
  5
3D5
100
AcDbEntity
  8
0
100
AcDbCircle
 62
7
  6
BYLAYER
 10
49.218842287
 20
102.7518125868
 40
4.6053741288
100
AcDbArc
 50
88.2275645013
 51
88.6274042396
  0
ARC
  5
3D6
100
AcDbEntity
  8
0
100
AcDbCircle
 62
7
  6
BYLAYER
 10
49.3739127092
 20
104.2761163694
 40
3.4684713509
100
AcDbArc
 50
79.7037834321
 51
81.309934419
  0
ARC
  5
3D7
100
AcDbEntity
  8
0
100
AcDbCircle
 62
7
  6
BYLAYER
 10
49.4100673406
 20
110.5499906132
 40
3.3363873776
100
AcDbArc
 50
268.2619308393
 51
268.8898809563
  0
ARC
  5
3D8
100
AcDbEntity
  8
0
100
AcDbCircle
 62
7
  6
BYLAYER
 10
49.3164864837
 20
104.1772408423
 40
3.1824733699
100
AcDbArc
 50
91.6968511551
 51
92.7900730751
  0
ARC
  5
3D9
100
AcDbEntity
  8
0
100
AcDbCircle
 62
7
  6
BYLAYER
 10
49.2681347819
 20
104.646456598
 40
2.6810003554
100
AcDbArc
 50
87.0595417661
 51
88.6957247333
  0
ARC
  5
3DA
100
AcDbEntity
  8
0
100
AcDbCircle
 62
7
  6
BYLAYER
 10
49.2858772122
 20
104.982851576
 40
2.3441381724
100
AcDbArc
 50
85.3305823023
 51
87.0708494254
  0
ARC
  5
3DB
100
AcDbEntity
  8
0
100
AcDbCircle
 62
7
  6
BYLAYER
 10
47.6615095876
 20
105.5046276351
 40
2.2299469391
100
AcDbArc
 50
89.1914235696
 51
91.1226156519
  0
ARC
  5
3DC
100
AcDbEntity
  8
0
100
AcDbCircle
 62
7
  6
BYLAYER
 10
49.3113194711
 20
105.2844020934
 40
2.0415175017
100
AcDbArc
 50
83.4187294761
 51
85.3533049242
  0
ARC
  5
3DD
100
AcDbEntity
  8
0
100
AcDbCircle
 62
7
  6
BYLAYER
 10
49.1863598521
 20
106.0515853287
 40
1.3032421288
100
AcDbArc
 50
95.7084242172
 51
97.2607196145
  0
ARC
  5
3DE
100
AcDbEntity
  8
0
100
AcDbCircle
 62
7
  6
BYLAYER
 10
47.6547720721
 20
106.1340064508
 40
1.2616543005
100
AcDbArc
 50
104.4239472293
 51
106.1021923077
  0
ARC
  5
3DF
100
AcDbEntity
  8
0
100
AcDbCircle
 62
7
  6
BYLAYER
 10
47.5458605874
 20
106.7508259114
 40
0.6338567143
100
AcDbArc
 50
89.3066508607
 51
92.4199548557
  0
ARC
  5
3E0
100
AcDbEntity
  8
0
100
AcDbCircle
 62
7
  6
BYLAYER
 10
49.4062053519
 20
107.1769028517
 40
0.4753422396
100
AcDbArc
 50
111.8088609277
 51
115.1316904945
  0
ARC
  5
3E1
100
AcDbEntity
  8
0
100
AcDbCircle
 62
7
  6
BYLAYER
 10
49.3896893767
 20
107.212235706
 40
0.4363398688
100
AcDbArc
 50
115.1387020476
 51
119.3580181786
  0
ARC
  5
3E2
100
AcDbEntity
  8
0
100
AcDbCircle
 62
7
  6
BYLAYER
 10
56.5424798408
 20
44.1937835764
 40
64.0441293086
100
AcDbArc
 50
99.2286887025
 51
99.4253347017
  0
ARC
  5
3E3
100
AcDbEntity
  8
0
100
AcDbCircle
 62
7
  6
BYLAYER
 10
44.198915276
 20
197.113996759
 40
88.9366276107
100
AcDbArc
 50
270.9405587392
 51
271.7284489671
  0
ARC
  5
3E4
100
AcDbEntity
  8
0
100
AcDbCircle
 62
7
  6
BYLAYER
 10
44.1830914288
 20
196.6335013823
 40
88.4558260478
100
AcDbArc
 50
268.2405016529
 51
269.026927818
  0
ARC
  5
3E5
100
AcDbEntity
  8
0
100
AcDbCircle
 62
7
  6
BYLAYER
 10
44.1887169413
 20
195.7209935012
 40
87.7323064647
100
AcDbArc
 50
267.8678766247
 51
270.4249584949
  0
ARC
  5
3E6
100
AcDbEntity
  8
0
100
AcDbCircle
 62
7
  6
BYLAYER
 10
72.1065138328
 20
73.8549699949
 40
2.0
100
AcDbArc
 50
0.5000000001
 51
88.9999999998
  0
ARC
  5
3E7
100
AcDbEntity
  8
0
100
AcDbCircle
 62
7
  6
BYLAYER
 10
64.4357570761
 20
95.3843180583
 40
1.97036168
100
AcDbArc
 50
76.4503676596
 51
89.2014376344
  0
ARC
  5
3E8
100
AcDbEntity
  8
0
100
AcDbCircle
 62
7
  6
BYLAYER
 10
64.4371189464
 20
95.4305867756
 40
1.9240786097
100
AcDbArc
 50
89.2227852971
 51
89.9996007831
  0
ARC
  5
3E9
100
AcDbEntity
  8
0
100
AcDbCircle
 62
7
  6
BYLAYER
 10
59.2551187875
 20
105.8789151148
 40
0.9971464888
100
AcDbArc
 50
1.0042725129
 51
76.9394014994
  0
ARC
  5
3EA
100
AcDbEntity
  8
0
100
AcDbCircle
 62
7
  6
BYLAYER
 10
44.1701699275
 20
2896.6767031727
 40
2801.1828044587
100
AcDbArc
 50
269.8499099285
 51
270.1500222592
  0
ARC
  5
3EB
100
AcDbEntity
  8
0
100
AcDbCircle
 62
7
  6
BYLAYER
 10
170.408830028
 20
108.4484640426
 40
104.7974503068
100
AcDbArc
 50
187.03388834
 51
197.8906337939
  0
ARC
  5
3EC
100
AcDbEntity
  8
0
100
AcDbCircle
 62
7
  6
BYLAYER
 10
169.1411754937
 20
108.427595763
 40
103.5053807978
100
AcDbArc
 50
187.1103287813
 51
198.0964228488
  0
SPLINE
  5
3ED
100
AcDbEntity
  8
0
100
AcDbSpline
 62
7
  6
BYLAYER
 70
0
 71
3
 72
16
 73
12
 74
0
 42
0.0000001
 43
0.0000001
 44
0.0000000001
 40
0.0
 40
0.0
 40
0.0
 40
0.0
 40
0.0163745798
 40
0.0335266293
 40
0.0589258555
 40
0.0939091515
 40
0.139563334
 40
0.1965888562
 40
0.264171645
 40
0.6064439374
 40
1.0
 40
1.0
 40
1.0
 40
1.0
 10
19.3826215485
 20
85.2750585145
 30
0.0
 10
19.3862026434
 20
85.2750495668
 30
0.0
 10
19.3905921582
 20
85.2661444986
 30
0.0
 10
19.3914393468
 20
85.2542052114
 30
0.0
 10
19.3917239268
 20
85.2368422122
 30
0.0
 10
19.3899157112
 20
85.2138649454
 30
0.0
 10
19.3863426201
 20
85.1839037362
 30
0.0
 10
19.3805413536
 20
85.1471375351
 30
0.0
 10
19.362215449
 20
85.0466685863
 30
0.0
 10
19.3230724245
 20
84.8752949608
 30
0.0
 10
19.282406148
 20
84.7195947889
 30
0.0
 10
19.2603723496
 20
84.6363925107
 30
0.0
  0
SPLINE
  5
3EE
100
AcDbEntity
  8
0
100
AcDbSpline
 62
7
  6
BYLAYER
 70
0
 71
3
 72
9
 73
5
 74
0
 42
0.0000001
 43
0.0000001
 44
0.0000000001
 40
0.0
 40
0.0
 40
0.0
 40
0.0
 40
0.2073866502
 40
1.0
 40
1.0
 40
1.0
 40
1.0
 10
48.4181043857
 20
107.4192429981
 30
0.0
 10
48.4138278661
 20
107.4179642416
 30
0.0
 10
48.3930524854
 20
107.4123151814
 30
0.0
 10
48.3717073184
 20
107.4088792613
 30
0.0
 10
48.3547450633
 20
107.4070600584
 30
0.0
  0
SPLINE
  5
3EF
100
AcDbEntity
  8
0
100
AcDbSpline
 62
7
  6
BYLAYER
 70
0
 71
3
 72
9
 73
5
 74
0
 42
0.0000001
 43
0.0000001
 44
0.0000000001
 40
0.0
 40
0.0
 40
0.0
 40
0.0
 40
0.2310103578
 40
1.0
 40
1.0
 40
1.0
 40
1.0
 10
48.3547450633
 20
107.4070600584
 30
0.0
 10
48.3489126283
 20
107.4064345293
 30
0.0
 10
48.3236147983
 20
107.4041974573
 30
0.0
 10
48.2981814194
 20
107.4036961768
 30
0.0
 10
48.278657263
 20
107.4039929353
 30
0.0
  0
SPLINE
  5
3F0
100
AcDbEntity
  8
0
100
AcDbSpline
 62
7
  6
BYLAYER
 70
0
 71
3
 72
9
 73
5
 74
0
 42
0.0000001
 43
0.0000001
 44
0.0000000001
 40
0.0
 40
0.0
 40
0.0
 40
0.0
 40
0.5562057055
 40
1.0
 40
1.0
 40
1.0
 40
1.0
 10
48.2786574745
 20
107.4039929077
 30
0.0
 10
48.2692851712
 20
107.4049181553
 30
0.0
 10
48.2524913789
 20
107.4068957129
 30
0.0
 10
48.2357237443
 20
107.4098270215
 30
0.0
 10
48.228559934
 20
107.4120957571
 30
0.0
  0
SPLINE
  5
3F1
100
AcDbEntity
  8
0
100
AcDbSpline
 62
7
  6
BYLAYER
 70
0
 71
3
 72
9
 73
5
 74
0
 42
0.0000001
 43
0.0000001
 44
0.0000000001
 40
0.0
 40
0.0
 40
0.0
 40
0.0
 40
0.6593353419
 40
1.0
 40
1.0
 40
1.0
 40
1.0
 10
48.228559934
 20
107.4120957571
 30
0.0
 10
48.2258295614
 20
107.4129604497
 30
0.0
 10
48.2217902286
 20
107.4141410194
 30
0.0
 10
48.2182297916
 20
107.4177930009
 30
0.0
 10
48.2182299208
 20
107.4192727811
 30
0.0
  0
SPLINE
  5
3F2
100
AcDbEntity
  8
0
100
AcDbSpline
 62
7
  6
BYLAYER
 70
0
 71
3
 72
9
 73
5
 74
0
 42
0.0000001
 43
0.0000001
 44
0.0000000001
 40
0.0
 40
0.0
 40
0.0
 40
0.0
 40
0.2151868472
 40
1.0
 40
1.0
 40
1.0
 40
1.0
 10
45.5594353746
 20
107.3584885147
 30
0.0
 10
45.5552377957
 20
107.359565097
 30
0.0
 10
45.5355780773
 20
107.3639704989
 30
0.0
 10
45.5155619978
 20
107.3665851818
 30
0.0
 10
45.4998408397
 20
107.3682070069
 30
0.0
  0
SPLINE
  5
3F3
100
AcDbEntity
  8
0
100
AcDbSpline
 62
7
  6
BYLAYER
 70
0
 71
3
 72
9
 73
5
 74
0
 42
0.0000001
 43
0.0000001
 44
0.0000000001
 40
0.0
 40
0.0
 40
0.0
 40
0.0
 40
0.2427021215
 40
1.0
 40
1.0
 40
1.0
 40
1.0
 10
45.4998408397
 20
107.3682070069
 30
0.0
 10
45.4965737158
 20
107.3685440498
 30
0.0
 10
45.4831030346
 20
107.3698432275
 30
0.0
 10
45.4696029609
 20
107.370825658
 30
0.0
 10
45.4593731602
 20
107.3714433851
 30
0.0
  0
SPLINE
  5
3F4
100
AcDbEntity
  8
0
100
AcDbSpline
 62
7
  6
BYLAYER
 70
0
 71
3
 72
9
 73
5
 74
0
 42
0.0000001
 43
0.0000001
 44
0.0000000001
 40
0.0
 40
0.0
 40
0.0
 40
0.0
 40
0.2458550744
 40
1.0
 40
1.0
 40
1.0
 40
1.0
 10
45.4593731602
 20
107.3714433851
 30
0.0
 10
45.4512042359
 20
107.371936666
 30
0.0
 10
45.4179572754
 20
107.3736063493
 30
0.0
 10
45.384664663
 20
107.3742187746
 30
0.0
 10
45.3595616411
 20
107.3743375023
 30
0.0
  0
SPLINE
  5
3F5
100
AcDbEntity
  8
0
100
AcDbSpline
 62
7
  6
BYLAYER
 70
0
 71
3
 72
11
 73
7
 74
0
 42
0.0000001
 43
0.0000001
 44
0.0000000001
 40
0.0
 40
0.0
 40
0.0
 40
0.0
 40
0.3630858934
 40
0.669233941
 40
0.8783811572
 40
1.0
 40
1.0
 40
1.0
 40
1.0
 10
45.2841570353
 20
107.3734831103
 30
0.0
 10
45.2593554833
 20
107.3727352344
 30
0.0
 10
45.213680232
 20
107.3704454518
 30
0.0
 10
45.1539342349
 20
107.3629115165
 30
0.0
 10
45.1118175662
 20
107.3520377199
 30
0.0
 10
45.0915465987
 20
107.3400705966
 30
0.0
 10
45.0863208878
 20
107.3336076828
 30
0.0
  0
SPLINE
  5
3F6
100
AcDbEntity
  8
0
100
AcDbSpline
 62
7
  6
BYLAYER
 70
0
 71
3
 72
9
 73
5
 74
0
 42
0.0000001
 43
0.0000001
 44
0.0000000001
 40
0.0
 40
0.0
 40
0.0
 40
0.0
 40
0.278761165
 40
1.0
 40
1.0
 40
1.0
 40
1.0
 10
45.0863208878
 20
107.3336076828
 30
0.0
 10
45.085361236
 20
107.3324208306
 30
0.0
 10
45.082206489
 20
107.3279355816
 30
0.0
 10
45.0806667875
 20
107.3223381686
 30
0.0
 10
45.0806667875
 20
107.3183892077
 30
0.0
  0
SPLINE
  5
3F7
100
AcDbEntity
  8
0
100
AcDbSpline
 62
7
  6
BYLAYER
 70
0
 71
3
 72
9
 73
5
 74
0
 42
0.0000001
 43
0.0000001
 44
0.0000000001
 40
0.0
 40
0.0
 40
0.0
 40
0.0
 40
0.2544935392
 40
1.0
 40
1.0
 40
1.0
 40
1.0
 10
45.3516931896
 20
107.2277979082
 30
0.0
 10
45.3363722583
 20
107.2283083177
 30
0.0
 10
45.2761809773
 20
107.2305699445
 30
0.0
 10
45.2160188208
 20
107.2339345558
 30
0.0
 10
45.1712612784
 20
107.2375783175
 30
0.0
  0
SPLINE
  5
3F8
100
AcDbEntity
  8
0
100
AcDbSpline
 62
7
  6
BYLAYER
 70
0
 71
3
 72
9
 73
5
 74
0
 42
0.0000001
 43
0.0000001
 44
0.0000000001
 40
0.0
 40
0.0
 40
0.0
 40
0.0
 40
0.2589632413
 40
1.0
 40
1.0
 40
1.0
 40
1.0
 10
45.1712612784
 20
107.2375783175
 30
0.0
 10
45.1630624422
 20
107.2382457939
 30
0.0
 10
45.1314158392
 20
107.2409784306
 30
0.0
 10
45.0998208934
 20
107.2443814154
 30
0.0
 10
45.0764911018
 20
107.2475128793
 30
0.0
  0
SPLINE
  5
3F9
100
AcDbEntity
  8
0
100
AcDbSpline
 62
7
  6
BYLAYER
 70
0
 71
3
 72
9
 73
5
 74
0
 42
0.0000001
 43
0.0000001
 44
0.0000000001
 40
0.0
 40
0.0
 40
0.0
 40
0.0
 40
0.2608491363
 40
1.0
 40
1.0
 40
1.0
 40
1.0
 10
45.0764911018
 20
107.2475128793
 30
0.0
 10
45.0720929182
 20
107.2481032298
 30
0.0
 10
45.0552439234
 20
107.2504528083
 30
0.0
 10
45.0384429531
 20
107.2531643747
 30
0.0
 10
45.0260805588
 20
107.2554648053
 30
0.0
  0
SPLINE
  5
3FA
100
AcDbEntity
  8
0
100
AcDbSpline
 62
7
  6
BYLAYER
 70
0
 71
3
 72
11
 73
7
 74
0
 42
0.0000001
 43
0.0000001
 44
0.0000000001
 40
0.0
 40
0.0
 40
0.0
 40
0.0
 40
0.3978012948
 40
0.6885886422
 40
0.8762413204
 40
1.0
 40
1.0
 40
1.0
 40
1.0
 10
45.0260805588
 20
107.2554648053
 30
0.0
 10
45.0085014508
 20
107.2587359772
 30
0.0
 10
44.9781440075
 20
107.2653153429
 30
0.0
 10
44.9410705666
 20
107.2785966103
 30
0.0
 10
44.917458631
 20
107.2931434259
 30
0.0
 10
44.9110056807
 20
107.3069715929
 30
0.0
 10
44.9110057663
 20
107.3125344535
 30
0.0
  0
SPLINE
  5
3FB
100
AcDbEntity
  8
0
100
AcDbSpline
 62
7
  6
BYLAYER
 70
0
 71
3
 72
11
 73
7
 74
0
 42
0.0000001
 43
0.0000001
 44
0.0000000001
 40
0.0
 40
0.0
 40
0.0
 40
0.0
 40
0.4140421065
 40
0.5923677069
 40
0.7372851489
 40
1.0
 40
1.0
 40
1.0
 40
1.0
 10
44.0188000002
 20
107.3796657996
 30
0.0
 10
43.9955431132
 20
107.3789063173
 30
0.0
 10
43.9625843674
 20
107.3772136595
 30
0.0
 10
43.9207244258
 20
107.3714874004
 30
0.0
 10
43.8906503385
 20
107.3653269745
 30
0.0
 10
43.8605032993
 20
107.3532307667
 30
0.0
 10
43.8605033468
 20
107.338466117
 30
0.0
  0
SPLINE
  5
3FC
100
AcDbEntity
  8
0
100
AcDbSpline
 62
7
  6
BYLAYER
 70
0
 71
3
 72
9
 73
5
 74
0
 42
0.0000001
 43
0.0000001
 44
0.0000000001
 40
0.0
 40
0.0
 40
0.0
 40
0.0
 40
0.3409948133
 40
1.0
 40
1.0
 40
1.0
 40
1.0
 10
19.0091969788
 20
83.9265426832
 30
0.0
 10
18.9957772477
 20
83.9165013972
 30
0.0
 10
18.9564833257
 20
83.8869760914
 30
0.0
 10
18.9171694718
 20
83.8574610988
 30
0.0
 10
18.8917518797
 20
83.8373825275
 30
0.0
  0
SPLINE
  5
3FD
100
AcDbEntity
  8
0
100
AcDbSpline
 62
7
  6
BYLAYER
 70
0
 71
3
 72
11
 73
7
 74
0
 42
0.0000001
 43
0.0000001
 44
0.0000000001
 40
0.0
 40
0.0
 40
0.0
 40
0.0
 40
0.418490323
 40
0.7244826162
 40
0.9180610242
 40
1.0
 40
1.0
 40
1.0
 40
1.0
 10
18.8917518797
 20
83.8373825275
 30
0.0
 10
18.8895745576
 20
83.8356625566
 30
0.0
 10
18.8858575311
 20
83.8326564825
 30
0.0
 10
18.8810178035
 20
83.8288462888
 30
0.0
 10
18.8783397582
 20
83.826240178
 30
0.0
 10
18.8767452346
 20
83.8250621446
 30
0.0
 10
18.8765920077
 20
83.8245409211
 30
0.0
  0
SPLINE
  5
3FE
100
AcDbEntity
  8
0
100
AcDbSpline
 62
7
  6
BYLAYER
 70
0
 71
3
 72
9
 73
5
 74
0
 42
0.0000001
 43
0.0000001
 44
0.0000000001
 40
0.0
 40
0.0
 40
0.0
 40
0.0
 40
0.3391206304
 40
1.0
 40
1.0
 40
1.0
 40
1.0
 10
44.2927897054
 20
107.3384565555
 30
0.0
 10
44.2837178381
 20
107.3484827694
 30
0.0
 10
44.2464526644
 20
107.3670839695
 30
0.0
 10
44.2070016093
 20
107.3729281645
 30
0.0
 10
44.1808042419
 20
107.3757622682
 30
0.0
  0
SPLINE
  5
3FF
100
AcDbEntity
  8
0
100
AcDbSpline
 62
7
  6
BYLAYER
 70
0
 71
3
 72
9
 73
5
 74
0
 42
0.0000001
 43
0.0000001
 44
0.0000000001
 40
0.0
 40
0.0
 40
0.0
 40
0.0
 40
0.2417334273
 40
1.0
 40
1.0
 40
1.0
 40
1.0
 10
44.1808042419
 20
107.3757622682
 30
0.0
 10
44.1782162284
 20
107.3760422467
 30
0.0
 10
44.1675025525
 20
107.3771298319
 30
0.0
 10
44.1567634179
 20
107.377959308
 30
0.0
 10
44.1486143002
 20
107.3784749783
 30
0.0
  0
SPLINE
  5
400
100
AcDbEntity
  8
0
100
AcDbSpline
 62
7
  6
BYLAYER
 70
0
 71
3
 72
9
 73
5
 74
0
 42
0.0000001
 43
0.0000001
 44
0.0000000001
 40
0.0
 40
0.0
 40
0.0
 40
0.0
 40
0.2447480613
 40
1.0
 40
1.0
 40
1.0
 40
1.0
 10
44.1486143002
 20
107.3784749783
 30
0.0
 10
44.1427517097
 20
107.3788459588
 30
0.0
 10
44.1187826134
 20
107.3801169305
 30
0.0
 10
44.0947737161
 20
107.3805347409
 30
0.0
 10
44.0766465496
 20
107.3805354691
 30
0.0
  0
SPLINE
  5
401
100
AcDbEntity
  8
0
100
AcDbSpline
 62
7
  6
BYLAYER
 70
0
 71
3
 72
13
 73
9
 74
0
 42
0.0000001
 43
0.0000001
 44
0.0000000001
 40
0.0
 40
0.0
 40
0.0
 40
0.0
 40
0.3718479989
 40
0.703445865
 40
0.8237060508
 40
0.9075453068
 40
0.9635747095
 40
1.0
 40
1.0
 40
1.0
 40
1.0
 10
19.2603723496
 20
84.6363925107
 30
0.0
 10
19.2366111037
 20
84.5457559292
 30
0.0
 10
19.1884238038
 20
84.3751640047
 30
0.0
 10
19.1259937524
 20
84.1770803101
 30
0.0
 10
19.0777085304
 20
84.0509744693
 30
0.0
 10
19.0506196996
 20
83.991216358
 30
0.0
 10
19.0290791516
 20
83.9523217233
 30
0.0
 10
19.0153960076
 20
83.9333152861
 30
0.0
 10
19.0091994411
 20
83.9265441303
 30
0.0
  0
SPLINE
  5
402
100
AcDbEntity
  8
0
100
AcDbSpline
 62
7
  6
BYLAYER
 70
0
 71
3
 72
10
 73
6
 74
0
 42
0.0000001
 43
0.0000001
 44
0.0000000001
 40
0.0
 40
0.0
 40
0.0
 40
0.0
 40
0.2030772104
 40
0.4513986924
 40
1.0
 40
1.0
 40
1.0
 40
1.0
 10
44.4490195551
 20
107.2551018052
 30
0.0
 10
44.4286620539
 20
107.2497987591
 30
0.0
 10
44.3824994796
 20
107.2415968637
 30
0.0
 10
44.2793392285
 20
107.2317860067
 30
0.0
 10
44.1966930893
 20
107.2301352278
 30
0.0
 10
44.139863189
 20
107.230141549
 30
0.0
  0
SPLINE
  5
403
100
AcDbEntity
  8
0
100
AcDbSpline
 62
7
  6
BYLAYER
 70
0
 71
3
 72
9
 73
5
 74
0
 42
0.0000001
 43
0.0000001
 44
0.0000000001
 40
0.0
 40
0.0
 40
0.0
 40
0.0
 40
0.2658113233
 40
1.0
 40
1.0
 40
1.0
 40
1.0
 10
44.0627285705
 20
107.2301422875
 30
0.0
 10
44.044316651
 20
107.2301412795
 30
0.0
 10
43.975077504
 20
107.2310033532
 30
0.0
 10
43.9056945803
 20
107.2354624035
 30
0.0
 10
43.8554342466
 20
107.2432164522
 30
0.0
  0
SPLINE
  5
404
100
AcDbEntity
  8
0
100
AcDbSpline
 62
7
  6
BYLAYER
 70
0
 71
3
 72
9
 73
5
 74
0
 42
0.0000001
 43
0.0000001
 44
0.0000000001
 40
0.0
 40
0.0
 40
0.0
 40
0.0
 40
0.2683052928
 40
1.0
 40
1.0
 40
1.0
 40
1.0
 10
43.8554342466
 20
107.2432164522
 30
0.0
 10
43.8508302202
 20
107.2439267508
 30
0.0
 10
43.8336954085
 20
107.2467290974
 30
0.0
 10
43.8166573815
 20
107.2501493358
 30
0.0
 10
43.8042997109
 20
107.2530961942
 30
0.0
  0
SPLINE
  5
405
100
AcDbEntity
  8
0
100
AcDbSpline
 62
7
  6
BYLAYER
 70
0
 71
3
 72
10
 73
6
 74
0
 42
0.0000001
 43
0.0000001
 44
0.0000000001
 40
0.0
 40
0.0
 40
0.0
 40
0.0
 40
0.3666570823
 40
0.6366345913
 40
1.0
 40
1.0
 40
1.0
 40
1.0
 10
43.8042997109
 20
107.2530961942
 30
0.0
 10
43.7867116045
 20
107.2572903228
 30
0.0
 10
43.7564170996
 20
107.2661678542
 30
0.0
 10
43.7117071475
 20
107.2868931143
 30
0.0
 10
43.6866499043
 20
107.3076996365
 30
0.0
 10
43.6768974845
 20
107.322732227
 30
0.0
  0
LINE
  5
406
100
AcDbEntity
  8
0
100
AcDbLine
 62
7
  6
BYLAYER
 10
49.2989459347
 20
107.3274491671
 11
49.3291595291
 21
107.3267623428
  0
SPLINE
  5
407
100
AcDbEntity
  8
0
100
AcDbSpline
 62
7
  6
BYLAYER
 70
0
 71
3
 72
12
 73
8
 74
0
 42
0.0000001
 43
0.0000001
 44
0.0000000001
 40
0.0
 40
0.0
 40
0.0
 40
0.0
 40
0.2500119165
 40
0.4374942119
 40
0.6250089241
 40
0.812482687
 40
1.0
 40
1.0
 40
1.0
 40
1.0
 10
48.7382501484
 20
107.5069642199
 30
0.0
 10
48.7747187765
 20
107.5063516007
 30
0.0
 10
48.8384826241
 20
107.5031888459
 30
0.0
 10
48.92967263
 20
107.5022285767
 30
0.0
 10
49.011733116
 20
107.5036090669
 30
0.0
 10
49.0937736414
 20
107.5009252909
 30
0.0
 10
49.1484196393
 20
107.4983352659
 30
0.0
 10
49.1757670941
 20
107.4976298281
 30
0.0
  0
SPLINE
  5
408
100
AcDbEntity
  8
0
100
AcDbSpline
 62
7
  6
BYLAYER
 70
0
 71
3
 72
9
 73
5
 74
0
 42
0.0000001
 43
0.0000001
 44
0.0000000001
 40
0.0
 40
0.0
 40
0.0
 40
0.0
 40
0.499999888
 40
1.0
 40
1.0
 40
1.0
 40
1.0
 10
39.2703653574
 20
107.336377922
 30
0.0
 10
39.3149747105
 20
107.3371545158
 30
0.0
 10
39.4041525336
 20
107.3412833557
 30
0.0
 10
39.4934070571
 20
107.3392027151
 30
0.0
 10
39.5380200858
 20
107.3397289657
 30
0.0
  0
SPLINE
  5
409
100
AcDbEntity
  8
0
100
AcDbSpline
 62
7
  6
BYLAYER
 70
0
 71
3
 72
8
 73
4
 74
0
 42
0.0000001
 43
0.0000001
 44
0.0000000001
 40
0.0
 40
0.0
 40
0.0
 40
0.0
 40
1.0
 40
1.0
 40
1.0
 40
1.0
 10
39.5614981262
 20
107.3401345811
 30
0.0
 10
39.5984821768
 20
107.340951306
 30
0.0
 10
39.6354498748
 20
107.3424898951
 30
0.0
 10
39.6724382352
 20
107.3430800093
 30
0.0
  0
SPLINE
  5
40A
100
AcDbEntity
  8
0
100
AcDbSpline
 62
7
  6
BYLAYER
 70
0
 71
3
 72
12
 73
8
 74
0
 42
0.0000001
 43
0.0000001
 44
0.0000000001
 40
0.0
 40
0.0
 40
0.0
 40
0.0
 40
0.2500850885
 40
0.4374559305
 40
0.6250324679
 40
0.8124294622
 40
1.0
 40
1.0
 40
1.0
 40
1.0
 10
39.8560438227
 20
107.1214284724
 30
0.0
 10
39.8806616028
 20
107.1226228407
 30
0.0
 10
39.9235284783
 20
107.1277085057
 30
0.0
 10
39.9851611692
 20
107.1293655216
 30
0.0
 10
40.0405875515
 20
107.1272352927
 30
0.0
 10
40.0959609116
 20
107.1310717772
 30
0.0
 10
40.1327417815
 20
107.1347002701
 30
0.0
 10
40.1512068223
 20
107.1355742944
 30
0.0
  0
SPLINE
  5
40B
100
AcDbEntity
  8
0
100
AcDbSpline
 62
7
  6
BYLAYER
 70
0
 71
3
 72
8
 73
4
 74
0
 42
0.0000001
 43
0.0000001
 44
0.0000000001
 40
0.0
 40
0.0
 40
0.0
 40
0.0
 40
1.0
 40
1.0
 40
1.0
 40
1.0
 10
40.8926018317
 20
107.327059642
 30
0.0
 10
40.9245221065
 20
107.3276506744
 30
0.0
 10
40.9564405815
 20
107.3284361167
 30
0.0
 10
40.9883654235
 20
107.3286763812
 30
0.0
  0
SPLINE
  5
40C
100
AcDbEntity
  8
0
100
AcDbSpline
 62
7
  6
BYLAYER
 70
0
 71
3
 72
8
 73
4
 74
0
 42
0.0000001
 43
0.0000001
 44
0.0000000001
 40
0.0
 40
0.0
 40
0.0
 40
0.0
 40
1.0
 40
1.0
 40
1.0
 40
1.0
 10
40.9883654235
 20
107.3286763812
 30
0.0
 10
41.0383798141
 20
107.3290527864
 30
0.0
 10
41.0884020397
 20
107.3281986871
 30
0.0
 10
41.1384126471
 20
107.3289198666
 30
0.0
  0
LINE
  5
40D
100
AcDbEntity
  8
0
100
AcDbLine
 62
7
  6
BYLAYER
 10
41.1384126471
 20
107.3289198666
 11
41.2458678435
 21
107.3307992461
  0
SPLINE
  5
40E
100
AcDbEntity
  8
0
100
AcDbSpline
 62
7
  6
BYLAYER
 70
0
 71
3
 72
9
 73
5
 74
0
 42
0.0000001
 43
0.0000001
 44
0.0000000001
 40
0.0
 40
0.0
 40
0.0
 40
0.0
 40
0.2885972206
 40
1.0
 40
1.0
 40
1.0
 40
1.0
 10
41.2458678435
 20
107.3307992461
 30
0.0
 10
41.2482600613
 20
107.3308239017
 30
0.0
 10
41.2565451902
 20
107.3312307491
 30
0.0
 10
41.2647693766
 20
107.3325287035
 30
0.0
 10
41.2705236079
 20
107.3338194413
 30
0.0
  0
SPLINE
  5
40F
100
AcDbEntity
  8
0
100
AcDbSpline
 62
7
  6
BYLAYER
 70
0
 71
3
 72
9
 73
5
 74
0
 42
0.0000001
 43
0.0000001
 44
0.0000000001
 40
0.0
 40
0.0
 40
0.0
 40
0.0
 40
0.3112335902
 40
1.0
 40
1.0
 40
1.0
 40
1.0
 10
41.2705236079
 20
107.3338194413
 30
0.0
 10
41.2780032036
 20
107.3354971974
 30
0.0
 10
41.3016432397
 20
107.3426563033
 30
0.0
 10
41.323912544
 20
107.3534760499
 30
0.0
 10
41.3388326477
 20
107.3615483164
 30
0.0
  0
SPLINE
  5
410
100
AcDbEntity
  8
0
100
AcDbSpline
 62
7
  6
BYLAYER
 70
0
 71
3
 72
9
 73
5
 74
0
 42
0.0000001
 43
0.0000001
 44
0.0000000001
 40
0.0
 40
0.0
 40
0.0
 40
0.0
 40
0.2228750056
 40
1.0
 40
1.0
 40
1.0
 40
1.0
 10
40.8926012348
 20
107.3625703199
 30
0.0
 10
40.8940640768
 20
107.3647211491
 30
0.0
 10
40.9009306291
 20
107.3741462925
 30
0.0
 10
40.9094602827
 20
107.3825012707
 30
0.0
 10
40.9170054962
 20
107.3875341485
 30
0.0
  0
SPLINE
  5
411
100
AcDbEntity
  8
0
100
AcDbSpline
 62
7
  6
BYLAYER
 70
0
 71
3
 72
9
 73
5
 74
0
 42
0.0000001
 43
0.0000001
 44
0.0000000001
 40
0.0
 40
0.0
 40
0.0
 40
0.0
 40
0.1905735152
 40
1.0
 40
1.0
 40
1.0
 40
1.0
 10
40.9170054962
 20
107.3875341485
 30
0.0
 10
40.918427035
 20
107.3884823565
 30
0.0
 10
40.9260499931
 20
107.3931941761
 30
0.0
 10
40.9346623896
 20
107.3964545521
 30
0.0
 10
40.9418069379
 20
107.3977309038
 30
0.0
  0
SPLINE
  5
412
100
AcDbEntity
  8
0
100
AcDbSpline
 62
7
  6
BYLAYER
 70
0
 71
3
 72
9
 73
5
 74
0
 42
0.0000001
 43
0.0000001
 44
0.0000000001
 40
0.0
 40
0.0
 40
0.0
 40
0.0
 40
0.2249122407
 40
1.0
 40
1.0
 40
1.0
 40
1.0
 10
40.9418069379
 20
107.3977309038
 30
0.0
 10
40.942639432
 20
107.3978796263
 30
0.0
 10
40.9463525616
 20
107.3984709295
 30
0.0
 10
40.9501142672
 20
107.3987818072
 30
0.0
 10
40.9530284237
 20
107.3988148816
 30
0.0
  0
SPLINE
  5
413
100
AcDbEntity
  8
0
100
AcDbSpline
 62
7
  6
BYLAYER
 70
0
 71
3
 72
8
 73
4
 74
0
 42
0.0000001
 43
0.0000001
 44
0.0000000001
 40
0.0
 40
0.0
 40
0.0
 40
0.0
 40
1.0
 40
1.0
 40
1.0
 40
1.0
 10
40.9530284237
 20
107.3988148816
 30
0.0
 10
41.0009352552
 20
107.3993586032
 30
0.0
 10
41.0488313468
 20
107.4007542401
 30
0.0
 10
41.0967400227
 20
107.4010990726
 30
0.0
  0
SPLINE
  5
414
100
AcDbEntity
  8
0
100
AcDbSpline
 62
7
  6
BYLAYER
 70
0
 71
3
 72
8
 73
4
 74
0
 42
0.0000001
 43
0.0000001
 44
0.0000000001
 40
0.0
 40
0.0
 40
0.0
 40
0.0
 40
1.0
 40
1.0
 40
1.0
 40
1.0
 10
41.0967400227
 20
107.4010990726
 30
0.0
 10
41.1460773045
 20
107.4014541878
 30
0.0
 10
41.1954190414
 20
107.4006979126
 30
0.0
 10
41.2447556987
 20
107.4011311942
 30
0.0
  0
SPLINE
  5
415
100
AcDbEntity
  8
0
100
AcDbSpline
 62
7
  6
BYLAYER
 70
0
 71
3
 72
8
 73
4
 74
0
 42
0.0000001
 43
0.0000001
 44
0.0000000001
 40
0.0
 40
0.0
 40
0.0
 40
0.0
 40
1.0
 40
1.0
 40
1.0
 40
1.0
 10
41.2447556987
 20
107.4011311942
 30
0.0
 10
41.27590096
 20
107.4014047164
 30
0.0
 10
41.3070410603
 20
107.402107043
 30
0.0
 10
41.338182217
 20
107.402681918
 30
0.0
  0
SPLINE
  5
416
100
AcDbEntity
  8
0
100
AcDbSpline
 62
7
  6
BYLAYER
 70
0
 71
3
 72
16
 73
12
 74
0
 42
0.0000001
 43
0.0000001
 44
0.0000000001
 40
0.0
 40
0.0
 40
0.0
 40
0.0
 40
0.149593452
 40
0.3192437917
 40
0.4091716314
 40
0.4624806673
 40
0.5191498504
 40
0.572069709
 40
0.6452403603
 40
0.7624169911
 40
1.0
 40
1.0
 40
1.0
 40
1.0
 10
46.8423504661
 20
107.6583850704
 30
0.0
 10
46.8432503292
 20
107.6572134537
 30
0.0
 10
46.8444326889
 20
107.6541926057
 30
0.0
 10
46.8460145525
 20
107.6506565453
 30
0.0
 10
46.847354517
 20
107.6475599899
 30
0.0
 10
46.8495442521
 20
107.6471469805
 30
0.0
 10
46.8509031151
 20
107.6480262753
 30
0.0
 10
46.8528840229
 20
107.6483976535
 30
0.0
 10
46.8544572075
 20
107.6461455829
 30
0.0
 10
46.856084906
 20
107.6424481492
 30
0.0
 10
46.8572001311
 20
107.6389508714
 30
0.0
 10
46.8586190533
 20
107.6370823056
 30
0.0
  0
SPLINE
  5
417
100
AcDbEntity
  8
0
100
AcDbSpline
 62
7
  6
BYLAYER
 70
0
 71
3
 72
9
 73
5
 74
0
 42
0.0000001
 43
0.0000001
 44
0.0000000001
 40
0.0
 40
0.0
 40
0.0
 40
0.0
 40
0.4194051549
 40
1.0
 40
1.0
 40
1.0
 40
1.0
 10
46.8586190533
 20
107.6370823056
 30
0.0
 10
46.8701076193
 20
107.627484879
 30
0.0
 10
46.9009107368
 20
107.6087729509
 30
0.0
 10
46.9342471941
 20
107.5957477786
 30
0.0
 10
46.9538957481
 20
107.5891608227
 30
0.0
  0
SPLINE
  5
418
100
AcDbEntity
  8
0
100
AcDbSpline
 62
7
  6
BYLAYER
 70
0
 71
3
 72
10
 73
6
 74
0
 42
0.0000001
 43
0.0000001
 44
0.0000000001
 40
0.0
 40
0.0
 40
0.0
 40
0.0
 40
0.1841940516
 40
0.4186362184
 40
1.0
 40
1.0
 40
1.0
 40
1.0
 10
46.9538957481
 20
107.5891608227
 30
0.0
 10
46.9806576808
 20
107.580189187
 30
0.0
 10
47.042867381
 20
107.5639609629
 30
0.0
 10
47.1939079117
 20
107.5375963609
 30
0.0
 10
47.3187197402
 20
107.527102439
 30
0.0
 10
47.4076489083
 20
107.5217912374
 30
0.0
  0
SPLINE
  5
419
100
AcDbEntity
  8
0
100
AcDbSpline
 62
7
  6
BYLAYER
 70
0
 71
3
 72
9
 73
5
 74
0
 42
0.0000001
 43
0.0000001
 44
0.0000000001
 40
0.0
 40
0.0
 40
0.0
 40
0.0
 40
0.2463570741
 40
1.0
 40
1.0
 40
1.0
 40
1.0
 10
47.4076489083
 20
107.5217912374
 30
0.0
 10
47.432196848
 20
107.5203251374
 30
0.0
 10
47.5318874284
 20
107.5151575168
 30
0.0
 10
47.6317002048
 20
107.5125995162
 30
0.0
 10
47.7069232773
 20
107.5116077337
 30
0.0
  0
SPLINE
  5
41A
100
AcDbEntity
  8
0
100
AcDbSpline
 62
7
  6
BYLAYER
 70
0
 71
3
 72
8
 73
4
 74
0
 42
0.0000001
 43
0.0000001
 44
0.0000000001
 40
0.0
 40
0.0
 40
0.0
 40
0.0
 40
1.0
 40
1.0
 40
1.0
 40
1.0
 10
47.3513326474
 20
107.6394960159
 30
0.0
 10
47.4645753265
 20
107.6381457763
 30
0.0
 10
47.5777751337
 20
107.6340842061
 30
0.0
 10
47.6910182185
 20
107.6327684267
 30
0.0
  0
SPLINE
  5
41B
100
AcDbEntity
  8
0
100
AcDbSpline
 62
7
  6
BYLAYER
 70
0
 71
3
 72
8
 73
4
 74
0
 42
0.0000001
 43
0.0000001
 44
0.0000000001
 40
0.0
 40
0.0
 40
0.0
 40
0.0
 40
1.0
 40
1.0
 40
1.0
 40
1.0
 10
47.7092590333
 20
107.6325810838
 30
0.0
 10
47.8115127081
 20
107.6316735095
 30
0.0
 10
47.9137748415
 20
107.6332546972
 30
0.0
 10
48.0160319639
 20
107.6329102833
 30
0.0
  0
SPLINE
  5
41C
100
AcDbEntity
  8
0
100
AcDbSpline
 62
7
  6
BYLAYER
 70
0
 71
3
 72
8
 73
4
 74
0
 42
0.0000001
 43
0.0000001
 44
0.0000000001
 40
0.0
 40
0.0
 40
0.0
 40
0.0
 40
1.0
 40
1.0
 40
1.0
 40
1.0
 10
48.0652523851
 20
107.632577524
 30
0.0
 10
48.1828917322
 20
107.6313394956
 30
0.0
 10
48.300472229
 20
107.6266153858
 30
0.0
 10
48.4181036521
 20
107.6247722864
 30
0.0
  0
SPLINE
  5
41D
100
AcDbEntity
  8
0
100
AcDbSpline
 62
7
  6
BYLAYER
 70
0
 71
3
 72
9
 73
5
 74
0
 42
0.0000001
 43
0.0000001
 44
0.0000000001
 40
0.0
 40
0.0
 40
0.0
 40
0.0
 40
0.5499256502
 40
1.0
 40
1.0
 40
1.0
 40
1.0
 10
48.4181036508
 20
107.6247721956
 30
0.0
 10
48.4218949289
 20
107.6266807
 30
0.0
 10
48.4264987102
 20
107.6354800536
 30
0.0
 10
48.4353897329
 20
107.6313865452
 30
0.0
 10
48.4386763781
 20
107.6325115469
 30
0.0
  0
SPLINE
  5
41E
100
AcDbEntity
  8
0
100
AcDbSpline
 62
7
  6
BYLAYER
 70
0
 71
3
 72
9
 73
5
 74
0
 42
0.0000001
 43
0.0000001
 44
0.0000000001
 40
0.0
 40
0.0
 40
0.0
 40
0.0
 40
0.230216919
 40
1.0
 40
1.0
 40
1.0
 40
1.0
 10
48.4386763781
 20
107.6325115469
 30
0.0
 10
48.4396077762
 20
107.6328303596
 30
0.0
 10
48.4432764451
 20
107.6351623755
 30
0.0
 10
48.4459555649
 20
107.6387372432
 30
0.0
 10
48.4489011595
 20
107.640206601
 30
0.0
  0
SPLINE
  5
41F
100
AcDbEntity
  8
0
100
AcDbSpline
 62
7
  6
BYLAYER
 70
0
 71
3
 72
13
 73
9
 74
0
 42
0.0000001
 43
0.0000001
 44
0.0000000001
 40
0.0
 40
0.0
 40
0.0
 40
0.0
 40
0.3091840285
 40
0.5999495496
 40
0.7316518858
 40
0.8472686887
 40
0.9390657864
 40
1.0
 40
1.0
 40
1.0
 40
1.0
 10
44.4647752355
 20
107.8326758342
 30
0.0
 10
44.5024161574
 20
107.8342397044
 30
0.0
 10
44.5754304513
 20
107.8377935298
 30
0.0
 10
44.6643899048
 20
107.8440900245
 30
0.0
 10
44.729575795
 20
107.8510094446
 30
0.0
 10
44.7705479345
 20
107.8568284634
 30
0.0
 10
44.8024649187
 20
107.8635155003
 30
0.0
 10
44.8204231804
 20
107.8693546237
 30
0.0
 10
44.8267849289
 20
107.8731827208
 30
0.0
  0
SPLINE
  5
420
100
AcDbEntity
  8
0
100
AcDbSpline
 62
7
  6
BYLAYER
 70
0
 71
3
 72
9
 73
5
 74
0
 42
0.0000001
 43
0.0000001
 44
0.0000000001
 40
0.0
 40
0.0
 40
0.0
 40
0.0
 40
0.3307665508
 40
1.0
 40
1.0
 40
1.0
 40
1.0
 10
44.8267849289
 20
107.8731827208
 30
0.0
 10
44.8279482466
 20
107.8738827317
 30
0.0
 10
44.831292661
 20
107.8760885628
 30
0.0
 10
44.8343099903
 20
107.8798661238
 30
0.0
 10
44.8343099903
 20
107.882613112
 30
0.0
  0
SPLINE
  5
421
100
AcDbEntity
  8
0
100
AcDbSpline
 62
7
  6
BYLAYER
 70
0
 71
3
 72
9
 73
5
 74
0
 42
0.0000001
 43
0.0000001
 44
0.0000000001
 40
0.0
 40
0.0
 40
0.0
 40
0.0
 40
0.5000000275
 40
1.0
 40
1.0
 40
1.0
 40
1.0
 10
46.1637072634
 20
107.5385366689
 30
0.0
 10
46.2151582292
 20
107.5381420377
 30
0.0
 10
46.318046267
 20
107.5356397464
 30
0.0
 10
46.4209579801
 20
107.5368645963
 30
0.0
 10
46.4724096123
 20
107.536570348
 30
0.0
  0
SPLINE
  5
422
100
AcDbEntity
  8
0
100
AcDbSpline
 62
7
  6
BYLAYER
 70
0
 71
3
 72
8
 73
4
 74
0
 42
0.0000001
 43
0.0000001
 44
0.0000000001
 40
0.0
 40
0.0
 40
0.0
 40
0.0
 40
1.0
 40
1.0
 40
1.0
 40
1.0
 10
46.4724096123
 20
107.536570348
 30
0.0
 10
46.5236788472
 20
107.5362771428
 30
0.0
 10
46.5749394231
 20
107.5350825917
 30
0.0
 10
46.6262072628
 20
107.5346040271
 30
0.0
  0
SPLINE
  5
423
100
AcDbEntity
  8
0
100
AcDbSpline
 62
7
  6
BYLAYER
 70
0
 71
3
 72
9
 73
5
 74
0
 42
0.0000001
 43
0.0000001
 44
0.0000000001
 40
0.0
 40
0.0
 40
0.0
 40
0.0
 40
0.2533467511
 40
1.0
 40
1.0
 40
1.0
 40
1.0
 10
40.7880158852
 20
107.6085122816
 30
0.0
 10
40.8082389264
 20
107.6079548512
 30
0.0
 10
40.8880565915
 20
107.6055665844
 30
0.0
 10
40.967854555
 20
107.6023594744
 30
0.0
 10
41.0273907542
 20
107.5991403926
 30
0.0
  0
SPLINE
  5
424
100
AcDbEntity
  8
0
100
AcDbSpline
 62
7
  6
BYLAYER
 70
0
 71
3
 72
9
 73
5
 74
0
 42
0.0000001
 43
0.0000001
 44
0.0000000001
 40
0.0
 40
0.0
 40
0.0
 40
0.0
 40
0.52768139
 40
1.0
 40
1.0
 40
1.0
 40
1.0
 10
41.0273907542
 20
107.5991403926
 30
0.0
 10
41.0720754567
 20
107.5967243212
 30
0.0
 10
41.1566918162
 20
107.5912149285
 30
0.0
 10
41.2411547226
 20
107.5826773004
 30
0.0
 10
41.2807294799
 20
107.576493729
 30
0.0
  0
SPLINE
  5
425
100
AcDbEntity
  8
0
100
AcDbSpline
 62
7
  6
BYLAYER
 70
0
 71
3
 72
9
 73
5
 74
0
 42
0.0000001
 43
0.0000001
 44
0.0000000001
 40
0.0
 40
0.0
 40
0.0
 40
0.0
 40
0.4999999822
 40
1.0
 40
1.0
 40
1.0
 40
1.0
 10
41.8524633121
 20
107.5377223538
 30
0.0
 10
41.9055977613
 20
107.5381509507
 30
0.0
 10
42.0118583698
 20
107.5402338966
 30
0.0
 10
42.1181356373
 20
107.539163654
 30
0.0
 10
42.1712710754
 20
107.5394447367
 30
0.0
  0
LINE
  5
426
100
AcDbEntity
  8
0
100
AcDbLine
 62
7
  6
BYLAYER
 10
42.1712710754
 20
107.5394447367
 11
42.3312318992
 21
107.5411671195
  0
LINE
  5
427
100
AcDbEntity
  8
0
100
AcDbLine
 62
7
  6
BYLAYER
 10
43.0261441301
 20
107.6573200154
 11
43.3510217151
 21
107.658683538
  0
LINE
  5
428
100
AcDbEntity
  8
0
100
AcDbLine
 62
7
  6
BYLAYER
 10
43.7368323536
 20
107.6587528687
 11
44.0929151371
 21
107.6592588949
  0
SPLINE
  5
429
100
AcDbEntity
  8
0
100
AcDbSpline
 62
7
  6
BYLAYER
 70
0
 71
3
 72
12
 73
8
 74
0
 42
0.0000001
 43
0.0000001
 44
0.0000000001
 40
0.0
 40
0.0
 40
0.0
 40
0.0
 40
0.3072082287
 40
0.4681558652
 40
0.5996196149
 40
0.7997691144
 40
1.0
 40
1.0
 40
1.0
 40
1.0
 10
44.0929151371
 20
107.659258849
 30
0.0
 10
44.094978074
 20
107.660864824
 30
0.0
 10
44.0971427159
 20
107.6643981286
 30
0.0
 10
44.1001000588
 20
107.6684105065
 30
0.0
 10
44.103099062
 20
107.6717502053
 30
0.0
 10
44.1079734235
 20
107.6710499048
 30
0.0
 10
44.1115528057
 20
107.6701527949
 30
0.0
 10
44.1130620647
 20
107.6709437864
 30
0.0
  0
SPLINE
  5
42A
100
AcDbEntity
  8
0
100
AcDbSpline
 62
7
  6
BYLAYER
 70
0
 71
3
 72
9
 73
5
 74
0
 42
0.0000001
 43
0.0000001
 44
0.0000000001
 40
0.0
 40
0.0
 40
0.0
 40
0.0
 40
0.2172034145
 40
1.0
 40
1.0
 40
1.0
 40
1.0
 10
44.1130620647
 20
107.6709437864
 30
0.0
 10
44.1140538732
 20
107.671463586
 30
0.0
 10
44.1177618797
 20
107.6752264496
 30
0.0
 10
44.1199288626
 20
107.6801696561
 30
0.0
 10
44.1231287311
 20
107.6826287239
 30
0.0
  0
LINE
  5
42B
100
AcDbEntity
  8
0
100
AcDbLine
 62
7
  6
BYLAYER
 10
41.8524633123
 20
107.2225265718
 11
42.0383912777
 21
107.2246020861
  0
SPLINE
  5
42C
100
AcDbEntity
  8
0
100
AcDbSpline
 62
7
  6
BYLAYER
 70
0
 71
3
 72
9
 73
5
 74
0
 42
0.0000001
 43
0.0000001
 44
0.0000000001
 40
0.0
 40
0.0
 40
0.0
 40
0.0
 40
0.4999999812
 40
1.0
 40
1.0
 40
1.0
 40
1.0
 10
42.0943220117
 20
107.2250010827
 30
0.0
 10
42.1752551967
 20
107.2253537881
 30
0.0
 10
42.3371299527
 20
107.2238123247
 30
0.0
 10
42.4989804116
 20
107.2270324972
 30
0.0
 10
42.5799131583
 20
107.2274755935
 30
0.0
  0
SPLINE
  5
42D
100
AcDbEntity
  8
0
100
AcDbSpline
 62
7
  6
BYLAYER
 70
0
 71
3
 72
9
 73
5
 74
0
 42
0.0000001
 43
0.0000001
 44
0.0000000001
 40
0.0
 40
0.0
 40
0.0
 40
0.0
 40
0.4999999881
 40
1.0
 40
1.0
 40
1.0
 40
1.0
 10
42.0383929204
 20
107.3400976431
 30
0.0
 10
42.0966973204
 20
107.3405305755
 30
0.0
 10
42.2132990308
 20
107.3425707483
 30
0.0
 10
42.3299153864
 20
107.3415151481
 30
0.0
 10
42.3882207196
 20
107.3417961051
 30
0.0
  0
LINE
  5
42E
100
AcDbEntity
  8
0
100
AcDbLine
 62
7
  6
BYLAYER
 10
42.3882207196
 20
107.3417961051
 11
42.5636441301
 21
107.3434945671
  0
SPLINE
  5
42F
100
AcDbEntity
  8
0
100
AcDbSpline
 62
7
  6
BYLAYER
 70
0
 71
3
 72
8
 73
4
 74
0
 42
0.0000001
 43
0.0000001
 44
0.0000000001
 40
0.0
 40
0.0
 40
0.0
 40
0.0
 40
1.0
 40
1.0
 40
1.0
 40
1.0
 10
42.0383929204
 20
107.4518059655
 30
0.0
 10
42.0966312049
 20
107.4522371459
 30
0.0
 10
42.1548649993
 20
107.4532529435
 30
0.0
 10
42.2131043607
 20
107.4534988766
 30
0.0
  0
LINE
  5
430
100
AcDbEntity
  8
0
100
AcDbLine
 62
7
  6
BYLAYER
 10
42.2131043607
 20
107.4534988766
 11
42.3881881645
 21
107.4534988766
  0
LINE
  5
431
100
AcDbEntity
  8
0
100
AcDbLine
 62
7
  6
BYLAYER
 10
42.3881881645
 20
107.4534988766
 11
42.5636441301
 21
107.4551917876
  0
SPLINE
  5
432
100
AcDbEntity
  8
0
100
AcDbSpline
 62
7
  6
BYLAYER
 70
0
 71
3
 72
11
 73
7
 74
0
 42
0.0000001
 43
0.0000001
 44
0.0000000001
 40
0.0
 40
0.0
 40
0.0
 40
0.0
 40
0.2540788634
 40
0.4381591897
 40
0.6233549399
 40
1.0
 40
1.0
 40
1.0
 40
1.0
 10
46.0544734312
 20
107.3733073251
 30
0.0
 10
46.0570572336
 20
107.3727529254
 30
0.0
 10
46.0611350193
 20
107.3704923764
 30
0.0
 10
46.067660567
 20
107.3696511462
 30
0.0
 10
46.0754953945
 20
107.3709964091
 30
0.0
 10
46.0808573245
 20
107.3676388503
 30
0.0
 10
46.0846870254
 20
107.3668146242
 30
0.0
  0
SPLINE
  5
433
100
AcDbEntity
  8
0
100
AcDbSpline
 62
7
  6
BYLAYER
 70
0
 71
3
 72
14
 73
10
 74
0
 42
0.0000001
 43
0.0000001
 44
0.0000000001
 40
0.0
 40
0.0
 40
0.0
 40
0.0
 40
0.0428278792
 40
0.0983074193
 40
0.1784209358
 40
0.2909182194
 40
0.436518563
 40
0.6089470401
 40
1.0
 40
1.0
 40
1.0
 40
1.0
 10
46.2101894449
 20
107.2749306483
 30
0.0
 10
46.2101894449
 20
107.2719650316
 30
0.0
 10
46.2121619597
 20
107.265068943
 30
0.0
 10
46.2212161234
 20
107.2561622556
 30
0.0
 10
46.2365044597
 20
107.2481029667
 30
0.0
 10
46.2588389271
 20
107.240811425
 30
0.0
 10
46.288012384
 20
107.2345383505
 30
0.0
 10
46.3366168406
 20
107.2274158418
 30
0.0
 10
46.3755517822
 20
107.224339562
 30
0.0
 10
46.4025818319
 20
107.2227210364
 30
0.0
  0
SPLINE
  5
434
100
AcDbEntity
  8
0
100
AcDbSpline
 62
7
  6
BYLAYER
 70
0
 71
3
 72
16
 73
12
 74
0
 42
0.0000001
 43
0.0000001
 44
0.0000000001
 40
0.0
 40
0.0
 40
0.0
 40
0.0
 40
0.2752937164
 40
0.4120015505
 40
0.547606136
 40
0.6812912985
 40
0.8110582621
 40
0.8727693855
 40
0.9299489264
 40
0.9766016615
 40
1.0
 40
1.0
 40
1.0
 40
1.0
 10
46.504086502
 20
107.2202456656
 30
0.0
 10
46.5211629547
 20
107.2206085766
 30
0.0
 10
46.546718981
 20
107.2212336551
 30
0.0
 10
46.5806741117
 20
107.2223378895
 30
0.0
 10
46.6058522482
 20
107.2233420725
 30
0.0
 10
46.6305503712
 20
107.2245973943
 30
0.0
 10
46.6507689085
 20
107.2259671735
 30
0.0
 10
46.6659597016
 20
107.2274340889
 30
0.0
 10
46.6765862089
 20
107.2287641955
 30
0.0
 10
46.6832240848
 20
107.2301974118
 30
0.0
 10
46.688958032
 20
107.2318389354
 30
0.0
 10
46.688958032
 20
107.2332906607
 30
0.0
  0
LINE
  5
435
100
AcDbEntity
  8
0
100
AcDbLine
 62
7
  6
BYLAYER
 10
44.0627319058
 20
107.2301422281
 11
44.1398631816
 21
107.230141549
  0
SPLINE
  5
436
100
AcDbEntity
  8
0
100
AcDbSpline
 62
7
  6
BYLAYER
 70
0
 71
3
 72
11
 73
7
 74
0
 42
0.0000001
 43
0.0000001
 44
0.0000000001
 40
0.0
 40
0.0
 40
0.0
 40
0.0
 40
0.2526399329
 40
0.4377973392
 40
0.6239608272
 40
1.0
 40
1.0
 40
1.0
 40
1.0
 10
44.4327228529
 20
107.3169139832
 30
0.0
 10
44.4354401861
 20
107.3174090344
 30
0.0
 10
44.439868422
 20
107.3194219175
 30
0.0
 10
44.4467217953
 20
107.3201578995
 30
0.0
 10
44.4549531061
 20
107.3189869283
 30
0.0
 10
44.4607302567
 20
107.3219924584
 30
0.0
 10
44.4647752356
 20
107.3227271476
 30
0.0
  0
SPLINE
  5
437
100
AcDbEntity
  8
0
100
AcDbSpline
 62
7
  6
BYLAYER
 70
0
 71
3
 72
16
 73
12
 74
0
 42
0.0000001
 43
0.0000001
 44
0.0000000001
 40
0.0
 40
0.0
 40
0.0
 40
0.0
 40
0.2738685537
 40
0.4105598581
 40
0.5467561515
 40
0.6817745402
 40
0.8136245282
 40
0.8764683543
 40
0.9340191865
 40
0.9789728461
 40
1.0
 40
1.0
 40
1.0
 40
1.0
 10
45.3758302282
 20
107.2270447324
 30
0.0
 10
45.3969777552
 20
107.2269441172
 30
0.0
 10
45.4286823338
 20
107.2269065755
 30
0.0
 10
45.47089832
 20
107.2272338033
 30
0.0
 10
45.5024011463
 20
107.227740951
 30
0.0
 10
45.5334829894
 20
107.2286109444
 30
0.0
 10
45.5590096572
 20
107.2298580359
 30
0.0
 10
45.5782531478
 20
107.2313562542
 30
0.0
 10
45.5913809517
 20
107.2330169967
 30
0.0
 10
45.5996688889
 20
107.2345121798
 30
0.0
 10
45.6059184383
 20
107.2370223918
 30
0.0
 10
45.6059184383
 20
107.2386460807
 30
0.0
  0
SPLINE
  5
438
100
AcDbEntity
  8
0
100
AcDbSpline
 62
7
  6
BYLAYER
 70
0
 71
3
 72
11
 73
7
 74
0
 42
0.0000001
 43
0.0000001
 44
0.0000000001
 40
0.0
 40
0.0
 40
0.0
 40
0.0
 40
0.2525155434
 40
0.4378179999
 40
0.6241401759
 40
1.0
 40
1.0
 40
1.0
 40
1.0
 10
45.5594353746
 20
107.3584885147
 30
0.0
 10
45.5621919089
 20
107.3589699696
 30
0.0
 10
45.566698847
 20
107.3609632739
 30
0.0
 10
45.5736478218
 20
107.3616829827
 30
0.0
 10
45.5819859587
 20
107.3604998035
 30
0.0
 10
45.5878700473
 20
107.3634481214
 30
0.0
 10
45.591973431
 20
107.36416253
 30
0.0
  0
SPLINE
  5
439
100
AcDbEntity
  8
0
100
AcDbSpline
 62
7
  6
BYLAYER
 70
0
 71
3
 72
11
 73
7
 74
0
 42
0.0000001
 43
0.0000001
 44
0.0000000001
 40
0.0
 40
0.0
 40
0.0
 40
0.0
 40
0.1163339236
 40
0.2758950372
 40
0.5503798375
 40
1.0
 40
1.0
 40
1.0
 40
1.0
 10
47.3048504661
 20
107.2979730968
 30
0.0
 10
47.3048504661
 20
107.3035804205
 30
0.0
 10
47.3087483522
 20
107.3171952101
 30
0.0
 10
47.3304747428
 20
107.3343856684
 30
0.0
 10
47.371444718
 20
107.3472094894
 30
0.0
 10
47.4062247473
 20
107.3514774229
 30
0.0
 10
47.4278297932
 20
107.3531771277
 30
0.0
  0
SPLINE
  5
43A
100
AcDbEntity
  8
0
100
AcDbSpline
 62
7
  6
BYLAYER
 70
0
 71
3
 72
9
 73
5
 74
0
 42
0.0000001
 43
0.0000001
 44
0.0000000001
 40
0.0
 40
0.0
 40
0.0
 40
0.0
 40
0.2394635957
 40
1.0
 40
1.0
 40
1.0
 40
1.0
 10
47.4278297932
 20
107.3531771277
 30
0.0
 10
47.4352475282
 20
107.3537606932
 30
0.0
 10
47.4662651478
 20
107.355674912
 30
0.0
 10
47.4973640004
 20
107.3559619716
 30
0.0
 10
47.5209936689
 20
107.3556661927
 30
0.0
  0
SPLINE
  5
43B
100
AcDbEntity
  8
0
100
AcDbSpline
 62
7
  6
BYLAYER
 70
0
 71
3
 72
9
 73
5
 74
0
 42
0.0000001
 43
0.0000001
 44
0.0000000001
 40
0.0
 40
0.0
 40
0.0
 40
0.0
 40
0.530187329
 40
1.0
 40
1.0
 40
1.0
 40
1.0
 10
47.5209936689
 20
107.3556661927
 30
0.0
 10
47.5486854829
 20
107.3553195669
 30
0.0
 10
47.6008081312
 20
107.3502482127
 30
0.0
 10
47.6524781927
 20
107.3427287996
 30
0.0
 10
47.6767096828
 20
107.3388475859
 30
0.0
  0
SPLINE
  5
43C
100
AcDbEntity
  8
0
100
AcDbSpline
 62
7
  6
BYLAYER
 70
0
 71
3
 72
14
 73
10
 74
0
 42
0.0000001
 43
0.0000001
 44
0.0000000001
 40
0.0
 40
0.0
 40
0.0
 40
0.0
 40
0.1274040898
 40
0.2571961838
 40
0.3496735712
 40
0.4398698018
 40
0.6214923734
 40
0.8074490824
 40
1.0
 40
1.0
 40
1.0
 40
1.0
 10
47.6767096828
 20
107.3388475859
 30
0.0
 10
47.6807244783
 20
107.3399628771
 30
0.0
 10
47.6884058325
 20
107.3435653734
 30
0.0
 10
47.6984370036
 20
107.348993616
 30
0.0
 10
47.7082626354
 20
107.3522608348
 30
0.0
 10
47.7202573876
 20
107.3523651827
 30
0.0
 10
47.7353302901
 20
107.3494988559
 30
0.0
 10
47.75287541
 20
107.3566002505
 30
0.0
 10
47.7636007493
 20
107.3628407619
 30
0.0
 10
47.7696740459
 20
107.3645061469
 30
0.0
  0
SPLINE
  5
43D
100
AcDbEntity
  8
0
100
AcDbSpline
 62
7
  6
BYLAYER
 70
0
 71
3
 72
10
 73
6
 74
0
 42
0.0000001
 43
0.0000001
 44
0.0000000001
 40
0.0
 40
0.0
 40
0.0
 40
0.0
 40
0.2500103632
 40
0.6250024725
 40
1.0
 40
1.0
 40
1.0
 40
1.0
 10
48.2321740459
 20
107.2081965485
 30
0.0
 10
48.246313756
 20
107.2079840952
 30
0.0
 10
48.2816452654
 20
107.2065155715
 30
0.0
 10
48.3382249856
 20
107.2075421846
 30
0.0
 10
48.3806267155
 20
107.2059278782
 30
0.0
 10
48.401835067
 20
107.2055965135
 30
0.0
  0
SPLINE
  5
43E
100
AcDbEntity
  8
0
100
AcDbSpline
 62
7
  6
BYLAYER
 70
0
 71
3
 72
13
 73
9
 74
0
 42
0.0000001
 43
0.0000001
 44
0.0000000001
 40
0.0
 40
0.0
 40
0.0
 40
0.0
 40
0.0749872174
 40
0.1665923043
 40
0.2738431472
 40
0.395643154
 40
0.677474893
 40
1.0
 40
1.0
 40
1.0
 40
1.0
 10
35.6937543096
 20
108.0430085444
 30
0.0
 10
35.8239263233
 20
108.0559234431
 30
0.0
 10
36.113945368
 20
108.0760694138
 30
0.0
 10
36.5912949468
 20
108.0950439677
 30
0.0
 10
37.1505780261
 20
108.106381485
 30
0.0
 10
38.0417853191
 20
108.11196865
 30
0.0
 10
39.3085402658
 20
108.0988691213
 30
0.0
 10
40.3624808519
 20
108.0701758312
 30
0.0
 10
40.9247255239
 20
108.0494248051
 30
0.0
  0
SPLINE
  5
43F
100
AcDbEntity
  8
0
100
AcDbSpline
 62
7
  6
BYLAYER
 70
0
 71
3
 72
12
 73
8
 74
0
 42
0.0000001
 43
0.0000001
 44
0.0000000001
 40
0.0
 40
0.0
 40
0.0
 40
0.0
 40
0.2500235899
 40
0.4374833451
 40
0.6250075529
 40
0.8124883237
 40
1.0
 40
1.0
 40
1.0
 40
1.0
 10
39.0100638941
 20
107.497102884
 30
0.0
 10
39.0499653834
 20
107.4982421715
 30
0.0
 10
39.119698957
 20
107.5025772313
 30
0.0
 10
39.2194998867
 20
107.504078782
 30
0.0
 10
39.3093012673
 20
107.502337293
 30
0.0
 10
39.3990878972
 20
107.5052001275
 30
0.0
 10
39.4589005553
 20
107.5078839231
 30
0.0
 10
39.4888326505
 20
107.5084449501
 30
0.0
  0
SPLINE
  5
440
100
AcDbEntity
  8
0
100
AcDbSpline
 62
7
  6
BYLAYER
 70
0
 71
3
 72
9
 73
5
 74
0
 42
0.0000001
 43
0.0000001
 44
0.0000000001
 40
0.0
 40
0.0
 40
0.0
 40
0.0
 40
0.5139843212
 40
1.0
 40
1.0
 40
1.0
 40
1.0
 10
36.2714655531
 20
107.4810712289
 30
0.0
 10
36.3286176194
 20
107.4826484334
 30
0.0
 10
36.4398219208
 20
107.4849807377
 30
0.0
 10
36.5511002283
 20
107.4854433261
 30
0.0
 10
36.6051380505
 20
107.4838037259
 30
0.0
  0
SPLINE
  5
441
100
AcDbEntity
  8
0
100
AcDbSpline
 62
7
  6
BYLAYER
 70
0
 71
3
 72
10
 73
6
 74
0
 42
0.0000001
 43
0.0000001
 44
0.0000000001
 40
0.0
 40
0.0
 40
0.0
 40
0.0
 40
0.5787691936
 40
0.822535332
 40
1.0
 40
1.0
 40
1.0
 40
1.0
 10
36.6051380505
 20
107.4838037259
 30
0.0
 10
36.621382818
 20
107.4833108318
 30
0.0
 10
36.6445217568
 20
107.4824585853
 30
0.0
 10
36.672380764
 20
107.4796481116
 30
0.0
 10
36.68421199
 20
107.4778730267
 30
0.0
 10
36.6888743908
 20
107.4761135904
 30
0.0
  0
SPLINE
  5
442
100
AcDbEntity
  8
0
100
AcDbSpline
 62
7
  6
BYLAYER
 70
0
 71
3
 72
12
 73
8
 74
0
 42
0.0000001
 43
0.0000001
 44
0.0000000001
 40
0.0
 40
0.0
 40
0.0
 40
0.0
 40
0.2501989467
 40
0.4373820868
 40
0.6250952427
 40
0.8123340549
 40
1.0
 40
1.0
 40
1.0
 40
1.0
 10
36.3233803268
 20
107.3431330321
 30
0.0
 10
36.3361890299
 20
107.3441239027
 30
0.0
 10
36.3583268128
 20
107.3483051539
 30
0.0
 10
36.3904670847
 20
107.3496747131
 30
0.0
 10
36.4193387476
 20
107.3479208298
 30
0.0
 10
36.4481381029
 20
107.3510973137
 30
0.0
 10
36.4671629512
 20
107.3540779203
 30
0.0
 10
36.4767722647
 20
107.354795762
 30
0.0
  0
SPLINE
  5
443
100
AcDbEntity
  8
0
100
AcDbSpline
 62
7
  6
BYLAYER
 70
0
 71
3
 72
11
 73
7
 74
0
 42
0.0000001
 43
0.0000001
 44
0.0000000001
 40
0.0
 40
0.0
 40
0.0
 40
0.0
 40
0.3838260047
 40
0.6728433403
 40
0.8676648872
 40
1.0
 40
1.0
 40
1.0
 40
1.0
 10
43.2945762612
 20
107.7561419479
 30
0.0
 10
43.2590775985
 20
107.7548060636
 30
0.0
 10
43.1968745509
 20
107.7507008126
 30
0.0
 10
43.1174164096
 20
107.7378333791
 30
0.0
 10
43.0627188469
 20
107.7209334429
 30
0.0
 10
43.0358561778
 20
107.7062500644
 30
0.0
 10
43.0261437955
 20
107.6987881913
 30
0.0
  0
SPLINE
  5
444
100
AcDbEntity
  8
0
100
AcDbSpline
 62
7
  6
BYLAYER
 70
0
 71
3
 72
12
 73
8
 74
0
 42
0.0000001
 43
0.0000001
 44
0.0000000001
 40
0.0
 40
0.0
 40
0.0
 40
0.0
 40
0.2502415885
 40
0.4373559899
 40
0.6251146736
 40
0.8122973614
 40
1.0
 40
1.0
 40
1.0
 40
1.0
 10
36.369862784
 20
107.6233657811
 30
0.0
 10
36.3815124475
 20
107.6243563669
 30
0.0
 10
36.4015922448
 20
107.6285472227
 30
0.0
 10
36.4308462893
 20
107.6299286239
 30
0.0
 10
36.4571150453
 20
107.628169155
 30
0.0
 10
36.4833040735
 20
107.6313532155
 30
0.0
 10
36.5005700725
 20
107.6343400203
 30
0.0
 10
36.5093099903
 20
107.6350631142
 30
0.0
  0
SPLINE
  5
445
100
AcDbEntity
  8
0
100
AcDbSpline
 62
7
  6
BYLAYER
 70
0
 71
3
 72
13
 73
9
 74
0
 42
0.0000001
 43
0.0000001
 44
0.0000000001
 40
0.0
 40
0.0
 40
0.0
 40
0.0
 40
0.2603745026
 40
0.5198713871
 40
0.6484739224
 40
0.7749553756
 40
0.8959688875
 40
1.0
 40
1.0
 40
1.0
 40
1.0
 10
38.1919732105
 20
107.4569109889
 30
0.0
 10
38.2443408222
 20
107.4592144339
 30
0.0
 10
38.3488907211
 20
107.4639967115
 30
0.0
 10
38.4792663964
 20
107.4708448883
 30
0.0
 10
38.5826447242
 20
107.4774880477
 30
0.0
 10
38.6581574278
 20
107.4832474108
 30
0.0
 10
38.7285368109
 20
107.4903327279
 30
0.0
 10
38.7735257405
 20
107.4965635281
 30
0.0
 10
38.7939206383
 20
107.5013252861
 30
0.0
  0
SPLINE
  5
446
100
AcDbEntity
  8
0
100
AcDbSpline
 62
7
  6
BYLAYER
 70
0
 71
3
 72
15
 73
11
 74
0
 42
0.0000001
 43
0.0000001
 44
0.0000000001
 40
0.0
 40
0.0
 40
0.0
 40
0.0
 40
0.1492017915
 40
0.3174028465
 40
0.4070773204
 40
0.4620179762
 40
0.5738920136
 40
0.6478763464
 40
0.7644727331
 40
1.0
 40
1.0
 40
1.0
 40
1.0
 10
37.9154030393
 20
107.5697092546
 30
0.0
 10
37.9161653229
 20
107.570662503
 30
0.0
 10
37.9171959134
 20
107.5731297192
 30
0.0
 10
37.9185200601
 20
107.5760245593
 30
0.0
 10
37.9197520401
 20
107.5785540801
 30
0.0
 10
37.9219821882
 20
107.5789161781
 30
0.0
 10
37.9240039621
 20
107.5773782464
 30
0.0
 10
37.9258011019
 20
107.5796692567
 30
0.0
 10
37.9271479301
 20
107.5826881529
 30
0.0
 10
37.928136431
 20
107.5855558644
 30
0.0
 10
37.9293476056
 20
107.5870543361
 30
0.0
  0
SPLINE
  5
447
100
AcDbEntity
  8
0
100
AcDbSpline
 62
7
  6
BYLAYER
 70
0
 71
3
 72
9
 73
5
 74
0
 42
0.0000001
 43
0.0000001
 44
0.0000000001
 40
0.0
 40
0.0
 40
0.0
 40
0.0
 40
0.2173470262
 40
1.0
 40
1.0
 40
1.0
 40
1.0
 10
37.9293476056
 20
107.5870543361
 30
0.0
 10
37.9318482024
 20
107.5885945795
 30
0.0
 10
37.9435551514
 20
107.5953539086
 30
0.0
 10
37.955959894
 20
107.6008490636
 30
0.0
 10
37.9658166228
 20
107.6046814821
 30
0.0
  0
SPLINE
  5
448
100
AcDbEntity
  8
0
100
AcDbSpline
 62
7
  6
BYLAYER
 70
0
 71
3
 72
9
 73
5
 74
0
 42
0.0000001
 43
0.0000001
 44
0.0000000001
 40
0.0
 40
0.0
 40
0.0
 40
0.0
 40
0.4157726588
 40
1.0
 40
1.0
 40
1.0
 40
1.0
 10
37.9658166228
 20
107.6046814821
 30
0.0
 10
37.9876110964
 20
107.613155444
 30
0.0
 10
38.0419994027
 20
107.6283205428
 30
0.0
 10
38.0974722059
 20
107.6378340728
 30
0.0
 10
38.130005182
 20
107.6424452644
 30
0.0
  0
SPLINE
  5
449
100
AcDbEntity
  8
0
100
AcDbSpline
 62
7
  6
BYLAYER
 70
0
 71
3
 72
9
 73
5
 74
0
 42
0.0000001
 43
0.0000001
 44
0.0000000001
 40
0.0
 40
0.0
 40
0.0
 40
0.0
 40
0.2402518554
 40
1.0
 40
1.0
 40
1.0
 40
1.0
 10
38.1696301424
 20
107.6475869932
 30
0.0
 10
38.1862459305
 20
107.6495597883
 30
0.0
 10
38.255510622
 20
107.6568891821
 30
0.0
 10
38.3250490213
 20
107.6613959808
 30
0.0
 10
38.3779030393
 20
107.6638966817
 30
0.0
  0
SPLINE
  5
44A
100
AcDbEntity
  8
0
100
AcDbSpline
 62
7
  6
BYLAYER
 70
0
 71
3
 72
11
 73
7
 74
0
 42
0.0000001
 43
0.0000001
 44
0.0000000001
 40
0.0
 40
0.0
 40
0.0
 40
0.0
 40
0.1246300062
 40
0.3201426961
 40
0.6218078684
 40
1.0
 40
1.0
 40
1.0
 40
1.0
 10
43.7071131297
 20
107.7004659856
 30
0.0
 10
43.6956114954
 20
107.7092443606
 30
0.0
 10
43.6621077241
 20
107.726483244
 30
0.0
 10
43.5918960324
 20
107.7445879237
 30
0.0
 10
43.4906657332
 20
107.7558568515
 30
0.0
 10
43.4116967657
 20
107.7576504587
 30
0.0
 10
43.3677909202
 20
107.7575400518
 30
0.0
  0
SPLINE
  5
44B
100
AcDbEntity
  8
0
100
AcDbSpline
 62
7
  6
BYLAYER
 70
0
 71
3
 72
9
 73
5
 74
0
 42
0.0000001
 43
0.0000001
 44
0.0000000001
 40
0.0
 40
0.0
 40
0.0
 40
0.0
 40
0.5862075222
 40
1.0
 40
1.0
 40
1.0
 40
1.0
 10
39.2238828014
 20
107.194355467
 30
0.0
 10
39.2122248279
 20
107.2016302889
 30
0.0
 10
39.1928606071
 20
107.2148992666
 30
0.0
 10
39.1803834262
 20
107.2373801967
 30
0.0
 10
39.1803804239
 20
107.2470801193
 30
0.0
  0
SPLINE
  5
44C
100
AcDbEntity
  8
0
100
AcDbSpline
 62
7
  6
BYLAYER
 70
0
 71
3
 72
9
 73
5
 74
0
 42
0.0000001
 43
0.0000001
 44
0.0000000001
 40
0.0
 40
0.0
 40
0.0
 40
0.0
 40
0.2546754405
 40
1.0
 40
1.0
 40
1.0
 40
1.0
 10
39.8560438227
 20
107.1214284724
 30
0.0
 10
39.8327114428
 20
107.121069768
 30
0.0
 10
39.7410915449
 20
107.1204068917
 30
0.0
 10
39.6494013248
 20
107.1227522795
 30
0.0
 10
39.581266284
 20
107.1273771716
 30
0.0
  0
SPLINE
  5
44D
100
AcDbEntity
  8
0
100
AcDbSpline
 62
7
  6
BYLAYER
 70
0
 71
3
 72
9
 73
5
 74
0
 42
0.0000001
 43
0.0000001
 44
0.0000000001
 40
0.0
 40
0.0
 40
0.0
 40
0.0
 40
0.2655449002
 40
1.0
 40
1.0
 40
1.0
 40
1.0
 10
39.4795399682
 20
107.1367006357
 30
0.0
 10
39.4700296097
 20
107.1378155633
 30
0.0
 10
39.4342494788
 20
107.1422928089
 30
0.0
 10
39.3986000961
 20
107.1478847764
 30
0.0
 10
39.3725855432
 20
107.152850692
 30
0.0
  0
SPLINE
  5
44E
100
AcDbEntity
  8
0
100
AcDbSpline
 62
7
  6
BYLAYER
 70
0
 71
3
 72
9
 73
5
 74
0
 42
0.0000001
 43
0.0000001
 44
0.0000000001
 40
0.0
 40
0.0
 40
0.0
 40
0.0
 40
0.2910829794
 40
1.0
 40
1.0
 40
1.0
 40
1.0
 10
39.3725855432
 20
107.152850692
 30
0.0
 10
39.3578594501
 20
107.1556617546
 30
0.0
 10
39.3074773488
 20
107.166298327
 30
0.0
 10
39.25780843
 20
107.1808575985
 30
0.0
 10
39.2238828014
 20
107.194355467
 30
0.0
  0
SPLINE
  5
44F
100
AcDbEntity
  8
0
100
AcDbSpline
 62
7
  6
BYLAYER
 70
0
 71
3
 72
9
 73
5
 74
0
 42
0.0000001
 43
0.0000001
 44
0.0000000001
 40
0.0
 40
0.0
 40
0.0
 40
0.0
 40
0.4520558916
 40
1.0
 40
1.0
 40
1.0
 40
1.0
 10
41.138958032
 20
107.2958175745
 30
0.0
 10
41.1095942871
 20
107.2840263007
 30
0.0
 10
41.0428704067
 20
107.2623958307
 30
0.0
 10
40.9748292157
 20
107.2458354901
 30
0.0
 10
40.9373595892
 20
107.2376435122
 30
0.0
  0
SPLINE
  5
450
100
AcDbEntity
  8
0
100
AcDbSpline
 62
7
  6
BYLAYER
 70
0
 71
3
 72
9
 73
5
 74
0
 42
0.0000001
 43
0.0000001
 44
0.0000000001
 40
0.0
 40
0.0
 40
0.0
 40
0.0
 40
0.4792457928
 40
1.0
 40
1.0
 40
1.0
 40
1.0
 10
40.7919035486
 20
107.2098222593
 30
0.0
 10
40.6902792805
 20
107.1926981963
 30
0.0
 10
40.4769406964
 20
107.1647046319
 30
0.0
 10
40.2628189634
 20
107.144678781
 30
0.0
 10
40.1512068223
 20
107.1355742944
 30
0.0
  0
SPLINE
  5
451
100
AcDbEntity
  8
0
100
AcDbSpline
 62
7
  6
BYLAYER
 70
0
 71
3
 72
9
 73
5
 74
0
 42
0.0000001
 43
0.0000001
 44
0.0000000001
 40
0.0
 40
0.0
 40
0.0
 40
0.0
 40
0.6013626093
 40
1.0
 40
1.0
 40
1.0
 40
1.0
 10
40.8600636195
 20
107.3265535163
 30
0.0
 10
40.8465900717
 20
107.3263958439
 30
0.0
 10
40.8248095266
 20
107.3176551994
 30
0.0
 10
40.8055994292
 20
107.3064983321
 30
0.0
 10
40.7980731494
 20
107.3016881943
 30
0.0
  0
SPLINE
  5
452
100
AcDbEntity
  8
0
100
AcDbSpline
 62
7
  6
BYLAYER
 70
0
 71
3
 72
10
 73
6
 74
0
 42
0.0000001
 43
0.0000001
 44
0.0000000001
 40
0.0
 40
0.0
 40
0.0
 40
0.0
 40
0.316947547
 40
0.522545133
 40
1.0
 40
1.0
 40
1.0
 40
1.0
 10
41.4317974519
 20
107.4444810637
 30
0.0
 10
41.4317974519
 20
107.4371001202
 30
0.0
 10
41.4297328128
 20
107.4243828504
 30
0.0
 10
41.4137637068
 20
107.4062626715
 30
0.0
 10
41.3964330686
 20
107.403492059
 30
0.0
 10
41.3853148292
 20
107.4033832636
 30
0.0
  0
LINE
  5
453
100
AcDbEntity
  8
0
100
AcDbLine
 62
7
  6
BYLAYER
 10
39.6713080927
 20
107.4132711334
 11
39.4865086268
 21
107.4102905841
  0
SPLINE
  5
454
100
AcDbEntity
  8
0
100
AcDbSpline
 62
7
  6
BYLAYER
 70
0
 71
3
 72
10
 73
6
 74
0
 42
0.0000001
 43
0.0000001
 44
0.0000000001
 40
0.0
 40
0.0
 40
0.0
 40
0.0
 40
0.2272574171
 40
0.4775968315
 40
1.0
 40
1.0
 40
1.0
 40
1.0
 10
44.1089202002
 20
107.5713483247
 30
0.0
 10
44.0519724422
 20
107.5635916997
 30
0.0
 10
43.9316637928
 20
107.5519682304
 30
0.0
 10
43.6791193267
 20
107.5380948341
 30
0.0
 10
43.4836368938
 20
107.535231597
 30
0.0
 10
43.3515211653
 20
107.5348890036
 30
0.0
  0
SPLINE
  5
455
100
AcDbEntity
  8
0
100
AcDbSpline
 62
7
  6
BYLAYER
 70
0
 71
3
 72
9
 73
5
 74
0
 42
0.0000001
 43
0.0000001
 44
0.0000000001
 40
0.0
 40
0.0
 40
0.0
 40
0.0
 40
0.2576602416
 40
1.0
 40
1.0
 40
1.0
 40
1.0
 10
43.0582414407
 20
107.5412694369
 30
0.0
 10
43.046137686
 20
107.5418929071
 30
0.0
 10
42.9991738594
 20
107.5445284986
 30
0.0
 10
42.9522565294
 20
107.5480542502
 30
0.0
 10
42.9174926036
 20
107.5513321169
 30
0.0
  0
SPLINE
  5
456
100
AcDbEntity
  8
0
100
AcDbSpline
 62
7
  6
BYLAYER
 70
0
 71
3
 72
9
 73
5
 74
0
 42
0.0000001
 43
0.0000001
 44
0.0000000001
 40
0.0
 40
0.0
 40
0.0
 40
0.0
 40
0.5681335307
 40
1.0
 40
1.0
 40
1.0
 40
1.0
 10
42.9174926036
 20
107.5513321169
 30
0.0
 10
42.8629379226
 20
107.5564760402
 30
0.0
 10
42.7671352328
 20
107.568288669
 30
0.0
 10
42.6726358685
 20
107.5888726549
 30
0.0
 10
42.6327584587
 20
107.6009067316
 30
0.0
  0
SPLINE
  5
457
100
AcDbEntity
  8
0
100
AcDbSpline
 62
7
  6
BYLAYER
 70
0
 71
3
 72
9
 73
5
 74
0
 42
0.0000001
 43
0.0000001
 44
0.0000000001
 40
0.0
 40
0.0
 40
0.0
 40
0.0
 40
0.2682466519
 40
1.0
 40
1.0
 40
1.0
 40
1.0
 10
42.605696739
 20
107.6096771676
 30
0.0
 10
42.601876615
 20
107.6110077941
 30
0.0
 10
42.5876858552
 20
107.6161099774
 30
0.0
 10
42.5736981109
 20
107.621788546
 30
0.0
 10
42.5636441301
 20
107.6263371317
 30
0.0
  0
SPLINE
  5
458
100
AcDbEntity
  8
0
100
AcDbSpline
 62
7
  6
BYLAYER
 70
0
 71
3
 72
8
 73
4
 74
0
 42
0.0000001
 43
0.0000001
 44
0.0000000001
 40
0.0
 40
0.0
 40
0.0
 40
0.0
 40
1.0
 40
1.0
 40
1.0
 40
1.0
 10
39.5632044028
 20
107.2717123689
 30
0.0
 10
39.5996209136
 20
107.2723083774
 30
0.0
 10
39.6360186723
 20
107.2739158248
 30
0.0
 10
39.6724381228
 20
107.2742914703
 30
0.0
  0
SPLINE
  5
459
100
AcDbEntity
  8
0
100
AcDbSpline
 62
7
  6
BYLAYER
 70
0
 71
3
 72
9
 73
5
 74
0
 42
0.0000001
 43
0.0000001
 44
0.0000000001
 40
0.0
 40
0.0
 40
0.0
 40
0.0
 40
0.4999998652
 40
1.0
 40
1.0
 40
1.0
 40
1.0
 10
39.6724381228
 20
107.2742914703
 30
0.0
 10
39.7084651392
 20
107.2746630681
 30
0.0
 10
39.7805389861
 20
107.2730939446
 30
0.0
 10
39.8525566499
 20
107.2763010329
 30
0.0
 10
39.888581438
 20
107.2768487863
 30
0.0
  0
SPLINE
  5
45A
100
AcDbEntity
  8
0
100
AcDbSpline
 62
7
  6
BYLAYER
 70
0
 71
3
 72
10
 73
6
 74
0
 42
0.0000001
 43
0.0000001
 44
0.0000000001
 40
0.0
 40
0.0
 40
0.0
 40
0.0
 40
0.3633497821
 40
0.5964858577
 40
1.0
 40
1.0
 40
1.0
 40
1.0
 10
39.888581438
 20
107.2768487863
 30
0.0
 10
39.9112728194
 20
107.2771938065
 30
0.0
 10
39.9471223184
 20
107.294200367
 30
0.0
 10
39.9971498987
 20
107.3307260706
 30
0.0
 10
40.0266213976
 20
107.3578246854
 30
0.0
 10
40.0446667154
 20
107.3754183349
 30
0.0
  0
SPLINE
  5
45B
100
AcDbEntity
  8
0
100
AcDbSpline
 62
7
  6
BYLAYER
 70
0
 71
3
 72
13
 73
9
 74
0
 42
0.0000001
 43
0.0000001
 44
0.0000000001
 40
0.0
 40
0.0
 40
0.0
 40
0.0
 40
0.0532684935
 40
0.1280366441
 40
0.2292846482
 40
0.3569134964
 40
0.6653787909
 40
1.0
 40
1.0
 40
1.0
 40
1.0
 10
40.0446667154
 20
107.3754183349
 30
0.0
 10
40.0538849136
 20
107.3844058047
 30
0.0
 10
40.0800067283
 20
107.4018198576
 30
0.0
 10
40.1315870781
 20
107.4225283169
 30
0.0
 10
40.2027983614
 20
107.440901534
 30
0.0
 10
40.3309696956
 20
107.4623894204
 30
0.0
 10
40.5169141688
 20
107.4772111954
 30
0.0
 10
40.6722860059
 20
107.4816010161
 30
0.0
 10
40.7531542491
 20
107.4825755775
 30
0.0
  0
SPLINE
  5
45C
100
AcDbEntity
  8
0
100
AcDbSpline
 62
7
  6
BYLAYER
 70
0
 71
3
 72
9
 73
5
 74
0
 42
0.0000001
 43
0.0000001
 44
0.0000000001
 40
0.0
 40
0.0
 40
0.0
 40
0.0
 40
0.499999951
 40
1.0
 40
1.0
 40
1.0
 40
1.0
 10
40.7531542491
 20
107.4825755775
 30
0.0
 10
40.7941600614
 20
107.4830697478
 30
0.0
 10
40.8761544285
 20
107.4856529246
 30
0.0
 10
40.9581815613
 20
107.4843460408
 30
0.0
 10
40.9991890057
 20
107.4846792263
 30
0.0
  0
SPLINE
  5
45D
100
AcDbEntity
  8
0
100
AcDbSpline
 62
7
  6
BYLAYER
 70
0
 71
3
 72
8
 73
4
 74
0
 42
0.0000001
 43
0.0000001
 44
0.0000000001
 40
0.0
 40
0.0
 40
0.0
 40
0.0
 40
1.0
 40
1.0
 40
1.0
 40
1.0
 10
40.9991890057
 20
107.4846792263
 30
0.0
 10
41.0403604315
 20
107.4850137441
 30
0.0
 10
41.0815190251
 20
107.4863415831
 30
0.0
 10
41.1226894449
 20
107.486782875
 30
0.0
  0
SPLINE
  5
45E
100
AcDbEntity
  8
0
100
AcDbSpline
 62
7
  6
BYLAYER
 70
0
 71
3
 72
14
 73
10
 74
0
 42
0.0000001
 43
0.0000001
 44
0.0000000001
 40
0.0
 40
0.0
 40
0.0
 40
0.0
 40
0.0390265098
 40
0.0843170001
 40
0.1455448256
 40
0.2348868679
 40
0.3659896368
 40
0.5466137073
 40
1.0
 40
1.0
 40
1.0
 40
1.0
 10
41.852463312
 20
107.6864893639
 30
0.0
 10
41.852463312
 20
107.6897313845
 30
0.0
 10
41.85115143
 20
107.6968312287
 30
0.0
 10
41.8440476238
 20
107.7069982001
 30
0.0
 10
41.8305133612
 20
107.7164344006
 30
0.0
 10
41.8086158891
 20
107.725037656
 30
0.0
 10
41.7760106546
 20
107.732311318
 30
0.0
 10
41.7128168247
 20
107.739711708
 30
0.0
 10
41.6600374441
 20
107.7404919997
 30
0.0
 10
41.6223751019
 20
107.7401576361
 30
0.0
  0
SPLINE
  5
45F
100
AcDbEntity
  8
0
100
AcDbSpline
 62
7
  6
BYLAYER
 70
0
 71
3
 72
9
 73
5
 74
0
 42
0.0000001
 43
0.0000001
 44
0.0000000001
 40
0.0
 40
0.0
 40
0.0
 40
0.0
 40
0.5991112794
 40
1.0
 40
1.0
 40
1.0
 40
1.0
 10
41.6223751019
 20
107.7401576361
 30
0.0
 10
41.5591895798
 20
107.7395966795
 30
0.0
 10
41.4537235426
 20
107.7349301963
 30
0.0
 10
41.3491828173
 20
107.7158406377
 30
0.0
 10
41.3090794216
 20
107.7024448087
 30
0.0
  0
SPLINE
  5
460
100
AcDbEntity
  8
0
100
AcDbSpline
 62
7
  6
BYLAYER
 70
0
 71
3
 72
9
 73
5
 74
0
 42
0.0000001
 43
0.0000001
 44
0.0000000001
 40
0.0
 40
0.0
 40
0.0
 40
0.0
 40
0.2619358833
 40
1.0
 40
1.0
 40
1.0
 40
1.0
 10
41.2990515791
 20
107.6989430362
 30
0.0
 10
41.2974339168
 20
107.6983524424
 30
0.0
 10
41.2912742506
 20
107.6960539118
 30
0.0
 10
41.2851799181
 20
107.6935793197
 30
0.0
 10
41.2807294795
 20
107.6916455395
 30
0.0
  0
SPLINE
  5
461
100
AcDbEntity
  8
0
100
AcDbSpline
 62
7
  6
BYLAYER
 70
0
 71
3
 72
13
 73
9
 74
0
 42
0.0000001
 43
0.0000001
 44
0.0000000001
 40
0.0
 40
0.0
 40
0.0
 40
0.0
 40
0.0740643193
 40
0.1650491952
 40
0.2719679876
 40
0.3937061149
 40
0.6761287158
 40
1.0
 40
1.0
 40
1.0
 40
1.0
 10
52.6708477626
 20
108.0472510145
 30
0.0
 10
52.541865938
 20
108.059505187
 30
0.0
 10
52.2536631511
 20
108.0784711875
 30
0.0
 10
51.7782071098
 20
108.0960430119
 30
0.0
 10
51.2191124559
 20
108.1061838202
 30
0.0
 10
50.3250625707
 20
108.1105358752
 30
0.0
 10
49.051498951
 20
108.0966544223
 30
0.0
 10
47.9912204116
 20
108.0680183541
 30
0.0
 10
47.4250393948
 20
108.047396919
 30
0.0
  0
SPLINE
  5
462
100
AcDbEntity
  8
0
100
AcDbSpline
 62
7
  6
BYLAYER
 70
0
 71
3
 72
10
 73
6
 74
0
 42
0.0000001
 43
0.0000001
 44
0.0000000001
 40
0.0
 40
0.0
 40
0.0
 40
0.0
 40
0.7090079312
 40
0.9071243386
 40
1.0
 40
1.0
 40
1.0
 40
1.0
 10
35.345227027
 20
108.0074916333
 30
0.0
 10
35.2790448946
 20
108.0006290836
 30
0.0
 10
35.1943381026
 20
107.9920966951
 30
0.0
 10
35.1010873012
 20
107.9816110414
 30
0.0
 10
35.0739482755
 20
107.978522783
 30
0.0
 10
35.0653241108
 20
107.9772613266
 30
0.0
  0
SPLINE
  5
463
100
AcDbEntity
  8
0
100
AcDbSpline
 62
7
  6
BYLAYER
 70
0
 71
3
 72
15
 73
11
 74
0
 42
0.0000001
 43
0.0000001
 44
0.0000000001
 40
0.0
 40
0.0
 40
0.0
 40
0.0
 40
0.2044029973
 40
0.399467274
 40
0.5765188831
 40
0.724876226
 40
0.8370306906
 40
0.9138760538
 40
0.9638175908
 40
1.0
 40
1.0
 40
1.0
 40
1.0
 10
45.8685438227
 20
107.7449561311
 30
0.0
 10
45.840821184
 20
107.7443396292
 30
0.0
 10
45.7866503683
 20
107.7426471292
 30
0.0
 10
45.7085551746
 20
107.7382256159
 30
0.0
 10
45.6382247847
 20
107.7316411256
 30
0.0
 10
45.5794983156
 20
107.7228075615
 30
0.0
 10
45.5348908186
 20
107.7119432402
 30
0.0
 10
45.5048407311
 20
107.6995404944
 30
0.0
 10
45.4868741492
 20
107.6855206323
 30
0.0
 10
45.4827395986
 20
107.6737233207
 30
0.0
 10
45.4827395986
 20
107.6688147828
 30
0.0
  0
SPLINE
  5
464
100
AcDbEntity
  8
0
100
AcDbSpline
 62
7
  6
BYLAYER
 70
0
 71
3
 72
9
 73
5
 74
0
 42
0.0000001
 43
0.0000001
 44
0.0000000001
 40
0.0
 40
0.0
 40
0.0
 40
0.0
 40
0.4754904466
 40
1.0
 40
1.0
 40
1.0
 40
1.0
 10
46.1474377941
 20
107.5523173891
 30
0.0
 10
46.0745761916
 20
107.5432938367
 30
0.0
 10
45.9203519107
 20
107.5324507743
 30
0.0
 10
45.7659234138
 20
107.5304897088
 30
0.0
 10
45.6849377941
 20
107.5309704798
 30
0.0
  0
SPLINE
  5
465
100
AcDbEntity
  8
0
100
AcDbSpline
 62
7
  6
BYLAYER
 70
0
 71
3
 72
9
 73
5
 74
0
 42
0.0000001
 43
0.0000001
 44
0.0000000001
 40
0.0
 40
0.0
 40
0.0
 40
0.0
 40
0.2541574815
 40
1.0
 40
1.0
 40
1.0
 40
1.0
 10
45.6849377941
 20
107.5309704798
 30
0.0
 10
45.6666189729
 20
107.5310792294
 30
0.0
 10
45.5945475392
 20
107.5319640662
 30
0.0
 10
45.5224861589
 20
107.5348102975
 30
0.0
 10
45.4688526767
 20
107.5384785603
 30
0.0
  0
SPLINE
  5
466
100
AcDbEntity
  8
0
100
AcDbSpline
 62
7
  6
BYLAYER
 70
0
 71
3
 72
9
 73
5
 74
0
 42
0.0000001
 43
0.0000001
 44
0.0000000001
 40
0.0
 40
0.0
 40
0.0
 40
0.0
 40
0.6247849161
 40
1.0
 40
1.0
 40
1.0
 40
1.0
 10
45.4688526767
 20
107.5384785603
 30
0.0
 10
45.373144827
 20
107.5450245002
 30
0.0
 10
45.220092097
 20
107.5625921751
 30
0.0
 10
45.0718709543
 20
107.6083232607
 30
0.0
 10
45.0202395986
 20
107.6338832239
 30
0.0
  0
SPLINE
  5
467
100
AcDbEntity
  8
0
100
AcDbSpline
 62
7
  6
BYLAYER
 70
0
 71
3
 72
9
 73
5
 74
0
 42
0.0000001
 43
0.0000001
 44
0.0000000001
 40
0.0
 40
0.0
 40
0.0
 40
0.0
 40
0.284558954
 40
1.0
 40
1.0
 40
1.0
 40
1.0
 10
44.4647752355
 20
107.8326758342
 30
0.0
 10
44.4521733659
 20
107.8326948423
 30
0.0
 10
44.4079083339
 20
107.8334650445
 30
0.0
 10
44.3635750896
 20
107.8370673598
 30
0.0
 10
44.3323698395
 20
107.8425532214
 30
0.0
  0
SPLINE
  5
468
100
AcDbEntity
  8
0
100
AcDbSpline
 62
7
  6
BYLAYER
 70
0
 71
3
 72
9
 73
5
 74
0
 42
0.0000001
 43
0.0000001
 44
0.0000000001
 40
0.0
 40
0.0
 40
0.0
 40
0.0
 40
0.2807920459
 40
1.0
 40
1.0
 40
1.0
 40
1.0
 10
44.3323698395
 20
107.8425532214
 30
0.0
 10
44.3286281039
 20
107.843211016
 30
0.0
 10
44.3153313886
 20
107.8457117183
 30
0.0
 10
44.3021465967
 20
107.8488325055
 30
0.0
 10
44.2927897524
 20
107.851504493
 30
0.0
  0
SPLINE
  5
469
100
AcDbEntity
  8
0
100
AcDbSpline
 62
7
  6
BYLAYER
 70
0
 71
3
 72
9
 73
5
 74
0
 42
0.0000001
 43
0.0000001
 44
0.0000000001
 40
0.0
 40
0.0
 40
0.0
 40
0.0
 40
0.2553513963
 40
1.0
 40
1.0
 40
1.0
 40
1.0
 10
49.2989459347
 20
107.1806903487
 30
0.0
 10
49.2825846343
 20
107.1814285757
 30
0.0
 10
49.2185280095
 20
107.1846309536
 30
0.0
 10
49.154518406
 20
107.1891834098
 30
0.0
 10
49.1070062179
 20
107.1940513117
 30
0.0
  0
SPLINE
  5
46A
100
AcDbEntity
  8
0
100
AcDbSpline
 62
7
  6
BYLAYER
 70
0
 71
3
 72
9
 73
5
 74
0
 42
0.0000001
 43
0.0000001
 44
0.0000000001
 40
0.0
 40
0.0
 40
0.0
 40
0.0
 40
0.2580739086
 40
1.0
 40
1.0
 40
1.0
 40
1.0
 10
49.1070062179
 20
107.1940513117
 30
0.0
 10
49.1005729485
 20
107.1947104378
 30
0.0
 10
49.0756569136
 20
107.197376334
 30
0.0
 10
49.0507888547
 20
107.2005186683
 30
0.0
 10
49.0323985053
 20
107.2032465183
 30
0.0
  0
SPLINE
  5
46B
100
AcDbEntity
  8
0
100
AcDbSpline
 62
7
  6
BYLAYER
 70
0
 71
3
 72
9
 73
5
 74
0
 42
0.0000001
 43
0.0000001
 44
0.0000000001
 40
0.0
 40
0.0
 40
0.0
 40
0.0
 40
0.2626385866
 40
1.0
 40
1.0
 40
1.0
 40
1.0
 10
49.0323985053
 20
107.2032465183
 30
0.0
 10
49.0275235579
 20
107.2039696218
 30
0.0
 10
49.0089790927
 20
107.206832532
 30
0.0
 10
48.9905009322
 20
107.2101509771
 30
0.0
 10
48.9769577165
 20
107.2129833745
 30
0.0
  0
SPLINE
  5
46C
100
AcDbEntity
  8
0
100
AcDbSpline
 62
7
  6
BYLAYER
 70
0
 71
3
 72
11
 73
7
 74
0
 42
0.0000001
 43
0.0000001
 44
0.0000000001
 40
0.0
 40
0.0
 40
0.0
 40
0.0
 40
0.3978272048
 40
0.6860152335
 40
0.8733260087
 40
1.0
 40
1.0
 40
1.0
 40
1.0
 10
48.9769577165
 20
107.2129833745
 30
0.0
 10
48.959891857
 20
107.2165524896
 30
0.0
 10
48.9305714706
 20
107.2236715733
 30
0.0
 10
48.8949138696
 20
107.2376557314
 30
0.0
 10
48.8725363793
 20
107.2528631782
 30
0.0
 10
48.8666595291
 20
107.2665445757
 30
0.0
 10
48.8666595291
 20
107.2720961609
 30
0.0
  0
SPLINE
  5
46D
100
AcDbEntity
  8
0
100
AcDbSpline
 62
7
  6
BYLAYER
 70
0
 71
3
 72
16
 73
12
 74
0
 42
0.0000001
 43
0.0000001
 44
0.0000000001
 40
0.0
 40
0.0
 40
0.0
 40
0.0
 40
0.0195205664
 40
0.0604430079
 40
0.115428198
 40
0.1769863656
 40
0.3084759538
 40
0.4445763913
 40
0.5825248384
 40
0.7213293913
 40
1.0
 40
1.0
 40
1.0
 40
1.0
 10
49.561571319
 20
107.1880365363
 30
0.0
 10
49.561571585
 20
107.1868094669
 30
0.0
 10
49.5572269821
 20
107.1845885495
 30
0.0
 10
49.5507620342
 20
107.183382053
 30
0.0
 10
49.5406659013
 20
107.1819683076
 30
0.0
 10
49.5252363727
 20
107.1807527344
 30
0.0
 10
49.504502361
 20
107.1797867233
 30
0.0
 10
49.4790365362
 20
107.1792113898
 30
0.0
 10
49.4530793886
 20
107.1789623371
 30
0.0
 10
49.4181669169
 20
107.1789449274
 30
0.0
 10
49.3919240283
 20
107.1791804706
 30
0.0
 10
49.374408093
 20
107.1794014658
 30
0.0
  0
SPLINE
  5
46E
100
AcDbEntity
  8
0
100
AcDbSpline
 62
7
  6
BYLAYER
 70
0
 71
3
 72
9
 73
5
 74
0
 42
0.0000001
 43
0.0000001
 44
0.0000000001
 40
0.0
 40
0.0
 40
0.0
 40
0.0
 40
0.6446191163
 40
1.0
 40
1.0
 40
1.0
 40
1.0
 10
49.1167233469
 20
107.3172809723
 30
0.0
 10
49.0975311743
 20
107.3135474054
 30
0.0
 10
49.0677803182
 20
107.3062496723
 30
0.0
 10
49.0421409762
 20
107.2873651862
 30
0.0
 10
49.0363196682
 20
107.2782932171
 30
0.0
  0
SPLINE
  5
46F
100
AcDbEntity
  8
0
100
AcDbSpline
 62
7
  6
BYLAYER
 70
0
 71
3
 72
9
 73
5
 74
0
 42
0.0000001
 43
0.0000001
 44
0.0000000001
 40
0.0
 40
0.0
 40
0.0
 40
0.0
 40
0.5437898132
 40
1.0
 40
1.0
 40
1.0
 40
1.0
 10
49.2989459347
 20
107.3274491671
 30
0.0
 10
49.2658313566
 20
107.3281916145
 30
0.0
 10
49.2049185605
 20
107.3280270365
 30
0.0
 10
49.1440003202
 20
107.3225873232
 30
0.0
 10
49.1167233469
 20
107.3172809723
 30
0.0
  0
SPLINE
  5
470
100
AcDbEntity
  8
0
100
AcDbSpline
 62
7
  6
BYLAYER
 70
0
 71
3
 72
9
 73
5
 74
0
 42
0.0000001
 43
0.0000001
 44
0.0000000001
 40
0.0
 40
0.0
 40
0.0
 40
0.0
 40
0.3232401696
 40
1.0
 40
1.0
 40
1.0
 40
1.0
 10
43.6359084497
 20
108.5622788166
 30
0.0
 10
43.6354401298
 20
108.5624677728
 30
0.0
 10
43.6343189912
 20
108.5637216931
 30
0.0
 10
43.6340076592
 20
108.5652925235
 30
0.0
 10
43.6338509034
 20
108.5663381509
 30
0.0
  0
SPLINE
  5
471
100
AcDbEntity
  8
0
100
AcDbSpline
 62
7
  6
BYLAYER
 70
0
 71
3
 72
23
 73
19
 74
0
 42
0.0000001
 43
0.0000001
 44
0.0000000001
 40
0.0
 40
0.0
 40
0.0
 40
0.0
 40
0.0063726679
 40
0.0169181398
 40
0.0501808981
 40
0.0988465173
 40
0.1612127146
 40
0.2351722069
 40
0.3182496032
 40
0.5000059542
 40
0.6817606469
 40
0.7648357997
 40
0.838793143
 40
0.9011563437
 40
0.9498196952
 40
0.9830813254
 40
0.9936266814
 40
1.0
 40
1.0
 40
1.0
 40
1.0
 10
44.7009645421
 20
108.5621166193
 30
0.0
 10
44.6988624299
 20
108.5612717443
 30
0.0
 10
44.6929259227
 20
108.5600408188
 30
0.0
 10
44.6753131564
 20
108.5574186751
 30
0.0
 10
44.6424958121
 20
108.5547026879
 30
0.0
 10
44.5913098318
 20
108.5516584205
 30
0.0
 10
44.525585609
 20
108.5489840792
 30
0.0
 10
44.4476209067
 20
108.5467159617
 30
0.0
 10
44.3271963666
 20
108.5443835199
 30
0.0
 10
44.1684277948
 20
108.5432845979
 30
0.0
 10
44.0096604338
 20
108.544438365
 30
0.0
 10
43.8892388034
 20
108.5468098854
 30
0.0
 10
43.8112774558
 20
108.549101721
 30
0.0
 10
43.7455565406
 20
108.5517941064
 30
0.0
 10
43.6943737504
 20
108.5548499434
 30
0.0
 10
43.6615576302
 20
108.5575698453
 30
0.0
 10
43.6439461166
 20
108.5601968363
 30
0.0
 10
43.6380096407
 20
108.5614310347
 30
0.0
 10
43.6359084497
 20
108.5622788166
 30
0.0
  0
SPLINE
  5
472
100
AcDbEntity
  8
0
100
AcDbSpline
 62
7
  6
BYLAYER
 70
0
 71
3
 72
9
 73
5
 74
0
 42
0.0000001
 43
0.0000001
 44
0.0000000001
 40
0.0
 40
0.0
 40
0.0
 40
0.0
 40
0.6369284568
 40
1.0
 40
1.0
 40
1.0
 40
1.0
 10
49.561571319
 20
107.6633862162
 30
0.0
 10
49.4901205481
 20
107.6662168668
 30
0.0
 10
49.3768607067
 20
107.6622341305
 30
0.0
 10
49.2674513375
 20
107.6333748385
 30
0.0
 10
49.2296102797
 20
107.6182240785
 30
0.0
  0
SPLINE
  5
473
100
AcDbEntity
  8
0
100
AcDbSpline
 62
7
  6
BYLAYER
 70
0
 71
3
 72
9
 73
5
 74
0
 42
0.0000001
 43
0.0000001
 44
0.0000000001
 40
0.0
 40
0.0
 40
0.0
 40
0.0
 40
0.2347868992
 40
1.0
 40
1.0
 40
1.0
 40
1.0
 10
49.8544102978
 20
107.634548958
 30
0.0
 10
49.8315916116
 20
107.6376811961
 30
0.0
 10
49.7343327661
 20
107.6503797563
 30
0.0
 10
49.6365800917
 20
107.6604146089
 30
0.0
 10
49.561571319
 20
107.6633862162
 30
0.0
  0
SPLINE
  5
474
100
AcDbEntity
  8
0
100
AcDbSpline
 62
7
  6
BYLAYER
 70
0
 71
3
 72
13
 73
9
 74
0
 42
0.0000001
 43
0.0000001
 44
0.0000000001
 40
0.0
 40
0.0
 40
0.0
 40
0.0
 40
0.2136752498
 40
0.4361594462
 40
0.6750907079
 40
0.8090143579
 40
0.8862875828
 40
1.0
 40
1.0
 40
1.0
 40
1.0
 10
49.9938577246
 20
107.6887343806
 30
0.0
 10
49.984225664
 20
107.6840681262
 30
0.0
 10
49.9645259531
 20
107.6746239298
 30
0.0
 10
49.9338180728
 20
107.6604516584
 30
0.0
 10
49.9064065719
 20
107.6487255097
 30
0.0
 10
49.8852144351
 20
107.6409017068
 30
0.0
 10
49.8696457895
 20
107.6363383087
 30
0.0
 10
49.8601004604
 20
107.6342963531
 30
0.0
 10
49.8544102978
 20
107.634548958
 30
0.0
  0
SPLINE
  5
475
100
AcDbEntity
  8
0
100
AcDbSpline
 62
7
  6
BYLAYER
 70
0
 71
3
 72
9
 73
5
 74
0
 42
0.0000001
 43
0.0000001
 44
0.0000000001
 40
0.0
 40
0.0
 40
0.0
 40
0.0
 40
0.3803271735
 40
1.0
 40
1.0
 40
1.0
 40
1.0
 10
47.3513326477
 20
107.6809687117
 30
0.0
 10
47.3612548194
 20
107.6896324114
 30
0.0
 10
47.3923694503
 20
107.7063472099
 30
0.0
 10
47.4261099242
 20
107.714853453
 30
0.0
 10
47.4471693742
 20
107.718989734
 30
0.0
  0
SPLINE
  5
476
100
AcDbEntity
  8
0
100
AcDbSpline
 62
7
  6
BYLAYER
 70
0
 71
3
 72
9
 73
5
 74
0
 42
0.0000001
 43
0.0000001
 44
0.0000000001
 40
0.0
 40
0.0
 40
0.0
 40
0.0
 40
0.4428146893
 40
1.0
 40
1.0
 40
1.0
 40
1.0
 10
47.4471693742
 20
107.718989734
 30
0.0
 10
47.4720049141
 20
107.7238676757
 30
0.0
 10
47.5288514988
 20
107.7309200644
 30
0.0
 10
47.5859798783
 20
107.73349086
 30
0.0
 10
47.6178202759
 20
107.7341465508
 30
0.0
  0
SPLINE
  5
477
100
AcDbEntity
  8
0
100
AcDbSpline
 62
7
  6
BYLAYER
 70
0
 71
3
 72
11
 73
7
 74
0
 42
0.0000001
 43
0.0000001
 44
0.0000000001
 40
0.0
 40
0.0
 40
0.0
 40
0.0
 40
0.1081655938
 40
0.2976715262
 40
0.6088381569
 40
1.0
 40
1.0
 40
1.0
 40
1.0
 10
48.0160308432
 20
107.6722660991
 30
0.0
 10
48.0083669523
 20
107.6815820546
 30
0.0
 10
47.9795202261
 20
107.7001938865
 30
0.0
 10
47.9139051147
 20
107.7186432446
 30
0.0
 10
47.8149100586
 20
107.7309264657
 30
0.0
 10
47.7365991756
 20
107.7337802734
 30
0.0
 10
47.6929782699
 20
107.7343525224
 30
0.0
  0
SPLINE
  5
478
100
AcDbEntity
  8
0
100
AcDbSpline
 62
7
  6
BYLAYER
 70
0
 71
3
 72
10
 73
6
 74
0
 42
0.0000001
 43
0.0000001
 44
0.0000000001
 40
0.0
 40
0.0
 40
0.0
 40
0.0
 40
0.1122609851
 40
0.3071781353
 40
1.0
 40
1.0
 40
1.0
 40
1.0
 10
45.2943740072
 20
108.2234648524
 30
0.0
 10
45.2943740063
 20
108.2250105234
 30
0.0
 10
45.2974720597
 20
108.2287316351
 30
0.0
 10
45.3099449252
 20
108.2341335224
 30
0.0
 10
45.3220965407
 20
108.2368320866
 30
0.0
 10
45.3314749949
 20
108.2385756563
 30
0.0
  0
SPLINE
  5
479
100
AcDbEntity
  8
0
100
AcDbSpline
 62
7
  6
BYLAYER
 70
0
 71
3
 72
10
 73
6
 74
0
 42
0.0000001
 43
0.0000001
 44
0.0000000001
 40
0.0
 40
0.0
 40
0.0
 40
0.0
 40
0.500673843
 40
0.7503293938
 40
1.0
 40
1.0
 40
1.0
 40
1.0
 10
46.2260586935
 20
108.3820979991
 30
0.0
 10
46.5722180933
 20
108.4295489656
 30
0.0
 10
47.0949588156
 20
108.4740326926
 30
0.0
 10
47.7927317709
 20
108.4889605199
 30
0.0
 10
48.1412856042
 20
108.4809739809
 30
0.0
 10
48.3152947229
 20
108.4721389322
 30
0.0
  0
SPLINE
  5
47A
100
AcDbEntity
  8
0
100
AcDbSpline
 62
7
  6
BYLAYER
 70
0
 71
3
 72
10
 73
6
 74
0
 42
0.0000001
 43
0.0000001
 44
0.0000000001
 40
0.0
 40
0.0
 40
0.0
 40
0.0
 40
0.692834872
 40
0.8877641598
 40
1.0
 40
1.0
 40
1.0
 40
1.0
 10
43.0055069868
 20
108.2394199847
 30
0.0
 10
43.0148842733
 20
108.2376711905
 30
0.0
 10
43.027034938
 20
108.2349666613
 30
0.0
 10
43.0395040744
 20
108.2295604106
 30
0.0
 10
43.0426026895
 20
108.2258403318
 30
0.0
 10
43.0426026896
 20
108.224295067
 30
0.0
  0
SPLINE
  5
47B
100
AcDbEntity
  8
0
100
AcDbSpline
 62
7
  6
BYLAYER
 70
0
 71
3
 72
10
 73
6
 74
0
 42
0.0000001
 43
0.0000001
 44
0.0000000001
 40
0.0
 40
0.0
 40
0.0
 40
0.0
 40
0.249672994
 40
0.499323998
 40
1.0
 40
1.0
 40
1.0
 40
1.0
 10
40.0441025229
 20
108.4712323921
 30
0.0
 10
40.216774728
 20
108.4803144941
 30
0.0
 10
40.562678182
 20
108.4885969991
 30
0.0
 10
41.2551562096
 20
108.4739833027
 30
0.0
 10
41.7739195029
 20
108.4296497511
 30
0.0
 10
42.1174264307
 20
108.382388645
 30
0.0
  0
SPLINE
  5
47C
100
AcDbEntity
  8
0
100
AcDbSpline
 62
7
  6
BYLAYER
 70
0
 71
3
 72
14
 73
10
 74
0
 42
0.0000001
 43
0.0000001
 44
0.0000000001
 40
0.0
 40
0.0
 40
0.0
 40
0.0
 40
0.0558308671
 40
0.1161366858
 40
0.2397894351
 40
0.3651117411
 40
0.4912767133
 40
0.7450489613
 40
1.0
 40
1.0
 40
1.0
 40
1.0
 10
40.5556040955
 20
107.6080407237
 30
0.0
 10
40.5465187244
 20
107.6063679688
 30
0.0
 10
40.5273432582
 20
107.604626285
 30
0.0
 10
40.4878586294
 20
107.6009289761
 30
0.0
 10
40.4368177359
 20
107.5970524656
 30
0.0
 10
40.3749118409
 20
107.5925586929
 30
0.0
 10
40.2915033699
 20
107.5868373657
 30
0.0
 10
40.1866772237
 20
107.5799597243
 30
0.0
 10
40.1026693839
 20
107.5746364345
 30
0.0
 10
40.0605664802
 20
107.5719966257
 30
0.0
  0
SPLINE
  5
47D
100
AcDbEntity
  8
0
100
AcDbSpline
 62
7
  6
BYLAYER
 70
0
 71
3
 72
9
 73
5
 74
0
 42
0.0000001
 43
0.0000001
 44
0.0000000001
 40
0.0
 40
0.0
 40
0.0
 40
0.0
 40
0.2232909902
 40
1.0
 40
1.0
 40
1.0
 40
1.0
 10
48.4181036543
 20
107.5397943507
 30
0.0
 10
48.4027354959
 20
107.5372823151
 30
0.0
 10
48.3336641434
 20
107.5275375314
 30
0.0
 10
48.2640540243
 20
107.5221442213
 30
0.0
 10
48.2099777623
 20
107.5190106233
 30
0.0
  0
SPLINE
  5
47E
100
AcDbEntity
  8
0
100
AcDbSpline
 62
7
  6
BYLAYER
 70
0
 71
3
 72
9
 73
5
 74
0
 42
0.0000001
 43
0.0000001
 44
0.0000000001
 40
0.0
 40
0.0
 40
0.0
 40
0.0
 40
0.4920992718
 40
1.0
 40
1.0
 40
1.0
 40
1.0
 10
48.2099777623
 20
107.5190106233
 30
0.0
 10
48.1275777677
 20
107.5142357285
 30
0.0
 10
47.9598349178
 20
107.5098417583
 30
0.0
 10
47.7921044272
 20
107.5104846585
 30
0.0
 10
47.7069232773
 20
107.5116077337
 30
0.0
  0
SPLINE
  5
47F
100
AcDbEntity
  8
0
100
AcDbSpline
 62
7
  6
BYLAYER
 70
0
 71
3
 72
9
 73
5
 74
0
 42
0.0000001
 43
0.0000001
 44
0.0000000001
 40
0.0
 40
0.0
 40
0.0
 40
0.0
 40
0.2125269943
 40
1.0
 40
1.0
 40
1.0
 40
1.0
 10
40.0605664801
 20
107.6716534217
 30
0.0
 10
40.0589485053
 20
107.6731359896
 30
0.0
 10
40.0510049754
 20
107.6797526005
 30
0.0
 10
40.0418626402
 20
107.6848306595
 30
0.0
 10
40.0344547582
 20
107.6881833803
 30
0.0
  0
SPLINE
  5
480
100
AcDbEntity
  8
0
100
AcDbSpline
 62
7
  6
BYLAYER
 70
0
 71
3
 72
9
 73
5
 74
0
 42
0.0000001
 43
0.0000001
 44
0.0000000001
 40
0.0
 40
0.0
 40
0.0
 40
0.0
 40
0.2284954563
 40
1.0
 40
1.0
 40
1.0
 40
1.0
 10
40.0344547582
 20
107.6881833803
 30
0.0
 10
40.0330671147
 20
107.6888114115
 30
0.0
 10
40.0269506601
 20
107.691463652
 30
0.0
 10
40.0206691102
 20
107.6937277753
 30
0.0
 10
40.0157720988
 20
107.6952987807
 30
0.0
  0
SPLINE
  5
481
100
AcDbEntity
  8
0
100
AcDbSpline
 62
7
  6
BYLAYER
 70
0
 71
3
 72
9
 73
5
 74
0
 42
0.0000001
 43
0.0000001
 44
0.0000000001
 40
0.0
 40
0.0
 40
0.0
 40
0.0
 40
0.2036194638
 40
1.0
 40
1.0
 40
1.0
 40
1.0
 10
40.0157720988
 20
107.6952987807
 30
0.0
 10
40.011762311
 20
107.6965851568
 30
0.0
 10
39.9918800204
 20
107.7023128215
 30
0.0
 10
39.9713970838
 20
107.7057712109
 30
0.0
 10
39.9550520639
 20
107.7077966159
 30
0.0
  0
SPLINE
  5
482
100
AcDbEntity
  8
0
100
AcDbSpline
 62
7
  6
BYLAYER
 70
0
 71
3
 72
9
 73
5
 74
0
 42
0.0000001
 43
0.0000001
 44
0.0000000001
 40
0.0
 40
0.0
 40
0.0
 40
0.0
 40
0.2202099485
 40
1.0
 40
1.0
 40
1.0
 40
1.0
 10
39.9550520639
 20
107.7077966159
 30
0.0
 10
39.9459655613
 20
107.7089225765
 30
0.0
 10
39.9045670646
 20
107.7129449622
 30
0.0
 10
39.8628946806
 20
107.713407652
 30
0.0
 10
39.8304782699
 20
107.712779345
 30
0.0
  0
SPLINE
  5
483
100
AcDbEntity
  8
0
100
AcDbSpline
 62
7
  6
BYLAYER
 70
0
 71
3
 72
9
 73
5
 74
0
 42
0.0000001
 43
0.0000001
 44
0.0000000001
 40
0.0
 40
0.0
 40
0.0
 40
0.0
 40
0.3038984823
 40
1.0
 40
1.0
 40
1.0
 40
1.0
 10
39.8304782699
 20
107.712779345
 30
0.0
 10
39.7955401298
 20
107.7121021608
 30
0.0
 10
39.6806586927
 20
107.7061285736
 30
0.0
 10
39.5665530814
 20
107.6875253392
 30
0.0
 10
39.4888326385
 20
107.6683818104
 30
0.0
  0
SPLINE
  5
484
100
AcDbEntity
  8
0
100
AcDbSpline
 62
7
  6
BYLAYER
 70
0
 71
3
 72
13
 73
9
 74
0
 42
0.0000001
 43
0.0000001
 44
0.0000000001
 40
0.0
 40
0.0
 40
0.0
 40
0.0
 40
0.3433051619
 40
0.6449664214
 40
0.7702931295
 40
0.8726551818
 40
0.9491467666
 40
1.0
 40
1.0
 40
1.0
 40
1.0
 10
36.0444858592
 20
107.4732536975
 30
0.0
 10
35.987068558
 20
107.4717754747
 30
0.0
 10
35.8791812435
 20
107.4699670367
 30
0.0
 10
35.7502437423
 20
107.4716757368
 30
0.0
 10
35.6618655052
 20
107.4773639354
 30
0.0
 10
35.6112302645
 20
107.483269673
 30
0.0
 10
35.5736360331
 20
107.490984969
 30
0.0
 10
35.5533202737
 20
107.4985107535
 30
0.0
 10
35.5462311024
 20
107.5032148848
 30
0.0
  0
SPLINE
  5
485
100
AcDbEntity
  8
0
100
AcDbSpline
 62
7
  6
BYLAYER
 70
0
 71
3
 72
9
 73
5
 74
0
 42
0.0000001
 43
0.0000001
 44
0.0000000001
 40
0.0
 40
0.0
 40
0.0
 40
0.0
 40
0.3116103254
 40
1.0
 40
1.0
 40
1.0
 40
1.0
 10
35.5462311024
 20
107.5032148848
 30
0.0
 10
35.5445415238
 20
107.5043360313
 30
0.0
 10
35.5393612296
 20
107.5081544493
 30
0.0
 10
35.5355034623
 20
107.5145410668
 30
0.0
 10
35.5355034623
 20
107.5190205748
 30
0.0
  0
SPLINE
  5
486
100
AcDbEntity
  8
0
100
AcDbSpline
 62
7
  6
BYLAYER
 70
0
 71
3
 72
9
 73
5
 74
0
 42
0.0000001
 43
0.0000001
 44
0.0000000001
 40
0.0
 40
0.0
 40
0.0
 40
0.0
 40
0.5260448795
 40
1.0
 40
1.0
 40
1.0
 40
1.0
 10
36.3233803268
 20
107.3431330321
 30
0.0
 10
36.1936453894
 20
107.3330968456
 30
0.0
 10
35.9467086403
 20
107.3178528591
 30
0.0
 10
35.6991875629
 20
107.314132793
 30
0.0
 10
35.5819858734
 20
107.3170352028
 30
0.0
  0
SPLINE
  5
487
100
AcDbEntity
  8
0
100
AcDbSpline
 62
7
  6
BYLAYER
 70
0
 71
3
 72
9
 73
5
 74
0
 42
0.0000001
 43
0.0000001
 44
0.0000000001
 40
0.0
 40
0.0
 40
0.0
 40
0.0
 40
0.4924782422
 40
1.0
 40
1.0
 40
1.0
 40
1.0
 10
38.7799758506
 20
107.6671615862
 30
0.0
 10
38.7139694253
 20
107.6680023576
 30
0.0
 10
38.5799403954
 20
107.6687586043
 30
0.0
 10
38.4458552371
 20
107.6671117282
 30
0.0
 10
38.3779030393
 20
107.6638966817
 30
0.0
  0
SPLINE
  5
488
100
AcDbEntity
  8
0
100
AcDbSpline
 62
7
  6
BYLAYER
 70
0
 71
3
 72
10
 73
6
 74
0
 42
0.0000001
 43
0.0000001
 44
0.0000000001
 40
0.0
 40
0.0
 40
0.0
 40
0.0
 40
0.3700174148
 40
0.6431709258
 40
1.0
 40
1.0
 40
1.0
 40
1.0
 10
37.2809179973
 20
107.5205820432
 30
0.0
 10
37.2809179973
 20
107.5131719443
 30
0.0
 10
37.273566542
 20
107.5007685199
 30
0.0
 10
37.2578458789
 20
107.4886398709
 30
0.0
 10
37.2467644029
 20
107.4823925232
 30
0.0
 10
37.2403613154
 20
107.4792198957
 30
0.0
  0
SPLINE
  5
489
100
AcDbEntity
  8
0
100
AcDbSpline
 62
7
  6
BYLAYER
 70
0
 71
3
 72
11
 73
7
 74
0
 42
0.0000001
 43
0.0000001
 44
0.0000000001
 40
0.0
 40
0.0
 40
0.0
 40
0.0
 40
0.1656657784
 40
0.4009446991
 40
0.6861895199
 40
1.0
 40
1.0
 40
1.0
 40
1.0
 10
37.2403613154
 20
107.4792198957
 30
0.0
 10
37.2184106805
 20
107.4683437072
 30
0.0
 10
37.1617211965
 20
107.4496937119
 30
0.0
 10
37.0627892478
 20
107.4273583414
 30
0.0
 10
36.9410206253
 20
107.406999057
 30
0.0
 10
36.8532239627
 20
107.3952333108
 30
0.0
 10
36.807170779
 20
107.3895390173
 30
0.0
  0
SPLINE
  5
48A
100
AcDbEntity
  8
0
100
AcDbSpline
 62
7
  6
BYLAYER
 70
0
 71
3
 72
9
 73
5
 74
0
 42
0.0000001
 43
0.0000001
 44
0.0000000001
 40
0.0
 40
0.0
 40
0.0
 40
0.0
 40
0.2452442445
 40
1.0
 40
1.0
 40
1.0
 40
1.0
 10
36.807170779
 20
107.3895390173
 30
0.0
 10
36.7802169655
 20
107.3862062852
 30
0.0
 10
36.6702277582
 20
107.3732886121
 30
0.0
 10
36.5600073935
 20
107.3624232377
 30
0.0
 10
36.4767722647
 20
107.354795762
 30
0.0
  0
SPLINE
  5
48B
100
AcDbEntity
  8
0
100
AcDbSpline
 62
7
  6
BYLAYER
 70
0
 71
3
 72
9
 73
5
 74
0
 42
0.0000001
 43
0.0000001
 44
0.0000000001
 40
0.0
 40
0.0
 40
0.0
 40
0.0
 40
0.2540337894
 40
1.0
 40
1.0
 40
1.0
 40
1.0
 10
36.369862784
 20
107.6233657811
 30
0.0
 10
36.3595650807
 20
107.6224901542
 30
0.0
 10
36.3190443244
 20
107.6188732197
 30
0.0
 10
36.2785776425
 20
107.6145312798
 30
0.0
 10
36.2485041451
 20
107.6104574744
 30
0.0
  0
SPLINE
  5
48C
100
AcDbEntity
  8
0
100
AcDbSpline
 62
7
  6
BYLAYER
 70
0
 71
3
 72
10
 73
6
 74
0
 42
0.0000001
 43
0.0000001
 44
0.0000000001
 40
0.0
 40
0.0
 40
0.0
 40
0.0
 40
0.6530475503
 40
0.8669964059
 40
1.0
 40
1.0
 40
1.0
 40
1.0
 10
36.2485041451
 20
107.6104574744
 30
0.0
 10
36.2206010222
 20
107.6066776716
 30
0.0
 10
36.18347372
 20
107.6010585215
 30
0.0
 10
36.1420147953
 20
107.5893333424
 30
0.0
 10
36.1281599105
 20
107.5831811953
 30
0.0
 10
36.1235059868
 20
107.5798302001
 30
0.0
  0
SPLINE
  5
48D
100
AcDbEntity
  8
0
100
AcDbSpline
 62
7
  6
BYLAYER
 70
0
 71
3
 72
9
 73
5
 74
0
 42
0.0000001
 43
0.0000001
 44
0.0000000001
 40
0.0
 40
0.0
 40
0.0
 40
0.0
 40
0.4868709218
 40
1.0
 40
1.0
 40
1.0
 40
1.0
 10
37.1577395986
 20
107.660154251
 30
0.0
 10
37.0524153971
 20
107.6592303696
 30
0.0
 10
36.8361145129
 20
107.6549393913
 30
0.0
 10
36.6199408682
 20
107.6442161191
 30
0.0
 10
36.5093099903
 20
107.6350631142
 30
0.0
  0
SPLINE
  5
48E
100
AcDbEntity
  8
0
100
AcDbSpline
 62
7
  6
BYLAYER
 70
0
 71
3
 72
9
 73
5
 74
0
 42
0.0000001
 43
0.0000001
 44
0.0000000001
 40
0.0
 40
0.0
 40
0.0
 40
0.0
 40
0.253597554
 40
1.0
 40
1.0
 40
1.0
 40
1.0
 10
38.1919732105
 20
107.4569109889
 30
0.0
 10
38.1682109827
 20
107.4558657821
 30
0.0
 10
38.0744935144
 20
107.4521890021
 30
0.0
 10
37.9806831649
 20
107.4504569051
 30
0.0
 10
37.9106787202
 20
107.4509140093
 30
0.0
  0
SPLINE
  5
48F
100
AcDbEntity
  8
0
100
AcDbSpline
 62
7
  6
BYLAYER
 70
0
 71
3
 72
11
 73
7
 74
0
 42
0.0000001
 43
0.0000001
 44
0.0000000001
 40
0.0
 40
0.0
 40
0.0
 40
0.0
 40
0.357877282
 40
0.6459365861
 40
0.8550540292
 40
1.0
 40
1.0
 40
1.0
 40
1.0
 10
37.9106787202
 20
107.4509140093
 30
0.0
 10
37.8492938362
 20
107.4513148308
 30
0.0
 10
37.7384820745
 20
107.4544291962
 30
0.0
 10
37.5923076864
 20
107.4685270124
 30
0.0
 10
37.4840639981
 20
107.4898813395
 30
0.0
 10
37.4263766224
 20
107.5100900684
 30
0.0
 10
37.4040963959
 20
107.5211231773
 30
0.0
  0
SPLINE
  5
490
100
AcDbEntity
  8
0
100
AcDbSpline
 62
7
  6
BYLAYER
 70
0
 71
3
 72
8
 73
4
 74
0
 42
0.0000001
 43
0.0000001
 44
0.0000000001
 40
0.0
 40
0.0
 40
0.0
 40
0.0
 40
1.0
 40
1.0
 40
1.0
 40
1.0
 10
42.5636441301
 20
107.4882567497
 30
0.0
 10
42.4843755296
 20
107.4878221803
 30
0.0
 10
42.4051157226
 20
107.486252746
 30
0.0
 10
42.3258469744
 20
107.485846008
 30
0.0
  0
SPLINE
  5
491
100
AcDbEntity
  8
0
100
AcDbSpline
 62
7
  6
BYLAYER
 70
0
 71
3
 72
8
 73
4
 74
0
 42
0.0000001
 43
0.0000001
 44
0.0000000001
 40
0.0
 40
0.0
 40
0.0
 40
0.0
 40
1.0
 40
1.0
 40
1.0
 40
1.0
 10
42.3258469744
 20
107.485846008
 30
0.0
 10
42.2296568672
 20
107.4853524443
 30
0.0
 10
42.1334603427
 20
107.4863750264
 30
0.0
 10
42.0372730789
 20
107.4854858728
 30
0.0
  0
LINE
  5
492
100
AcDbEntity
  8
0
100
AcDbLine
 62
7
  6
BYLAYER
 10
42.0372730789
 20
107.4854858728
 11
41.8524633116
 21
107.4834352662
  0
LINE
  5
493
100
AcDbEntity
  8
0
100
AcDbLine
 62
7
  6
BYLAYER
 10
42.5799131583
 20
107.2638010614
 11
42.3990680544
 21
107.2620532323
  0
SPLINE
  5
494
100
AcDbEntity
  8
0
100
AcDbSpline
 62
7
  6
BYLAYER
 70
0
 71
3
 72
9
 73
5
 74
0
 42
0.0000001
 43
0.0000001
 44
0.0000000001
 40
0.0
 40
0.0
 40
0.0
 40
0.0
 40
0.5000000114
 40
1.0
 40
1.0
 40
1.0
 40
1.0
 10
42.3990680544
 20
107.2620532323
 30
0.0
 10
42.3389548166
 20
107.2617634063
 30
0.0
 10
42.2187224926
 20
107.2628497256
 30
0.0
 10
42.0985051889
 20
107.2607528462
 30
0.0
 10
42.0383929204
 20
107.2603054031
 30
0.0
  0
LINE
  5
495
100
AcDbEntity
  8
0
100
AcDbLine
 62
7
  6
BYLAYER
 10
42.5636441301
 20
107.3790862566
 11
42.3882109889
 21
107.37738969
  0
LINE
  5
496
100
AcDbEntity
  8
0
100
AcDbLine
 62
7
  6
BYLAYER
 10
42.3882109889
 20
107.37738969
 11
42.213127185
 21
107.37738969
  0
SPLINE
  5
497
100
AcDbEntity
  8
0
100
AcDbSpline
 62
7
  6
BYLAYER
 70
0
 71
3
 72
8
 73
4
 74
0
 42
0.0000001
 43
0.0000001
 44
0.0000000001
 40
0.0
 40
0.0
 40
0.0
 40
0.0
 40
1.0
 40
1.0
 40
1.0
 40
1.0
 10
42.213127185
 20
107.37738969
 30
0.0
 10
42.154880206
 20
107.377143268
 30
0.0
 10
42.0966388181
 20
107.376125192
 30
0.0
 10
42.0383929204
 20
107.3756931234
 30
0.0
  0
SPLINE
  5
498
100
AcDbEntity
  8
0
100
AcDbSpline
 62
7
  6
BYLAYER
 70
0
 71
3
 72
14
 73
10
 74
0
 42
0.0000001
 43
0.0000001
 44
0.0000000001
 40
0.0
 40
0.0
 40
0.0
 40
0.0
 40
0.0422877002
 40
0.0979277088
 40
0.1788648004
 40
0.2921321086
 40
0.4379920249
 40
0.6100745736
 40
1.0
 40
1.0
 40
1.0
 40
1.0
 10
45.0806667875
 20
107.3183892077
 30
0.0
 10
45.0806667875
 20
107.3153216406
 30
0.0
 10
45.0828728464
 20
107.3081375268
 30
0.0
 10
45.0926416462
 20
107.2990615096
 30
0.0
 10
45.1089102706
 20
107.2908662292
 30
0.0
 10
45.1325213657
 20
107.2834616369
 30
0.0
 10
45.1631785354
 20
107.2771179429
 30
0.0
 10
45.2140476243
 20
107.2699449515
 30
0.0
 10
45.254739782
 20
107.2668913117
 30
0.0
 10
45.282981027
 20
107.2653123552
 30
0.0
  0
SPLINE
  5
499
100
AcDbEntity
  8
0
100
AcDbSpline
 62
7
  6
BYLAYER
 70
0
 71
3
 72
9
 73
5
 74
0
 42
0.0000001
 43
0.0000001
 44
0.0000000001
 40
0.0
 40
0.0
 40
0.0
 40
0.0
 40
0.252084205
 40
1.0
 40
1.0
 40
1.0
 40
1.0
 10
48.6851481375
 20
66.7944265559
 30
0.0
 10
48.6777008643
 20
66.7831700683
 30
0.0
 10
48.6484511605
 20
66.7383253202
 30
0.0
 10
48.6205018401
 20
66.6926153765
 30
0.0
 10
48.6007250767
 20
66.6577949166
 30
0.0
  0
LINE
  5
49A
100
AcDbEntity
  8
0
100
AcDbLine
 62
7
  6
BYLAYER
 10
44.4647032858
 20
107.7943079246
 11
44.8040963971
 21
107.7936500194
  0
LINE
  5
49B
100
AcDbEntity
  8
0
100
AcDbLine
 62
7
  6
BYLAYER
 10
46.5048470046
 20
107.2505789908
 11
46.4568428523
 21
107.2508763195
  0
SPLINE
  5
49C
100
AcDbEntity
  8
0
100
AcDbSpline
 62
7
  6
BYLAYER
 70
0
 71
3
 72
9
 73
5
 74
0
 42
0.0000001
 43
0.0000001
 44
0.0000000001
 40
0.0
 40
0.0
 40
0.0
 40
0.0
 40
0.5064895136
 40
1.0
 40
1.0
 40
1.0
 40
1.0
 10
46.4567714846
 20
107.2508763195
 30
0.0
 10
46.4480961185
 20
107.2527564385
 30
0.0
 10
46.4322885579
 20
107.2629161181
 30
0.0
 10
46.414078857
 20
107.2579770941
 30
0.0
 10
46.4055193463
 20
107.2592200482
 30
0.0
  0
SPLINE
  5
49D
100
AcDbEntity
  8
0
100
AcDbSpline
 62
7
  6
BYLAYER
 70
0
 71
3
 72
8
 73
4
 74
0
 42
0.0000001
 43
0.0000001
 44
0.0000000001
 40
0.0
 40
0.0
 40
0.0
 40
0.0
 40
1.0
 40
1.0
 40
1.0
 40
1.0
 10
46.4055193463
 20
107.2592200482
 30
0.0
 10
46.3966223009
 20
107.2605120168
 30
0.0
 10
46.3886396628
 20
107.2656082235
 30
0.0
 10
46.379850466
 20
107.2674994189
 30
0.0
  0
SPLINE
  5
49E
100
AcDbEntity
  8
0
100
AcDbSpline
 62
7
  6
BYLAYER
 70
0
 71
3
 72
10
 73
6
 74
0
 42
0.0000001
 43
0.0000001
 44
0.0000000001
 40
0.0
 40
0.0
 40
0.0
 40
0.0
 40
0.4999570057
 40
0.7501427618
 40
1.0
 40
1.0
 40
1.0
 40
1.0
 10
49.0965457106
 20
67.0593810663
 30
0.0
 10
49.0182657306
 20
67.0326443993
 30
0.0
 10
48.9030302298
 20
66.983281651
 30
0.0
 10
48.7661468601
 20
66.8896057578
 30
0.0
 10
48.7079582916
 20
66.8289039146
 30
0.0
 10
48.6851481343
 20
66.7944265508
 30
0.0
  0
SPLINE
  5
49F
100
AcDbEntity
  8
0
100
AcDbSpline
 62
7
  6
BYLAYER
 70
0
 71
3
 72
9
 73
5
 74
0
 42
0.0000001
 43
0.0000001
 44
0.0000000001
 40
0.0
 40
0.0
 40
0.0
 40
0.0
 40
0.1917032489
 40
1.0
 40
1.0
 40
1.0
 40
1.0
 10
44.4485057663
 20
107.3500929054
 30
0.0
 10
44.4437171902
 20
107.3532369367
 30
0.0
 10
44.417657636
 20
107.3679994591
 30
0.0
 10
44.3885862651
 20
107.3766492368
 30
0.0
 10
44.3650761687
 20
107.3821870323
 30
0.0
  0
SPLINE
  5
4A0
100
AcDbEntity
  8
0
100
AcDbSpline
 62
7
  6
BYLAYER
 70
0
 71
3
 72
9
 73
5
 74
0
 42
0.0000001
 43
0.0000001
 44
0.0000000001
 40
0.0
 40
0.0
 40
0.0
 40
0.0
 40
0.2159725024
 40
1.0
 40
1.0
 40
1.0
 40
1.0
 10
44.3650761687
 20
107.3821870323
 30
0.0
 10
44.356325475
 20
107.3842482554
 30
0.0
 10
44.3155529171
 20
107.3927117748
 30
0.0
 10
44.2741023372
 20
107.3975432159
 30
0.0
 10
44.241581914
 20
107.4002911073
 30
0.0
  0
SPLINE
  5
4A1
100
AcDbEntity
  8
0
100
AcDbSpline
 62
7
  6
BYLAYER
 70
0
 71
3
 72
9
 73
5
 74
0
 42
0.0000001
 43
0.0000001
 44
0.0000000001
 40
0.0
 40
0.0
 40
0.0
 40
0.0
 40
0.2407064081
 40
1.0
 40
1.0
 40
1.0
 40
1.0
 10
44.241581914
 20
107.4002911073
 30
0.0
 10
44.2272683087
 20
107.4015005699
 30
0.0
 10
44.1677246846
 20
107.4055959176
 30
0.0
 10
44.1080138314
 20
107.4067964603
 30
0.0
 10
44.0627015423
 20
107.4067961849
 30
0.0
  0
SPLINE
  5
4A2
100
AcDbEntity
  8
0
100
AcDbSpline
 62
7
  6
BYLAYER
 70
0
 71
3
 72
16
 73
12
 74
0
 42
0.0000001
 43
0.0000001
 44
0.0000000001
 40
0.0
 40
0.0
 40
0.0
 40
0.0
 40
0.0210324587
 40
0.06250791
 40
0.1161221679
 40
0.1757040588
 40
0.3041905487
 40
0.4390537915
 40
0.5771278789
 40
0.7170703905
 40
1.0
 40
1.0
 40
1.0
 40
1.0
 10
45.591973431
 20
107.390994151
 30
0.0
 10
45.591973431
 20
107.3919046933
 30
0.0
 10
45.5886394497
 20
107.3932142328
 30
0.0
 10
45.584357064
 20
107.3943669139
 30
0.0
 10
45.5775044609
 20
107.3955059805
 30
0.0
 10
45.5672287846
 20
107.3968533864
 30
0.0
 10
45.5532528581
 20
107.3981727966
 30
0.0
 10
45.535936353
 20
107.3994066438
 30
0.0
 10
45.5180838493
 20
107.4004031094
 30
0.0
 10
45.4938248957
 20
107.401486443
 30
0.0
 10
45.4755255111
 20
107.4020678571
 30
0.0
 10
45.463280991
 20
107.4023861861
 30
0.0
  0
SPLINE
  5
4A3
100
AcDbEntity
  8
0
100
AcDbSpline
 62
7
  6
BYLAYER
 70
0
 71
3
 72
9
 73
5
 74
0
 42
0.0000001
 43
0.0000001
 44
0.0000000001
 40
0.0
 40
0.0
 40
0.0
 40
0.0
 40
0.5000005174
 40
1.0
 40
1.0
 40
1.0
 40
1.0
 10
45.6059184383
 20
107.2635778269
 30
0.0
 10
45.5870648576
 20
107.2633192983
 30
0.0
 10
45.5493707669
 20
107.261829941
 30
0.0
 10
45.5116533863
 20
107.2625705961
 30
0.0
 10
45.4927989629
 20
107.2623873219
 30
0.0
  0
LINE
  5
4A4
100
AcDbEntity
  8
0
100
AcDbLine
 62
7
  6
BYLAYER
 10
45.4927989629
 20
107.2623873219
 11
45.4362574171
 21
107.2611968169
  0
SPLINE
  5
4A5
100
AcDbEntity
  8
0
100
AcDbSpline
 62
7
  6
BYLAYER
 70
0
 71
3
 72
9
 73
5
 74
0
 42
0.0000001
 43
0.0000001
 44
0.0000000001
 40
0.0
 40
0.0
 40
0.0
 40
0.0
 40
0.5000000014
 40
1.0
 40
1.0
 40
1.0
 40
1.0
 10
43.7071144079
 20
107.7004653556
 30
0.0
 10
43.6313960523
 20
107.7003689004
 30
0.0
 10
43.479961479
 20
107.6992069063
 30
0.0
 10
43.3285238059
 20
107.6997254632
 30
0.0
 10
43.2528054537
 20
107.6996266939
 30
0.0
  0
SPLINE
  5
4A6
100
AcDbEntity
  8
0
100
AcDbSpline
 62
7
  6
BYLAYER
 70
0
 71
3
 72
14
 73
10
 74
0
 42
0.0000001
 43
0.0000001
 44
0.0000000001
 40
0.0
 40
0.0
 40
0.0
 40
0.0
 40
0.0456038536
 40
0.1037516825
 40
0.1853559711
 40
0.2965554141
 40
0.438278181
 40
0.6068321751
 40
1.0
 40
1.0
 40
1.0
 40
1.0
 10
44.9110057663
 20
107.321715591
 30
0.0
 10
44.911005708
 20
107.325960255
 30
0.0
 10
44.9138728472
 20
107.3357301472
 30
0.0
 10
44.9264632038
 20
107.3481731282
 30
0.0
 10
44.947081486
 20
107.3594206459
 30
0.0
 10
44.9765682678
 20
107.3697107575
 30
0.0
 10
45.0147588149
 20
107.3788383529
 30
0.0
 10
45.0793369947
 20
107.3898230491
 30
0.0
 10
45.1314150418
 20
107.3950409626
 30
0.0
 10
45.167892974
 20
107.3979636465
 30
0.0
  0
SPLINE
  5
4A7
100
AcDbEntity
  8
0
100
AcDbSpline
 62
7
  6
BYLAYER
 70
0
 71
3
 72
9
 73
5
 74
0
 42
0.0000001
 43
0.0000001
 44
0.0000000001
 40
0.0
 40
0.0
 40
0.0
 40
0.0
 40
0.2449474435
 40
1.0
 40
1.0
 40
1.0
 40
1.0
 10
45.167892974
 20
107.3979636465
 30
0.0
 10
45.1759422521
 20
107.3986085706
 30
0.0
 10
45.2088166641
 20
107.4010770572
 30
0.0
 10
45.2417333872
 20
107.4029602523
 30
0.0
 10
45.2665963959
 20
107.4041504676
 30
0.0
  0
SPLINE
  5
4A8
100
AcDbEntity
  8
0
100
AcDbSpline
 62
7
  6
BYLAYER
 70
0
 71
3
 72
9
 73
5
 74
0
 42
0.0000001
 43
0.0000001
 44
0.0000000001
 40
0.0
 40
0.0
 40
0.0
 40
0.0
 40
0.4999999653
 40
1.0
 40
1.0
 40
1.0
 40
1.0
 10
48.4018350672
 20
107.3642237783
 30
0.0
 10
48.3829952101
 20
107.3645182883
 30
0.0
 10
48.345330449
 20
107.3661299442
 30
0.0
 10
48.3076381467
 20
107.3653213179
 30
0.0
 10
48.2887970816
 20
107.3655245839
 30
0.0
  0
LINE
  5
4A9
100
AcDbEntity
  8
0
100
AcDbLine
 62
7
  6
BYLAYER
 10
48.2887970816
 20
107.3655245839
 11
48.232174046
 21
107.3668253894
  0
SPLINE
  5
4AA
100
AcDbEntity
  8
0
100
AcDbSpline
 62
7
  6
BYLAYER
 70
0
 71
3
 72
13
 73
9
 74
0
 42
0.0000001
 43
0.0000001
 44
0.0000000001
 40
0.0
 40
0.0
 40
0.0
 40
0.0
 40
0.3589118513
 40
0.6639840485
 40
0.7865753243
 40
0.8850002725
 40
0.9566893824
 40
1.0
 40
1.0
 40
1.0
 40
1.0
 10
37.7854513904
 20
106.8426355566
 30
0.0
 10
36.7527864609
 20
106.8432252426
 30
0.0
 10
34.8423643395
 20
106.8437880653
 30
0.0
 10
32.5792208427
 20
106.8427946077
 30
0.0
 10
31.0655549145
 20
106.8410542741
 30
0.0
 10
30.2233802079
 20
106.8395449301
 30
0.0
 10
29.6093176947
 20
106.8374495806
 30
0.0
 10
29.2784402875
 20
106.8357242044
 30
0.0
 10
29.1538349612
 20
106.8342725585
 30
0.0
  0
SPLINE
  5
4AB
100
AcDbEntity
  8
0
100
AcDbSpline
 62
7
  6
BYLAYER
 70
0
 71
3
 72
9
 73
5
 74
0
 42
0.0000001
 43
0.0000001
 44
0.0000000001
 40
0.0
 40
0.0
 40
0.0
 40
0.0
 40
0.2592671478
 40
1.0
 40
1.0
 40
1.0
 40
1.0
 10
29.1525079476
 20
106.8339738901
 30
0.0
 10
29.1483796204
 20
106.8345284916
 30
0.0
 10
29.1324317462
 20
106.8364715916
 30
0.0
 10
29.1163767447
 20
106.8375928091
 30
0.0
 10
29.1044785136
 20
106.8378348353
 30
0.0
  0
SPLINE
  5
4AC
100
AcDbEntity
  8
0
100
AcDbSpline
 62
7
  6
BYLAYER
 70
0
 71
3
 72
9
 73
5
 74
0
 42
0.0000001
 43
0.0000001
 44
0.0000000001
 40
0.0
 40
0.0
 40
0.0
 40
0.0
 40
0.499999998
 40
1.0
 40
1.0
 40
1.0
 40
1.0
 10
40.0303528856
 20
107.7721639473
 30
0.0
 10
40.0184759844
 20
107.7719552403
 30
0.0
 10
39.994737231
 20
107.7706951385
 30
0.0
 10
39.9709722483
 20
107.7713160753
 30
0.0
 10
39.9590944689
 20
107.7711654071
 30
0.0
  0
LINE
  5
4AD
100
AcDbEntity
  8
0
100
AcDbLine
 62
7
  6
BYLAYER
 10
39.9590944689
 20
107.7711654071
 11
39.9234430741
 21
107.770166867
  0
SPLINE
  5
4AE
100
AcDbEntity
  8
0
100
AcDbSpline
 62
7
  6
BYLAYER
 70
0
 71
3
 72
13
 73
9
 74
0
 42
0.0000001
 43
0.0000001
 44
0.0000000001
 40
0.0
 40
0.0
 40
0.0
 40
0.0
 40
0.1250152367
 40
0.2500429447
 40
0.4374789833
 40
0.6250253792
 40
0.8124538109
 40
1.0
 40
1.0
 40
1.0
 40
1.0
 10
39.4888326468
 20
107.8582060899
 30
0.0
 10
39.4688719191
 20
107.8575574124
 30
0.0
 10
39.4289858929
 20
107.8552689272
 30
0.0
 10
39.3592705297
 20
107.8502929636
 30
0.0
 10
39.2793602936
 20
107.8488314689
 30
0.0
 10
39.1895102641
 20
107.8514411241
 30
0.0
 10
39.0997163518
 20
107.8464816832
 30
0.0
 10
39.0399987531
 20
107.8417447954
 30
0.0
 10
39.0100637403
 20
107.8405062123
 30
0.0
  0
SPLINE
  5
4AF
100
AcDbEntity
  8
0
100
AcDbSpline
 62
7
  6
BYLAYER
 70
0
 71
3
 72
15
 73
11
 74
0
 42
0.0000001
 43
0.0000001
 44
0.0000000001
 40
0.0
 40
0.0
 40
0.0
 40
0.0
 40
0.3688094894
 40
0.5378094491
 40
0.689166349
 40
0.8152338743
 40
0.9090217834
 40
0.9428343345
 40
0.9683910995
 40
1.0
 40
1.0
 40
1.0
 40
1.0
 10
36.0444858592
 20
107.6431726529
 30
0.0
 10
35.979699723
 20
107.6345060808
 30
0.0
 10
35.8853405453
 20
107.620903226
 30
0.0
 10
35.7650140133
 20
107.5998700291
 30
0.0
 10
35.6874745873
 20
107.5840908766
 30
0.0
 10
35.6236235486
 20
107.568023218
 30
0.0
 10
35.5808576043
 20
107.5541354185
 30
0.0
 10
35.5562207579
 20
107.5421858371
 30
0.0
 10
35.5429395204
 20
107.5337029618
 30
0.0
 10
35.5355034623
 20
107.5246225458
 30
0.0
 10
35.5355034623
 20
107.5190205748
 30
0.0
  0
SPLINE
  5
4B0
100
AcDbEntity
  8
0
100
AcDbSpline
 62
7
  6
BYLAYER
 70
0
 71
3
 72
10
 73
6
 74
0
 42
0.0000001
 43
0.0000001
 44
0.0000000001
 40
0.0
 40
0.0
 40
0.0
 40
0.0
 40
0.2503760424
 40
0.6250833124
 40
1.0
 40
1.0
 40
1.0
 40
1.0
 10
35.6121994398
 20
107.3873553027
 30
0.0
 10
35.609673651
 20
107.3871219795
 30
0.0
 10
35.6034729083
 20
107.385550638
 30
0.0
 10
35.5932329708
 20
107.3866490559
 30
0.0
 10
35.5857678495
 20
107.3849079753
 30
0.0
 10
35.5819858703
 20
107.3845567215
 30
0.0
  0
SPLINE
  5
4B1
100
AcDbEntity
  8
0
100
AcDbSpline
 62
7
  6
BYLAYER
 70
0
 71
3
 72
8
 73
4
 74
0
 42
0.0000001
 43
0.0000001
 44
0.0000000001
 40
0.0
 40
0.0
 40
0.0
 40
0.0
 40
1.0
 40
1.0
 40
1.0
 40
1.0
 10
38.3012070428
 20
107.712531456
 30
0.0
 10
38.2874933949
 20
107.7118380975
 30
0.0
 10
38.2738586906
 20
107.709848858
 30
0.0
 10
38.2601365935
 20
107.7093499214
 30
0.0
  0
SPLINE
  5
4B2
100
AcDbEntity
  8
0
100
AcDbSpline
 62
7
  6
BYLAYER
 70
0
 71
3
 72
8
 73
4
 74
0
 42
0.0000001
 43
0.0000001
 44
0.0000000001
 40
0.0
 40
0.0
 40
0.0
 40
0.0
 40
1.0
 40
1.0
 40
1.0
 40
1.0
 10
38.2601365935
 20
107.7093499214
 30
0.0
 10
38.2464591363
 20
107.7088526079
 30
0.0
 10
38.2327548939
 20
107.709838092
 30
0.0
 10
38.2190771073
 20
107.7093499214
 30
0.0
  0
SPLINE
  5
4B3
100
AcDbEntity
  8
0
100
AcDbSpline
 62
7
  6
BYLAYER
 70
0
 71
3
 72
8
 73
4
 74
0
 42
0.0000001
 43
0.0000001
 44
0.0000000001
 40
0.0
 40
0.0
 40
0.0
 40
0.0
 40
1.0
 40
1.0
 40
1.0
 40
1.0
 10
38.2190771073
 20
107.7093499214
 30
0.0
 10
38.2053619819
 20
107.7088604181
 30
0.0
 10
38.1917334461
 20
107.7068913526
 30
0.0
 10
38.1780286442
 20
107.7061683867
 30
0.0
  0
LINE
  5
4B4
100
AcDbEntity
  8
0
100
AcDbLine
 62
7
  6
BYLAYER
 10
44.0627309652
 20
107.338462241
 11
44.1398655811
 21
107.3384705853
  0
SPLINE
  5
4B5
100
AcDbEntity
  8
0
100
AcDbSpline
 62
7
  6
BYLAYER
 70
0
 71
3
 72
10
 73
6
 74
0
 42
0.0000001
 43
0.0000001
 44
0.0000000001
 40
0.0
 40
0.0
 40
0.0
 40
0.0
 40
0.250016057
 40
0.6250024979
 40
1.0
 40
1.0
 40
1.0
 40
1.0
 10
38.3779030393
 20
107.519471227
 30
0.0
 10
38.3687988436
 20
107.5193116763
 30
0.0
 10
38.3460558154
 20
107.5181539212
 30
0.0
 10
38.3096198027
 20
107.5189510511
 30
0.0
 10
38.2823239564
 20
107.5177033472
 30
0.0
 10
38.268669207
 20
107.5174331522
 30
0.0
  0
SPLINE
  5
4B6
100
AcDbEntity
  8
0
100
AcDbSpline
 62
7
  6
BYLAYER
 70
0
 71
3
 72
9
 73
5
 74
0
 42
0.0000001
 43
0.0000001
 44
0.0000000001
 40
0.0
 40
0.0
 40
0.0
 40
0.0
 40
0.2069805036
 40
1.0
 40
1.0
 40
1.0
 40
1.0
 10
39.2746623858
 20
107.3423112072
 30
0.0
 10
39.2756326573
 20
107.343218799
 30
0.0
 10
39.280647537
 20
107.3472530432
 30
0.0
 10
39.2864461861
 20
107.3501768323
 30
0.0
 10
39.2910936586
 20
107.3522534573
 30
0.0
  0
SPLINE
  5
4B7
100
AcDbEntity
  8
0
100
AcDbSpline
 62
7
  6
BYLAYER
 70
0
 71
3
 72
9
 73
5
 74
0
 42
0.0000001
 43
0.0000001
 44
0.0000000001
 40
0.0
 40
0.0
 40
0.0
 40
0.0
 40
0.2347606925
 40
1.0
 40
1.0
 40
1.0
 40
1.0
 10
39.2910936586
 20
107.3522534573
 30
0.0
 10
39.2920652018
 20
107.3526875709
 30
0.0
 10
39.2962273729
 20
107.354483632
 30
0.0
 10
39.3004694614
 20
107.3560904949
 30
0.0
 10
39.3037394179
 20
107.3572476572
 30
0.0
  0
SPLINE
  5
4B8
100
AcDbEntity
  8
0
100
AcDbSpline
 62
7
  6
BYLAYER
 70
0
 71
3
 72
9
 73
5
 74
0
 42
0.0000001
 43
0.0000001
 44
0.0000000001
 40
0.0
 40
0.0
 40
0.0
 40
0.0
 40
0.2279248988
 40
1.0
 40
1.0
 40
1.0
 40
1.0
 10
39.3037394179
 20
107.3572476572
 30
0.0
 10
39.3064700028
 20
107.3582139484
 30
0.0
 10
39.3185307515
 20
107.3622259851
 30
0.0
 10
39.3308172291
 20
107.3655252875
 30
0.0
 10
39.340344141
 20
107.3678720406
 30
0.0
  0
LINE
  5
4B9
100
AcDbEntity
  8
0
100
AcDbLine
 62
7
  6
BYLAYER
 10
44.4485057663
 20
107.3500929054
 11
44.4589881174
 21
107.3324657689
  0
SPLINE
  5
4BA
100
AcDbEntity
  8
0
100
AcDbSpline
 62
7
  6
BYLAYER
 70
0
 71
3
 72
10
 73
6
 74
0
 42
0.0000001
 43
0.0000001
 44
0.0000000001
 40
0.0
 40
0.0
 40
0.0
 40
0.0
 40
0.6126705225
 40
0.8394558565
 40
1.0
 40
1.0
 40
1.0
 40
1.0
 10
44.0464329552
 20
107.7360205401
 30
0.0
 10
44.0645898468
 20
107.7285535975
 30
0.0
 10
44.0894825927
 20
107.7173204175
 30
0.0
 10
44.1154923093
 20
107.6992332103
 30
0.0
 10
44.1231287311
 20
107.6877731755
 30
0.0
 10
44.1231287311
 20
107.6826287239
 30
0.0
  0
LINE
  5
4BB
100
AcDbEntity
  8
0
100
AcDbLine
 62
7
  6
BYLAYER
 10
66.4000255597
 20
95.6158262164
 11
66.4318491388
 21
95.6151577236
  0
SPLINE
  5
4BC
100
AcDbEntity
  8
0
100
AcDbSpline
 62
7
  6
BYLAYER
 70
0
 71
3
 72
10
 73
6
 74
0
 42
0.0000001
 43
0.0000001
 44
0.0000000001
 40
0.0
 40
0.0
 40
0.0
 40
0.0
 40
0.3495324237
 40
0.6289766471
 40
1.0
 40
1.0
 40
1.0
 40
1.0
 10
43.0261441301
 20
107.6573200042
 30
0.0
 10
43.0261441302
 20
107.6515682495
 30
0.0
 10
43.033742105
 20
107.6421525519
 30
0.0
 10
43.0478937586
 20
107.6344006068
 30
0.0
 10
43.057938904
 20
107.6303637214
 30
0.0
 10
43.0637130216
 20
107.6283799177
 30
0.0
  0
SPLINE
  5
4BD
100
AcDbEntity
  8
0
100
AcDbSpline
 62
7
  6
BYLAYER
 70
0
 71
3
 72
9
 73
5
 74
0
 42
0.0000001
 43
0.0000001
 44
0.0000000001
 40
0.0
 40
0.0
 40
0.0
 40
0.0
 40
0.4346944475
 40
1.0
 40
1.0
 40
1.0
 40
1.0
 10
43.0637130216
 20
107.6283799177
 30
0.0
 10
43.0792514246
 20
107.6230414152
 30
0.0
 10
43.1162018152
 20
107.6144442718
 30
0.0
 10
43.1535630916
 20
107.6087659476
 30
0.0
 10
43.1747525497
 20
107.6060208469
 30
0.0
  0
SPLINE
  5
4BE
100
AcDbEntity
  8
0
100
AcDbSpline
 62
7
  6
BYLAYER
 70
0
 71
3
 72
9
 73
5
 74
0
 42
0.0000001
 43
0.0000001
 44
0.0000000001
 40
0.0
 40
0.0
 40
0.0
 40
0.0
 40
0.2413771513
 40
1.0
 40
1.0
 40
1.0
 40
1.0
 10
43.1747525497
 20
107.6060208469
 30
0.0
 10
43.1795108206
 20
107.6054044115
 30
0.0
 10
43.1992370744
 20
107.6029528654
 30
0.0
 10
43.2190078425
 20
107.6008679131
 30
0.0
 10
43.2340191204
 20
107.5994328769
 30
0.0
  0
SPLINE
  5
4BF
100
AcDbEntity
  8
0
100
AcDbSpline
 62
7
  6
BYLAYER
 70
0
 71
3
 72
9
 73
5
 74
0
 42
0.0000001
 43
0.0000001
 44
0.0000000001
 40
0.0
 40
0.0
 40
0.0
 40
0.0
 40
0.2414575304
 40
1.0
 40
1.0
 40
1.0
 40
1.0
 10
43.2340191204
 20
107.5994328769
 30
0.0
 10
43.2447655516
 20
107.5984055481
 30
0.0
 10
43.2893023897
 20
107.5944677948
 30
0.0
 10
43.3339261538
 20
107.5915702843
 30
0.0
 10
43.3677897524
 20
107.5897222273
 30
0.0
  0
SPLINE
  5
4C0
100
AcDbEntity
  8
0
100
AcDbSpline
 62
7
  6
BYLAYER
 70
0
 71
3
 72
9
 73
5
 74
0
 42
0.0000001
 43
0.0000001
 44
0.0000000001
 40
0.0
 40
0.0
 40
0.0
 40
0.0
 40
0.5864340054
 40
1.0
 40
1.0
 40
1.0
 40
1.0
 10
41.3853148292
 20
107.4954045182
 30
0.0
 10
41.397128048
 20
107.4882413887
 30
0.0
 10
41.4164437469
 20
107.4757194342
 30
0.0
 10
41.4317974519
 20
107.4542239145
 30
0.0
 10
41.4317974519
 20
107.4444810637
 30
0.0
  0
SPLINE
  5
4C1
100
AcDbEntity
  8
0
100
AcDbSpline
 62
7
  6
BYLAYER
 70
0
 71
3
 72
9
 73
5
 74
0
 42
0.0000001
 43
0.0000001
 44
0.0000000001
 40
0.0
 40
0.0
 40
0.0
 40
0.0
 40
0.2541946159
 40
1.0
 40
1.0
 40
1.0
 40
1.0
 10
40.7368852209
 20
107.5602598053
 30
0.0
 10
40.7614083032
 20
107.5605563855
 30
0.0
 10
40.857883231
 20
107.5611224212
 30
0.0
 10
40.9544128044
 20
107.5591462293
 30
0.0
 10
41.0262533525
 20
107.5550747485
 30
0.0
  0
SPLINE
  5
4C2
100
AcDbEntity
  8
0
100
AcDbSpline
 62
7
  6
BYLAYER
 70
0
 71
3
 72
9
 73
5
 74
0
 42
0.0000001
 43
0.0000001
 44
0.0000000001
 40
0.0
 40
0.0
 40
0.0
 40
0.0
 40
0.2732721077
 40
1.0
 40
1.0
 40
1.0
 40
1.0
 10
41.0262533525
 20
107.5550747485
 30
0.0
 10
41.0458048897
 20
107.5539666875
 30
0.0
 10
41.1172940129
 20
107.5491389923
 30
0.0
 10
41.1886731337
 20
107.5414877657
 30
0.0
 10
41.2400334501
 20
107.5328721142
 30
0.0
  0
SPLINE
  5
4C3
100
AcDbEntity
  8
0
100
AcDbSpline
 62
7
  6
BYLAYER
 70
0
 71
3
 72
9
 73
5
 74
0
 42
0.0000001
 43
0.0000001
 44
0.0000000001
 40
0.0
 40
0.0
 40
0.0
 40
0.0
 40
0.2850185248
 40
1.0
 40
1.0
 40
1.0
 40
1.0
 10
41.2734916947
 20
107.5267353212
 30
0.0
 10
41.2834851849
 20
107.5247356359
 30
0.0
 10
41.3184276304
 20
107.5171754201
 30
0.0
 10
41.3529652929
 20
107.5074506148
 30
0.0
 10
41.3769473817
 20
107.4985915588
 30
0.0
  0
SPLINE
  5
4C4
100
AcDbEntity
  8
0
100
AcDbSpline
 62
7
  6
BYLAYER
 70
0
 71
3
 72
10
 73
6
 74
0
 42
0.0000001
 43
0.0000001
 44
0.0000000001
 40
0.0
 40
0.0
 40
0.0
 40
0.0
 40
0.2925547024
 40
0.592211359
 40
1.0
 40
1.0
 40
1.0
 40
1.0
 10
43.8605033468
 20
107.3137520571
 30
0.0
 10
43.8605033321
 20
107.3043285157
 30
0.0
 10
43.8810382072
 20
107.290995497
 30
0.0
 10
43.9102703558
 20
107.2832169801
 30
0.0
 10
43.9332506923
 20
107.2788768103
 30
0.0
 10
43.9462474373
 20
107.2769735327
 30
0.0
  0
SPLINE
  5
4C5
100
AcDbEntity
  8
0
100
AcDbSpline
 62
7
  6
BYLAYER
 70
0
 71
3
 72
9
 73
5
 74
0
 42
0.0000001
 43
0.0000001
 44
0.0000000001
 40
0.0
 40
0.0
 40
0.0
 40
0.0
 40
0.2323427185
 40
1.0
 40
1.0
 40
1.0
 40
1.0
 10
43.9462474373
 20
107.2769735327
 30
0.0
 10
43.954550397
 20
107.2757576254
 30
0.0
 10
43.9903915099
 20
107.2712445103
 30
0.0
 10
44.026451815
 20
107.2687237556
 30
0.0
 10
44.0541389048
 20
107.267265528
 30
0.0
  0
SPLINE
  5
4C6
100
AcDbEntity
  8
0
100
AcDbSpline
 62
7
  6
BYLAYER
 70
0
 71
3
 72
17
 73
13
 74
0
 42
0.0000001
 43
0.0000001
 44
0.0000000001
 40
0.0
 40
0.0
 40
0.0
 40
0.0
 40
0.1848537378
 40
0.3611142778
 40
0.5239301922
 40
0.6687322433
 40
0.7913227602
 40
0.8887203228
 40
0.9272171872
 40
0.9586733043
 40
0.9829733647
 40
1.0
 40
1.0
 40
1.0
 40
1.0
 10
51.7371227218
 20
95.5042544219
 30
0.0
 10
52.6406533171
 20
95.5092854861
 30
0.0
 10
54.4057011004
 20
95.5226287688
 30
0.0
 10
56.9663826861
 20
95.5575821978
 30
0.0
 10
59.3312724505
 20
95.5920832157
 30
0.0
 10
61.4339610775
 20
95.6160314463
 30
0.0
 10
63.2170234105
 20
95.6222282961
 30
0.0
 10
64.4804682515
 20
95.6180911091
 30
0.0
 10
65.2984440231
 20
95.6133182046
 30
0.0
 10
65.7591392624
 20
95.61104867
 30
0.0
 10
66.1148929442
 20
95.6114448699
 30
0.0
 10
66.3168934973
 20
95.613474423
 30
0.0
 10
66.4000966631
 20
95.6153502252
 30
0.0
  0
SPLINE
  5
4C7
100
AcDbEntity
  8
0
100
AcDbSpline
 62
7
  6
BYLAYER
 70
0
 71
3
 72
9
 73
5
 74
0
 42
0.0000001
 43
0.0000001
 44
0.0000000001
 40
0.0
 40
0.0
 40
0.0
 40
0.0
 40
0.490101067
 40
1.0
 40
1.0
 40
1.0
 40
1.0
 10
52.863810359
 20
76.2546278729
 30
0.0
 10
52.66441707
 20
79.3984537163
 30
0.0
 10
52.2790742125
 20
85.8144651536
 30
0.0
 10
51.9181512894
 20
92.2318650048
 30
0.0
 10
51.736983335
 20
95.5042480142
 30
0.0
  0
SPLINE
  5
4C8
100
AcDbEntity
  8
0
100
AcDbSpline
 62
7
  6
BYLAYER
 70
0
 71
3
 72
12
 73
8
 74
0
 42
0.0000001
 43
0.0000001
 44
0.0000000001
 40
0.0
 40
0.0
 40
0.0
 40
0.0
 40
0.0363903292
 40
0.0971295178
 40
0.2949594099
 40
0.5958448777
 40
1.0
 40
1.0
 40
1.0
 40
1.0
 10
19.2590768643
 20
85.1724441984
 30
0.0
 10
19.2596226014
 20
85.1741563667
 30
0.0
 10
19.2625038875
 20
85.1781466789
 30
0.0
 10
19.2723064248
 20
85.1888105517
 30
0.0
 10
19.293309578
 20
85.206970419
 30
0.0
 10
19.3280372778
 20
85.2348327332
 30
0.0
 10
19.3558188906
 20
85.2558598467
 30
0.0
 10
19.3718108877
 20
85.2678006417
 30
0.0
  0
SPLINE
  5
4C9
100
AcDbEntity
  8
0
100
AcDbSpline
 62
7
  6
BYLAYER
 70
0
 71
3
 72
11
 73
7
 74
0
 42
0.0000001
 43
0.0000001
 44
0.0000000001
 40
0.0
 40
0.0
 40
0.0
 40
0.0
 40
0.2993438119
 40
0.4332006821
 40
0.5950350168
 40
1.0
 40
1.0
 40
1.0
 40
1.0
 10
42.5334305357
 20
107.6783962693
 30
0.0
 10
42.5334305357
 20
107.6971120671
 30
0.0
 10
42.5632006366
 20
107.7166124948
 30
0.0
 10
42.59634861
 20
107.7297331844
 30
0.0
 10
42.6386666877
 20
107.7429985332
 30
0.0
 10
42.6732048498
 20
107.7502299056
 30
0.0
 10
42.6981050982
 20
107.7548185781
 30
0.0
  0
SPLINE
  5
4CA
100
AcDbEntity
  8
0
100
AcDbSpline
 62
7
  6
BYLAYER
 70
0
 71
3
 72
9
 73
5
 74
0
 42
0.0000001
 43
0.0000001
 44
0.0000000001
 40
0.0
 40
0.0
 40
0.0
 40
0.0
 40
0.2247071599
 40
1.0
 40
1.0
 40
1.0
 40
1.0
 10
42.6981050982
 20
107.7548185781
 30
0.0
 10
42.7129820788
 20
107.7575601409
 30
0.0
 10
42.779411014
 20
107.7685509323
 30
0.0
 10
42.8463788986
 20
107.7759710033
 30
0.0
 10
42.898345806
 20
107.7808280184
 30
0.0
  0
SPLINE
  5
4CB
100
AcDbEntity
  8
0
100
AcDbSpline
 62
7
  6
BYLAYER
 70
0
 71
3
 72
9
 73
5
 74
0
 42
0.0000001
 43
0.0000001
 44
0.0000000001
 40
0.0
 40
0.0
 40
0.0
 40
0.0
 40
0.2397226411
 40
1.0
 40
1.0
 40
1.0
 40
1.0
 10
42.898345806
 20
107.7808280184
 30
0.0
 10
42.9222498389
 20
107.7830621758
 30
0.0
 10
43.0220495709
 20
107.7914804464
 30
0.0
 10
43.1220653115
 20
107.7971201309
 30
0.0
 10
43.1981287311
 20
107.800572876
 30
0.0
  0
LINE
  5
4CC
100
AcDbEntity
  8
0
100
AcDbLine
 62
7
  6
BYLAYER
 10
43.1981287311
 20
107.800572876
 11
43.3676741639
 21
107.8010329295
  0
SPLINE
  5
4CD
100
AcDbEntity
  8
0
100
AcDbSpline
 62
7
  6
BYLAYER
 70
0
 71
3
 72
9
 73
5
 74
0
 42
0.0000001
 43
0.0000001
 44
0.0000000001
 40
0.0
 40
0.0
 40
0.0
 40
0.0
 40
0.256128564
 40
1.0
 40
1.0
 40
1.0
 40
1.0
 10
43.4444855284
 20
107.8012342152
 30
0.0
 10
43.4623927819
 20
107.801274205
 30
0.0
 10
43.5323070718
 20
107.8009067585
 30
0.0
 10
43.6022179102
 20
107.7984027617
 30
0.0
 10
43.6541211763
 20
107.7951042325
 30
0.0
  0
SPLINE
  5
4CE
100
AcDbEntity
  8
0
100
AcDbSpline
 62
7
  6
BYLAYER
 70
0
 71
3
 72
9
 73
5
 74
0
 42
0.0000001
 43
0.0000001
 44
0.0000000001
 40
0.0
 40
0.0
 40
0.0
 40
0.0
 40
0.2797524306
 40
1.0
 40
1.0
 40
1.0
 40
1.0
 10
43.8559879069
 20
107.7741986061
 30
0.0
 10
43.8739103753
 20
107.7715474061
 30
0.0
 10
43.937849441
 20
107.7612466364
 30
0.0
 10
44.0012865666
 20
107.7477495743
 30
0.0
 10
44.0464329552
 20
107.7360205401
 30
0.0
  0
LINE
  5
4CF
100
AcDbEntity
  8
0
100
AcDbLine
 62
7
  6
BYLAYER
 10
51.504775519
 20
95.5032787269
 11
51.7371706475
 21
95.5042662603
  0
SPLINE
  5
4D0
100
AcDbEntity
  8
0
100
AcDbSpline
 62
7
  6
BYLAYER
 70
0
 71
3
 72
12
 73
8
 74
0
 42
0.0000001
 43
0.0000001
 44
0.0000000001
 40
0.0
 40
0.0
 40
0.0
 40
0.0
 40
0.2085806628
 40
0.4254178589
 40
0.6603106462
 40
0.7956238041
 40
1.0
 40
1.0
 40
1.0
 40
1.0
 10
40.5509556126
 20
107.3013092284
 30
0.0
 10
40.5634083768
 20
107.3126130556
 30
0.0
 10
40.5891943861
 20
107.3352626542
 30
0.0
 10
40.6307024494
 20
107.3685671961
 30
0.0
 10
40.6696582542
 20
107.3958268673
 30
0.0
 10
40.7100028838
 20
107.4180737539
 30
0.0
 10
40.7366763777
 20
107.4282472441
 30
0.0
 10
40.7531542491
 20
107.4284460197
 30
0.0
  0
SPLINE
  5
4D1
100
AcDbEntity
  8
0
100
AcDbSpline
 62
7
  6
BYLAYER
 70
0
 71
3
 72
9
 73
5
 74
0
 42
0.0000001
 43
0.0000001
 44
0.0000000001
 40
0.0
 40
0.0
 40
0.0
 40
0.0
 40
0.2598955968
 40
1.0
 40
1.0
 40
1.0
 40
1.0
 10
40.0879255304
 20
107.2193928693
 30
0.0
 10
40.1038748546
 20
107.2201411692
 30
0.0
 10
40.165216755
 20
107.2235095718
 30
0.0
 10
40.2264636965
 20
107.2289389344
 30
0.0
 10
40.271582156
 20
107.2345727166
 30
0.0
  0
SPLINE
  5
4D2
100
AcDbEntity
  8
0
100
AcDbSpline
 62
7
  6
BYLAYER
 70
0
 71
3
 72
9
 73
5
 74
0
 42
0.0000001
 43
0.0000001
 44
0.0000000001
 40
0.0
 40
0.0
 40
0.0
 40
0.0
 40
0.260275995
 40
1.0
 40
1.0
 40
1.0
 40
1.0
 10
40.271582156
 20
107.2345727166
 30
0.0
 10
40.2784859735
 20
107.2354347718
 30
0.0
 10
40.3049918497
 20
107.2388966082
 30
0.0
 10
40.3314209477
 20
107.2429578938
 30
0.0
 10
40.3508998688
 20
107.2463585655
 30
0.0
  0
SPLINE
  5
4D3
100
AcDbEntity
  8
0
100
AcDbSpline
 62
7
  6
BYLAYER
 70
0
 71
3
 72
9
 73
5
 74
0
 42
0.0000001
 43
0.0000001
 44
0.0000000001
 40
0.0
 40
0.0
 40
0.0
 40
0.0
 40
0.3009820657
 40
1.0
 40
1.0
 40
1.0
 40
1.0
 10
40.3508998688
 20
107.2463585655
 30
0.0
 10
40.3714270684
 20
107.2499422479
 30
0.0
 10
40.4393212877
 20
107.2633327317
 30
0.0
 10
40.506309847
 20
107.2826332131
 30
0.0
 10
40.5509556126
 20
107.3013092284
 30
0.0
  0
SPLINE
  5
4D4
100
AcDbEntity
  8
0
100
AcDbSpline
 62
7
  6
BYLAYER
 70
0
 71
3
 72
9
 73
5
 74
0
 42
0.0000001
 43
0.0000001
 44
0.0000000001
 40
0.0
 40
0.0
 40
0.0
 40
0.0
 40
0.489897773
 40
1.0
 40
1.0
 40
1.0
 40
1.0
 10
52.6030498675
 20
76.2545645741
 30
0.0
 10
52.408957969
 20
79.3969955715
 30
0.0
 10
52.0336189443
 20
85.8127456088
 30
0.0
 10
51.6815656358
 20
92.2297855684
 30
0.0
 10
51.5045922704
 20
95.5032722459
 30
0.0
  0
SPLINE
  5
4D5
100
AcDbEntity
  8
0
100
AcDbSpline
 62
7
  6
BYLAYER
 70
0
 71
3
 72
11
 73
7
 74
0
 42
0.0000001
 43
0.0000001
 44
0.0000000001
 40
0.0
 40
0.0
 40
0.0
 40
0.0
 40
0.249145527
 40
0.4987244568
 40
0.7490310578
 40
1.0
 40
1.0
 40
1.0
 40
1.0
 10
23.8715041908
 20
97.3546511457
 30
0.0
 10
23.6347033711
 20
97.3546525368
 30
0.0
 10
23.1562436807
 20
97.2671927479
 30
0.0
 10
22.5345768725
 20
96.8901686002
 30
0.0
 10
22.0836811592
 20
96.3177927606
 30
0.0
 10
21.9359254741
 20
95.8521774679
 30
0.0
 10
21.9050511697
 20
95.6156501058
 30
0.0
  0
SPLINE
  5
4D6
100
AcDbEntity
  8
0
100
AcDbSpline
 62
7
  6
BYLAYER
 70
0
 71
3
 72
9
 73
5
 74
0
 42
0.0000001
 43
0.0000001
 44
0.0000000001
 40
0.0
 40
0.0
 40
0.0
 40
0.0
 40
0.253601168
 40
1.0
 40
1.0
 40
1.0
 40
1.0
 10
44.2474568537
 20
107.2663481457
 30
0.0
 10
44.2565191219
 20
107.266620435
 30
0.0
 10
44.2922488874
 20
107.2678338175
 30
0.0
 10
44.3279604795
 20
107.2696362307
 30
0.0
 10
44.3545854876
 20
107.2714110979
 30
0.0
  0
SPLINE
  5
4D7
100
AcDbEntity
  8
0
100
AcDbSpline
 62
7
  6
BYLAYER
 70
0
 71
3
 72
9
 73
5
 74
0
 42
0.0000001
 43
0.0000001
 44
0.0000000001
 40
0.0
 40
0.0
 40
0.0
 40
0.0
 40
0.2579830748
 40
1.0
 40
1.0
 40
1.0
 40
1.0
 10
44.3545854876
 20
107.2714110979
 30
0.0
 10
44.3626394244
 20
107.2719479866
 30
0.0
 10
44.393847295
 20
107.2741843768
 30
0.0
 10
44.4250124861
 20
107.2770640462
 30
0.0
 10
44.4480782367
 20
107.2797039878
 30
0.0
  0
SPLINE
  5
4D8
100
AcDbEntity
  8
0
100
AcDbSpline
 62
7
  6
BYLAYER
 70
0
 71
3
 72
9
 73
5
 74
0
 42
0.0000001
 43
0.0000001
 44
0.0000000001
 40
0.0
 40
0.0
 40
0.0
 40
0.0
 40
0.4898978068
 40
1.0
 40
1.0
 40
1.0
 40
1.0
 10
35.7339733838
 20
76.2545979371
 30
0.0
 10
35.9280650701
 20
79.3970256263
 30
0.0
 10
36.303403714
 20
85.8127684644
 30
0.0
 10
36.6554567152
 20
92.229801221
 30
0.0
 10
36.8324299186
 20
95.5032840074
 30
0.0
  0
LINE
  5
4D9
100
AcDbEntity
  8
0
100
AcDbLine
 62
7
  6
BYLAYER
 10
36.5998550085
 20
95.50426626
 11
36.8322478514
 21
95.5032787364
  0
SPLINE
  5
4DA
100
AcDbEntity
  8
0
100
AcDbSpline
 62
7
  6
BYLAYER
 70
0
 71
3
 72
9
 73
5
 74
0
 42
0.0000001
 43
0.0000001
 44
0.0000000001
 40
0.0
 40
0.0
 40
0.0
 40
0.0
 40
0.4901010051
 40
1.0
 40
1.0
 40
1.0
 40
1.0
 10
35.4732103311
 20
76.2545648315
 30
0.0
 10
35.6726045093
 20
79.398402469
 30
0.0
 10
36.0579489905
 20
85.8144387973
 30
0.0
 10
36.4188733093
 20
92.2318635524
 30
0.0
 10
36.600041979
 20
95.5042596585
 30
0.0
  0
SPLINE
  5
4DB
100
AcDbEntity
  8
0
100
AcDbSpline
 62
7
  6
BYLAYER
 70
0
 71
3
 72
9
 73
5
 74
0
 42
0.0000001
 43
0.0000001
 44
0.0000000001
 40
0.0
 40
0.0
 40
0.0
 40
0.0
 40
0.5000000457
 40
1.0
 40
1.0
 40
1.0
 40
1.0
 10
41.062262256
 20
107.4320025727
 30
0.0
 10
41.0278802201
 20
107.43162616
 30
0.0
 10
40.9591324514
 20
107.4293891146
 30
0.0
 10
40.8903560211
 20
107.4304966148
 30
0.0
 10
40.8559730094
 20
107.4302242962
 30
0.0
  0
SPLINE
  5
4DC
100
AcDbEntity
  8
0
100
AcDbSpline
 62
7
  6
BYLAYER
 70
0
 71
3
 72
8
 73
4
 74
0
 42
0.0000001
 43
0.0000001
 44
0.0000000001
 40
0.0
 40
0.0
 40
0.0
 40
0.0
 40
1.0
 40
1.0
 40
1.0
 40
1.0
 10
40.8559730094
 20
107.4302242962
 30
0.0
 10
40.8216960388
 20
107.4299528174
 30
0.0
 10
40.787429801
 20
107.4288594921
 30
0.0
 10
40.7531542491
 20
107.4284460197
 30
0.0
  0
SPLINE
  5
4DD
100
AcDbEntity
  8
0
100
AcDbSpline
 62
7
  6
BYLAYER
 70
0
 71
3
 72
8
 73
4
 74
0
 42
0.0000001
 43
0.0000001
 44
0.0000000001
 40
0.0
 40
0.0
 40
0.0
 40
0.0
 40
1.0
 40
1.0
 40
1.0
 40
1.0
 10
39.9792222213
 20
107.2161024362
 30
0.0
 10
39.924279503
 20
107.2152837672
 30
0.0
 10
39.8693669857
 20
107.2128308537
 30
0.0
 10
39.8144216258
 20
107.2122144612
 30
0.0
  0
SPLINE
  5
4DE
100
AcDbEntity
  8
0
100
AcDbSpline
 62
7
  6
BYLAYER
 70
0
 71
3
 72
8
 73
4
 74
0
 42
0.0000001
 43
0.0000001
 44
0.0000000001
 40
0.0
 40
0.0
 40
0.0
 40
0.0
 40
1.0
 40
1.0
 40
1.0
 40
1.0
 10
39.8144216258
 20
107.2122144612
 30
0.0
 10
39.7596790993
 20
107.2116003441
 30
0.0
 10
39.7049264502
 20
107.2128094643
 30
0.0
 10
39.6501837126
 20
107.2122144612
 30
0.0
  0
SPLINE
  5
4DF
100
AcDbEntity
  8
0
100
AcDbSpline
 62
7
  6
BYLAYER
 70
0
 71
3
 72
8
 73
4
 74
0
 42
0.0000001
 43
0.0000001
 44
0.0000000001
 40
0.0
 40
0.0
 40
0.0
 40
0.0
 40
1.0
 40
1.0
 40
1.0
 40
1.0
 10
39.6501837126
 20
107.2122144612
 30
0.0
 10
39.5956131835
 20
107.2116213298
 30
0.0
 10
39.5410748056
 20
107.2092356519
 30
0.0
 10
39.4865086268
 20
107.2083264862
 30
0.0
  0
SPLINE
  5
4E0
100
AcDbEntity
  8
0
100
AcDbSpline
 62
7
  6
BYLAYER
 70
0
 71
3
 72
9
 73
5
 74
0
 42
0.0000001
 43
0.0000001
 44
0.0000000001
 40
0.0
 40
0.0
 40
0.0
 40
0.0
 40
0.3905288264
 40
1.0
 40
1.0
 40
1.0
 40
1.0
 10
43.6768996401
 20
107.3318814568
 30
0.0
 10
43.6881979599
 20
107.3429964052
 30
0.0
 10
43.7232461439
 20
107.3650231965
 30
0.0
 10
43.7623280676
 20
107.3769603427
 30
0.0
 10
43.7863814289
 20
107.3827254081
 30
0.0
  0
SPLINE
  5
4E1
100
AcDbEntity
  8
0
100
AcDbSpline
 62
7
  6
BYLAYER
 70
0
 71
3
 72
9
 73
5
 74
0
 42
0.0000001
 43
0.0000001
 44
0.0000000001
 40
0.0
 40
0.0
 40
0.0
 40
0.0
 40
0.4466014844
 40
1.0
 40
1.0
 40
1.0
 40
1.0
 10
43.7863814289
 20
107.3827254081
 30
0.0
 10
43.8142924043
 20
107.3894150594
 30
0.0
 10
43.8779451553
 20
107.3994841467
 30
0.0
 10
43.942109854
 20
107.4038192112
 30
0.0
 10
43.9776472154
 20
107.4052190813
 30
0.0
  0
SPLINE
  5
4E2
100
AcDbEntity
  8
0
100
AcDbSpline
 62
7
  6
BYLAYER
 70
0
 71
3
 72
13
 73
9
 74
0
 42
0.0000001
 43
0.0000001
 44
0.0000000001
 40
0.0
 40
0.0
 40
0.0
 40
0.0
 40
0.2421034353
 40
0.3706988919
 40
0.5012593336
 40
0.6316175425
 40
0.7596548476
 40
1.0
 40
1.0
 40
1.0
 40
1.0
 10
66.4317831609
 20
95.6156635766
 30
0.0
 10
66.401934448
 20
95.8443327211
 30
0.0
 10
66.2943796726
 20
96.1904475634
 30
0.0
 10
66.035658284
 20
96.5939804331
 30
0.0
 10
65.7813049178
 20
96.8672606967
 30
0.0
 10
65.479420355
 20
97.0860248831
 30
0.0
 10
65.0492316694
 20
97.2920174409
 30
0.0
 10
64.694277056
 20
97.3546653836
 30
0.0
 10
64.4653428334
 20
97.3546653852
 30
0.0
  0
SPLINE
  5
4E3
100
AcDbEntity
  8
0
100
AcDbSpline
 62
7
  6
BYLAYER
 70
0
 71
3
 72
18
 73
14
 74
0
 42
0.0000001
 43
0.0000001
 44
0.0000000001
 40
0.0
 40
0.0
 40
0.0
 40
0.0
 40
0.1822259993
 40
0.3654458193
 40
0.5398516846
 40
0.6948614574
 40
0.7619036669
 40
0.8209626686
 40
0.8715881023
 40
0.913371897
 40
0.9461629012
 40
0.9706399292
 40
1.0
 40
1.0
 40
1.0
 40
1.0
 10
51.7371709256
 20
95.5042547225
 30
0.0
 10
51.7360201867
 20
95.6196431869
 30
0.0
 10
51.7310041564
 20
95.8510302394
 30
0.0
 10
51.7151901685
 20
96.1925691863
 30
0.0
 10
51.6902587132
 20
96.5162844567
 30
0.0
 10
51.6620415399
 20
96.765846145
 30
0.0
 10
51.6344466287
 20
96.9417453623
 30
0.0
 10
51.6133762441
 20
97.0516567382
 30
0.0
 10
51.5912233548
 20
97.1450989012
 30
0.0
 10
51.5687783295
 20
97.2209636111
 30
0.0
 10
51.5451538126
 20
97.2798767241
 30
0.0
 10
51.5198010166
 20
97.3266489312
 30
0.0
 10
51.4905851644
 20
97.3546653957
 30
0.0
 10
51.4719929659
 20
97.3546653852
 30
0.0
  0
SPLINE
  5
4E4
100
AcDbEntity
  8
0
100
AcDbSpline
 62
7
  6
BYLAYER
 70
0
 71
3
 72
13
 73
9
 74
0
 42
0.0000001
 43
0.0000001
 44
0.0000000001
 40
0.0
 40
0.0
 40
0.0
 40
0.0
 40
0.1225458057
 40
0.2488196257
 40
0.3772269409
 40
0.5063728951
 40
0.760275895
 40
1.0
 40
1.0
 40
1.0
 40
1.0
 10
64.8973883644
 20
97.29983932
 30
0.0
 10
64.9924666965
 20
97.2769435826
 30
0.0
 10
65.1823218623
 20
97.2157397119
 30
0.0
 10
65.4523239416
 20
97.0801966116
 30
0.0
 10
65.7035781283
 20
96.902715142
 30
0.0
 10
65.9961193431
 20
96.6160407932
 30
0.0
 10
66.2684051503
 20
96.1906448806
 30
0.0
 10
66.3753985136
 20
95.805059389
 30
0.0
 10
66.4000870932
 20
95.6153501188
 30
0.0
  0
SPLINE
  5
4E5
100
AcDbEntity
  8
0
100
AcDbSpline
 62
7
  6
BYLAYER
 70
0
 71
3
 72
17
 73
13
 74
0
 42
0.0000001
 43
0.0000001
 44
0.0000000001
 40
0.0
 40
0.0
 40
0.0
 40
0.0
 40
0.367206923
 40
0.5423113169
 40
0.6977732045
 40
0.7649189279
 40
0.8239896918
 40
0.8745273142
 40
0.9161091749
 40
0.9485569635
 40
0.9725060207
 40
1.0
 40
1.0
 40
1.0
 40
1.0
 10
36.8322477919
 20
95.5032904536
 30
0.0
 10
36.8343204889
 20
95.7349381878
 30
0.0
 10
36.8441380102
 20
96.0770956617
 30
0.0
 10
36.8746101488
 20
96.5162826029
 30
0.0
 10
36.9001150561
 20
96.7659625984
 30
0.0
 10
36.925053379
 20
96.9419404842
 30
0.0
 10
36.9440768377
 20
97.0518016396
 30
0.0
 10
36.9640843201
 20
97.1451947459
 30
0.0
 10
36.9842977273
 20
97.2208868623
 30
0.0
 10
37.0056502794
 20
97.2798330147
 30
0.0
 10
37.0280051833
 20
97.3255306635
 30
0.0
 10
37.0543836601
 20
97.3546653747
 30
0.0
 10
37.0717285753
 20
97.3546653852
 30
0.0
  0
SPLINE
  5
4E6
100
AcDbEntity
  8
0
100
AcDbSpline
 62
7
  6
BYLAYER
 70
0
 71
3
 72
17
 73
13
 74
0
 42
0.0000001
 43
0.0000001
 44
0.0000000001
 40
0.0
 40
0.0
 40
0.0
 40
0.0
 40
0.0274939804
 40
0.0514430383
 40
0.0838908275
 40
0.1254726888
 40
0.1760103117
 40
0.2350810759
 40
0.3022267994
 40
0.4576886867
 40
0.6327930797
 40
1.0
 40
1.0
 40
1.0
 40
1.0
 10
51.2652959722
 20
97.3546653852
 30
0.0
 10
51.2826408882
 20
97.3546653731
 30
0.0
 10
51.3090193639
 20
97.32553066
 30
0.0
 10
51.3313742683
 20
97.2798330095
 30
0.0
 10
51.3527268201
 20
97.2208868558
 30
0.0
 10
51.3729402274
 20
97.1451947381
 30
0.0
 10
51.3929477097
 20
97.0518016308
 30
0.0
 10
51.4119711682
 20
96.9419404747
 30
0.0
 10
51.4369094909
 20
96.7659625886
 30
0.0
 10
51.462414398
 20
96.5162825934
 30
0.0
 10
51.4928865363
 20
96.0770956539
 30
0.0
 10
51.5027040575
 20
95.7349381818
 30
0.0
 10
51.5047767544
 20
95.503290449
 30
0.0
  0
SPLINE
  5
4E7
100
AcDbEntity
  8
0
100
AcDbSpline
 62
7
  6
BYLAYER
 70
0
 71
3
 72
13
 73
9
 74
0
 42
0.0000001
 43
0.0000001
 44
0.0000000001
 40
0.0
 40
0.0
 40
0.0
 40
0.0
 40
0.2397463592
 40
0.493675027
 40
0.6228258254
 40
0.7512297364
 40
0.8774862153
 40
1.0
 40
1.0
 40
1.0
 40
1.0
 10
21.9369506992
 20
95.6154521822
 30
0.0
 10
21.96167774
 20
95.8053813449
 30
0.0
 10
22.0688843445
 20
96.1914080748
 30
0.0
 10
22.341734147
 20
96.6171613742
 30
0.0
 10
22.6348538878
 20
96.9039090589
 30
0.0
 10
22.886548411
 20
97.0813201997
 30
0.0
 10
23.1569593257
 20
97.2166829777
 30
0.0
 10
23.3470648464
 20
97.2776833229
 30
0.0
 10
23.4422516079
 20
97.3004672689
 30
0.0
  0
SPLINE
  5
4E8
100
AcDbEntity
  8
0
100
AcDbSpline
 62
7
  6
BYLAYER
 70
0
 71
3
 72
18
 73
14
 74
0
 42
0.0000001
 43
0.0000001
 44
0.0000000001
 40
0.0
 40
0.0
 40
0.0
 40
0.0
 40
0.0293600704
 40
0.0538370978
 40
0.0866281015
 40
0.1284118959
 40
0.179037329
 40
0.2380963303
 40
0.3051385395
 40
0.4601483126
 40
0.6345541784
 40
0.8177739994
 40
1.0
 40
1.0
 40
1.0
 40
1.0
 10
36.8650314962
 20
97.3546653852
 30
0.0
 10
36.8464392979
 20
97.3546653968
 30
0.0
 10
36.817223444
 20
97.3266489353
 30
0.0
 10
36.7918706472
 20
97.2798767294
 30
0.0
 10
36.7682461297
 20
97.2209636178
 30
0.0
 10
36.7458011037
 20
97.1450989089
 30
0.0
 10
36.7236482136
 20
97.0516567471
 30
0.0
 10
36.7025778282
 20
96.9417453721
 30
0.0
 10
36.674982916
 20
96.7658461554
 30
0.0
 10
36.6467657416
 20
96.5162844669
 30
0.0
 10
36.6218342852
 20
96.1925691956
 30
0.0
 10
36.6060202967
 20
95.8510302471
 30
0.0
 10
36.6010042661
 20
95.6196431933
 30
0.0
 10
36.5998535271
 20
95.5042547281
 30
0.0
  0
SPLINE
  5
4E9
100
AcDbEntity
  8
0
100
AcDbSpline
 62
7
  6
BYLAYER
 70
0
 71
3
 72
9
 73
5
 74
0
 42
0.0000001
 43
0.0000001
 44
0.0000000001
 40
0.0
 40
0.0
 40
0.0
 40
0.0
 40
0.2357831288
 40
1.0
 40
1.0
 40
1.0
 40
1.0
 10
41.3931697816
 20
107.767544067
 30
0.0
 10
41.4082956431
 20
107.7695555952
 30
0.0
 10
41.4724859765
 20
107.7777664804
 30
0.0
 10
41.5368872094
 20
107.7845573409
 30
0.0
 10
41.5862254479
 20
107.7879876116
 30
0.0
  0
SPLINE
  5
4EA
100
AcDbEntity
  8
0
100
AcDbSpline
 62
7
  6
BYLAYER
 70
0
 71
3
 72
8
 73
4
 74
0
 42
0.0000001
 43
0.0000001
 44
0.0000000001
 40
0.0
 40
0.0
 40
0.0
 40
0.0
 40
1.0
 40
1.0
 40
1.0
 40
1.0
 10
41.6193223581
 20
107.7899784207
 30
0.0
 10
41.6358215025
 20
107.7908017265
 30
0.0
 10
41.6523386775
 20
107.791365565
 30
0.0
 10
41.6688577246
 20
107.7915093861
 30
0.0
  0
SPLINE
  5
4EB
100
AcDbEntity
  8
0
100
AcDbSpline
 62
7
  6
BYLAYER
 70
0
 71
3
 72
17
 73
13
 74
0
 42
0.0000001
 43
0.0000001
 44
0.0000000001
 40
0.0
 40
0.0
 40
0.0
 40
0.0
 40
0.0170264329
 40
0.0413274494
 40
0.0727861725
 40
0.1112841298
 40
0.2086853362
 40
0.3312785892
 40
0.4760810198
 40
0.6388962634
 40
0.8151514084
 40
1.0
 40
1.0
 40
1.0
 40
1.0
 10
21.9369398832
 20
95.6154522735
 30
0.0
 10
22.020141623
 20
95.6135598026
 30
0.0
 10
22.2221452288
 20
95.6114846633
 30
0.0
 10
22.5779151051
 20
95.611020872
 30
0.0
 10
23.0386329562
 20
95.6132712632
 30
0.0
 10
23.8566435587
 20
95.6181156929
 30
0.0
 10
25.1201241426
 20
95.622338769
 30
0.0
 10
26.903217604
 20
95.615946942
 30
0.0
 10
29.0059171953
 20
95.5920928256
 30
0.0
 10
31.3707769975
 20
95.557536076
 30
0.0
 10
33.9314024271
 20
95.5226357553
 30
0.0
 10
35.6963971417
 20
95.5092404727
 30
0.0
 10
36.5999021882
 20
95.5042544322
 30
0.0
  0
LINE
  5
4EC
100
AcDbEntity
  8
0
100
AcDbLine
 62
7
  6
BYLAYER
 10
21.9051755818
 20
95.6151601827
 11
21.9369994225
 21
95.6158286801
  0
SPLINE
  5
4ED
100
AcDbEntity
  8
0
100
AcDbSpline
 62
7
  6
BYLAYER
 70
0
 71
3
 72
10
 73
6
 74
0
 42
0.0000001
 43
0.0000001
 44
0.0000000001
 40
0.0
 40
0.0
 40
0.0
 40
0.0
 40
0.3058307854
 40
0.586317109
 40
1.0
 40
1.0
 40
1.0
 40
1.0
 10
45.4827395986
 20
107.6688147828
 30
0.0
 10
45.4989307474
 20
107.6479416963
 30
0.0
 10
45.5463847603
 20
107.6226357783
 30
0.0
 10
45.6293400142
 20
107.6009836156
 30
0.0
 10
45.6892725564
 20
107.5935657197
 30
0.0
 10
45.7248768103
 20
107.5905404718
 30
0.0
  0
SPLINE
  5
4EE
100
AcDbEntity
  8
0
100
AcDbSpline
 62
7
  6
BYLAYER
 70
0
 71
3
 72
9
 73
5
 74
0
 42
0.0000001
 43
0.0000001
 44
0.0000000001
 40
0.0
 40
0.0
 40
0.0
 40
0.0
 40
0.2400948919
 40
1.0
 40
1.0
 40
1.0
 40
1.0
 10
45.7248768103
 20
107.5905404718
 30
0.0
 10
45.7363449822
 20
107.5895660359
 30
0.0
 10
45.7841640384
 20
107.5861416508
 30
0.0
 10
45.8321168348
 20
107.584835433
 30
0.0
 10
45.8685438227
 20
107.5845947419
 30
0.0
  0
SPLINE
  5
4EF
100
AcDbEntity
  8
0
100
AcDbSpline
 62
7
  6
BYLAYER
 70
0
 71
3
 72
8
 73
4
 74
0
 42
0.0000001
 43
0.0000001
 44
0.0000000001
 40
0.0
 40
0.0
 40
0.0
 40
0.0
 40
1.0
 40
1.0
 40
1.0
 40
1.0
 10
46.1637072634
 20
107.5927905475
 30
0.0
 10
46.2152837697
 20
107.5923944089
 30
0.0
 10
46.2668517846
 20
107.5911406367
 30
0.0
 10
46.3184288321
 20
107.5908226625
 30
0.0
  0
LINE
  5
4F0
100
AcDbEntity
  8
0
100
AcDbLine
 62
7
  6
BYLAYER
 10
46.3184288321
 20
107.5908226625
 11
46.4725955419
 21
107.5908226625
  0
SPLINE
  5
4F1
100
AcDbEntity
  8
0
100
AcDbSpline
 62
7
  6
BYLAYER
 70
0
 71
3
 72
8
 73
4
 74
0
 42
0.0000001
 43
0.0000001
 44
0.0000000001
 40
0.0
 40
0.0
 40
0.0
 40
0.0
 40
1.0
 40
1.0
 40
1.0
 40
1.0
 10
46.4725955419
 20
107.5908226625
 30
0.0
 10
46.5238028048
 20
107.5905283328
 30
0.0
 10
46.5750013868
 20
107.5893328666
 30
0.0
 10
46.6262072639
 20
107.5888547776
 30
0.0
  0
SPLINE
  5
4F2
100
AcDbEntity
  8
0
100
AcDbSpline
 62
7
  6
BYLAYER
 70
0
 71
3
 72
9
 73
5
 74
0
 42
0.0000001
 43
0.0000001
 44
0.0000000001
 40
0.0
 40
0.0
 40
0.0
 40
0.0
 40
0.391469208
 40
1.0
 40
1.0
 40
1.0
 40
1.0
 10
48.2182303923
 20
107.4192727323
 30
0.0
 10
48.2300711148
 20
107.4248072799
 30
0.0
 10
48.2631094148
 20
107.4322761959
 30
0.0
 10
48.296316098
 20
107.435048742
 30
0.0
 10
48.3166088618
 20
107.4360526635
 30
0.0
  0
SPLINE
  5
4F3
100
AcDbEntity
  8
0
100
AcDbSpline
 62
7
  6
BYLAYER
 70
0
 71
3
 72
9
 73
5
 74
0
 42
0.0000001
 43
0.0000001
 44
0.0000000001
 40
0.0
 40
0.0
 40
0.0
 40
0.0
 40
0.2440478318
 40
1.0
 40
1.0
 40
1.0
 40
1.0
 10
48.3166088618
 20
107.4360526635
 30
0.0
 10
48.3224015839
 20
107.4363392404
 30
0.0
 10
48.3461510667
 20
107.4372418615
 30
0.0
 10
48.3699272232
 20
107.4372651344
 30
0.0
 10
48.3878902759
 20
107.4369852242
 30
0.0
  0
SPLINE
  5
4F4
100
AcDbEntity
  8
0
100
AcDbSpline
 62
7
  6
BYLAYER
 70
0
 71
3
 72
11
 73
7
 74
0
 42
0.0000001
 43
0.0000001
 44
0.0000000001
 40
0.0
 40
0.0
 40
0.0
 40
0.0
 40
0.1481649453
 40
0.3435071484
 40
0.621493476
 40
1.0
 40
1.0
 40
1.0
 40
1.0
 10
45.0039710115
 20
107.6782754696
 30
0.0
 10
45.0039710115
 20
107.6839964742
 30
0.0
 10
45.0085065406
 20
107.6973492353
 30
0.0
 10
45.0269233563
 20
107.7136307696
 30
0.0
 10
45.056345509
 20
107.7285902846
 30
0.0
 10
45.0804859515
 20
107.7366018996
 30
0.0
 10
45.0945257733
 20
107.740661825
 30
0.0
  0
SPLINE
  5
4F5
100
AcDbEntity
  8
0
100
AcDbSpline
 62
7
  6
BYLAYER
 70
0
 71
3
 72
9
 73
5
 74
0
 42
0.0000001
 43
0.0000001
 44
0.0000000001
 40
0.0
 40
0.0
 40
0.0
 40
0.0
 40
0.2267116935
 40
1.0
 40
1.0
 40
1.0
 40
1.0
 10
45.0945257733
 20
107.740661825
 30
0.0
 10
45.0995447869
 20
107.742113184
 30
0.0
 10
45.121782123
 20
107.7481725367
 30
0.0
 10
45.1443265084
 20
107.7530578111
 30
0.0
 10
45.1618246641
 20
107.7564329453
 30
0.0
  0
SPLINE
  5
4F6
100
AcDbEntity
  8
0
100
AcDbSpline
 62
7
  6
BYLAYER
 70
0
 71
3
 72
9
 73
5
 74
0
 42
0.0000001
 43
0.0000001
 44
0.0000000001
 40
0.0
 40
0.0
 40
0.0
 40
0.0
 40
0.457852238
 40
1.0
 40
1.0
 40
1.0
 40
1.0
 10
45.1618246641
 20
107.7564329453
 30
0.0
 10
45.2087215708
 20
107.7654786614
 30
0.0
 10
45.3122575055
 20
107.7792929182
 30
0.0
 10
45.4162238139
 20
107.7878807853
 30
0.0
 10
45.472650645
 20
107.79168179
 30
0.0
  0
SPLINE
  5
4F7
100
AcDbEntity
  8
0
100
AcDbSpline
 62
7
  6
BYLAYER
 70
0
 71
3
 72
9
 73
5
 74
0
 42
0.0000001
 43
0.0000001
 44
0.0000000001
 40
0.0
 40
0.0
 40
0.0
 40
0.0
 40
0.7517368531
 40
1.0
 40
1.0
 40
1.0
 40
1.0
 10
45.7755785774
 20
107.7964927878
 30
0.0
 10
45.8057068819
 20
107.7963035815
 30
0.0
 10
45.8457820678
 20
107.7954205559
 30
0.0
 10
45.8858368275
 20
107.7940345207
 30
0.0
 10
45.895780155
 20
107.7936660872
 30
0.0
  0
SPLINE
  5
4F8
100
AcDbEntity
  8
0
100
AcDbSpline
 62
7
  6
BYLAYER
 70
0
 71
3
 72
12
 73
8
 74
0
 42
0.0000001
 43
0.0000001
 44
0.0000000001
 40
0.0
 40
0.0
 40
0.0
 40
0.0
 40
0.0750021614
 40
0.1666649188
 40
0.3957652359
 40
0.6775856548
 40
1.0
 40
1.0
 40
1.0
 40
1.0
 10
37.1082925958
 20
108.2144802504
 30
0.0
 10
37.2169277903
 20
108.2234862211
 30
0.0
 10
37.4588103366
 20
108.2375731731
 30
0.0
 10
38.0337209521
 20
108.2565638188
 30
0.0
 10
38.909594426
 20
108.2637508732
 30
0.0
 10
40.1207356388
 20
108.2536845933
 30
0.0
 10
40.9987493796
 20
108.2337466402
 30
0.0
 10
41.4671249136
 20
108.2193809734
 30
0.0
  0
SPLINE
  5
4F9
100
AcDbEntity
  8
0
100
AcDbSpline
 62
7
  6
BYLAYER
 70
0
 71
3
 72
12
 73
8
 74
0
 42
0.0000001
 43
0.0000001
 44
0.0000000001
 40
0.0
 40
0.0
 40
0.0
 40
0.0
 40
0.1018733955
 40
0.1791794256
 40
0.2826628023
 40
0.5814205785
 40
1.0
 40
1.0
 40
1.0
 40
1.0
 10
44.2927897524
 20
107.851504493
 30
0.0
 10
44.2927897524
 20
107.8563916786
 30
0.0
 10
44.2981733873
 20
107.8646004461
 30
0.0
 10
44.309559628
 20
107.8717531092
 30
0.0
 10
44.3307626282
 20
107.8810529529
 30
0.0
 10
44.3692236882
 20
107.8901888384
 30
0.0
 10
44.403261739
 20
107.8952689909
 30
0.0
 10
44.4231932144
 20
107.8977114033
 30
0.0
  0
SPLINE
  5
4FA
100
AcDbEntity
  8
0
100
AcDbSpline
 62
7
  6
BYLAYER
 70
0
 71
3
 72
9
 73
5
 74
0
 42
0.0000001
 43
0.0000001
 44
0.0000000001
 40
0.0
 40
0.0
 40
0.0
 40
0.0
 40
0.2362367495
 40
1.0
 40
1.0
 40
1.0
 40
1.0
 10
44.455849023
 20
107.9012913423
 30
0.0
 10
44.4661840463
 20
107.902305646
 30
0.0
 10
44.5099741055
 20
107.9061774249
 30
0.0
 10
44.553873053
 20
107.9087099569
 30
0.0
 10
44.5874121971
 20
107.9102414817
 30
0.0
  0
LINE
  5
4FB
100
AcDbEntity
  8
0
100
AcDbLine
 62
7
  6
BYLAYER
 10
44.5873889635
 20
107.9102414817
 11
44.6483935767
 21
107.910143984
  0
SPLINE
  5
4FC
100
AcDbEntity
  8
0
100
AcDbSpline
 62
7
  6
BYLAYER
 70
0
 71
3
 72
9
 73
5
 74
0
 42
0.0000001
 43
0.0000001
 44
0.0000000001
 40
0.0
 40
0.0
 40
0.0
 40
0.0
 40
0.3114654764
 40
1.0
 40
1.0
 40
1.0
 40
1.0
 10
44.6790508174
 20
107.9100985969
 30
0.0
 10
44.6952785687
 20
107.9100961513
 30
0.0
 10
44.7473609244
 20
107.9085750819
 30
0.0
 10
44.7993404988
 20
107.9018429466
 30
0.0
 10
44.8343099903
 20
107.8938401313
 30
0.0
  0
SPLINE
  5
4FD
100
AcDbEntity
  8
0
100
AcDbSpline
 62
7
  6
BYLAYER
 70
0
 71
3
 72
8
 73
4
 74
0
 42
0.0000001
 43
0.0000001
 44
0.0000000001
 40
0.0
 40
0.0
 40
0.0
 40
0.0
 40
1.0
 40
1.0
 40
1.0
 40
1.0
 10
47.361440095
 20
108.5260812424
 30
0.0
 10
47.0663081486
 20
108.5376155047
 30
0.0
 10
46.7704968812
 20
108.5359594926
 30
0.0
 10
46.475370151
 20
108.5242925236
 30
0.0
  0
SPLINE
  5
4FE
100
AcDbEntity
  8
0
100
AcDbSpline
 62
7
  6
BYLAYER
 70
0
 71
3
 72
9
 73
5
 74
0
 42
0.0000001
 43
0.0000001
 44
0.0000000001
 40
0.0
 40
0.0
 40
0.0
 40
0.0
 40
0.2545847206
 40
1.0
 40
1.0
 40
1.0
 40
1.0
 10
49.3088733925
 20
107.2151382705
 30
0.0
 10
49.2987306296
 20
107.2154479681
 30
0.0
 10
49.2588991063
 20
107.2168804785
 30
0.0
 10
49.2190855968
 20
107.2192527261
 30
0.0
 10
49.1895057545
 20
107.2220466801
 30
0.0
  0
SPLINE
  5
4FF
100
AcDbEntity
  8
0
100
AcDbSpline
 62
7
  6
BYLAYER
 70
0
 71
3
 72
10
 73
6
 74
0
 42
0.0000001
 43
0.0000001
 44
0.0000000001
 40
0.0
 40
0.0
 40
0.0
 40
0.0
 40
0.6049862059
 40
0.8330863396
 40
1.0
 40
1.0
 40
1.0
 40
1.0
 10
49.1895057545
 20
107.2220466801
 30
0.0
 10
49.161822234
 20
107.2246615177
 30
0.0
 10
49.1236631936
 20
107.229269927
 30
0.0
 10
49.0790628182
 20
107.2405500318
 30
0.0
 10
49.0620859974
 20
107.2473350467
 30
0.0
 10
49.0553966133
 20
107.2510911662
 30
0.0
  0
SPLINE
  5
500
100
AcDbEntity
  8
0
100
AcDbSpline
 62
7
  6
BYLAYER
 70
0
 71
3
 72
9
 73
5
 74
0
 42
0.0000001
 43
0.0000001
 44
0.0000000001
 40
0.0
 40
0.0
 40
0.0
 40
0.0
 40
0.2948978422
 40
1.0
 40
1.0
 40
1.0
 40
1.0
 10
49.0553966133
 20
107.2510911662
 30
0.0
 10
49.0538314443
 20
107.2519700156
 30
0.0
 10
49.0486365451
 20
107.2551221681
 30
0.0
 10
49.0438358902
 20
107.2590836326
 30
0.0
 10
49.0411785443
 20
107.2624539623
 30
0.0
  0
SPLINE
  5
501
100
AcDbEntity
  8
0
100
AcDbSpline
 62
7
  6
BYLAYER
 70
0
 71
3
 72
9
 73
5
 74
0
 42
0.0000001
 43
0.0000001
 44
0.0000000001
 40
0.0
 40
0.0
 40
0.0
 40
0.0
 40
0.2802930468
 40
1.0
 40
1.0
 40
1.0
 40
1.0
 10
49.0411785443
 20
107.2624539623
 30
0.0
 10
49.0403618766
 20
107.2634897475
 30
0.0
 10
49.037686883
 20
107.2673645003
 30
0.0
 10
49.0363196682
 20
107.272157228
 30
0.0
 10
49.0363196682
 20
107.2755440523
 30
0.0
  0
SPLINE
  5
502
100
AcDbEntity
  8
0
100
AcDbSpline
 62
7
  6
BYLAYER
 70
0
 71
3
 72
13
 73
9
 74
0
 42
0.0000001
 43
0.0000001
 44
0.0000000001
 40
0.0
 40
0.0
 40
0.0
 40
0.0
 40
0.1773864986
 40
0.2994468806
 40
0.4249316295
 40
0.5438223233
 40
0.7760703341
 40
1.0
 40
1.0
 40
1.0
 40
1.0
 10
44.7039836254
 20
108.5625230625
 30
0.0
 10
44.7038108054
 20
108.5632890344
 30
0.0
 10
44.7062872029
 20
108.5636933855
 30
0.0
 10
44.7054718424
 20
108.5658666954
 30
0.0
 10
44.7049390015
 20
108.5672945631
 30
0.0
 10
44.7045969599
 20
108.5694157729
 30
0.0
 10
44.703899158
 20
108.5718474669
 30
0.0
 10
44.7034514059
 20
108.5738280586
 30
0.0
 10
44.7031062848
 20
108.5747572945
 30
0.0
  0
SPLINE
  5
503
100
AcDbEntity
  8
0
100
AcDbSpline
 62
7
  6
BYLAYER
 70
0
 71
3
 72
11
 73
7
 74
0
 42
0.0000001
 43
0.0000001
 44
0.0000000001
 40
0.0
 40
0.0
 40
0.0
 40
0.0
 40
0.250686989
 40
0.5010653947
 40
0.7508956117
 40
1.0
 40
1.0
 40
1.0
 40
1.0
 10
59.9599330973
 20
105.8803883463
 30
0.0
 10
59.9580294269
 20
105.9909888444
 30
0.0
 10
59.917242862
 20
106.2131541962
 30
0.0
 10
59.7513104805
 20
106.5068037877
 30
0.0
 10
59.4994053408
 20
106.7300284246
 30
0.0
 10
59.2913370021
 20
106.8157451881
 30
0.0
 10
59.1841369493
 20
106.8400399656
 30
0.0
  0
SPLINE
  5
504
100
AcDbEntity
  8
0
100
AcDbSpline
 62
7
  6
BYLAYER
 70
0
 71
3
 72
8
 73
4
 74
0
 42
0.0000001
 43
0.0000001
 44
0.0000000001
 40
0.0
 40
0.0
 40
0.0
 40
0.0
 40
1.0
 40
1.0
 40
1.0
 40
1.0
 10
41.864234597
 20
108.5245472674
 30
0.0
 10
41.5741004535
 20
108.5358214759
 30
0.0
 10
41.2832906514
 20
108.5372828462
 30
0.0
 10
40.9931758101
 20
108.5255224102
 30
0.0
  0
SPLINE
  5
505
100
AcDbEntity
  8
0
100
AcDbSpline
 62
7
  6
BYLAYER
 70
0
 71
3
 72
11
 73
7
 74
0
 42
0.0000001
 43
0.0000001
 44
0.0000000001
 40
0.0
 40
0.0
 40
0.0
 40
0.0
 40
0.2427320747
 40
0.4996743072
 40
0.7568159379
 40
1.0
 40
1.0
 40
1.0
 40
1.0
 10
59.2391842804
 20
106.8440853104
 30
0.0
 10
59.3433059598
 20
106.8202009437
 30
0.0
 10
59.5511349565
 20
106.735558085
 30
0.0
 10
59.8062312547
 20
106.511591724
 30
0.0
 10
59.9720405534
 20
106.2151837522
 30
0.0
 10
60.0118110414
 20
105.9940963425
 30
0.0
 10
60.0137354777
 20
105.8870887605
 30
0.0
  0
SPLINE
  5
506
100
AcDbEntity
  8
0
100
AcDbSpline
 62
7
  6
BYLAYER
 70
0
 71
3
 72
13
 73
9
 74
0
 42
0.0000001
 43
0.0000001
 44
0.0000000001
 40
0.0
 40
0.0
 40
0.0
 40
0.0
 40
0.3372329075
 40
0.6359957216
 40
0.7605771087
 40
0.864321449
 40
0.94471238
 40
1.0
 40
1.0
 40
1.0
 40
1.0
 10
50.6393719911
 20
105.8801963203
 30
0.0
 10
50.6405208456
 20
105.9890220203
 30
0.0
 10
50.6371479086
 20
106.1943120455
 30
0.0
 10
50.6237771583
 20
106.439514187
 30
0.0
 10
50.6068631906
 20
106.6087796427
 30
0.0
 10
50.5924831611
 20
106.7074789687
 30
0.0
 10
50.575068494
 20
106.7827601009
 30
0.0
 10
50.5606470058
 20
106.8244280419
 30
0.0
 10
50.552419965
 20
106.8402605257
 30
0.0
  0
SPLINE
  5
507
100
AcDbEntity
  8
0
100
AcDbSpline
 62
7
  6
BYLAYER
 70
0
 71
3
 72
13
 73
9
 74
0
 42
0.0000001
 43
0.0000001
 44
0.0000000001
 40
0.0
 40
0.0
 40
0.0
 40
0.0
 40
0.0539179166
 40
0.1336607783
 40
0.2373619798
 40
0.3621840563
 40
0.661733377
 40
1.0
 40
1.0
 40
1.0
 40
1.0
 10
49.9523579396
 20
106.8443375281
 30
0.0
 10
49.9581479707
 20
106.8280618517
 30
0.0
 10
49.967411411
 20
106.7860489213
 30
0.0
 10
49.9786860527
 20
106.710887515
 30
0.0
 10
49.9887490178
 20
106.6125790016
 30
0.0
 10
50.0011685905
 20
106.4438455539
 30
0.0
 10
50.0110120796
 20
106.1996364919
 30
0.0
 10
50.0143158544
 20
105.9953000624
 30
0.0
 10
50.0148005471
 20
105.886923045
 30
0.0
  0
SPLINE
  5
508
100
AcDbEntity
  8
0
100
AcDbSpline
 62
7
  6
BYLAYER
 70
0
 71
3
 72
13
 73
9
 74
0
 42
0.0000001
 43
0.0000001
 44
0.0000000001
 40
0.0
 40
0.0
 40
0.0
 40
0.0
 40
0.3372363834
 40
0.6359508503
 40
0.7605405911
 40
0.8643026292
 40
0.9446843733
 40
1.0
 40
1.0
 40
1.0
 40
1.0
 10
37.69764821
 20
105.8845161678
 30
0.0
 10
37.6970717225
 20
105.9931120006
 30
0.0
 10
37.6997864122
 20
106.197932408
 30
0.0
 10
37.71330288
 20
106.4426027553
 30
0.0
 10
37.7303805293
 20
106.6114725176
 30
0.0
 10
37.7447123285
 20
106.7099622046
 30
0.0
 10
37.7617150671
 20
106.785158231
 30
0.0
 10
37.7758317233
 20
106.8268536195
 30
0.0
 10
37.7840223314
 20
106.8426716634
 30
0.0
  0
SPLINE
  5
509
100
AcDbEntity
  8
0
100
AcDbSpline
 62
7
  6
BYLAYER
 70
0
 71
3
 72
13
 73
9
 74
0
 42
0.0000001
 43
0.0000001
 44
0.0000000001
 40
0.0
 40
0.0
 40
0.0
 40
0.0
 40
0.0509437205
 40
0.1287516221
 40
0.2337002273
 40
0.3625968109
 40
0.671257996
 40
1.0
 40
1.0
 40
1.0
 40
1.0
 10
38.3922476461
 20
106.8466459557
 30
0.0
 10
38.3868132464
 20
106.8312598121
 30
0.0
 10
38.3777139602
 20
106.7908582318
 30
0.0
 10
38.3664219704
 20
106.7168926177
 30
0.0
 10
38.3560830446
 20
106.6175506603
 30
0.0
 10
38.3431268864
 20
106.4442637894
 30
0.0
 10
38.3333180464
 20
106.1989345901
 30
0.0
 10
38.3308210761
 20
105.9947675223
 30
0.0
 10
38.3308801209
 20
105.8894689649
 30
0.0
  0
SPLINE
  5
50A
100
AcDbEntity
  8
0
100
AcDbSpline
 62
7
  6
BYLAYER
 70
0
 71
3
 72
11
 73
7
 74
0
 42
0.0000001
 43
0.0000001
 44
0.0000000001
 40
0.0
 40
0.0
 40
0.0
 40
0.0
 40
0.2506631029
 40
0.5010032312
 40
0.7507955695
 40
1.0
 40
1.0
 40
1.0
 40
1.0
 10
28.3770138814
 20
105.875821405
 30
0.0
 10
28.3789425077
 20
105.9864049369
 30
0.0
 10
28.4201618343
 20
106.2084790087
 30
0.0
 10
28.5863618921
 20
106.5018595969
 30
0.0
 10
28.8385484066
 20
106.7248016404
 30
0.0
 10
29.0467877712
 20
106.8101347197
 30
0.0
 10
29.1540554763
 20
106.8343033662
 30
0.0
  0
SPLINE
  5
50B
100
AcDbEntity
  8
0
100
AcDbSpline
 62
7
  6
BYLAYER
 70
0
 71
3
 72
11
 73
7
 74
0
 42
0.0000001
 43
0.0000001
 44
0.0000000001
 40
0.0
 40
0.0
 40
0.0
 40
0.0
 40
0.2496268479
 40
0.4995117047
 40
0.7496698775
 40
1.0
 40
1.0
 40
1.0
 40
1.0
 10
29.1030976246
 20
106.8375280967
 30
0.0
 10
28.9957898671
 20
106.8131304559
 30
0.0
 10
28.7876308266
 20
106.7276011815
 30
0.0
 10
28.5356228565
 20
106.5047139831
 30
0.0
 10
28.3696028343
 20
106.2117654794
 30
0.0
 10
28.328622701
 20
105.990094002
 30
0.0
 10
28.3266645446
 20
105.8797549895
 30
0.0
  0
LINE
  5
50C
100
AcDbEntity
  8
0
100
AcDbLine
 62
7
  6
BYLAYER
 10
43.6336311689
 20
108.5697809664
 11
43.6338961402
 21
108.5748754034
  0
SPLINE
  5
50D
100
AcDbEntity
  8
0
100
AcDbSpline
 62
7
  6
BYLAYER
 70
0
 71
3
 72
9
 73
5
 74
0
 42
0.0000001
 43
0.0000001
 44
0.0000000001
 40
0.0
 40
0.0
 40
0.0
 40
0.0
 40
0.2402918792
 40
1.0
 40
1.0
 40
1.0
 40
1.0
 10
49.0567315027
 20
107.3483646226
 30
0.0
 10
49.0651090446
 20
107.3492097741
 30
0.0
 10
49.1000031548
 20
107.352428728
 30
0.0
 10
49.1349853114
 20
107.3546345404
 30
0.0
 10
49.1615741237
 20
107.3559416635
 30
0.0
  0
SPLINE
  5
50E
100
AcDbEntity
  8
0
100
AcDbSpline
 62
7
  6
BYLAYER
 70
0
 71
3
 72
12
 73
8
 74
0
 42
0.0000001
 43
0.0000001
 44
0.0000000001
 40
0.0
 40
0.0
 40
0.0
 40
0.0
 40
0.1158075252
 40
0.1968086674
 40
0.3021009594
 40
0.5976580076
 40
1.0
 40
1.0
 40
1.0
 40
1.0
 10
48.8666595291
 20
107.2812717769
 30
0.0
 10
48.8666595291
 20
107.2880554736
 30
0.0
 10
48.8725867393
 20
107.2994839919
 30
0.0
 10
48.8867859872
 20
107.3100441382
 30
0.0
 10
48.9121583852
 20
107.3227650487
 30
0.0
 10
48.9579049171
 20
107.3349748261
 30
0.0
 10
48.9982720427
 20
107.3413905638
 30
0.0
 10
49.0216501643
 20
107.3443771777
 30
0.0
  0
LINE
  5
50F
100
AcDbEntity
  8
0
100
AcDbLine
 62
7
  6
BYLAYER
 10
49.3919102978
 20
107.2132973209
 11
49.345428116
 21
107.2142294551
  0
SPLINE
  5
510
100
AcDbEntity
  8
0
100
AcDbSpline
 62
7
  6
BYLAYER
 70
0
 71
3
 72
9
 73
5
 74
0
 42
0.0000001
 43
0.0000001
 44
0.0000000001
 40
0.0
 40
0.0
 40
0.0
 40
0.0
 40
0.2711343826
 40
1.0
 40
1.0
 40
1.0
 40
1.0
 10
49.7312323402
 20
107.7235736406
 30
0.0
 10
49.7463769742
 20
107.7227323998
 30
0.0
 10
49.8021604171
 20
107.7183266107
 30
0.0
 10
49.8576528007
 20
107.7109132539
 30
0.0
 10
49.8979620501
 20
107.7047700119
 30
0.0
  0
SPLINE
  5
511
100
AcDbEntity
  8
0
100
AcDbSpline
 62
7
  6
BYLAYER
 70
0
 71
3
 72
9
 73
5
 74
0
 42
0.0000001
 43
0.0000001
 44
0.0000000001
 40
0.0
 40
0.0
 40
0.0
 40
0.0
 40
0.2200927114
 40
1.0
 40
1.0
 40
1.0
 40
1.0
 10
49.1757670948
 20
107.675094415
 30
0.0
 10
49.1829860294
 20
107.6775055399
 30
0.0
 10
49.2160244983
 20
107.6877453316
 30
0.0
 10
49.2498279047
 20
107.695387317
 30
0.0
 10
49.276323037
 20
107.700424447
 30
0.0
  0
SPLINE
  5
512
100
AcDbEntity
  8
0
100
AcDbSpline
 62
7
  6
BYLAYER
 70
0
 71
3
 72
9
 73
5
 74
0
 42
0.0000001
 43
0.0000001
 44
0.0000000001
 40
0.0
 40
0.0
 40
0.0
 40
0.0
 40
0.2279688272
 40
1.0
 40
1.0
 40
1.0
 40
1.0
 10
49.276323037
 20
107.700424447
 30
0.0
 10
49.28553559
 20
107.7021758943
 30
0.0
 10
49.3260444828
 20
107.7093454716
 30
0.0
 10
49.3668690799
 20
107.7146540874
 30
0.0
 10
49.3984468085
 20
107.718030505
 30
0.0
  0
SPLINE
  5
513
100
AcDbEntity
  8
0
100
AcDbSpline
 62
7
  6
BYLAYER
 70
0
 71
3
 72
9
 73
5
 74
0
 42
0.0000001
 43
0.0000001
 44
0.0000000001
 40
0.0
 40
0.0
 40
0.0
 40
0.0
 40
0.2346722017
 40
1.0
 40
1.0
 40
1.0
 40
1.0
 10
49.3984468085
 20
107.718030505
 30
0.0
 10
49.4099035688
 20
107.7192555079
 30
0.0
 10
49.4587686034
 20
107.7240554616
 30
0.0
 10
49.5077746926
 20
107.727352915
 30
0.0
 10
49.5453027319
 20
107.7292604265
 30
0.0
  0
SPLINE
  5
514
100
AcDbEntity
  8
0
100
AcDbSpline
 62
7
  6
BYLAYER
 70
0
 71
3
 72
9
 73
5
 74
0
 42
0.0000001
 43
0.0000001
 44
0.0000000001
 40
0.0
 40
0.0
 40
0.0
 40
0.0
 40
0.2351284405
 40
1.0
 40
1.0
 40
1.0
 40
1.0
 10
47.3405006821
 20
107.3558923159
 30
0.0
 10
47.3459945554
 20
107.3573030011
 30
0.0
 10
47.3694022817
 20
107.3631347823
 30
0.0
 10
47.3930035529
 20
107.3682056378
 30
0.0
 10
47.4111500072
 20
107.3715457921
 30
0.0
  0
SPLINE
  5
515
100
AcDbEntity
  8
0
100
AcDbSpline
 62
7
  6
BYLAYER
 70
0
 71
3
 72
9
 73
5
 74
0
 42
0.0000001
 43
0.0000001
 44
0.0000000001
 40
0.0
 40
0.0
 40
0.0
 40
0.0
 40
0.2213511331
 40
1.0
 40
1.0
 40
1.0
 40
1.0
 10
47.4111500072
 20
107.3715457921
 30
0.0
 10
47.4190392023
 20
107.3729979287
 30
0.0
 10
47.4547595975
 20
107.3790956149
 30
0.0
 10
47.4909033055
 20
107.3829406352
 30
0.0
 10
47.5190968601
 20
107.3841173428
 30
0.0
  0
SPLINE
  5
516
100
AcDbEntity
  8
0
100
AcDbSpline
 62
7
  6
BYLAYER
 70
0
 71
3
 72
17
 73
13
 74
0
 42
0.0000001
 43
0.0000001
 44
0.0000000001
 40
0.0
 40
0.0
 40
0.0
 40
0.0
 40
0.008578318
 40
0.0246838756
 40
0.0718418127
 40
0.12888123
 40
0.1903911693
 40
0.319837638
 40
0.4533698059
 40
0.5888699331
 40
0.7254236164
 40
1.0
 40
1.0
 40
1.0
 40
1.0
 10
49.5453027319
 20
107.3388633731
 30
0.0
 10
49.5453027319
 20
107.3393938496
 30
0.0
 10
49.543753951
 20
107.3404480722
 30
0.0
 10
49.5398379123
 20
107.3418527922
 30
0.0
 10
49.5323200938
 20
107.3434181805
 30
0.0
 10
49.5222777204
 20
107.3449256047
 30
0.0
 10
49.507015121
 20
107.3467672178
 30
0.0
 10
49.487048691
 20
107.3485991639
 30
0.0
 10
49.4624651116
 20
107.3503867286
 30
0.0
 10
49.4374286835
 20
107.3518658592
 30
0.0
 10
49.4036650946
 20
107.3535203793
 30
0.0
 10
49.3782574778
 20
107.3544566909
 30
0.0
 10
49.3612860554
 20
107.3549833026
 30
0.0
  0
SPLINE
  5
517
100
AcDbEntity
  8
0
100
AcDbSpline
 62
7
  6
BYLAYER
 70
0
 71
3
 72
9
 73
5
 74
0
 42
0.0000001
 43
0.0000001
 44
0.0000000001
 40
0.0
 40
0.0
 40
0.0
 40
0.0
 40
0.5000000788
 40
1.0
 40
1.0
 40
1.0
 40
1.0
 10
49.3291595291
 20
107.3558652551
 30
0.0
 10
49.3172781257
 20
107.3561509489
 30
0.0
 10
49.2935357543
 20
107.3576595871
 30
0.0
 10
49.2697548417
 20
107.3568966092
 30
0.0
 10
49.2578716133
 20
107.3570919588
 30
0.0
  0
LINE
  5
518
100
AcDbEntity
  8
0
100
AcDbLine
 62
7
  6
BYLAYER
 10
49.2578716133
 20
107.3570919588
 11
49.2222492765
 21
107.3583186626
  0
SPLINE
  5
519
100
AcDbEntity
  8
0
100
AcDbSpline
 62
7
  6
BYLAYER
 70
0
 71
3
 72
9
 73
5
 74
0
 42
0.0000001
 43
0.0000001
 44
0.0000000001
 40
0.0
 40
0.0
 40
0.0
 40
0.0
 40
0.5000023874
 40
1.0
 40
1.0
 40
1.0
 40
1.0
 10
49.7312323402
 20
107.7235735952
 30
0.0
 10
49.7105642581
 20
107.7242423819
 30
0.0
 10
49.6692954962
 20
107.727827307
 30
0.0
 10
49.6279022906
 20
107.7260593665
 30
0.0
 10
49.6072280813
 20
107.7264904034
 30
0.0
  0
SPLINE
  5
51A
100
AcDbEntity
  8
0
100
AcDbSpline
 62
7
  6
BYLAYER
 70
0
 71
3
 72
8
 73
4
 74
0
 42
0.0000001
 43
0.0000001
 44
0.0000000001
 40
0.0
 40
0.0
 40
0.0
 40
0.0
 40
1.0
 40
1.0
 40
1.0
 40
1.0
 10
49.6072280813
 20
107.7264904034
 30
0.0
 10
49.5929675352
 20
107.7267877218
 30
0.0
 10
49.5787265384
 20
107.7277112338
 30
0.0
 10
49.5644820471
 20
107.7284501788
 30
0.0
  0
LINE
  5
51B
100
AcDbEntity
  8
0
100
AcDbLine
 62
7
  6
BYLAYER
 10
49.5644820471
 20
107.7284501788
 11
49.5453027319
 21
107.7292604155
  0
SPLINE
  5
51C
100
AcDbEntity
  8
0
100
AcDbSpline
 62
7
  6
BYLAYER
 70
0
 71
3
 72
12
 73
8
 74
0
 42
0.0000001
 43
0.0000001
 44
0.0000000001
 40
0.0
 40
0.0
 40
0.0
 40
0.0
 40
0.2500363963
 40
0.4374753504
 40
0.6250132616
 40
0.8124790095
 40
1.0
 40
1.0
 40
1.0
 40
1.0
 10
49.1757670984
 20
107.738893611
 30
0.0
 10
49.1358611017
 20
107.7402783218
 30
0.0
 10
49.0661737819
 20
107.7456999561
 30
0.0
 10
48.9663381629
 20
107.7475669543
 30
0.0
 10
48.8765163726
 20
107.7453584493
 30
0.0
 10
48.7867207122
 20
107.7490637601
 30
0.0
 10
48.7269342769
 20
107.7525624831
 30
0.0
 10
48.6969975168
 20
107.7533263176
 30
0.0
  0
SPLINE
  5
51D
100
AcDbEntity
  8
0
100
AcDbSpline
 62
7
  6
BYLAYER
 70
0
 71
3
 72
9
 73
5
 74
0
 42
0.0000001
 43
0.0000001
 44
0.0000000001
 40
0.0
 40
0.0
 40
0.0
 40
0.0
 40
0.4999998639
 40
1.0
 40
1.0
 40
1.0
 40
1.0
 10
48.0160308432
 20
107.6722660991
 30
0.0
 10
47.9423737108
 20
107.6733164126
 30
0.0
 10
47.7950992374
 20
107.6786241945
 30
0.0
 10
47.6477473496
 20
107.6759250943
 30
0.0
 10
47.5740859424
 20
107.6766174054
 30
0.0
  0
SPLINE
  5
51E
100
AcDbEntity
  8
0
100
AcDbSpline
 62
7
  6
BYLAYER
 70
0
 71
3
 72
8
 73
4
 74
0
 42
0.0000001
 43
0.0000001
 44
0.0000000001
 40
0.0
 40
0.0
 40
0.0
 40
0.0
 40
1.0
 40
1.0
 40
1.0
 40
1.0
 10
47.5740859424
 20
107.6766174054
 30
0.0
 10
47.4998239588
 20
107.677315361
 30
0.0
 10
47.4255926347
 20
107.6800834535
 30
0.0
 10
47.3513326477
 20
107.6809687117
 30
0.0
  0
SPLINE
  5
51F
100
AcDbEntity
  8
0
100
AcDbSpline
 62
7
  6
BYLAYER
 70
0
 71
3
 72
14
 73
10
 74
0
 42
0.0000001
 43
0.0000001
 44
0.0000000001
 40
0.0
 40
0.0
 40
0.0
 40
0.0
 40
0.382973345
 40
0.58880373
 40
0.735706727
 40
0.8032917629
 40
0.8686869485
 40
0.9348829988
 40
1.0
 40
1.0
 40
1.0
 40
1.0
 10
48.4470285522
 20
107.6425552529
 30
0.0
 10
48.4460051885
 20
107.6446512146
 30
0.0
 10
48.4453377901
 20
107.6482396854
 30
0.0
 10
48.4439544723
 20
107.6524806316
 30
0.0
 10
48.4434285191
 20
107.655019732
 30
0.0
 10
48.4418174072
 20
107.6562311526
 30
0.0
 10
48.4407162501
 20
107.6554332581
 30
0.0
 10
48.4397250586
 20
107.6546359863
 30
0.0
 10
48.4388295364
 20
107.6550945262
 30
0.0
 10
48.4385957421
 20
107.655414872
 30
0.0
  0
SPLINE
  5
520
100
AcDbEntity
  8
0
100
AcDbSpline
 62
7
  6
BYLAYER
 70
0
 71
3
 72
9
 73
5
 74
0
 42
0.0000001
 43
0.0000001
 44
0.0000000001
 40
0.0
 40
0.0
 40
0.0
 40
0.0
 40
0.475560769
 40
1.0
 40
1.0
 40
1.0
 40
1.0
 10
48.4385957421
 20
107.655414872
 30
0.0
 10
48.4373307189
 20
107.6571482119
 30
0.0
 10
48.4365000242
 20
107.6617825889
 30
0.0
 10
48.4354245009
 20
107.6661544536
 30
0.0
 10
48.4343731235
 20
107.6682744912
 30
0.0
  0
SPLINE
  5
521
100
AcDbEntity
  8
0
100
AcDbSpline
 62
7
  6
BYLAYER
 70
0
 71
3
 72
12
 73
8
 74
0
 42
0.0000001
 43
0.0000001
 44
0.0000000001
 40
0.0
 40
0.0
 40
0.0
 40
0.0
 40
0.3238914058
 40
0.6063589369
 40
0.8350253607
 40
0.9260076668
 40
1.0
 40
1.0
 40
1.0
 40
1.0
 10
46.8814707541
 20
108.217834711
 30
0.0
 10
47.3534428002
 20
108.2321110276
 30
0.0
 10
48.237248404
 20
108.2520327652
 30
0.0
 10
49.4545643079
 20
108.2627658544
 30
0.0
 10
50.3324454446
 20
108.256852805
 30
0.0
 10
50.906071058
 20
108.239411806
 30
0.0
 10
51.1462809736
 20
108.2262800327
 30
0.0
 10
51.2538169762
 20
108.2177933006
 30
0.0
  0
SPLINE
  5
522
100
AcDbEntity
  8
0
100
AcDbSpline
 62
7
  6
BYLAYER
 70
0
 71
3
 72
9
 73
5
 74
0
 42
0.0000001
 43
0.0000001
 44
0.0000000001
 40
0.0
 40
0.0
 40
0.0
 40
0.0
 40
0.5275978832
 40
1.0
 40
1.0
 40
1.0
 40
1.0
 10
45.6588197552
 20
108.1893601507
 30
0.0
 10
45.6144045851
 20
108.1886108663
 30
0.0
 10
45.5301838426
 20
108.1892782516
 30
0.0
 10
45.4460494133
 20
108.1937957391
 30
0.0
 10
45.4064499254
 20
108.1975201023
 30
0.0
  0
SPLINE
  5
523
100
AcDbEntity
  8
0
100
AcDbSpline
 62
7
  6
BYLAYER
 70
0
 71
3
 72
11
 73
7
 74
0
 42
0.0000001
 43
0.0000001
 44
0.0000000001
 40
0.0
 40
0.0
 40
0.0
 40
0.0
 40
0.4063310185
 40
0.7146996428
 40
0.9115905037
 40
1.0
 40
1.0
 40
1.0
 40
1.0
 10
45.4064499254
 20
108.1975201023
 30
0.0
 10
45.3906861474
 20
108.199002698
 30
0.0
 10
45.3633315594
 20
108.2019330294
 30
0.0
 10
45.3271944554
 20
108.2082669878
 30
0.0
 10
45.3068487351
 20
108.2134191616
 30
0.0
 10
45.2943740093
 20
108.2200198336
 30
0.0
 10
45.2943740072
 20
108.2234648524
 30
0.0
  0
SPLINE
  5
524
100
AcDbEntity
  8
0
100
AcDbSpline
 62
7
  6
BYLAYER
 70
0
 71
3
 72
9
 73
5
 74
0
 42
0.0000001
 43
0.0000001
 44
0.0000000001
 40
0.0
 40
0.0
 40
0.0
 40
0.0
 40
0.240182515
 40
1.0
 40
1.0
 40
1.0
 40
1.0
 10
59.237442224
 20
106.8444836147
 30
0.0
 10
59.2333042993
 20
106.8443630361
 30
0.0
 10
59.2160850782
 20
106.8435588914
 30
0.0
 10
59.1989281624
 20
106.8416174202
 30
0.0
 10
59.1859794517
 20
106.8396596033
 30
0.0
  0
SPLINE
  5
525
100
AcDbEntity
  8
0
100
AcDbSpline
 62
7
  6
BYLAYER
 70
0
 71
3
 72
13
 73
9
 74
0
 42
0.0000001
 43
0.0000001
 44
0.0000000001
 40
0.0
 40
0.0
 40
0.0
 40
0.0
 40
0.0906636668
 40
0.2100692299
 40
0.5000091446
 40
0.7899456858
 40
0.9093444132
 40
1.0
 40
1.0
 40
1.0
 40
1.0
 10
43.9027017446
 20
108.288453057
 30
0.0
 10
43.9185625502
 20
108.2856759956
 30
0.0
 10
43.9556509302
 20
108.2812685746
 30
0.0
 10
44.0442196787
 20
108.274741447
 30
0.0
 10
44.168454971
 20
108.2719682772
 30
0.0
 10
44.2926910175
 20
108.2746533886
 30
0.0
 10
44.3812610475
 20
108.281118927
 30
0.0
 10
44.4183497114
 20
108.2855017002
 30
0.0
 10
44.4342108818
 20
108.2882683378
 30
0.0
  0
SPLINE
  5
526
100
AcDbEntity
  8
0
100
AcDbSpline
 62
7
  6
BYLAYER
 70
0
 71
3
 72
11
 73
7
 74
0
 42
0.0000001
 43
0.0000001
 44
0.0000000001
 40
0.0
 40
0.0
 40
0.0
 40
0.0
 40
0.0882660263
 40
0.2852204936
 40
0.5936942124
 40
1.0
 40
1.0
 40
1.0
 40
1.0
 10
43.0426026896
 20
108.2242950668
 30
0.0
 10
43.0426026896
 20
108.2208272014
 30
0.0
 10
43.0299835136
 20
108.2142180032
 30
0.0
 10
43.0094817319
 20
108.209061724
 30
0.0
 10
42.9730167093
 20
108.2027405677
 30
0.0
 10
42.9454321781
 20
108.1998279401
 30
0.0
 10
42.9295367849
 20
108.1983574848
 30
0.0
  0
SPLINE
  5
527
100
AcDbEntity
  8
0
100
AcDbSpline
 62
7
  6
BYLAYER
 70
0
 71
3
 72
9
 73
5
 74
0
 42
0.0000001
 43
0.0000001
 44
0.0000000001
 40
0.0
 40
0.0
 40
0.0
 40
0.0
 40
0.4725790359
 40
1.0
 40
1.0
 40
1.0
 40
1.0
 10
42.9295367849
 20
108.1983574848
 30
0.0
 10
42.8905023702
 20
108.1947464787
 30
0.0
 10
42.8076104038
 20
108.1903516593
 30
0.0
 10
42.7246349421
 20
108.1897087709
 30
0.0
 10
42.6808906225
 20
108.1904319137
 30
0.0
  0
SPLINE
  5
528
100
AcDbEntity
  8
0
100
AcDbSpline
 62
7
  6
BYLAYER
 70
0
 71
3
 72
9
 73
5
 74
0
 42
0.0000001
 43
0.0000001
 44
0.0000000001
 40
0.0
 40
0.0
 40
0.0
 40
0.0
 40
0.6229881364
 40
1.0
 40
1.0
 40
1.0
 40
1.0
 10
40.1928976939
 20
107.7711148445
 30
0.0
 10
40.2633487638
 20
107.7686751716
 30
0.0
 10
40.376259802
 20
107.7607784678
 30
0.0
 10
40.4878240896
 20
107.7352280114
 30
0.0
 10
40.5269734469
 20
107.7182803836
 30
0.0
  0
SPLINE
  5
529
100
AcDbEntity
  8
0
100
AcDbSpline
 62
7
  6
BYLAYER
 70
0
 71
3
 72
9
 73
5
 74
0
 42
0.0000001
 43
0.0000001
 44
0.0000000001
 40
0.0
 40
0.0
 40
0.0
 40
0.0
 40
0.6103143931
 40
1.0
 40
1.0
 40
1.0
 40
1.0
 10
40.5269734469
 20
107.7182803836
 30
0.0
 10
40.5353918941
 20
107.7146360656
 30
0.0
 10
40.5493103932
 20
107.7069939838
 30
0.0
 10
40.5556040953
 20
107.6918950839
 30
0.0
 10
40.5556040954
 20
107.6860378686
 30
0.0
  0
SPLINE
  5
52A
100
AcDbEntity
  8
0
100
AcDbSpline
 62
7
  6
BYLAYER
 70
0
 71
3
 72
8
 73
4
 74
0
 42
0.0000001
 43
0.0000001
 44
0.0000000001
 40
0.0
 40
0.0
 40
0.0
 40
0.0
 40
1.0
 40
1.0
 40
1.0
 40
1.0
 10
39.6096870254
 20
107.3059256365
 30
0.0
 10
39.5682505655
 20
107.3052548022
 30
0.0
 10
39.5268397893
 20
107.3032861935
 30
0.0
 10
39.4854008391
 20
107.3027925886
 30
0.0
  0
SPLINE
  5
52B
100
AcDbEntity
  8
0
100
AcDbSpline
 62
7
  6
BYLAYER
 70
0
 71
3
 72
8
 73
4
 74
0
 42
0.0000001
 43
0.0000001
 44
0.0000000001
 40
0.0
 40
0.0
 40
0.0
 40
0.0
 40
1.0
 40
1.0
 40
1.0
 40
1.0
 10
39.4854008391
 20
107.3027925886
 30
0.0
 10
39.4440860235
 20
107.3023004623
 30
0.0
 10
39.4027625328
 20
107.3032747453
 30
0.0
 10
39.3614475996
 20
107.3027925886
 30
0.0
  0
SPLINE
  5
52C
100
AcDbEntity
  8
0
100
AcDbSpline
 62
7
  6
BYLAYER
 70
0
 71
3
 72
8
 73
4
 74
0
 42
0.0000001
 43
0.0000001
 44
0.0000000001
 40
0.0
 40
0.0
 40
0.0
 40
0.0
 40
1.0
 40
1.0
 40
1.0
 40
1.0
 10
39.3614475996
 20
107.3027925886
 30
0.0
 10
39.3202304304
 20
107.3023115727
 30
0.0
 10
39.2790410254
 20
107.3003812273
 30
0.0
 10
39.2378273677
 20
107.2996595406
 30
0.0
  0
SPLINE
  5
52D
100
AcDbEntity
  8
0
100
AcDbSpline
 62
7
  6
BYLAYER
 70
0
 71
3
 72
10
 73
6
 74
0
 42
0.0000001
 43
0.0000001
 44
0.0000000001
 40
0.0
 40
0.0
 40
0.0
 40
0.0
 40
0.4614714527
 40
0.6822429845
 40
1.0
 40
1.0
 40
1.0
 40
1.0
 10
39.2378273677
 20
107.2996595406
 30
0.0
 10
39.2273168113
 20
107.2994754917
 30
0.0
 10
39.2111541513
 20
107.2967458734
 30
0.0
 10
39.1926799852
 20
107.2827033511
 30
0.0
 10
39.1865318423
 20
107.2715630559
 30
0.0
 10
39.1841074749
 20
107.2647427275
 30
0.0
  0
SPLINE
  5
52E
100
AcDbEntity
  8
0
100
AcDbSpline
 62
7
  6
BYLAYER
 70
0
 71
3
 72
8
 73
4
 74
0
 42
0.0000001
 43
0.0000001
 44
0.0000000001
 40
0.0
 40
0.0
 40
0.0
 40
0.0
 40
1.0
 40
1.0
 40
1.0
 40
1.0
 10
39.1841074749
 20
107.2647427275
 30
0.0
 10
39.1827153849
 20
107.260826444
 30
0.0
 10
39.1816758523
 20
107.2567761213
 30
0.0
 10
39.1809060257
 20
107.2526916926
 30
0.0
  0
SPLINE
  5
52F
100
AcDbEntity
  8
0
100
AcDbSpline
 62
7
  6
BYLAYER
 70
0
 71
3
 72
12
 73
8
 74
0
 42
0.0000001
 43
0.0000001
 44
0.0000000001
 40
0.0
 40
0.0
 40
0.0
 40
0.0
 40
0.1231976562
 40
0.206110782
 40
0.3110454289
 40
0.6000919811
 40
1.0
 40
1.0
 40
1.0
 40
1.0
 10
46.8423504661
 20
107.6583850704
 30
0.0
 10
46.8423504661
 20
107.6665679572
 30
0.0
 10
46.8489000724
 20
107.6801946253
 30
0.0
 10
46.8647460461
 20
107.6934512443
 30
0.0
 10
46.8923174913
 20
107.7093905103
 30
0.0
 10
46.9426738979
 20
107.7261474871
 30
0.0
 10
46.9874253982
 20
107.7357264541
 30
0.0
 10
47.0135626493
 20
107.7404588016
 30
0.0
  0
SPLINE
  5
530
100
AcDbEntity
  8
0
100
AcDbSpline
 62
7
  6
BYLAYER
 70
0
 71
3
 72
9
 73
5
 74
0
 42
0.0000001
 43
0.0000001
 44
0.0000000001
 40
0.0
 40
0.0
 40
0.0
 40
0.0
 40
0.222377924
 40
1.0
 40
1.0
 40
1.0
 40
1.0
 10
47.0135626493
 20
107.7404588016
 30
0.0
 10
47.029590919
 20
107.7433608412
 30
0.0
 10
47.1019303302
 20
107.7549588122
 30
0.0
 10
47.1748844833
 20
107.7622945296
 30
0.0
 10
47.2316526097
 20
107.7669624581
 30
0.0
  0
SPLINE
  5
531
100
AcDbEntity
  8
0
100
AcDbSpline
 62
7
  6
BYLAYER
 70
0
 71
3
 72
9
 73
5
 74
0
 42
0.0000001
 43
0.0000001
 44
0.0000000001
 40
0.0
 40
0.0
 40
0.0
 40
0.0
 40
0.2430577502
 40
1.0
 40
1.0
 40
1.0
 40
1.0
 10
47.2316526097
 20
107.7669624581
 30
0.0
 10
47.2439709783
 20
107.7679753727
 30
0.0
 10
47.2946708087
 20
107.7719115184
 30
0.0
 10
47.3454324009
 20
107.7750253196
 30
0.0
 10
47.3838707041
 20
107.7770565717
 30
0.0
  0
SPLINE
  5
532
100
AcDbEntity
  8
0
100
AcDbSpline
 62
7
  6
BYLAYER
 70
0
 71
3
 72
9
 73
5
 74
0
 42
0.0000001
 43
0.0000001
 44
0.0000000001
 40
0.0
 40
0.0
 40
0.0
 40
0.0
 40
0.2588444558
 40
1.0
 40
1.0
 40
1.0
 40
1.0
 10
47.5535308432
 20
107.3846362154
 30
0.0
 10
47.5662580436
 20
107.3844754
 30
0.0
 10
47.615413496
 20
107.3834209971
 30
0.0
 10
47.6645868824
 20
107.3805307709
 30
0.0
 10
47.7007806902
 20
107.3762591375
 30
0.0
  0
SPLINE
  5
533
100
AcDbEntity
  8
0
100
AcDbSpline
 62
7
  6
BYLAYER
 70
0
 71
3
 72
9
 73
5
 74
0
 42
0.0000001
 43
0.0000001
 44
0.0000000001
 40
0.0
 40
0.0
 40
0.0
 40
0.0
 40
0.2764680402
 40
1.0
 40
1.0
 40
1.0
 40
1.0
 10
47.7007806902
 20
107.3762591375
 30
0.0
 10
47.7071788783
 20
107.3755040162
 30
0.0
 10
47.7302862539
 20
107.3725094891
 30
0.0
 10
47.7532790255
 20
107.3684410981
 30
0.0
 10
47.7696740459
 20
107.3645061469
 30
0.0
  0
SPLINE
  5
534
100
AcDbEntity
  8
0
100
AcDbSpline
 62
7
  6
BYLAYER
 70
0
 71
3
 72
8
 73
4
 74
0
 42
0.0000001
 43
0.0000001
 44
0.0000000001
 40
0.0
 40
0.0
 40
0.0
 40
0.0
 40
1.0
 40
1.0
 40
1.0
 40
1.0
 10
41.138958032
 20
107.2958175745
 30
0.0
 10
41.0993596179
 20
107.2953937858
 30
0.0
 10
41.0597724953
 20
107.2941212049
 30
0.0
 10
41.0201731129
 20
107.2938004068
 30
0.0
  0
SPLINE
  5
535
100
AcDbEntity
  8
0
100
AcDbSpline
 62
7
  6
BYLAYER
 70
0
 71
3
 72
8
 73
4
 74
0
 42
0.0000001
 43
0.0000001
 44
0.0000000001
 40
0.0
 40
0.0
 40
0.0
 40
0.0
 40
1.0
 40
1.0
 40
1.0
 40
1.0
 10
41.0201731129
 20
107.2938004068
 30
0.0
 10
40.9669941171
 20
107.2933695991
 30
0.0
 10
40.9138031195
 20
107.2942256855
 30
0.0
 10
40.86063196
 20
107.2932162357
 30
0.0
  0
LINE
  5
536
100
AcDbEntity
  8
0
100
AcDbLine
 62
7
  6
BYLAYER
 10
40.86063196
 20
107.2932162357
 11
40.7833678435
 21
107.2917832392
  0
SPLINE
  5
537
100
AcDbEntity
  8
0
100
AcDbSpline
 62
7
  6
BYLAYER
 70
0
 71
3
 72
11
 73
7
 74
0
 42
0.0000001
 43
0.0000001
 44
0.0000000001
 40
0.0
 40
0.0
 40
0.0
 40
0.0
 40
0.2528795623
 40
0.4379187529
 40
0.6239274564
 40
1.0
 40
1.0
 40
1.0
 40
1.0
 10
41.3388326477
 20
107.3615483164
 30
0.0
 10
41.336267788
 20
107.36201808
 30
0.0
 10
41.3321030583
 20
107.3639544959
 30
0.0
 10
41.3256369731
 20
107.3646590328
 30
0.0
 10
41.3178772594
 20
107.3635074814
 30
0.0
 10
41.3124338025
 20
107.3663768252
 30
0.0
 10
41.3086190533
 20
107.367073302
 30
0.0
  0
SPLINE
  5
538
100
AcDbEntity
  8
0
100
AcDbSpline
 62
7
  6
BYLAYER
 70
0
 71
3
 72
8
 73
4
 74
0
 42
0.0000001
 43
0.0000001
 44
0.0000000001
 40
0.0
 40
0.0
 40
0.0
 40
0.0
 40
1.0
 40
1.0
 40
1.0
 40
1.0
 10
41.3086190533
 20
107.367073302
 30
0.0
 10
41.2622734835
 20
107.3666065558
 30
0.0
 10
41.2159400457
 20
107.3651817319
 30
0.0
 10
41.1695935232
 20
107.364821811
 30
0.0
  0
SPLINE
  5
539
100
AcDbEntity
  8
0
100
AcDbSpline
 62
7
  6
BYLAYER
 70
0
 71
3
 72
8
 73
4
 74
0
 42
0.0000001
 43
0.0000001
 44
0.0000000001
 40
0.0
 40
0.0
 40
0.0
 40
0.0
 40
1.0
 40
1.0
 40
1.0
 40
1.0
 10
41.1695935232
 20
107.364821811
 30
0.0
 10
41.1233707045
 20
107.3644628507
 30
0.0
 10
41.0771438376
 20
107.3651631855
 30
0.0
 10
41.0309208856
 20
107.364821811
 30
0.0
  0
SPLINE
  5
53A
100
AcDbEntity
  8
0
100
AcDbSpline
 62
7
  6
BYLAYER
 70
0
 71
3
 72
8
 73
4
 74
0
 42
0.0000001
 43
0.0000001
 44
0.0000000001
 40
0.0
 40
0.0
 40
0.0
 40
0.0
 40
1.0
 40
1.0
 40
1.0
 40
1.0
 10
41.0309208856
 20
107.364821811
 30
0.0
 10
40.9848094852
 20
107.3644812603
 30
0.0
 10
40.9387108034
 20
107.3631040881
 30
0.0
 10
40.8926012348
 20
107.3625703199
 30
0.0
  0
SPLINE
  5
53B
100
AcDbEntity
  8
0
100
AcDbSpline
 62
7
  6
BYLAYER
 70
0
 71
3
 72
9
 73
5
 74
0
 42
0.0000001
 43
0.0000001
 44
0.0000000001
 40
0.0
 40
0.0
 40
0.0
 40
0.0
 40
0.2595644248
 40
1.0
 40
1.0
 40
1.0
 40
1.0
 10
47.9230664801
 20
107.5605999016
 30
0.0
 10
47.9513480764
 20
107.5602055078
 30
0.0
 10
48.0603250928
 20
107.5601202785
 30
0.0
 10
48.1692762979
 20
107.5649520056
 30
0.0
 10
48.249758251
 20
107.5706605946
 30
0.0
  0
SPLINE
  5
53C
100
AcDbEntity
  8
0
100
AcDbSpline
 62
7
  6
BYLAYER
 70
0
 71
3
 72
10
 73
6
 74
0
 42
0.0000001
 43
0.0000001
 44
0.0000000001
 40
0.0
 40
0.0
 40
0.0
 40
0.0
 40
0.1669909498
 40
0.4975281404
 40
1.0
 40
1.0
 40
1.0
 40
1.0
 10
47.3513326477
 20
107.6371419486
 30
0.0
 10
47.3513326477
 20
107.6349604243
 30
0.0
 10
47.353116349
 20
107.628411615
 30
0.0
 10
47.3631533057
 20
107.6191998759
 30
0.0
 10
47.3729313986
 20
107.6144358177
 30
0.0
 10
47.3789844906
 20
107.6118964841
 30
0.0
  0
SPLINE
  5
53D
100
AcDbEntity
  8
0
100
AcDbSpline
 62
7
  6
BYLAYER
 70
0
 71
3
 72
9
 73
5
 74
0
 42
0.0000001
 43
0.0000001
 44
0.0000000001
 40
0.0
 40
0.0
 40
0.0
 40
0.0
 40
0.4312512906
 40
1.0
 40
1.0
 40
1.0
 40
1.0
 10
47.3789844906
 20
107.6118964841
 30
0.0
 10
47.3896808122
 20
107.6074092687
 30
0.0
 10
47.4155649032
 20
107.5996872224
 30
0.0
 10
47.4419238191
 20
107.5943277364
 30
0.0
 10
47.4569863225
 20
107.5916555605
 30
0.0
  0
SPLINE
  5
53E
100
AcDbEntity
  8
0
100
AcDbSpline
 62
7
  6
BYLAYER
 70
0
 71
3
 72
9
 73
5
 74
0
 42
0.0000001
 43
0.0000001
 44
0.0000000001
 40
0.0
 40
0.0
 40
0.0
 40
0.0
 40
0.2283440008
 40
1.0
 40
1.0
 40
1.0
 40
1.0
 10
47.4569863225
 20
107.5916555605
 30
0.0
 10
47.4667588684
 20
107.5899218539
 30
0.0
 10
47.5096870541
 20
107.5830665622
 30
0.0
 10
47.552926875
 20
107.578344751
 30
0.0
 10
47.5863231138
 20
107.5752362681
 30
0.0
  0
SPLINE
  5
53F
100
AcDbEntity
  8
0
100
AcDbSpline
 62
7
  6
BYLAYER
 70
0
 71
3
 72
9
 73
5
 74
0
 42
0.0000001
 43
0.0000001
 44
0.0000000001
 40
0.0
 40
0.0
 40
0.0
 40
0.0
 40
0.2449630531
 40
1.0
 40
1.0
 40
1.0
 40
1.0
 10
47.5863231138
 20
107.5752362681
 30
0.0
 10
47.5939656063
 20
107.5745249139
 30
0.0
 10
47.6251761912
 20
107.5717502837
 30
0.0
 10
47.656426524
 20
107.5694350958
 30
0.0
 10
47.6800323341
 20
107.5678663306
 30
0.0
  0
SPLINE
  5
540
100
AcDbEntity
  8
0
100
AcDbSpline
 62
7
  6
BYLAYER
 70
0
 71
3
 72
9
 73
5
 74
0
 42
0.0000001
 43
0.0000001
 44
0.0000000001
 40
0.0
 40
0.0
 40
0.0
 40
0.0
 40
0.2578006632
 40
1.0
 40
1.0
 40
1.0
 40
1.0
 10
40.537144414
 20
107.5550735485
 30
0.0
 10
40.506556075
 20
107.553841597
 30
0.0
 10
40.3879398094
 20
107.5482539039
 30
0.0
 10
40.2694700503
 20
107.5394085548
 30
0.0
 10
40.1817596296
 20
107.5307762902
 30
0.0
  0
SPLINE
  5
541
100
AcDbEntity
  8
0
100
AcDbSpline
 62
7
  6
BYLAYER
 70
0
 71
3
 72
8
 73
4
 74
0
 42
0.0000001
 43
0.0000001
 44
0.0000000001
 40
0.0
 40
0.0
 40
0.0
 40
0.0
 40
1.0
 40
1.0
 40
1.0
 40
1.0
 10
39.6863828014
 20
107.3784647837
 30
0.0
 10
39.6503959075
 20
107.3778928384
 30
0.0
 10
39.6144302589
 20
107.3762233526
 30
0.0
 10
39.578441253
 20
107.3758048919
 30
0.0
  0
SPLINE
  5
542
100
AcDbEntity
  8
0
100
AcDbSpline
 62
7
  6
BYLAYER
 70
0
 71
3
 72
8
 73
4
 74
0
 42
0.0000001
 43
0.0000001
 44
0.0000000001
 40
0.0
 40
0.0
 40
0.0
 40
0.0
 40
1.0
 40
1.0
 40
1.0
 40
1.0
 10
39.578441253
 20
107.3758048919
 30
0.0
 10
39.5425489444
 20
107.3753875555
 30
0.0
 10
39.5066494438
 20
107.3762147164
 30
0.0
 10
39.4707570486
 20
107.3758048919
 30
0.0
  0
SPLINE
  5
543
100
AcDbEntity
  8
0
100
AcDbSpline
 62
7
  6
BYLAYER
 70
0
 71
3
 72
8
 73
4
 74
0
 42
0.0000001
 43
0.0000001
 44
0.0000000001
 40
0.0
 40
0.0
 40
0.0
 40
0.0
 40
1.0
 40
1.0
 40
1.0
 40
1.0
 10
39.4707570486
 20
107.3758048919
 30
0.0
 10
39.4349394684
 20
107.3753959215
 30
0.0
 10
39.3991449437
 20
107.3737553002
 30
0.0
 10
39.3633302282
 20
107.373145
 30
0.0
  0
SPLINE
  5
544
100
AcDbEntity
  8
0
100
AcDbSpline
 62
7
  6
BYLAYER
 70
0
 71
3
 72
9
 73
5
 74
0
 42
0.0000001
 43
0.0000001
 44
0.0000000001
 40
0.0
 40
0.0
 40
0.0
 40
0.0
 40
0.3104378657
 40
1.0
 40
1.0
 40
1.0
 40
1.0
 10
48.2463444272
 20
107.7307602704
 30
0.0
 10
48.2664243626
 20
107.7264591664
 30
0.0
 10
48.3306912914
 20
107.7110257331
 30
0.0
 10
48.3938724216
 20
107.6892594627
 30
0.0
 10
48.4343731235
 20
107.6682744912
 30
0.0
  0
SPLINE
  5
545
100
AcDbEntity
  8
0
100
AcDbSpline
 62
7
  6
BYLAYER
 70
0
 71
3
 72
8
 73
4
 74
0
 42
0.0000001
 43
0.0000001
 44
0.0000000001
 40
0.0
 40
0.0
 40
0.0
 40
0.0
 40
1.0
 40
1.0
 40
1.0
 40
1.0
 10
39.0100637726
 20
107.5375166438
 30
0.0
 10
39.0635265952
 20
107.53973145
 30
0.0
 10
39.1168292744
 20
107.5454026697
 30
0.0
 10
39.1703184858
 20
107.5468459399
 30
0.0
  0
SPLINE
  5
546
100
AcDbEntity
  8
0
100
AcDbSpline
 62
7
  6
BYLAYER
 70
0
 71
3
 72
8
 73
4
 74
0
 42
0.0000001
 43
0.0000001
 44
0.0000000001
 40
0.0
 40
0.0
 40
0.0
 40
0.0
 40
1.0
 40
1.0
 40
1.0
 40
1.0
 10
39.1703184858
 20
107.5468459399
 30
0.0
 10
39.2234958738
 20
107.5482807964
 30
0.0
 10
39.2767281654
 20
107.5455334087
 30
0.0
 10
39.3299087133
 20
107.5468459399
 30
0.0
  0
SPLINE
  5
547
100
AcDbEntity
  8
0
100
AcDbSpline
 62
7
  6
BYLAYER
 70
0
 71
3
 72
8
 73
4
 74
0
 42
0.0000001
 43
0.0000001
 44
0.0000000001
 40
0.0
 40
0.0
 40
0.0
 40
0.0
 40
1.0
 40
1.0
 40
1.0
 40
1.0
 10
39.3299087133
 20
107.5468459399
 30
0.0
 10
39.3829406749
 20
107.548154804
 30
0.0
 10
39.4358124413
 20
107.5534981856
 30
0.0
 10
39.4888326453
 20
107.5552186659
 30
0.0
  0
SPLINE
  5
548
100
AcDbEntity
  8
0
100
AcDbSpline
 62
7
  6
BYLAYER
 70
0
 71
3
 72
9
 73
5
 74
0
 42
0.0000001
 43
0.0000001
 44
0.0000000001
 40
0.0
 40
0.0
 40
0.0
 40
0.0
 40
0.2372181466
 40
1.0
 40
1.0
 40
1.0
 40
1.0
 10
39.6452251264
 20
107.74704187
 30
0.0
 10
39.6567863007
 20
107.7486197183
 30
0.0
 10
39.7055584784
 20
107.7550023164
 30
0.0
 10
39.7544938198
 20
107.7601770898
 30
0.0
 10
39.7918868562
 20
107.7632600712
 30
0.0
  0
SPLINE
  5
549
100
AcDbEntity
  8
0
100
AcDbSpline
 62
7
  6
BYLAYER
 70
0
 71
3
 72
9
 73
5
 74
0
 42
0.0000001
 43
0.0000001
 44
0.0000000001
 40
0.0
 40
0.0
 40
0.0
 40
0.0
 40
0.2096185274
 40
1.0
 40
1.0
 40
1.0
 40
1.0
 10
48.2463442624
 20
107.7307603018
 30
0.0
 10
48.2246932902
 20
107.7353979205
 30
0.0
 10
48.1208274988
 20
107.7548285241
 30
0.0
 10
48.0153866145
 20
107.7648156734
 30
0.0
 10
47.9320581646
 20
107.7699797392
 30
0.0
  0
SPLINE
  5
54A
100
AcDbEntity
  8
0
100
AcDbSpline
 62
7
  6
BYLAYER
 70
0
 71
3
 72
9
 73
5
 74
0
 42
0.0000001
 43
0.0000001
 44
0.0000000001
 40
0.0
 40
0.0
 40
0.0
 40
0.0
 40
0.245086057
 40
1.0
 40
1.0
 40
1.0
 40
1.0
 10
47.9320581646
 20
107.7699797392
 30
0.0
 10
47.9150154903
 20
107.7710359151
 30
0.0
 10
47.8454461387
 20
107.7748292699
 30
0.0
 10
47.7757828163
 20
107.7767756805
 30
0.0
 10
47.7231918644
 20
107.7774707634
 30
0.0
  0
SPLINE
  5
54B
100
AcDbEntity
  8
0
100
AcDbSpline
 62
7
  6
BYLAYER
 70
0
 71
3
 72
9
 73
5
 74
0
 42
0.0000001
 43
0.0000001
 44
0.0000000001
 40
0.0
 40
0.0
 40
0.0
 40
0.0
 40
0.5000000209
 40
1.0
 40
1.0
 40
1.0
 40
1.0
 10
47.7231918644
 20
107.7774707634
 30
0.0
 10
47.7076927463
 20
107.7776756119
 30
0.0
 10
47.6767032911
 20
107.7787958563
 30
0.0
 10
47.6456976496
 20
107.7782329934
 30
0.0
 10
47.630197832
 20
107.7783752496
 30
0.0
  0
LINE
  5
54C
100
AcDbEntity
  8
0
100
AcDbLine
 62
7
  6
BYLAYER
 10
47.630197832
 20
107.7783752496
 11
47.5837444376
 21
107.7792797357
  0
SPLINE
  5
54D
100
AcDbEntity
  8
0
100
AcDbSpline
 62
7
  6
BYLAYER
 70
0
 71
3
 72
9
 73
5
 74
0
 42
0.0000001
 43
0.0000001
 44
0.0000000001
 40
0.0
 40
0.0
 40
0.0
 40
0.0
 40
0.5000007709
 40
1.0
 40
1.0
 40
1.0
 40
1.0
 10
47.5837444376
 20
107.7792797357
 30
0.0
 10
47.5615415008
 20
107.7790413302
 30
0.0
 10
47.5171454557
 20
107.7776465137
 30
0.0
 10
47.4727321194
 20
107.7783378748
 30
0.0
 10
47.4505286198
 20
107.7781681537
 30
0.0
  0
LINE
  5
54E
100
AcDbEntity
  8
0
100
AcDbLine
 62
7
  6
BYLAYER
 10
47.4505286198
 20
107.7781681537
 11
47.3838707041
 21
107.7770565717
  0
SPLINE
  5
54F
100
AcDbEntity
  8
0
100
AcDbSpline
 62
7
  6
BYLAYER
 70
0
 71
3
 72
9
 73
5
 74
0
 42
0.0000001
 43
0.0000001
 44
0.0000000001
 40
0.0
 40
0.0
 40
0.0
 40
0.0
 40
0.5180269185
 40
1.0
 40
1.0
 40
1.0
 40
1.0
 10
36.3535939213
 20
107.408735656
 30
0.0
 10
36.3970126343
 20
107.4121532458
 30
0.0
 10
36.480742154
 20
107.4195818124
 30
0.0
 10
36.5642941014
 20
107.4298022788
 30
0.0
 10
36.6041540266
 20
107.4370962347
 30
0.0
  0
SPLINE
  5
550
100
AcDbEntity
  8
0
100
AcDbSpline
 62
7
  6
BYLAYER
 70
0
 71
3
 72
9
 73
5
 74
0
 42
0.0000001
 43
0.0000001
 44
0.0000000001
 40
0.0
 40
0.0
 40
0.0
 40
0.0
 40
0.3023799683
 40
1.0
 40
1.0
 40
1.0
 40
1.0
 10
36.6041540266
 20
107.4370962347
 30
0.0
 10
36.6109699815
 20
107.4383434843
 30
0.0
 10
36.6334225747
 20
107.4427932429
 30
0.0
 10
36.6558742892
 20
107.4481745613
 30
0.0
 10
36.6707053149
 20
107.4541410268
 30
0.0
  0
SPLINE
  5
551
100
AcDbEntity
  8
0
100
AcDbSpline
 62
7
  6
BYLAYER
 70
0
 71
3
 72
9
 73
5
 74
0
 42
0.0000001
 43
0.0000001
 44
0.0000000001
 40
0.0
 40
0.0
 40
0.0
 40
0.0
 40
0.6557720232
 40
1.0
 40
1.0
 40
1.0
 40
1.0
 10
36.6707053149
 20
107.4541410268
 30
0.0
 10
36.6768050651
 20
107.4565949333
 30
0.0
 10
36.6860773538
 20
107.4603037727
 30
0.0
 10
36.6929154675
 20
107.4693883369
 30
0.0
 10
36.6929154675
 20
107.4728396067
 30
0.0
  0
SPLINE
  5
552
100
AcDbEntity
  8
0
100
AcDbSpline
 62
7
  6
BYLAYER
 70
0
 71
3
 72
9
 73
5
 74
0
 42
0.0000001
 43
0.0000001
 44
0.0000000001
 40
0.0
 40
0.0
 40
0.0
 40
0.0
 40
0.2410189613
 40
1.0
 40
1.0
 40
1.0
 40
1.0
 10
35.6121994398
 20
107.3873553027
 30
0.0
 10
35.6382816473
 20
107.3872103308
 30
0.0
 10
35.7464988528
 20
107.3868707279
 30
0.0
 10
35.8547240641
 20
107.3877498809
 30
0.0
 10
35.9368425876
 20
107.3894184802
 30
0.0
  0
SPLINE
  5
553
100
AcDbEntity
  8
0
100
AcDbSpline
 62
7
  6
BYLAYER
 70
0
 71
3
 72
9
 73
5
 74
0
 42
0.0000001
 43
0.0000001
 44
0.0000000001
 40
0.0
 40
0.0
 40
0.0
 40
0.0
 40
0.2454823832
 40
1.0
 40
1.0
 40
1.0
 40
1.0
 10
36.0864249863
 20
107.3936655289
 30
0.0
 10
36.105522024
 20
107.3943738257
 30
0.0
 10
36.1833049132
 20
107.3975363368
 30
0.0
 10
36.261041722
 20
107.4019335061
 30
0.0
 10
36.3196258873
 20
107.4061713606
 30
0.0
  0
SPLINE
  5
554
100
AcDbEntity
  8
0
100
AcDbSpline
 62
7
  6
BYLAYER
 70
0
 71
3
 72
13
 73
9
 74
0
 42
0.0000001
 43
0.0000001
 44
0.0000000001
 40
0.0
 40
0.0
 40
0.0
 40
0.0
 40
0.1001244949
 40
0.1809978898
 40
0.2897164156
 40
0.4281690963
 40
0.5948865518
 40
1.0
 40
1.0
 40
1.0
 40
1.0
 10
37.9154030394
 20
107.5697092546
 30
0.0
 10
37.9154030394
 20
107.5642005157
 30
0.0
 10
37.9229360886
 20
107.5551836924
 30
0.0
 10
37.9369776287
 20
107.5482943098
 30
0.0
 10
37.9541685727
 20
107.542291828
 30
0.0
 10
37.9763319762
 20
107.5371383674
 30
0.0
 10
38.0148822721
 20
107.5305383516
 30
0.0
 10
38.0462138863
 20
107.5273927089
 30
0.0
 10
38.0684281773
 20
107.5255706074
 30
0.0
  0
SPLINE
  5
555
100
AcDbEntity
  8
0
100
AcDbSpline
 62
7
  6
BYLAYER
 70
0
 71
3
 72
9
 73
5
 74
0
 42
0.0000001
 43
0.0000001
 44
0.0000000001
 40
0.0
 40
0.0
 40
0.0
 40
0.0
 40
0.2353597984
 40
1.0
 40
1.0
 40
1.0
 40
1.0
 10
38.0684281773
 20
107.5255706074
 30
0.0
 10
38.0780167347
 20
107.524784117
 30
0.0
 10
38.1187887268
 20
107.5218317823
 30
0.0
 10
38.1596404287
 20
107.5200998787
 30
0.0
 10
38.1908815567
 20
107.5191339907
 30
0.0
  0
SPLINE
  5
556
100
AcDbEntity
  8
0
100
AcDbSpline
 62
7
  6
BYLAYER
 70
0
 71
3
 72
10
 73
6
 74
0
 42
0.0000001
 43
0.0000001
 44
0.0000000001
 40
0.0
 40
0.0
 40
0.0
 40
0.0
 40
0.2500082766
 40
0.6250020707
 40
1.0
 40
1.0
 40
1.0
 40
1.0
 10
47.9230664801
 20
107.5605999016
 30
0.0
 10
47.9102829341
 20
107.5607781713
 30
0.0
 10
47.8783365905
 20
107.5619582468
 30
0.0
 10
47.8271869251
 20
107.5611210902
 30
0.0
 10
47.7888487658
 20
107.5624405437
 30
0.0
 10
47.7696740459
 20
107.5626975813
 30
0.0
  0
SPLINE
  5
557
100
AcDbEntity
  8
0
100
AcDbSpline
 62
7
  6
BYLAYER
 70
0
 71
3
 72
9
 73
5
 74
0
 42
0.0000001
 43
0.0000001
 44
0.0000000001
 40
0.0
 40
0.0
 40
0.0
 40
0.0
 40
0.2525049028
 40
1.0
 40
1.0
 40
1.0
 40
1.0
 10
38.3766662712
 20
107.7159938793
 30
0.0
 10
38.3933152639
 20
107.7166758646
 30
0.0
 10
38.4592591881
 20
107.7191491539
 30
0.0
 10
38.5252437096
 20
107.7206511345
 30
0.0
 10
38.5745702475
 20
107.7209844836
 30
0.0
  0
SPLINE
  5
558
100
AcDbEntity
  8
0
100
AcDbSpline
 62
7
  6
BYLAYER
 70
0
 71
3
 72
9
 73
5
 74
0
 42
0.0000001
 43
0.0000001
 44
0.0000000001
 40
0.0
 40
0.0
 40
0.0
 40
0.0
 40
0.2627289509
 40
1.0
 40
1.0
 40
1.0
 40
1.0
 10
38.5745702475
 20
107.7209844836
 30
0.0
 10
38.5925644331
 20
107.7211060884
 30
0.0
 10
38.6610530076
 20
107.7211549653
 30
0.0
 10
38.7295667147
 20
107.7194512664
 30
0.0
 10
38.7799758504
 20
107.7164820007
 30
0.0
  0
SPLINE
  5
559
100
AcDbEntity
  8
0
100
AcDbSpline
 62
7
  6
BYLAYER
 70
0
 71
3
 72
15
 73
11
 74
0
 42
0.0000001
 43
0.0000001
 44
0.0000000001
 40
0.0
 40
0.0
 40
0.0
 40
0.0
 40
0.3682493001
 40
0.533992926
 40
0.6816279324
 40
0.8054397103
 40
0.8998967592
 40
0.9351291597
 40
0.9626200082
 40
1.0
 40
1.0
 40
1.0
 40
1.0
 10
36.8649003993
 20
107.5809811778
 30
0.0
 10
36.9176871448
 20
107.5804845602
 30
0.0
 10
36.994245178
 20
107.5787883776
 30
0.0
 10
37.0917907809
 20
107.5729310547
 30
0.0
 10
37.1542079386
 20
107.5670004207
 30
0.0
 10
37.2060869123
 20
107.5591141345
 30
0.0
 10
37.2415372853
 20
107.5506801833
 30
0.0
 10
37.2624462381
 20
107.5418773394
 30
0.0
 10
37.2746497197
 20
107.5346745369
 30
0.0
 10
37.2809179973
 20
107.5259405203
 30
0.0
 10
37.2809179973
 20
107.5205820432
 30
0.0
  0
SPLINE
  5
55A
100
AcDbEntity
  8
0
100
AcDbSpline
 62
7
  6
BYLAYER
 70
0
 71
3
 72
10
 73
6
 74
0
 42
0.0000001
 43
0.0000001
 44
0.0000000001
 40
0.0
 40
0.0
 40
0.0
 40
0.0
 40
0.2498572644
 40
0.5000430098
 40
1.0
 40
1.0
 40
1.0
 40
1.0
 10
39.6518763778
 20
66.7944265508
 30
0.0
 10
39.6290662181
 20
66.8289039182
 30
0.0
 10
39.5708776445
 20
66.8896057602
 30
0.0
 10
39.4339942786
 20
66.9832816582
 30
0.0
 10
39.3187587791
 20
67.0326444001
 30
0.0
 10
39.2404788015
 20
67.0593810663
 30
0.0
  0
SPLINE
  5
55B
100
AcDbEntity
  8
0
100
AcDbSpline
 62
7
  6
BYLAYER
 70
0
 71
3
 72
11
 73
7
 74
0
 42
0.0000001
 43
0.0000001
 44
0.0000000001
 40
0.0
 40
0.0
 40
0.0
 40
0.0
 40
0.2500026861
 40
0.437498881
 40
0.62500158
 40
1.0
 40
1.0
 40
1.0
 40
1.0
 10
46.6262072637
 20
107.8920191233
 30
0.0
 10
46.587664829
 20
107.8923785689
 30
0.0
 10
46.5202255773
 20
107.8937856358
 30
0.0
 10
46.4238645879
 20
107.8942177198
 30
0.0
 10
46.3082320171
 20
107.893401166
 30
0.0
 10
46.2215208631
 20
107.8955070032
 30
0.0
 10
46.1637072634
 20
107.8959505897
 30
0.0
  0
SPLINE
  5
55C
100
AcDbEntity
  8
0
100
AcDbSpline
 62
7
  6
BYLAYER
 70
0
 71
3
 72
13
 73
9
 74
0
 42
0.0000001
 43
0.0000001
 44
0.0000000001
 40
0.0
 40
0.0
 40
0.0
 40
0.0
 40
0.0425926032
 40
0.1305996188
 40
0.2465913144
 40
0.3803678238
 40
0.6780451683
 40
1.0
 40
1.0
 40
1.0
 40
1.0
 10
36.1235059868
 20
107.5715397276
 30
0.0
 10
36.1235059868
 20
107.5709725616
 30
0.0
 10
36.1257840246
 20
107.5702958177
 30
0.0
 10
36.1285669403
 20
107.569765045
 30
0.0
 10
36.1332332041
 20
107.5692697512
 30
0.0
 10
36.1404236769
 20
107.5687691398
 30
0.0
 10
36.1504959936
 20
107.5683485672
 30
0.0
 10
36.1587314597
 20
107.5681611404
 30
0.0
 10
36.1630179711
 20
107.5680858594
 30
0.0
  0
SPLINE
  5
55D
100
AcDbEntity
  8
0
100
AcDbSpline
 62
7
  6
BYLAYER
 70
0
 71
3
 72
9
 73
5
 74
0
 42
0.0000001
 43
0.0000001
 44
0.0000000001
 40
0.0
 40
0.0
 40
0.0
 40
0.0
 40
0.2374603823
 40
1.0
 40
1.0
 40
1.0
 40
1.0
 10
36.1630179711
 20
107.5680858594
 30
0.0
 10
36.1762939438
 20
107.5678527028
 30
0.0
 10
36.2322146282
 20
107.5677150757
 30
0.0
 10
36.2881261243
 20
107.5686508163
 30
0.0
 10
36.3307579222
 20
107.5694213108
 30
0.0
  0
LINE
  5
55E
100
AcDbEntity
  8
0
100
AcDbLine
 62
7
  6
BYLAYER
 10
36.4032059673
 20
107.5708382696
 11
36.4899133361
 21
107.5727067139
  0
LINE
  5
55F
100
AcDbEntity
  8
0
100
AcDbLine
 62
7
  6
BYLAYER
 10
36.4899133361
 20
107.5727067139
 11
36.5935096855
 21
107.5750319673
  0
LINE
  5
560
100
AcDbEntity
  8
0
100
AcDbLine
 62
7
  6
BYLAYER
 10
36.5935096855
 20
107.5750319673
 11
36.717202244
 21
107.5778042197
  0
LINE
  5
561
100
AcDbEntity
  8
0
100
AcDbLine
 62
7
  6
BYLAYER
 10
36.717202244
 20
107.5778042197
 11
36.8649003993
 21
107.5809811778
  0
SPLINE
  5
562
100
AcDbEntity
  8
0
100
AcDbSpline
 62
7
  6
BYLAYER
 70
0
 71
3
 72
11
 73
7
 74
0
 42
0.0000001
 43
0.0000001
 44
0.0000000001
 40
0.0
 40
0.0
 40
0.0
 40
0.0
 40
0.2500252909
 40
0.4374901562
 40
0.6250110652
 40
1.0
 40
1.0
 40
1.0
 40
1.0
 10
45.6524006199
 20
107.7972389115
 30
0.0
 10
45.639614715
 20
107.7969226258
 30
0.0
 10
45.6172702108
 20
107.7955341863
 30
0.0
 10
45.5852945009
 20
107.7950730475
 30
0.0
 10
45.5469250213
 20
107.7958800653
 30
0.0
 10
45.5181842267
 20
107.7938816181
 30
0.0
 10
45.4990081858
 20
107.7933948612
 30
0.0
  0
SPLINE
  5
563
100
AcDbEntity
  8
0
100
AcDbSpline
 62
7
  6
BYLAYER
 70
0
 71
3
 72
11
 73
7
 74
0
 42
0.0000001
 43
0.0000001
 44
0.0000000001
 40
0.0
 40
0.0
 40
0.0
 40
0.0
 40
0.250004311
 40
0.4374977516
 40
0.6250027499
 40
1.0
 40
1.0
 40
1.0
 40
1.0
 10
41.2807294797
 20
107.7806264183
 30
0.0
 10
41.2396678184
 20
107.7802113785
 30
0.0
 10
41.1678293033
 20
107.7782540904
 30
0.0
 10
41.065169161
 20
107.7775601077
 30
0.0
 10
40.9419775661
 20
107.7787117738
 30
0.0
 10
40.8496056663
 20
107.7759415222
 30
0.0
 10
40.7880158851
 20
107.7752100863
 30
0.0
  0
SPLINE
  5
564
100
AcDbEntity
  8
0
100
AcDbSpline
 62
7
  6
BYLAYER
 70
0
 71
3
 72
9
 73
5
 74
0
 42
0.0000001
 43
0.0000001
 44
0.0000000001
 40
0.0
 40
0.0
 40
0.0
 40
0.0
 40
0.2472031748
 40
1.0
 40
1.0
 40
1.0
 40
1.0
 10
39.7362994354
 20
66.6577949166
 30
0.0
 10
39.729762653
 20
66.6693040682
 30
0.0
 10
39.702814458
 20
66.7155746194
 30
0.0
 10
39.6741164828
 20
66.7608108288
 30
0.0
 10
39.6518763745
 20
66.7944265559
 30
0.0
  0
SPLINE
  5
565
100
AcDbEntity
  8
0
100
AcDbSpline
 62
7
  6
BYLAYER
 70
0
 71
3
 72
14
 73
10
 74
0
 42
0.0000001
 43
0.0000001
 44
0.0000000001
 40
0.0
 40
0.0
 40
0.0
 40
0.0
 40
0.0393995478
 40
0.0855569914
 40
0.1485764381
 40
0.2402086786
 40
0.3723950319
 40
0.5510319646
 40
1.0
 40
1.0
 40
1.0
 40
1.0
 10
42.3312318992
 20
107.6799033433
 30
0.0
 10
42.3312318992
 20
107.6866678149
 30
0.0
 10
42.3282976022
 20
107.7015723994
 30
0.0
 10
42.312663893
 20
107.7225882027
 30
0.0
 10
42.2835176752
 20
107.7418266477
 30
0.0
 10
42.2372178895
 20
107.7592895235
 30
0.0
 10
42.1695706413
 20
107.7741337054
 30
0.0
 10
42.0399561063
 20
107.7898454879
 30
0.0
 10
41.9320267339
 20
107.7925931288
 30
0.0
 10
41.8549441311
 20
107.7928084999
 30
0.0
  0
SPLINE
  5
566
100
AcDbEntity
  8
0
100
AcDbSpline
 62
7
  6
BYLAYER
 70
0
 71
3
 72
12
 73
8
 74
0
 42
0.0000001
 43
0.0000001
 44
0.0000000001
 40
0.0
 40
0.0
 40
0.0
 40
0.0
 40
0.12109592
 40
0.2151608846
 40
0.3329142165
 40
0.6317676314
 40
1.0
 40
1.0
 40
1.0
 40
1.0
 10
37.4040963959
 20
107.5589559092
 30
0.0
 10
37.4040963958
 20
107.5643868091
 30
0.0
 10
37.4117338925
 20
107.5727497241
 30
0.0
 10
37.4239807638
 20
107.5805139616
 30
0.0
 10
37.4447246474
 20
107.590740953
 30
0.0
 10
37.4778417513
 20
107.602525921
 30
0.0
 10
37.5066344597
 20
107.6107997578
 30
0.0
 10
37.5225941197
 20
107.6150443395
 30
0.0
  0
SPLINE
  5
567
100
AcDbEntity
  8
0
100
AcDbSpline
 62
7
  6
BYLAYER
 70
0
 71
3
 72
9
 73
5
 74
0
 42
0.0000001
 43
0.0000001
 44
0.0000000001
 40
0.0
 40
0.0
 40
0.0
 40
0.0
 40
0.2246916091
 40
1.0
 40
1.0
 40
1.0
 40
1.0
 10
37.5225941197
 20
107.6150443395
 30
0.0
 10
37.5389334489
 20
107.6193898967
 30
0.0
 10
37.6120369107
 20
107.6372791308
 30
0.0
 10
37.6859855856
 20
107.6514643923
 30
0.0
 10
37.7434179973
 20
107.6617119074
 30
0.0
  0
SPLINE
  5
568
100
AcDbEntity
  8
0
100
AcDbSpline
 62
7
  6
BYLAYER
 70
0
 71
3
 72
9
 73
5
 74
0
 42
0.0000001
 43
0.0000001
 44
0.0000000001
 40
0.0
 40
0.0
 40
0.0
 40
0.0
 40
0.2436770745
 40
1.0
 40
1.0
 40
1.0
 40
1.0
 10
44.1093578924
 20
107.6200654151
 30
0.0
 10
44.0893643162
 20
107.6180475842
 30
0.0
 10
44.0072975149
 20
107.6099469213
 30
0.0
 10
43.9251305161
 20
107.602799196
 30
0.0
 10
43.8629188513
 20
107.5983418797
 30
0.0
  0
SPLINE
  5
569
100
AcDbEntity
  8
0
100
AcDbSpline
 62
7
  6
BYLAYER
 70
0
 71
3
 72
9
 73
5
 74
0
 42
0.0000001
 43
0.0000001
 44
0.0000000001
 40
0.0
 40
0.0
 40
0.0
 40
0.0
 40
0.2412721009
 40
1.0
 40
1.0
 40
1.0
 40
1.0
 10
43.8629188513
 20
107.5983418797
 30
0.0
 10
43.8379097935
 20
107.5965500408
 30
0.0
 10
43.7342188476
 20
107.589781179
 30
0.0
 10
43.6302359589
 20
107.5862003755
 30
0.0
 10
43.5513957809
 20
107.5872775128
 30
0.0
  0
SPLINE
  5
56A
100
AcDbEntity
  8
0
100
AcDbSpline
 62
7
  6
BYLAYER
 70
0
 71
3
 72
10
 73
6
 74
0
 42
0.0000001
 43
0.0000001
 44
0.0000000001
 40
0.0
 40
0.0
 40
0.0
 40
0.0
 40
0.2500079876
 40
0.6250017887
 40
1.0
 40
1.0
 40
1.0
 40
1.0
 10
43.5513957809
 20
107.5872775128
 30
0.0
 10
43.5360943292
 20
107.5874865657
 30
0.0
 10
43.4978549131
 20
107.5888621135
 30
0.0
 10
43.4366314786
 20
107.5878839275
 30
0.0
 10
43.3907412995
 20
107.5894245972
 30
0.0
 10
43.3677897524
 20
107.5897222273
 30
0.0
  0
SPLINE
  5
56B
100
AcDbEntity
  8
0
100
AcDbSpline
 62
7
  6
BYLAYER
 70
0
 71
3
 72
9
 73
5
 74
0
 42
0.0000001
 43
0.0000001
 44
0.0000000001
 40
0.0
 40
0.0
 40
0.0
 40
0.0
 40
0.2400850338
 40
1.0
 40
1.0
 40
1.0
 40
1.0
 10
37.7434179972
 20
107.6617119074
 30
0.0
 10
37.7672045624
 20
107.6650302786
 30
0.0
 10
37.8663416051
 20
107.6783924374
 30
0.0
 10
37.9657768394
 20
107.6896719826
 30
0.0
 10
38.0414984481
 20
107.6963796919
 30
0.0
  0
SPLINE
  5
56C
100
AcDbEntity
  8
0
100
AcDbSpline
 62
7
  6
BYLAYER
 70
0
 71
3
 72
9
 73
5
 74
0
 42
0.0000001
 43
0.0000001
 44
0.0000000001
 40
0.0
 40
0.0
 40
0.0
 40
0.0
 40
0.2473844695
 40
1.0
 40
1.0
 40
1.0
 40
1.0
 10
38.0414984481
 20
107.6963796919
 30
0.0
 10
38.0527421146
 20
107.6973756988
 30
0.0
 10
38.0982067135
 20
107.7012338884
 30
0.0
 10
38.1437358734
 20
107.7043593489
 30
0.0
 10
38.1780286442
 20
107.7061683867
 30
0.0
  0
ELLIPSE
  5
56D
100
AcDbEntity
  8
0
100
AcDbEllipse
 62
7
  6
BYLAYER
 10
14.668512256
 20
68.1574572776
 30
0.0
 11
4.4777032873
 21
0.8117280985
 31
0.0
 40
0.5511787475
 41
-2.5648659431
 42
-1.8885508579
  0
ELLIPSE
  5
56E
100
AcDbEntity
  8
0
100
AcDbEllipse
 62
7
  6
BYLAYER
 10
73.668512256
 20
68.1574572776
 30
0.0
 11
4.4777032873
 21
-0.8117280985
 31
0.0
 40
0.5511787475
 41
-1.2530417957
 42
-0.5767267105
  0
ENDSEC
  0
SECTION
  2
OBJECTS
  0
DICTIONARY
  5
C
100
AcDbDictionary
280
0
281
1
  3
ACAD_GROUP
350
D
  3
ACAD_MLINESTYLE
350
17
  3
ACAD_LAYOUT
350
1A
  3
ACAD_PLOTSETTINGS
350
19
  3
ACAD_PLOTSTYLENAME
350
E
  0
DICTIONARY
  5
D
102
{ACAD_REACTORS
330
C
102
}
100
AcDbDictionary
280
0
281
1
  0
ACDBDICTIONARYWDFLT
  5
E
102
{ACAD_REACTORS
330
C
102
}
100
AcDbDictionary
281
1
  3
Normal
350
F
100
AcDbDictionaryWithDefault
340
F
  0
DICTIONARY
  5
17
102
{ACAD_REACTORS
330
C
102
}
100
AcDbDictionary
280
0
281
1
  3
Standard
350
18
  0
DICTIONARY
  5
19
102
{ACAD_REACTORS
330
C
102
}
100
AcDbDictionary
281
1
  0
DICTIONARY
  5
1A
102
{ACAD_REACTORS
330
C
102
}
100
AcDbDictionary
281
1
  3
Model
350
56F
  3
Layout1
350
570
  0
ACDBPLACEHOLDER
  5
F
102
{ACAD_REACTORS
330
E
102
}
  0
MLINESTYLE
  5
18
102
{ACAD_REACTORS
330
17
102
}
100
AcDbMlineStyle
  2
STANDARD
 70
0
  3

 62
256
 51
90.0
 52
90.0
 71
2
 49
0.5
 62
256
  6
BYLAYER
 49
-0.5
 62
256
  6
BYLAYER
  0
LAYOUT
  5
56F
102
{ACAD_REACTORS
330
1A
102
}
100
AcDbPlotSettings
  1

  2
none_device
  4

  6

 40
0.0
 41
0.0
 42
0.0
 43
0.0
 44
210.0
 45
297.0
 46
0.0
 47
0.0
 48
0.0
 49
0.0
140
0.0
141
0.0
142
1.0
143
1.0
 70
1024
 72
1
 73
0
 74
0
  7

 75
0
147
1.0
148
0.0
149
0.0
100
AcDbLayout
  1
Model
 70
0
 71
0
 10
0.0
 20
0.0
 11
210.0
 21
297.0
 12
0.0
 22
0.0
 32
0.0
 14
0.0
 24
0.0
 34
0.0
 15
0.0
 25
0.0
 35
0.0
146
0.0
 13
0.0
 23
0.0
 33
0.0
 16
1.0
 26
0.0
 36
0.0
 17
0.0
 27
1.0
 37
0.0
 76
0
330
213
345
0
346
0
  0
LAYOUT
  5
570
102
{ACAD_REACTORS
330
1A
102
}
100
AcDbPlotSettings
  1

  2
none_device
  4

  6

 40
0.0
 41
0.0
 42
0.0
 43
0.0
 44
210.0
 45
297.0
 46
0.0
 47
0.0
 48
0.0
 49
0.0
140
0.0
141
0.0
142
1.0
143
1.0
 70
0
 72
1
 73
0
 74
0
  7

 75
0
147
1.0
148
0.0
149
0.0
100
AcDbLayout
  1
Layout1
 70
0
 71
1
 10
0.0
 20
0.0
 11
210.0
 21
297.0
 12
0.0
 22
0.0
 32
0.0
 14
0.0
 24
0.0
 34
0.0
 15
0.0
 25
0.0
 35
0.0
146
0.0
 13
0.0
 23
0.0
 33
0.0
 16
1.0
 26
0.0
 36
0.0
 17
0.0
 27
1.0
 37
0.0
 76
0
330
214
345
0
346
0
  0
ENDSEC
  0
EOF
