999
DXF file: C:\Users\sesa63760\Dev\_Creo\CAD\MCADID0004114_3D-CAD\drw0001_1.dxf
999
Pro/ENGINEER 2019471 by Parametric Technology Corporation
  0
SECTION
  2
HEADER
  9
$ACADVER
  1
AC1024
  9
$DWGCODEPAGE
  3
ANSI_1252
  9
$EXTMAX
 10
52.9612797253
 20
74.9023813257
 30
0.0
  9
$EXTMIN
 10
0.0
 20
0.0
 30
0.0
  9
$LIMMIN
 10
0.0
 20
0.0
  9
$LIMMAX
 10
52.9612797253
 20
74.9023813257
  9
$VIEWCTR
 10
26.4806398626
 20
37.4511906629
  9
$VIEWSIZE
 40
74.9023813257
  9
$CLAYER
  8
0
  9
$LTSCALE
 40
4.8825255975
  9
$CELTYPE
  6
BYLAYER
  9
$DIMSCALE
 40
1.0
  9
$DIMASZ
 40
0.6304914253
  9
$DIMEXO
 40
1.0
  9
$DIMDLI
 40
3.3733813219
  9
$DIMEXE
 40
1.0
  9
$DIMCEN
 40
0.7989587341
  9
$DIMLFAC
 40
1.0
  9
$DIMBLK
  1
_FILLED
  9
$DIMALT
 70
0
  9
$DIMALTF
 40
0.0393700787
  9
$DIMTXT
 40
0.8826879954
  9
$DIMTOL
 70
1
  9
$DIMLIM
 70
0
  9
$DIMTFAC
 40
1.0
  9
$DIMTP
 40
0.01
  9
$DIMTM
 40
0.01
  9
$DIMGAP
 40
0.625
  9
$DIMDSEP
 70
46
  9
$AUNITS
 70
0
  9
$PDMODE
 70
3
  9
$PDSIZE
 40
0.3125
  9
$HANDSEED
  5
27B
  9
$TILEMODE
 70
1
  9
$MEASUREMENT
 70
1
  9
$INSUNITS
 70
4
  0
ENDSEC
  0
SECTION
  2
CLASSES
  0
CLASS
  1
ACDBDICTIONARYWDFLT
  2
AcDbDictionaryWithDefault
  3
AutoCAD 2000
 90
0
 91
1
280
0
281
0
  0
CLASS
  1
ACDBPLACEHOLDER
  2
AcDbPlaceHolder
  3
AutoCAD 2000
 90
0
 91
1
280
0
281
0
  0
CLASS
  1
LAYOUT
  2
AcDbLayout
  3
AutoCAD 2000
 90
0
 91
0
280
0
281
0
  0
ENDSEC
  0
SECTION
  2
TABLES
  0
TABLE
  2
VPORT
  5
8
100
AcDbSymbolTable
 70
2
  0
VPORT
  5
1F4
100
AcDbSymbolTableRecord
100
AcDbViewportTableRecord
  2
*ACTIVE
 70
0
 10
0.0
 20
0.0
 11
1.0
 21
1.0
 12
26.4806398626
 22
37.4511906629
 13
0.0
 23
0.0
 14
1.0
 24
1.0
 15
0.0
 25
0.0
 16
0.0
 26
0.0
 36
1.0
 17
0.0
 27
0.0
 37
0.0
 40
74.9023813257
 41
0.7070707071
 42
50.0
 43
0.0
 44
0.0
 50
0.0
 51
0.0
 71
0
 72
100
 73
1
 74
1
 75
0
 76
0
 77
0
 78
0
  0
ENDTAB
  0
TABLE
  2
LTYPE
  5
5
100
AcDbSymbolTable
 70
6
  0
LTYPE
  5
14
100
AcDbSymbolTableRecord
100
AcDbLinetypeTableRecord
  2
BYBLOCK
 70
0
  3

 72
65
 73
0
 40
0.0
  0
LTYPE
  5
15
100
AcDbSymbolTableRecord
100
AcDbLinetypeTableRecord
  2
BYLAYER
 70
0
  3

 72
65
 73
0
 40
0.0
  0
LTYPE
  5
16
100
AcDbSymbolTableRecord
100
AcDbLinetypeTableRecord
  2
CONTINUOUS
 70
64
  3
Solid line
 72
65
 73
0
 40
0.0
  0
LTYPE
  5
1F5
100
AcDbSymbolTableRecord
100
AcDbLinetypeTableRecord
  2
CENTER
 70
64
  3
____ _ ____ _ ____ _ ____ _ ____ _ ____ _ ____
 72
65
 73
4
 40
0.6
 49
0.375
 74
0
 49
-0.075
 74
0
 49
0.075
 74
0
 49
-0.075
 74
0
  0
LTYPE
  5
1F6
100
AcDbSymbolTableRecord
100
AcDbLinetypeTableRecord
  2
HIDDEN
 70
64
  3
- - - - - - - - - - - - - - - - - - - -
 72
65
 73
2
 40
0.2
 49
0.1
 74
0
 49
-0.1
 74
0
  0
LTYPE
  5
1F7
100
AcDbSymbolTableRecord
100
AcDbLinetypeTableRecord
  2
PHANTOM
 70
64
  3
_____ _ _ _____ _ _ _____ _ _ _____
 72
65
 73
6
 40
0.8
 49
0.45
 74
0
 49
-0.05
 74
0
 49
0.1
 74
0
 49
-0.05
 74
0
 49
0.1
 74
0
 49
-0.05
 74
0
  0
LTYPE
  5
1F8
100
AcDbSymbolTableRecord
100
AcDbLinetypeTableRecord
  2
DOT
 70
64
  3
. . . . . . . . . . . . . . . . . . . .
 72
65
 73
2
 40
0.2
 49
0.1
 74
0
 49
-0.1
 74
0
  0
LTYPE
  5
1F9
100
AcDbSymbolTableRecord
100
AcDbLinetypeTableRecord
  2
DASHED
 70
64
  3
- - - - - - - - - - - - - - - - - - - -
 72
65
 73
2
 40
0.2
 49
0.1
 74
0
 49
-0.1
 74
0
  0
ENDTAB
  0
TABLE
  2
LAYER
  5
2
100
AcDbSymbolTable
 70
36
  0
LAYER
  5
10
100
AcDbSymbolTableRecord
100
AcDbLayerTableRecord
  2
0
 70
0
 62
7
  6
CONTINUOUS
370
-3
390
F
  0
LAYER
  5
1FA
100
AcDbSymbolTableRecord
100
AcDbLayerTableRecord
  2
DEFAULT_1
 70
0
 62
7
  6
CENTER
370
-3
390
F
  0
LAYER
  5
1FB
100
AcDbSymbolTableRecord
100
AcDbLayerTableRecord
  2
DEFAULT_2
 70
0
 62
7
  6
HIDDEN
370
-3
390
F
  0
LAYER
  5
1FC
100
AcDbSymbolTableRecord
100
AcDbLayerTableRecord
  2
DEFAULT_3
 70
0
 62
7
  6
PHANTOM
370
-3
390
F
  0
LAYER
  5
1FD
100
AcDbSymbolTableRecord
100
AcDbLayerTableRecord
  2
00_COMPONENTS
 70
0
 62
7
  6
CONTINUOUS
370
-3
390
F
  0
LAYER
  5
1FE
100
AcDbSymbolTableRecord
100
AcDbLayerTableRecord
  2
01_1_DEFAULT_DATUMS
 70
0
 62
7
  6
CONTINUOUS
370
-3
390
F
  0
LAYER
  5
1FF
100
AcDbSymbolTableRecord
100
AcDbLayerTableRecord
  2
01_PLANES
 70
0
 62
7
  6
CONTINUOUS
370
-3
390
F
  0
LAYER
  5
200
100
AcDbSymbolTableRecord
100
AcDbLayerTableRecord
  2
02_COORD_SYS
 70
0
 62
7
  6
CONTINUOUS
370
-3
390
F
  0
LAYER
  5
201
100
AcDbSymbolTableRecord
100
AcDbLayerTableRecord
  2
03_AXES
 70
0
 62
7
  6
CONTINUOUS
370
-3
390
F
  0
LAYER
  5
202
100
AcDbSymbolTableRecord
100
AcDbLayerTableRecord
  2
04_POINTS
 70
0
 62
7
  6
CONTINUOUS
370
-3
390
F
  0
LAYER
  5
203
100
AcDbSymbolTableRecord
100
AcDbLayerTableRecord
  2
05_CURVES
 70
0
 62
7
  6
CONTINUOUS
370
-3
390
F
  0
LAYER
  5
204
100
AcDbSymbolTableRecord
100
AcDbLayerTableRecord
  2
06_SURFS
 70
0
 62
7
  6
CONTINUOUS
370
-3
390
F
  0
LAYER
  5
205
100
AcDbSymbolTableRecord
100
AcDbLayerTableRecord
  2
07_COSMETICS
 70
0
 62
7
  6
CONTINUOUS
370
-3
390
F
  0
LAYER
  5
206
100
AcDbSymbolTableRecord
100
AcDbLayerTableRecord
  2
10_NOTES
 70
0
 62
7
  6
CONTINUOUS
370
-3
390
F
  0
LAYER
  5
207
100
AcDbSymbolTableRecord
100
AcDbLayerTableRecord
  2
11_NOTES_PUB
 70
0
 62
7
  6
CONTINUOUS
370
-3
390
F
  0
LAYER
  5
208
100
AcDbSymbolTableRecord
100
AcDbLayerTableRecord
  2
13_REF_GTOL
 70
0
 62
7
  6
CONTINUOUS
370
-3
390
F
  0
LAYER
  5
209
100
AcDbSymbolTableRecord
100
AcDbLayerTableRecord
  2
16_MISC
 70
0
 62
7
  6
CONTINUOUS
370
-3
390
F
  0
LAYER
  5
20A
100
AcDbSymbolTableRecord
100
AcDbLayerTableRecord
  2
17_NO_PRINT
 70
0
 62
7
  6
CONTINUOUS
370
-3
390
F
  0
LAYER
  5
20B
100
AcDbSymbolTableRecord
100
AcDbLayerTableRecord
  2
18_DATUM_CAMS_JOINTS
 70
0
 62
7
  6
CONTINUOUS
370
-3
390
F
  0
LAYER
  5
20C
100
AcDbSymbolTableRecord
100
AcDbLayerTableRecord
  2
19_DATUM_FUNCTIONAL
 70
0
 62
7
  6
CONTINUOUS
370
-3
390
F
  0
LAYER
  5
20D
100
AcDbSymbolTableRecord
100
AcDbLayerTableRecord
  2
20_DATUM_KINEMATIC_SCHEME
 70
0
 62
7
  6
CONTINUOUS
370
-3
390
F
  0
ENDTAB
  0
TABLE
  2
STYLE
  5
3
100
AcDbSymbolTable
 70
1
  0
STYLE
  5
11
100
AcDbSymbolTableRecord
100
AcDbTextStyleTableRecord
  2
STANDARD
 70
0
 40
0.0
 41
1.0
 50
0.0
 71
0
 42
0.2
  3
ARIAL.TTF
  4

  0
STYLE
  5
20E
100
AcDbSymbolTableRecord
100
AcDbTextStyleTableRecord
  2
TEXTSTYLE_1
 70
0
 40
0.0
 41
0.8
 50
0.0
 71
0
 42
0.2
  3
gdt
  4

  0
ENDTAB
  0
TABLE
  2
VIEW
  5
6
100
AcDbSymbolTable
 70
0
  0
ENDTAB
  0
TABLE
  2
UCS
  5
7
100
AcDbSymbolTable
 70
0
  0
ENDTAB
  0
TABLE
  2
APPID
  5
9
100
AcDbSymbolTable
 70
1
  0
APPID
  5
20F
100
AcDbSymbolTableRecord
100
AcDbRegAppTableRecord
  2
ACAD
 70
0
  0
ENDTAB
  0
TABLE
  2
BLOCK_RECORD
  5
1
100
AcDbSymbolTable
 70
0
  0
BLOCK_RECORD
  5
210
100
AcDbSymbolTableRecord
100
AcDbBlockTableRecord
  2
*Model_Space
  0
BLOCK_RECORD
  5
211
100
AcDbSymbolTableRecord
100
AcDbBlockTableRecord
  2
*Paper_Space
  0
BLOCK_RECORD
  5
212
100
AcDbSymbolTableRecord
100
AcDbBlockTableRecord
  2
_FILLED
  0
ENDTAB
  0
TABLE
  2
DIMSTYLE
  5
A
100
AcDbSymbolTable
 70
1
100
AcDbDimStyleTable
 71
0
  0
DIMSTYLE
105
213
100
AcDbSymbolTableRecord
100
AcDbDimStyleTableRecord
  2
STANDARD
 70
0
  3

  4

 40
1.0
 41
0.6304914253
 42
1.0
 43
0.38
 44
1.0
 45
0.0
 46
0.0
 47
0.01
 48
0.01
140
0.8826879954
141
0.09
142
0.0
143
25.4
144
1.0
145
0.0
146
1.0
147
0.625
 71
1
 72
0
 73
0
 74
0
 75
0
 76
0
 77
1
 78
8
 79
2
170
0
171
1
172
0
173
0
174
0
175
0
176
0
177
0
178
0
270
2
179
2
271
2
272
2
273
2
274
2
275
0
280
0
281
0
282
0
283
1
284
8
285
0
286
0
287
3
288
0
340
11
278
46
341
212
342
212
343
212
344
212
  0
ENDTAB
  0
ENDSEC
  0
SECTION
  2
BLOCKS
  0
BLOCK
  5
20
100
AcDbEntity
  8
0
100
AcDbBlockBegin
  2
*Model_Space
 70
0
 10
0.0
 20
0.0
 30
0.0
  3
*Model_Space
  1

  0
ENDBLK
  5
21
100
AcDbEntity
  8
0
100
AcDbBlockEnd
  0
BLOCK
  5
1C
100
AcDbEntity
  8
0
100
AcDbBlockBegin
  2
*Paper_Space
 70
0
 10
0.0
 20
0.0
 30
0.0
  3
*Paper_Space
  1

  0
ENDBLK
  5
1D
100
AcDbEntity
  8
0
100
AcDbBlockEnd
  0
BLOCK
  5
214
100
AcDbEntity
  8
0
100
AcDbBlockBegin
  2
_FILLED
 70
64
 10
0.0
 20
0.0
  3
_FILLED
  1

  0
SOLID
  5
215
100
AcDbEntity
  8
0
  6
BYBLOCK
 62
0
100
AcDbTrace
 10
0.0
 20
0.0
 11
-1.0
 21
0.25
 12
-1.0
 22
-0.25
 13
-1.0
 23
-0.25
  0
ENDBLK
  5
216
100
AcDbEntity
  8
0
  6
BYBLOCK
 62
0
100
AcDbBlockEnd
  0
ENDSEC
  0
SECTION
  2
ENTITIES
  0
LINE
  5
217
100
AcDbEntity
  8
0
100
AcDbLine
 62
7
  6
BYLAYER
 10
6.1441145954
 20
46.646222522
 11
6.1441177822
 21
46.2042963854
  0
LINE
  5
218
100
AcDbEntity
  8
0
100
AcDbLine
 62
7
  6
BYLAYER
 10
8.972533131
 20
51.1033098652
 11
8.5898099922
 21
50.8823382403
  0
LINE
  5
219
100
AcDbEntity
  8
0
100
AcDbLine
 62
7
  6
BYLAYER
 10
11.771842027
 20
37.849873918
 11
11.771842027
 21
43.9781764922
  0
LINE
  5
21A
100
AcDbEntity
  8
0
100
AcDbLine
 62
7
  6
BYLAYER
 10
16.3680169689
 20
49.6959147795
 11
11.771842027
 21
43.9781764922
  0
LINE
  5
21B
100
AcDbEntity
  8
0
100
AcDbLine
 62
7
  6
BYLAYER
 10
14.6002809276
 20
42.3452134742
 11
14.6002809276
 21
36.2169109
  0
LINE
  5
21C
100
AcDbEntity
  8
0
100
AcDbLine
 62
7
  6
BYLAYER
 10
14.6002809276
 20
42.3452134742
 11
19.1964558695
 21
48.0629517614
  0
LINE
  5
21D
100
AcDbEntity
  8
0
100
AcDbLine
 62
7
  6
BYLAYER
 10
17.0182026219
 20
34.8209547396
 11
14.6002809276
 21
36.2169109
  0
LINE
  5
21E
100
AcDbEntity
  8
0
100
AcDbLine
 62
7
  6
BYLAYER
 10
9.3539203326
 20
39.2458300784
 11
11.771842027
 21
37.849873918
  0
LINE
  5
21F
100
AcDbEntity
  8
0
100
AcDbLine
 62
7
  6
BYLAYER
 10
20.9641919108
 20
49.2853504926
 11
20.9641919108
 21
47.9050445241
  0
LINE
  5
220
100
AcDbEntity
  8
0
100
AcDbLine
 62
7
  6
BYLAYER
 10
6.972567065
 20
44.3731789899
 11
8.981972335
 21
43.2130745614
  0
LINE
  5
221
100
AcDbEntity
  8
0
100
AcDbLine
 62
7
  6
BYLAYER
 10
28.073756089
 20
32.8156555635
 11
40.8017311417
 21
25.4673219821
  0
LINE
  5
222
100
AcDbEntity
  8
0
100
AcDbLine
 62
7
  6
BYLAYER
 10
40.9489878082
 20
26.5389071062
 11
45.9077192399
 21
23.6761518974
  0
LINE
  5
223
100
AcDbEntity
  8
0
100
AcDbLine
 62
7
  6
BYLAYER
 10
17.0182026219
 20
40.9492573138
 11
14.6002809276
 21
42.3452134742
  0
LINE
  5
224
100
AcDbEntity
  8
0
100
AcDbLine
 62
7
  6
BYLAYER
 10
9.3539203326
 20
45.3741326526
 11
11.771842027
 21
43.9781764922
  0
LINE
  5
225
100
AcDbEntity
  8
0
100
AcDbLine
 62
7
  6
BYLAYER
 10
11.771842027
 20
37.849873918
 11
14.6002809276
 21
37.5972168684
  0
LINE
  5
226
100
AcDbEntity
  8
0
100
AcDbLine
 62
7
  6
BYLAYER
 10
42.6989581159
 20
29.5700131621
 11
46.5265220056
 21
27.3602181124
  0
LINE
  5
227
100
AcDbEntity
  8
0
100
AcDbLine
 62
7
  6
BYLAYER
 10
31.5324474043
 20
38.8064201754
 11
44.2604224569
 21
31.458086594
  0
LINE
  5
228
100
AcDbEntity
  8
0
100
AcDbLine
 62
7
  6
BYLAYER
 10
10.9724991969
 20
51.3014214034
 11
12.8920329541
 21
50.1932031432
  0
LINE
  5
229
100
AcDbEntity
  8
0
100
AcDbLine
 62
7
  6
BYLAYER
 10
21.6143775638
 20
46.6669956011
 11
19.1964558695
 21
48.0629517614
  0
LINE
  5
22A
100
AcDbEntity
  8
0
100
AcDbLine
 62
7
  6
BYLAYER
 10
13.9500952745
 20
51.0918709399
 11
16.3680169689
 21
49.6959147795
  0
LINE
  5
22B
100
AcDbEntity
  8
0
100
AcDbLine
 62
7
  6
BYLAYER
 10
26.2105525057
 20
46.2564313141
 11
23.7926308113
 21
47.6523874745
  0
LINE
  5
22C
100
AcDbEntity
  8
0
100
AcDbLine
 62
7
  6
BYLAYER
 10
18.5462702164
 20
50.6813066529
 11
20.9641919108
 21
49.2853504926
  0
LINE
  5
22D
100
AcDbEntity
  8
0
100
AcDbLine
 62
7
  6
BYLAYER
 10
19.1964558695
 20
48.0629517614
 11
23.7926308113
 21
47.6523874745
  0
LINE
  5
22E
100
AcDbEntity
  8
0
100
AcDbLine
 62
7
  6
BYLAYER
 10
20.9641919108
 20
49.2853504926
 11
16.3680169689
 21
49.6959147795
  0
LINE
  5
22F
100
AcDbEntity
  8
0
100
AcDbLine
 62
7
  6
BYLAYER
 10
45.9077192399
 20
23.6761518974
 11
47.6397628363
 21
24.6761417649
  0
ARC
  5
230
100
AcDbEntity
  8
0
100
AcDbCircle
 62
7
  6
BYLAYER
 10
-34.9303772462
 20
167.121534173
 40
161.6590388346
100
AcDbArc
 50
299.939307996
 51
300.0604016143
  0
ARC
  5
231
100
AcDbEntity
  8
0
100
AcDbCircle
 62
7
  6
BYLAYER
 10
16.5676911954
 20
42.9474414402
 40
10.0533815671
100
AcDbArc
 50
356.1841504133
 51
0.0446342425
  0
ARC
  5
232
100
AcDbEntity
  8
0
100
AcDbCircle
 62
7
  6
BYLAYER
 10
39.5953844229
 20
30.2371507435
 40
5.4217784261
100
AcDbArc
 50
340.4509027199
 51
340.9875433388
  0
ARC
  5
233
100
AcDbEntity
  8
0
100
AcDbCircle
 62
7
  6
BYLAYER
 10
44.122060433
 20
29.3812536343
 40
1.1
100
AcDbArc
 50
299.7077943159
 51
60.0005612632
  0
ARC
  5
234
100
AcDbEntity
  8
0
100
AcDbCircle
 62
7
  6
BYLAYER
 10
38.6711560641
 20
28.6836562383
 40
0.75
100
AcDbArc
 50
160.3450167478
 51
255.7014800441
  0
ARC
  5
235
100
AcDbEntity
  8
0
100
AcDbCircle
 62
7
  6
BYLAYER
 10
40.4097476239
 20
31.6950018697
 40
0.75
100
AcDbArc
 50
44.4475598213
 51
139.9865776909
  0
SPLINE
  5
236
100
AcDbEntity
  8
0
100
AcDbSpline
 62
7
  6
BYLAYER
 70
0
 71
3
 72
23
 73
19
 74
0
 42
0.0000001
 43
0.0000001
 44
0.0000000001
 40
0.0
 40
0.0
 40
0.0
 40
0.0
 40
0.0558388407
 40
0.1141794425
 40
0.1747830636
 40
0.2373533987
 40
0.3015483781
 40
0.3669923093
 40
0.4332823259
 40
0.5000000092
 40
0.5667180313
 40
0.6330075929
 40
0.6984504123
 40
0.7626461621
 40
0.8252148299
 40
0.8858162062
 40
0.9441723937
 40
1.0
 40
1.0
 40
1.0
 40
1.0
 10
13.5396039039
 20
41.9346097131
 30
0.0
 10
13.5396026441
 20
42.044034036
 30
0.0
 10
13.5493230466
 20
42.267867022
 30
0.0
 10
13.5905422353
 20
42.6081834963
 30
0.0
 10
13.6583444165
 20
42.9576558561
 30
0.0
 10
13.7520823387
 20
43.312925713
 30
0.0
 10
13.870836475
 20
43.6706250185
 30
0.0
 10
14.0134948622
 20
44.0273285796
 30
0.0
 10
14.1786822289
 20
44.3796325757
 30
0.0
 10
14.3648115243
 20
44.7241717191
 30
0.0
 10
14.5701230001
 20
45.0576350602
 30
0.0
 10
14.7926266842
 20
45.3768453059
 30
0.0
 10
15.0302071019
 20
45.6787447469
 30
0.0
 10
15.2806042672
 20
45.9604354113
 30
0.0
 10
15.5413974564
 20
46.2192511947
 30
0.0
 10
15.8101585058
 20
46.4527297636
 30
0.0
 10
16.084285494
 20
46.6585732273
 30
0.0
 10
16.27327165
 20
46.778920965
 30
0.0
 10
16.3680169689
 20
46.8336218738
 30
0.0
  0
SPLINE
  5
237
100
AcDbEntity
  8
0
100
AcDbSpline
 62
7
  6
BYLAYER
 70
0
 71
3
 72
11
 73
7
 74
0
 42
0.0000001
 43
0.0000001
 44
0.0000000001
 40
0.0
 40
0.0
 40
0.0
 40
0.0
 40
0.2238686444
 40
0.4673674335
 40
0.7272282874
 40
1.0
 40
1.0
 40
1.0
 40
1.0
 10
15.8376655392
 20
51.1235956541
 30
0.0
 10
16.0417624784
 20
51.1053642083
 30
0.0
 10
16.4669433379
 20
51.0568259689
 30
0.0
 10
17.1251159138
 20
50.9567035301
 30
0.0
 10
17.8242120767
 20
50.8300596714
 30
0.0
 10
18.3019942365
 20
50.7329296429
 30
0.0
 10
18.5462702164
 20
50.6813066529
 30
0.0
  0
SPLINE
  5
238
100
AcDbEntity
  8
0
100
AcDbSpline
 62
7
  6
BYLAYER
 70
0
 71
3
 72
11
 73
7
 74
0
 42
0.0000001
 43
0.0000001
 44
0.0000000001
 40
0.0
 40
0.0
 40
0.0
 40
0.0
 40
0.247670327
 40
0.4973373623
 40
0.7483031512
 40
1.0
 40
1.0
 40
1.0
 40
1.0
 10
11.2414905973
 20
48.470008654
 30
0.0
 10
11.43687025
 20
48.7130650508
 30
0.0
 10
11.8465241886
 20
49.1874694919
 30
0.0
 10
12.5085665327
 20
49.8586948366
 30
0.0
 10
13.2116872173
 20
50.4941342626
 30
0.0
 10
13.7012551198
 20
50.8956160283
 30
0.0
 10
13.9500952745
 20
51.0918709399
 30
0.0
  0
SPLINE
  5
239
100
AcDbEntity
  8
0
100
AcDbSpline
 62
7
  6
BYLAYER
 70
0
 71
3
 72
11
 73
7
 74
0
 42
0.0000001
 43
0.0000001
 44
0.0000000001
 40
0.0
 40
0.0
 40
0.0
 40
0.0
 40
0.2100625315
 40
0.444062914
 40
0.7063986533
 40
1.0
 40
1.0
 40
1.0
 40
1.0
 10
13.9500952745
 20
51.0918709399
 30
0.0
 10
14.08103491
 20
51.1121247579
 30
0.0
 10
14.3593836346
 20
51.1454332077
 30
0.0
 10
14.8046373876
 20
51.1687664458
 30
0.0
 10
15.3031570328
 20
51.1635288646
 30
0.0
 10
15.6532111245
 20
51.1400724846
 30
0.0
 10
15.8376655392
 20
51.1235956541
 30
0.0
  0
SPLINE
  5
23A
100
AcDbEntity
  8
0
100
AcDbSpline
 62
7
  6
BYLAYER
 70
0
 71
3
 72
11
 73
7
 74
0
 42
0.0000001
 43
0.0000001
 44
0.0000000001
 40
0.0
 40
0.0
 40
0.0
 40
0.0
 40
0.2655478913
 40
0.5198361305
 40
0.7640838454
 40
1.0
 40
1.0
 40
1.0
 40
1.0
 10
8.9434031264
 20
42.5469882232
 30
0.0
 10
8.9434031264
 20
42.8006921424
 30
0.0
 10
8.9612568542
 20
43.2975855836
 30
0.0
 10
9.0438810723
 20
44.0235941475
 30
0.0
 10
9.1748436645
 20
44.7135532524
 30
0.0
 10
9.2907098798
 20
45.157783833
 30
0.0
 10
9.3539203326
 20
45.3741326526
 30
0.0
  0
SPLINE
  5
23B
100
AcDbEntity
  8
0
100
AcDbSpline
 62
7
  6
BYLAYER
 70
0
 71
3
 72
11
 73
7
 74
0
 42
0.0000001
 43
0.0000001
 44
0.0000000001
 40
0.0
 40
0.0
 40
0.0
 40
0.0
 40
0.2454667374
 40
0.4938230563
 40
0.7453379156
 40
1.0
 40
1.0
 40
1.0
 40
1.0
 10
9.3539203326
 20
45.3741326526
 30
0.0
 10
9.4791113225
 20
45.6438831212
 30
0.0
 10
9.7430246327
 20
46.1811033572
 30
0.0
 10
10.1845458837
 20
46.9693630251
 30
0.0
 10
10.6805102034
 20
47.7380095612
 30
0.0
 10
11.048192885
 20
48.2295422347
 30
0.0
 10
11.2414905973
 20
48.470008654
 30
0.0
  0
SPLINE
  5
23C
100
AcDbEntity
  8
0
100
AcDbSpline
 62
7
  6
BYLAYER
 70
0
 71
3
 72
11
 73
7
 74
0
 42
0.0000001
 43
0.0000001
 44
0.0000000001
 40
0.0
 40
0.0
 40
0.0
 40
0.0
 40
0.2602536681
 40
0.5147427021
 40
0.7618353688
 40
1.0
 40
1.0
 40
1.0
 40
1.0
 10
9.3539203326
 20
39.2458300784
 30
0.0
 10
9.2922151579
 20
39.5282762072
 30
0.0
 10
9.1792619668
 20
40.0889765635
 30
0.0
 10
9.0477449104
 20
40.9253216903
 30
0.0
 10
8.9635891386
 20
41.7432145592
 30
0.0
 10
8.9434031264
 20
42.2824184171
 30
0.0
 10
8.9434031264
 20
42.5469882232
 30
0.0
  0
SPLINE
  5
23D
100
AcDbEntity
  8
0
100
AcDbSpline
 62
7
  6
BYLAYER
 70
0
 71
3
 72
18
 73
14
 74
0
 42
0.0000001
 43
0.0000001
 44
0.0000000001
 40
0.0
 40
0.0
 40
0.0
 40
0.0
 40
0.0550770458
 40
0.1098574498
 40
0.1646783376
 40
0.2198755589
 40
0.2757735277
 40
0.3326776075
 40
0.4504699857
 40
0.5751691972
 40
0.7079834008
 40
0.8495485618
 40
1.0
 40
1.0
 40
1.0
 40
1.0
 10
14.5877473319
 20
40.0018920666
 30
0.0
 10
14.5472024658
 20
40.0164082249
 30
0.0
 10
14.467636611
 20
40.0491820692
 30
0.0
 10
14.3536626933
 20
40.109507413
 30
0.0
 10
14.2459612981
 20
40.1806182764
 30
0.0
 10
14.1448755844
 20
40.2622384586
 30
0.0
 10
14.0507282457
 20
40.3541219677
 30
0.0
 10
13.9335491299
 20
40.4914351767
 30
0.0
 10
13.805833125
 20
40.6890637316
 30
0.0
 10
13.686894806
 20
40.958465408
 30
0.0
 10
13.6014356841
 20
41.2595117795
 30
0.0
 10
13.5502592617
 20
41.5884302047
 30
0.0
 10
13.5396052583
 20
41.8169706865
 30
0.0
 10
13.5396039039
 20
41.9346097131
 30
0.0
  0
SPLINE
  5
23E
100
AcDbEntity
  8
0
100
AcDbSpline
 62
7
  6
BYLAYER
 70
0
 71
3
 72
15
 73
11
 74
0
 42
0.0000001
 43
0.0000001
 44
0.0000000001
 40
0.0
 40
0.0
 40
0.0
 40
0.0
 40
0.1484948539
 40
0.2893937125
 40
0.4226111114
 40
0.5485560536
 40
0.6679655613
 40
0.7819478944
 40
0.8920164903
 40
1.0
 40
1.0
 40
1.0
 40
1.0
 10
16.3680169689
 20
46.8336218738
 30
0.0
 10
16.4578250289
 20
46.8854722719
 30
0.0
 10
16.6371333002
 20
46.9793716753
 30
0.0
 10
16.910617914
 20
47.0915289381
 30
0.0
 10
17.1792863511
 20
47.1702106398
 30
0.0
 10
17.4405964686
 20
47.2145511118
 30
0.0
 10
17.6921495013
 20
47.2240221456
 30
0.0
 10
17.9315516815
 20
47.1982272791
 30
0.0
 10
18.1562741351
 20
47.1372406359
 30
0.0
 10
18.2953331345
 20
47.0731090745
 30
0.0
 10
18.3608717306
 20
47.0358077327
 30
0.0
  0
SPLINE
  5
23F
100
AcDbEntity
  8
0
100
AcDbSpline
 62
7
  6
BYLAYER
 70
0
 71
3
 72
23
 73
19
 74
0
 42
0.0000001
 43
0.0000001
 44
0.0000000001
 40
0.0
 40
0.0
 40
0.0
 40
0.0
 40
0.0558388407
 40
0.1141794425
 40
0.1747830636
 40
0.2373533987
 40
0.3015483781
 40
0.3669923093
 40
0.4332823259
 40
0.5000000092
 40
0.5667180313
 40
0.6330075929
 40
0.6984504123
 40
0.7626461621
 40
0.8252148299
 40
0.8858162062
 40
0.9441723937
 40
1.0
 40
1.0
 40
1.0
 40
1.0
 10
19.1964817051
 20
38.6686836769
 30
0.0
 10
19.1964804453
 20
38.7781079998
 30
0.0
 10
19.2062008478
 20
39.0019409858
 30
0.0
 10
19.2474200365
 20
39.3422574602
 30
0.0
 10
19.3152222177
 20
39.69172982
 30
0.0
 10
19.4089601399
 20
40.0469996768
 30
0.0
 10
19.5277142762
 20
40.4046989824
 30
0.0
 10
19.6703726634
 20
40.7614025434
 30
0.0
 10
19.83556003
 20
41.1137065396
 30
0.0
 10
20.0216893254
 20
41.4582456829
 30
0.0
 10
20.2270008012
 20
41.791709024
 30
0.0
 10
20.4495044854
 20
42.1109192697
 30
0.0
 10
20.6870849031
 20
42.4128187107
 30
0.0
 10
20.9374820684
 20
42.6945093751
 30
0.0
 10
21.1982752576
 20
42.9533251586
 30
0.0
 10
21.467036307
 20
43.1868037275
 30
0.0
 10
21.7411632952
 20
43.3926471911
 30
0.0
 10
21.9301494511
 20
43.5129949288
 30
0.0
 10
22.02489477
 20
43.5676958377
 30
0.0
  0
SPLINE
  5
240
100
AcDbEntity
  8
0
100
AcDbSpline
 62
7
  6
BYLAYER
 70
0
 71
3
 72
11
 73
7
 74
0
 42
0.0000001
 43
0.0000001
 44
0.0000000001
 40
0.0
 40
0.0
 40
0.0
 40
0.0
 40
0.2727717609
 40
0.5326326878
 40
0.7761314729
 40
1.0
 40
1.0
 40
1.0
 40
1.0
 10
17.0182026219
 20
34.8209547396
 30
0.0
 10
17.262478645
 20
34.7693317405
 30
0.0
 10
17.7402609296
 20
34.6722017712
 30
0.0
 10
18.4393571859
 20
34.5455578331
 30
0.0
 10
19.0975297165
 20
34.4454353863
 30
0.0
 10
19.522710467
 20
34.3968971746
 30
0.0
 10
19.7268072991
 20
34.3786657384
 30
0.0
  0
SPLINE
  5
241
100
AcDbEntity
  8
0
100
AcDbSpline
 62
7
  6
BYLAYER
 70
0
 71
3
 72
11
 73
7
 74
0
 42
0.0000001
 43
0.0000001
 44
0.0000000001
 40
0.0
 40
0.0
 40
0.0
 40
0.0
 40
0.293601477
 40
0.5559372501
 40
0.7899376188
 40
1.0
 40
1.0
 40
1.0
 40
1.0
 10
19.7268072991
 20
34.3786657384
 30
0.0
 10
19.9112617963
 20
34.3621889006
 30
0.0
 10
20.2613159949
 20
34.3387325255
 30
0.0
 10
20.7598357324
 20
34.3334949477
 30
0.0
 10
21.205089417
 20
34.356828054
 30
0.0
 10
21.4834380215
 20
34.390136649
 30
0.0
 10
21.6143775638
 20
34.4103904527
 30
0.0
  0
SPLINE
  5
242
100
AcDbEntity
  8
0
100
AcDbSpline
 62
7
  6
BYLAYER
 70
0
 71
3
 72
9
 73
5
 74
0
 42
0.0000001
 43
0.0000001
 44
0.0000000001
 40
0.0
 40
0.0
 40
0.0
 40
0.0
 40
0.2503079757
 40
1.0
 40
1.0
 40
1.0
 40
1.0
 10
21.6143775638
 20
34.4103904527
 30
0.0
 10
21.7053773361
 20
34.4821600282
 30
0.0
 10
22.0669226264
 20
34.7714054071
 30
0.0
 10
22.4196770291
 20
35.0717503074
 30
0.0
 10
22.6773874705
 20
35.3042916935
 30
0.0
  0
SPLINE
  5
243
100
AcDbEntity
  8
0
100
AcDbSpline
 62
7
  6
BYLAYER
 70
0
 71
3
 72
11
 73
7
 74
0
 42
0.0000001
 43
0.0000001
 44
0.0000000001
 40
0.0
 40
0.0
 40
0.0
 40
0.0
 40
0.2381647508
 40
0.4852574274
 40
0.7397463998
 40
1.0
 40
1.0
 40
1.0
 40
1.0
 10
26.6210697119
 20
42.9552731693
 30
0.0
 10
26.6210697119
 20
43.2198431089
 30
0.0
 10
26.600883663
 20
43.7590471112
 30
0.0
 10
26.5167279099
 20
44.5769400556
 30
0.0
 10
26.3852110197
 20
45.4132850799
 30
0.0
 10
26.2722576644
 20
45.9739852585
 30
0.0
 10
26.2105525057
 20
46.2564313141
 30
0.0
  0
SPLINE
  5
244
100
AcDbEntity
  8
0
100
AcDbSpline
 62
7
  6
BYLAYER
 70
0
 71
3
 72
11
 73
7
 74
0
 42
0.0000001
 43
0.0000001
 44
0.0000000001
 40
0.0
 40
0.0
 40
0.0
 40
0.0
 40
0.2238686444
 40
0.4673674335
 40
0.7272282874
 40
1.0
 40
1.0
 40
1.0
 40
1.0
 10
24.322982241
 20
46.2247065999
 30
0.0
 10
24.1188853018
 20
46.2429380457
 30
0.0
 10
23.6937044423
 20
46.2914762852
 30
0.0
 10
23.0355318664
 20
46.3915987239
 30
0.0
 10
22.3364357035
 20
46.5182425826
 30
0.0
 10
21.8586535438
 20
46.6153726111
 30
0.0
 10
21.6143775638
 20
46.6669956011
 30
0.0
  0
SPLINE
  5
245
100
AcDbEntity
  8
0
100
AcDbSpline
 62
7
  6
BYLAYER
 70
0
 71
3
 72
11
 73
7
 74
0
 42
0.0000001
 43
0.0000001
 44
0.0000000001
 40
0.0
 40
0.0
 40
0.0
 40
0.0
 40
0.2454667374
 40
0.4938230563
 40
0.7453379156
 40
1.0
 40
1.0
 40
1.0
 40
1.0
 10
21.6143775638
 20
46.6669956011
 30
0.0
 10
21.4891865739
 20
46.3972451325
 30
0.0
 10
21.2252732637
 20
45.8600248965
 30
0.0
 10
20.7837520127
 20
45.0717652286
 30
0.0
 10
20.287787693
 20
44.3031186925
 30
0.0
 10
19.9201050114
 20
43.811586019
 30
0.0
 10
19.7268072991
 20
43.5711195997
 30
0.0
  0
SPLINE
  5
246
100
AcDbEntity
  8
0
100
AcDbSpline
 62
7
  6
BYLAYER
 70
0
 71
3
 72
14
 73
10
 74
0
 42
0.0000001
 43
0.0000001
 44
0.0000000001
 40
0.0
 40
0.0
 40
0.0
 40
0.0
 40
0.2232950509
 40
0.3410512073
 40
0.4632610271
 40
0.5901729241
 40
0.7219346128
 40
0.8585892444
 40
1.0
 40
1.0
 40
1.0
 40
1.0
 10
19.7268072991
 20
34.3786657384
 30
0.0
 10
19.9058359609
 20
34.3626735763
 30
0.0
 10
20.1824496438
 20
34.3665545137
 30
0.0
 10
20.5517402102
 20
34.4199074835
 30
0.0
 10
20.8399749392
 20
34.4857876166
 30
0.0
 10
21.1330929233
 20
34.5765496885
 30
0.0
 10
21.4299846352
 20
34.6917725791
 30
0.0
 10
21.729297707
 20
34.8309690901
 30
0.0
 10
21.9263160863
 20
34.9375063679
 30
0.0
 10
22.02489477
 20
34.9944204578
 30
0.0
  0
SPLINE
  5
247
100
AcDbEntity
  8
0
100
AcDbSpline
 62
7
  6
BYLAYER
 70
0
 71
3
 72
22
 73
18
 74
0
 42
0.0000001
 43
0.0000001
 44
0.0000000001
 40
0.0
 40
0.0
 40
0.0
 40
0.0
 40
0.077217032
 40
0.1518367465
 40
0.2929980283
 40
0.3597336969
 40
0.4240305978
 40
0.4860682876
 40
0.5460944643
 40
0.6044160481
 40
0.6613999389
 40
0.7174605077
 40
0.7730479572
 40
0.8286328374
 40
0.8846957614
 40
0.9416921136
 40
1.0
 40
1.0
 40
1.0
 40
1.0
 10
17.4287198281
 20
37.648099169
 30
0.0
 10
17.4287198281
 20
37.5342687213
 30
0.0
 10
17.4349655875
 20
37.3103520007
 30
0.0
 10
17.4730711085
 20
36.8799635529
 30
0.0
 10
17.5494893459
 20
36.468878015
 30
0.0
 10
17.6677313304
 20
36.0850667527
 30
0.0
 10
17.7734814939
 20
35.820448915
 30
0.0
 10
17.8975686034
 20
35.5749233087
 30
0.0
 10
18.0394605573
 20
35.3495314936
 30
0.0
 10
18.1986301113
 20
35.1453102053
 30
0.0
 10
18.3743781931
 20
34.9631609968
 30
0.0
 10
18.5659910813
 20
34.8039799855
 30
0.0
 10
18.7725696147
 20
34.6684698244
 30
0.0
 10
18.9932078765
 20
34.5573050392
 30
0.0
 10
19.22689325
 20
34.4709497915
 30
0.0
 10
19.472495966
 20
34.4098321523
 30
0.0
 10
19.6411928997
 20
34.3863134488
 30
0.0
 10
19.7268072991
 20
34.3786657384
 30
0.0
  0
SPLINE
  5
248
100
AcDbEntity
  8
0
100
AcDbSpline
 62
7
  6
BYLAYER
 70
0
 71
3
 72
15
 73
11
 74
0
 42
0.0000001
 43
0.0000001
 44
0.0000000001
 40
0.0
 40
0.0
 40
0.0
 40
0.0
 40
0.129847411
 40
0.2611866596
 40
0.3925260486
 40
0.5223738886
 40
0.6492905064
 40
0.7719421396
 40
0.8891589506
 40
1.0
 40
1.0
 40
1.0
 40
1.0
 10
19.7268072991
 20
43.5711195997
 30
0.0
 10
19.5515103588
 20
43.3530465194
 30
0.0
 10
19.2162370871
 20
42.9001755846
 30
0.0
 10
18.7656905822
 20
42.183452726
 30
0.0
 10
18.3702439435
 20
41.4348534886
 30
0.0
 10
18.0366290484
 20
40.6670909355
 30
0.0
 10
17.7704726957
 20
39.8931303756
 30
0.0
 10
17.5762742669
 20
39.1259762556
 30
0.0
 10
17.4573274315
 20
38.3786353011
 30
0.0
 10
17.4287198281
 20
37.8869387468
 30
0.0
 10
17.4287198281
 20
37.648099169
 30
0.0
  0
SPLINE
  5
249
100
AcDbEntity
  8
0
100
AcDbSpline
 62
7
  6
BYLAYER
 70
0
 71
3
 72
11
 73
7
 74
0
 42
0.0000001
 43
0.0000001
 44
0.0000000001
 40
0.0
 40
0.0
 40
0.0
 40
0.0
 40
0.232065918
 40
0.4774810713
 40
0.7342754496
 40
1.0
 40
1.0
 40
1.0
 40
1.0
 10
22.02489477
 20
45.6089518805
 30
0.0
 10
21.8180557124
 20
45.4895340077
 30
0.0
 10
21.4065434774
 20
45.2189153603
 30
0.0
 10
20.8188006438
 20
44.7422298467
 30
0.0
 10
20.2515549558
 20
44.1905073172
 30
0.0
 10
19.8981465894
 20
43.7842692802
 30
0.0
 10
19.7268072991
 20
43.5711195997
 30
0.0
  0
SPLINE
  5
24A
100
AcDbEntity
  8
0
100
AcDbSpline
 62
7
  6
BYLAYER
 70
0
 71
3
 72
14
 73
10
 74
0
 42
0.0000001
 43
0.0000001
 44
0.0000000001
 40
0.0
 40
0.0
 40
0.0
 40
0.0
 40
0.2232950509
 40
0.3410512073
 40
0.4632610271
 40
0.5901729241
 40
0.7219346128
 40
0.8585892444
 40
1.0
 40
1.0
 40
1.0
 40
1.0
 10
24.322982241
 20
46.2247065999
 30
0.0
 10
24.1439535792
 20
46.240698762
 30
0.0
 10
23.8673398963
 20
46.2368178246
 30
0.0
 10
23.4980493298
 20
46.1834648548
 30
0.0
 10
23.2098146009
 20
46.1175847217
 30
0.0
 10
22.9166966168
 20
46.0268226498
 30
0.0
 10
22.6198049049
 20
45.9115997592
 30
0.0
 10
22.3204918331
 20
45.7724032482
 30
0.0
 10
22.1234734538
 20
45.6658659704
 30
0.0
 10
22.02489477
 20
45.6089518805
 30
0.0
  0
SPLINE
  5
24B
100
AcDbEntity
  8
0
100
AcDbSpline
 62
7
  6
BYLAYER
 70
0
 71
3
 72
22
 73
18
 74
0
 42
0.0000001
 43
0.0000001
 44
0.0000000001
 40
0.0
 40
0.0
 40
0.0
 40
0.0
 40
0.077217032
 40
0.1518367465
 40
0.2929980283
 40
0.3597336969
 40
0.4240305978
 40
0.4860682876
 40
0.5460944643
 40
0.6044160481
 40
0.6613999389
 40
0.7174605077
 40
0.7730479572
 40
0.8286328374
 40
0.8846957614
 40
0.9416921136
 40
1.0
 40
1.0
 40
1.0
 40
1.0
 10
26.6210697119
 20
42.9552731693
 30
0.0
 10
26.6210697119
 20
43.069103617
 30
0.0
 10
26.6148239526
 20
43.2930203376
 30
0.0
 10
26.5767184316
 20
43.7234087854
 30
0.0
 10
26.5003001942
 20
44.1344943233
 30
0.0
 10
26.3820582097
 20
44.5183055856
 30
0.0
 10
26.2763080461
 20
44.7829234232
 30
0.0
 10
26.1522209367
 20
45.0284490296
 30
0.0
 10
26.0103289828
 20
45.2538408447
 30
0.0
 10
25.8511594287
 20
45.458062133
 30
0.0
 10
25.675411347
 20
45.6402113415
 30
0.0
 10
25.4837984588
 20
45.7993923527
 30
0.0
 10
25.2772199253
 20
45.9349025139
 30
0.0
 10
25.0565816636
 20
46.0460672991
 30
0.0
 10
24.8228962901
 20
46.1324225468
 30
0.0
 10
24.5772935741
 20
46.193540186
 30
0.0
 10
24.4085966403
 20
46.2170588895
 30
0.0
 10
24.322982241
 20
46.2247065999
 30
0.0
  0
SPLINE
  5
24C
100
AcDbEntity
  8
0
100
AcDbSpline
 62
7
  6
BYLAYER
 70
0
 71
3
 72
9
 73
5
 74
0
 42
0.0000001
 43
0.0000001
 44
0.0000000001
 40
0.0
 40
0.0
 40
0.0
 40
0.0
 40
0.2551639882
 40
1.0
 40
1.0
 40
1.0
 40
1.0
 10
26.5902604221
 20
42.3240329023
 30
0.0
 10
26.5953560442
 20
42.3775558953
 30
0.0
 10
26.6129779991
 20
42.5875281358
 30
0.0
 10
26.6210697119
 20
42.7983305113
 30
0.0
 10
26.6210697119
 20
42.9552731693
 30
0.0
  0
SPLINE
  5
24D
100
AcDbEntity
  8
0
100
AcDbSpline
 62
7
  6
BYLAYER
 70
0
 71
3
 72
9
 73
5
 74
0
 42
0.0000001
 43
0.0000001
 44
0.0000000001
 40
0.0
 40
0.0
 40
0.0
 40
0.0
 40
0.244797398
 40
1.0
 40
1.0
 40
1.0
 40
1.0
 10
22.02489477
 20
34.9944204578
 30
0.0
 10
22.0695747013
 20
35.0202162742
 30
0.0
 10
22.2507535806
 20
35.1279019753
 30
0.0
 10
22.4265960758
 20
35.2445100718
 30
0.0
 10
22.5562691018
 20
35.3367991535
 30
0.0
  0
SPLINE
  5
24E
100
AcDbEntity
  8
0
100
AcDbSpline
 62
7
  6
BYLAYER
 70
0
 71
3
 72
41
 73
37
 74
0
 42
0.0000001
 43
0.0000001
 44
0.0000000001
 40
0.0
 40
0.0
 40
0.0
 40
0.0
 40
0.0309829432
 40
0.0603733066
 40
0.0881539391
 40
0.1014711693
 40
0.1144245094
 40
0.1393158819
 40
0.1630759934
 40
0.1860254098
 40
0.2085507826
 40
0.2310761151
 40
0.2540259699
 40
0.2777868816
 40
0.302678297
 40
0.3156320039
 40
0.3289504419
 40
0.3567331536
 40
0.3861154324
 40
0.4171055089
 40
0.4496538259
 40
0.4836603765
 40
0.5189859971
 40
0.555457973
 40
0.5928769145
 40
0.6310238349
 40
0.6696639087
 40
0.7085532458
 40
0.7474427634
 40
0.7860825212
 40
0.8242287103
 40
0.8616479867
 40
0.8981188477
 40
0.9334429918
 40
0.9674584376
 40
1.0
 40
1.0
 40
1.0
 40
1.0
 10
22.02489477
 20
43.5676958377
 30
0.0
 10
22.1151013583
 20
43.6197763248
 30
0.0
 10
22.2952065522
 20
43.7140502553
 30
0.0
 10
22.5698930696
 20
43.8264960376
 30
0.0
 10
22.7979220969
 20
43.8929676318
 30
0.0
 10
22.9763235327
 20
43.9280641451
 30
0.0
 10
23.1469160559
 20
43.9507168871
 30
0.0
 10
23.3546054742
 20
43.9579565308
 30
0.0
 10
23.5947526061
 20
43.9311679698
 30
0.0
 10
23.8200958076
 20
43.8688319141
 30
0.0
 10
24.0281454901
 20
43.7714366644
 30
0.0
 10
24.216515603
 20
43.6399529523
 30
0.0
 10
24.3831682466
 20
43.4759584615
 30
0.0
 10
24.5264381423
 20
43.2813720061
 30
0.0
 10
24.6240159821
 20
43.0978846966
 30
0.0
 10
24.6896921233
 20
42.9388140514
 30
0.0
 10
24.7484949003
 20
42.7667508309
 30
0.0
 10
24.8049283391
 20
42.5360538953
 30
0.0
 10
24.8449124677
 20
42.2419266827
 30
0.0
 10
24.8578344903
 20
41.929386355
 30
0.0
 10
24.8435852479
 20
41.6014054463
 30
0.0
 10
24.802362903
 20
41.2610691345
 30
0.0
 10
24.7345583498
 20
40.9116049491
 30
0.0
 10
24.6408184985
 20
40.5563359547
 30
0.0
 10
24.5220629817
 20
40.1986400825
 30
0.0
 10
24.3794037318
 20
39.8419396483
 30
0.0
 10
24.2142160056
 20
39.4896391618
 30
0.0
 10
24.0280868355
 20
39.1451036049
 30
0.0
 10
23.8227759363
 20
38.8116438968
 30
0.0
 10
23.6002732401
 20
38.4924372268
 30
0.0
 10
23.3626941794
 20
38.1905412205
 30
0.0
 10
23.112298686
 20
37.9088537696
 30
0.0
 10
22.8515074285
 20
37.6500409008
 30
0.0
 10
22.5827485104
 20
37.416564879
 30
0.0
 10
22.308623789
 20
37.2107235331
 30
0.0
 10
22.1196392654
 20
37.090376934
 30
0.0
 10
22.02489477
 20
37.0356765006
 30
0.0
  0
SPLINE
  5
24F
100
AcDbEntity
  8
0
100
AcDbSpline
 62
7
  6
BYLAYER
 70
0
 71
3
 72
25
 73
21
 74
0
 42
0.0000001
 43
0.0000001
 44
0.0000000001
 40
0.0
 40
0.0
 40
0.0
 40
0.0
 40
0.0742809835
 40
0.1447438232
 40
0.2113473974
 40
0.2432752314
 40
0.2743306512
 40
0.3340073195
 40
0.390971807
 40
0.4459926426
 40
0.4999967926
 40
0.5540007754
 40
0.6090224578
 40
0.6659885434
 40
0.7256649025
 40
0.7567209706
 40
0.7886514566
 40
0.8552595026
 40
0.9257024331
 40
1.0
 40
1.0
 40
1.0
 40
1.0
 10
22.02489477
 20
37.0356765006
 30
0.0
 10
21.9346889283
 20
36.9835964445
 30
0.0
 10
21.7545852188
 20
36.8893232136
 30
0.0
 10
21.4799009889
 20
36.7768779772
 30
0.0
 10
21.25187382
 20
36.7104063562
 30
0.0
 10
21.0734737656
 20
36.6753094968
 30
0.0
 10
20.90288248
 20
36.6526562155
 30
0.0
 10
20.6951944867
 20
36.64541553
 30
0.0
 10
20.4550487949
 20
36.6722022108
 30
0.0
 10
20.22970666
 20
36.7345357785
 30
0.0
 10
20.0216576046
 20
36.8319279774
 30
0.0
 10
19.8332876262
 20
36.9634081377
 30
0.0
 10
19.6666345903
 20
37.1273986432
 30
0.0
 10
19.5233637782
 20
37.3219807928
 30
0.0
 10
19.4257847153
 20
37.5054643149
 30
0.0
 10
19.3601073728
 20
37.6645319833
 30
0.0
 10
19.3013031913
 20
37.8365914102
 30
0.0
 10
19.2448676988
 20
38.067288218
 30
0.0
 10
19.2048803951
 20
38.3613924306
 30
0.0
 10
19.1964829045
 20
38.5644998443
 30
0.0
 10
19.1964817051
 20
38.6686836769
 30
0.0
  0
SPLINE
  5
250
100
AcDbEntity
  8
0
100
AcDbSpline
 62
7
  6
BYLAYER
 70
0
 71
3
 72
11
 73
7
 74
0
 42
0.0000001
 43
0.0000001
 44
0.0000000001
 40
0.0
 40
0.0
 40
0.0
 40
0.0
 40
0.2655478913
 40
0.5198361305
 40
0.7640838454
 40
1.0
 40
1.0
 40
1.0
 40
1.0
 10
17.4287198281
 20
37.648099169
 30
0.0
 10
17.4287198281
 20
37.3943952498
 30
0.0
 10
17.4108661003
 20
36.8975018086
 30
0.0
 10
17.3282418823
 20
36.1714932447
 30
0.0
 10
17.1972792901
 20
35.4815341398
 30
0.0
 10
17.0814130747
 20
35.0373035592
 30
0.0
 10
17.0182026219
 20
34.8209547396
 30
0.0
  0
SPLINE
  5
251
100
AcDbEntity
  8
0
100
AcDbSpline
 62
7
  6
BYLAYER
 70
0
 71
3
 72
11
 73
7
 74
0
 42
0.0000001
 43
0.0000001
 44
0.0000000001
 40
0.0
 40
0.0
 40
0.0
 40
0.0
 40
0.2100625315
 40
0.444062914
 40
0.7063986533
 40
1.0
 40
1.0
 40
1.0
 40
1.0
 10
26.2105525057
 20
46.2564313141
 30
0.0
 10
26.0796128702
 20
46.2361774961
 30
0.0
 10
25.8012641456
 20
46.2028690463
 30
0.0
 10
25.3560103926
 20
46.1795358082
 30
0.0
 10
24.8574907474
 20
46.1847733894
 30
0.0
 10
24.5074366557
 20
46.2082297694
 30
0.0
 10
24.322982241
 20
46.2247065999
 30
0.0
  0
SPLINE
  5
252
100
AcDbEntity
  8
0
100
AcDbSpline
 62
7
  6
BYLAYER
 70
0
 71
3
 72
11
 73
7
 74
0
 42
0.0000001
 43
0.0000001
 44
0.0000000001
 40
0.0
 40
0.0
 40
0.0
 40
0.0
 40
0.2602536681
 40
0.5147427021
 40
0.7618353688
 40
1.0
 40
1.0
 40
1.0
 40
1.0
 10
17.0182026219
 20
40.9492573138
 30
0.0
 10
17.0799077966
 20
40.666811185
 30
0.0
 10
17.1928609878
 20
40.1061108287
 30
0.0
 10
17.3243780441
 20
39.2697657019
 30
0.0
 10
17.408533816
 20
38.451872833
 30
0.0
 10
17.4287198281
 20
37.9126689751
 30
0.0
 10
17.4287198281
 20
37.648099169
 30
0.0
  0
SPLINE
  5
253
100
AcDbEntity
  8
0
100
AcDbSpline
 62
7
  6
BYLAYER
 70
0
 71
3
 72
11
 73
7
 74
0
 42
0.0000001
 43
0.0000001
 44
0.0000000001
 40
0.0
 40
0.0
 40
0.0
 40
0.0
 40
0.247670327
 40
0.4973373623
 40
0.7483031512
 40
1.0
 40
1.0
 40
1.0
 40
1.0
 10
19.7268072991
 20
43.5711195997
 30
0.0
 10
19.5314276464
 20
43.3280632029
 30
0.0
 10
19.1217737078
 20
42.8536587618
 30
0.0
 10
18.4597313637
 20
42.1824334171
 30
0.0
 10
17.7566106791
 20
41.5469939911
 30
0.0
 10
17.2670427766
 20
41.1455122254
 30
0.0
 10
17.0182026219
 20
40.9492573138
 30
0.0
  0
SPLINE
  5
254
100
AcDbEntity
  8
0
100
AcDbSpline
 62
7
  6
BYLAYER
 70
0
 71
3
 72
14
 73
10
 74
0
 42
0.0000001
 43
0.0000001
 44
0.0000000001
 40
0.0
 40
0.0
 40
0.0
 40
0.0
 40
0.1485916414
 40
0.289628635
 40
0.5484393456
 40
0.6678440156
 40
0.7818397801
 40
0.8919386102
 40
1.0
 40
1.0
 40
1.0
 40
1.0
 10
8.972533131
 20
51.1033098652
 30
0.0
 10
9.0627096378
 20
51.1553729849
 30
0.0
 10
9.2428756952
 20
51.2496389073
 30
0.0
 10
9.5987493327
 20
51.3953961654
 30
0.0
 10
9.9564852216
 20
51.4815572755
 30
0.0
 10
10.3021944102
 20
51.4935329556
 30
0.0
 10
10.5423872359
 20
51.4667991091
 30
0.0
 10
10.7676701781
 20
51.4044599088
 30
0.0
 10
10.9069195805
 20
51.3392838321
 30
0.0
 10
10.9724991971
 20
51.3014214037
 30
0.0
  0
SPLINE
  5
255
100
AcDbEntity
  8
0
100
AcDbSpline
 62
7
  6
BYLAYER
 70
0
 71
3
 72
12
 73
8
 74
0
 42
0.0000001
 43
0.0000001
 44
0.0000000001
 40
0.0
 40
0.0
 40
0.0
 40
0.0
 40
0.0984844313
 40
0.2004654143
 40
0.4255716257
 40
0.6911505209
 40
1.0
 40
1.0
 40
1.0
 40
1.0
 10
38.3679654553
 20
27.6425940885
 30
0.0
 10
38.3783468132
 20
27.6485925457
 30
0.0
 10
38.3982852937
 20
27.6629964965
 30
0.0
 10
38.4337963796
 20
27.7011074862
 30
0.0
 10
38.4676761366
 20
27.7662206492
 30
0.0
 10
38.4901138067
 20
27.8615247823
 30
0.0
 10
38.4943845208
 20
27.9316313856
 30
0.0
 10
38.4943845208
 20
27.9692315185
 30
0.0
  0
SPLINE
  5
256
100
AcDbEntity
  8
0
100
AcDbSpline
 62
7
  6
BYLAYER
 70
0
 71
3
 72
14
 73
10
 74
0
 42
0.0000001
 43
0.0000001
 44
0.0000000001
 40
0.0
 40
0.0
 40
0.0
 40
0.0
 40
0.2849619404
 40
0.4170707913
 40
0.5426905028
 40
0.6625917667
 40
0.7778315168
 40
0.8897750585
 40
1.0
 40
1.0
 40
1.0
 40
1.0
 10
44.9701711299
 20
30.0781169639
 30
0.0
 10
44.9600559072
 20
30.2311826928
 30
0.0
 10
44.9275297331
 20
30.4550622193
 30
0.0
 10
44.8413066872
 20
30.7346675937
 30
0.0
 10
44.7597584078
 20
30.9214115584
 30
0.0
 10
44.6604010085
 20
31.0889019922
 30
0.0
 10
44.5437653991
 20
31.2356710253
 30
0.0
 10
44.4109004229
 20
31.3604543213
 30
0.0
 10
44.311805169
 20
31.428412346
 30
0.0
 10
44.2604155603
 20
31.4580746474
 30
0.0
  0
SPLINE
  5
257
100
AcDbEntity
  8
0
100
AcDbSpline
 62
7
  6
BYLAYER
 70
0
 71
3
 72
9
 73
5
 74
0
 42
0.0000001
 43
0.0000001
 44
0.0000000001
 40
0.0
 40
0.0
 40
0.0
 40
0.0
 40
0.5348188691
 40
1.0
 40
1.0
 40
1.0
 40
1.0
 10
46.8253046162
 20
26.5958348478
 30
0.0
 10
46.8088443606
 20
26.6690881122
 30
0.0
 10
46.7772077775
 20
26.8058618545
 30
0.0
 10
46.7410956211
 20
26.9415951132
 30
0.0
 10
46.7221341754
 20
27.0040855415
 30
0.0
  0
SPLINE
  5
258
100
AcDbEntity
  8
0
100
AcDbSpline
 62
7
  6
BYLAYER
 70
0
 71
3
 72
15
 73
11
 74
0
 42
0.0000001
 43
0.0000001
 44
0.0000000001
 40
0.0
 40
0.0
 40
0.0
 40
0.0
 40
0.0552372693
 40
0.1108728255
 40
0.2248392827
 40
0.3444739993
 40
0.4702680332
 40
0.6014217225
 40
0.7359925576
 40
1.0
 40
1.0
 40
1.0
 40
1.0
 10
47.6397628363
 20
24.6761417649
 30
0.0
 10
47.605654976
 20
24.6958335017
 30
0.0
 10
47.5399835452
 20
24.7404247029
 30
0.0
 10
47.4210030194
 20
24.8485345857
 30
0.0
 10
47.296772515
 20
25.0154978079
 30
0.0
 10
47.1825689179
 20
25.2457165592
 30
0.0
 10
47.0907500462
 20
25.4984064664
 30
0.0
 10
47.013832885
 20
25.7668790942
 30
0.0
 10
46.9247635747
 20
26.1339842686
 30
0.0
 10
46.8665731134
 20
26.4121771806
 30
0.0
 10
46.8253046162
 20
26.5958348478
 30
0.0
  0
SPLINE
  5
259
100
AcDbEntity
  8
0
100
AcDbSpline
 62
7
  6
BYLAYER
 70
0
 71
3
 72
12
 73
8
 74
0
 42
0.0000001
 43
0.0000001
 44
0.0000000001
 40
0.0
 40
0.0
 40
0.0
 40
0.0
 40
0.3397842133
 40
0.6140610524
 40
0.7283813356
 40
0.8293313083
 40
1.0
 40
1.0
 40
1.0
 40
1.0
 10
46.7221339702
 20
27.004085423
 30
0.0
 10
46.7085240179
 20
27.0489391624
 30
0.0
 10
46.6819177803
 20
27.1294172329
 30
0.0
 10
46.6417156614
 20
27.2218203827
 30
0.0
 10
46.6071659247
 20
27.2800047837
 30
0.0
 10
46.5753511129
 20
27.3226852762
 30
0.0
 10
46.5469125606
 20
27.3484470772
 30
0.0
 10
46.5265227515
 20
27.3602182643
 30
0.0
  0
SPLINE
  5
25A
100
AcDbEntity
  8
0
100
AcDbSpline
 62
7
  6
BYLAYER
 70
0
 71
3
 72
17
 73
13
 74
0
 42
0.0000001
 43
0.0000001
 44
0.0000000001
 40
0.0
 40
0.0
 40
0.0
 40
0.0
 40
0.0450803553
 40
0.0911334414
 40
0.1388334273
 40
0.1887804564
 40
0.2969563569
 40
0.4177010239
 40
0.5506931937
 40
0.6940787884
 40
0.8450414088
 40
1.0
 40
1.0
 40
1.0
 40
1.0
 10
45.9077192399
 20
23.6761518974
 30
0.0
 10
45.9363302779
 20
23.6603003288
 30
0.0
 10
45.9970172409
 20
23.6331392548
 30
0.0
 10
46.0948527398
 20
23.6074850955
 30
0.0
 10
46.1989922061
 20
23.597001255
 30
0.0
 10
46.3486259561
 20
23.6034141348
 30
0.0
 10
46.5471130983
 20
23.6521444484
 30
0.0
 10
46.7853251663
 20
23.7658146277
 30
0.0
 10
47.022364654
 20
23.9315817321
 30
0.0
 10
47.2500081242
 20
24.1433813093
 30
0.0
 10
47.4601309307
 20
24.3935723852
 30
0.0
 10
47.5829740181
 20
24.5791049809
 30
0.0
 10
47.6397628363
 20
24.6761417649
 30
0.0
  0
SPLINE
  5
25B
100
AcDbEntity
  8
0
100
AcDbSpline
 62
7
  6
BYLAYER
 70
0
 71
3
 72
12
 73
8
 74
0
 42
0.0000001
 43
0.0000001
 44
0.0000000001
 40
0.0
 40
0.0
 40
0.0
 40
0.0
 40
0.3089217969
 40
0.5744462194
 40
0.7995638312
 40
0.9015353207
 40
1.0
 40
1.0
 40
1.0
 40
1.0
 10
40.9400799177
 20
32.205323721
 30
0.0
 10
40.972648822
 20
32.2241272744
 30
0.0
 10
41.0312408585
 20
32.2628593271
 30
0.0
 10
41.1025363321
 20
32.3299682112
 30
0.0
 10
41.1419715488
 20
32.3918588121
 30
0.0
 10
41.1572358185
 20
32.4416575275
 30
0.0
 10
41.1597473396
 20
32.4661225591
 30
0.0
 10
41.1597476148
 20
32.4781093737
 30
0.0
  0
SPLINE
  5
25C
100
AcDbEntity
  8
0
100
AcDbSpline
 62
7
  6
BYLAYER
 70
0
 71
3
 72
11
 73
7
 74
0
 42
0.0000001
 43
0.0000001
 44
0.0000000001
 40
0.0
 40
0.0
 40
0.0
 40
0.0
 40
0.2738133126
 40
0.5283327544
 40
0.7680102544
 40
1.0
 40
1.0
 40
1.0
 40
1.0
 10
38.0222430026
 20
28.9213851567
 30
0.0
 10
37.9888010607
 20
28.9406924341
 30
0.0
 10
37.9201948929
 20
28.9715608171
 30
0.0
 10
37.8125817034
 20
28.9915879511
 30
0.0
 10
37.7092459835
 20
28.9827845517
 30
0.0
 10
37.646308499
 20
28.9579875249
 30
0.0
 10
37.6179746131
 20
28.9416293822
 30
0.0
  0
SPLINE
  5
25D
100
AcDbEntity
  8
0
100
AcDbSpline
 62
7
  6
BYLAYER
 70
0
 71
3
 72
14
 73
10
 74
0
 42
0.0000001
 43
0.0000001
 44
0.0000000001
 40
0.0
 40
0.0
 40
0.0
 40
0.0
 40
0.115351348
 40
0.2407085655
 40
0.372109457
 40
0.5057780237
 40
0.6381305862
 40
0.766147747
 40
1.0
 40
1.0
 40
1.0
 40
1.0
 10
38.4943845208
 20
27.9692315185
 30
0.0
 10
38.4943845208
 20
28.0116394135
 30
0.0
 10
38.4883162907
 20
28.1001796556
 30
0.0
 10
38.4641698858
 20
28.2350584255
 30
0.0
 10
38.4247265022
 20
28.3733305163
 30
0.0
 10
38.3706418711
 20
28.5093151813
 30
0.0
 10
38.3023565356
 20
28.6375748953
 30
0.0
 10
38.1974209579
 20
28.7860003641
 30
0.0
 10
38.0966988288
 20
28.8783990379
 30
0.0
 10
38.0222430026
 20
28.9213851567
 30
0.0
  0
SPLINE
  5
25E
100
AcDbEntity
  8
0
100
AcDbSpline
 62
7
  6
BYLAYER
 70
0
 71
3
 72
15
 73
11
 74
0
 42
0.0000001
 43
0.0000001
 44
0.0000000001
 40
0.0
 40
0.0
 40
0.0
 40
0.0
 40
0.1081619406
 40
0.218340068
 40
0.3323691703
 40
0.45174494
 40
0.5776220977
 40
0.7107929766
 40
0.8516479229
 40
1.0
 40
1.0
 40
1.0
 40
1.0
 10
40.8017380383
 20
25.4673339287
 30
0.0
 10
40.8580685922
 20
25.4348196927
 30
0.0
 10
40.9776016824
 20
25.3787486898
 30
0.0
 10
41.170960504
 20
25.3249371422
 30
0.0
 10
41.377033756
 20
25.3014403852
 30
0.0
 10
41.5936561873
 20
25.3082222285
 30
0.0
 10
41.8187893223
 20
25.3451339229
 30
0.0
 10
42.0504031434
 20
25.4116176409
 30
0.0
 10
42.2862236051
 20
25.5070157626
 30
0.0
 10
42.4409084402
 20
25.5870745709
 30
0.0
 10
42.5183670443
 20
25.6313270204
 30
0.0
  0
SPLINE
  5
25F
100
AcDbEntity
  8
0
100
AcDbSpline
 62
7
  6
BYLAYER
 70
0
 71
3
 72
11
 73
7
 74
0
 42
0.0000001
 43
0.0000001
 44
0.0000000001
 40
0.0
 40
0.0
 40
0.0
 40
0.0
 40
0.2714076111
 40
0.5253185927
 40
0.7661698003
 40
1.0
 40
1.0
 40
1.0
 40
1.0
 10
32.1335753552
 20
38.5210943333
 30
0.0
 10
32.1015310229
 20
38.6282334536
 30
0.0
 10
32.0245853508
 20
38.8316681005
 30
0.0
 10
31.8634802632
 20
39.1051476178
 30
0.0
 10
31.6629175525
 20
39.331182531
 30
0.0
 10
31.5037823018
 20
39.4479466236
 30
0.0
 10
31.420344674
 20
39.4961193848
 30
0.0
  0
SPLINE
  5
260
100
AcDbEntity
  8
0
100
AcDbSpline
 62
7
  6
BYLAYER
 70
0
 71
3
 72
15
 73
11
 74
0
 42
0.0000001
 43
0.0000001
 44
0.0000000001
 40
0.0
 40
0.0
 40
0.0
 40
0.0
 40
0.1080130463
 40
0.2180610847
 40
0.3320009408
 40
0.4513567843
 40
0.5772797103
 40
0.7104997602
 40
0.8513974049
 40
1.0
 40
1.0
 40
1.0
 40
1.0
 10
6.9725670649
 20
44.3731789896
 30
0.0
 10
6.9069855871
 20
44.4110424926
 30
0.0
 10
6.7809149796
 20
44.4990492607
 30
0.0
 10
6.6142776303
 20
44.6629806197
 30
0.0
 10
6.4710252683
 20
44.8576082368
 30
0.0
 10
6.3523472136
 20
45.0806457666
 30
0.0
 10
6.2593145617
 20
45.3298946915
 30
0.0
 10
6.1924934976
 20
45.6028769386
 30
0.0
 10
6.152533328
 20
45.8970078623
 30
0.0
 10
6.144118536
 20
46.1001124397
 30
0.0
 10
6.1441177822
 20
46.2042963854
 30
0.0
  0
SPLINE
  5
261
100
AcDbEntity
  8
0
100
AcDbSpline
 62
7
  6
BYLAYER
 70
0
 71
3
 72
11
 73
7
 74
0
 42
0.0000001
 43
0.0000001
 44
0.0000000001
 40
0.0
 40
0.0
 40
0.0
 40
0.0
 40
0.2338364434
 40
0.4747017029
 40
0.7286209669
 40
1.0
 40
1.0
 40
1.0
 40
1.0
 10
27.4204125418
 20
32.5678769708
 30
0.0
 10
27.5038511756
 20
32.5197036288
 30
0.0
 10
27.6845451726
 20
32.4402678988
 30
0.0
 10
27.9805907312
 20
32.3796112801
 30
0.0
 10
28.2979741938
 20
32.3768413461
 30
0.0
 10
28.5126178651
 20
32.4119036088
 30
0.0
 10
28.6214118685
 20
32.4377201828
 30
0.0
  0
SPLINE
  5
262
100
AcDbEntity
  8
0
100
AcDbSpline
 62
7
  6
BYLAYER
 70
0
 71
3
 72
16
 73
12
 74
0
 42
0.0000001
 43
0.0000001
 44
0.0000000001
 40
0.0
 40
0.0
 40
0.0
 40
0.0
 40
0.1141426042
 40
0.2373013757
 40
0.3669390605
 40
0.4999503862
 40
0.6329632629
 40
0.7626016375
 40
0.8857724282
 40
0.9441698446
 40
1.0
 40
1.0
 40
1.0
 40
1.0
 10
6.1441327517
 20
46.6462329989
 30
0.0
 10
6.1441311033
 20
46.8395582129
 30
0.0
 10
6.1795377372
 20
47.2418551366
 30
0.0
 10
6.320690796
 20
47.848769267
 30
0.0
 10
6.546822907
 20
48.4635306747
 30
0.0
 10
6.8494629059
 20
49.0630188473
 30
0.0
 10
7.2173306078
 20
49.6249002393
 30
0.0
 10
7.6365691553
 20
50.1280585327
 30
0.0
 10
8.0227365738
 20
50.4893776595
 30
0.0
 10
8.3445239257
 20
50.7309785432
 30
0.0
 10
8.5079181127
 20
50.8350582238
 30
0.0
 10
8.5898099922
 20
50.8823382403
 30
0.0
  0
SPLINE
  5
263
100
AcDbEntity
  8
0
100
AcDbSpline
 62
7
  6
BYLAYER
 70
0
 71
3
 72
19
 73
15
 74
0
 42
0.0000001
 43
0.0000001
 44
0.0000000001
 40
0.0
 40
0.0
 40
0.0
 40
0.0
 40
0.0481649102
 40
0.0972631438
 40
0.1481219183
 40
0.2014754832
 40
0.2578704583
 40
0.3176245484
 40
0.4468209418
 40
0.5867196479
 40
0.7312574236
 40
0.8720989488
 40
0.9383069009
 40
1.0
 40
1.0
 40
1.0
 40
1.0
 10
39.6597543001
 20
32.4781121317
 30
0.0
 10
39.6597482331
 20
32.4535979071
 30
0.0
 10
39.6652815519
 20
32.4039284704
 30
0.0
 10
39.6898364704
 20
32.3320665312
 30
0.0
 10
39.7301876289
 20
32.2646417753
 30
0.0
 10
39.7853518732
 20
32.2036671202
 30
0.0
 10
39.8541119431
 20
32.1508620299
 30
0.0
 10
39.9644836904
 20
32.0914835805
 30
0.0
 10
40.1276083096
 20
32.0456885112
 30
0.0
 10
40.3390576298
 20
32.0344175479
 30
0.0
 10
40.5548353816
 20
32.0604731384
 30
0.0
 10
40.7280614487
 20
32.1082404964
 30
0.0
 10
40.8548125019
 20
32.1599659026
 30
0.0
 10
40.9128870328
 20
32.1896239952
 30
0.0
 10
40.9400799177
 20
32.205323721
 30
0.0
  0
SPLINE
  5
264
100
AcDbEntity
  8
0
100
AcDbSpline
 62
7
  6
BYLAYER
 70
0
 71
3
 72
25
 73
21
 74
0
 42
0.0000001
 43
0.0000001
 44
0.0000000001
 40
0.0
 40
0.0
 40
0.0
 40
0.0
 40
0.0623728096
 40
0.128727065
 40
0.1983123544
 40
0.2702900124
 40
0.3436675307
 40
0.417398636
 40
0.4904230738
 40
0.5617101404
 40
0.6303074765
 40
0.6953949057
 40
0.7563430928
 40
0.8127814593
 40
0.864682153
 40
0.9124569545
 40
0.9351022172
 40
0.9571073848
 40
0.9786679307
 40
1.0
 40
1.0
 40
1.0
 40
1.0
 10
29.4203786079
 20
39.2980078463
 30
0.0
 10
29.2766892015
 20
39.215049224
 30
0.0
 10
28.9911974195
 20
39.0242297373
 30
0.0
 10
28.5868747601
 20
38.6840228554
 30
0.0
 10
28.2004074106
 20
38.2871825733
 30
0.0
 10
27.8400211314
 20
37.8423391383
 30
0.0
 10
27.5133722363
 20
37.3588348631
 30
0.0
 10
27.2274165446
 20
36.8470275839
 30
0.0
 10
26.9882407389
 20
36.3178328592
 30
0.0
 10
26.8009532134
 20
35.7825189089
 30
0.0
 10
26.6695616875
 20
35.2524508905
 30
0.0
 10
26.5968659156
 20
34.7388160433
 30
0.0
 10
26.5844741786
 20
34.2523550955
 30
0.0
 10
26.632945223
 20
33.8030681932
 30
0.0
 10
26.7417405064
 20
33.4003129747
 30
0.0
 10
26.8844744656
 20
33.1051241216
 30
0.0
 10
27.0270158225
 20
32.9042153722
 30
0.0
 10
27.1452609461
 20
32.7730923161
 30
0.0
 10
27.2760166344
 20
32.6597247879
 30
0.0
 10
27.371269535
 20
32.5962497134
 30
0.0
 10
27.4204125418
 20
32.5678769708
 30
0.0
  0
SPLINE
  5
265
100
AcDbEntity
  8
0
100
AcDbSpline
 62
7
  6
BYLAYER
 70
0
 71
3
 72
19
 73
15
 74
0
 42
0.0000001
 43
0.0000001
 44
0.0000000001
 40
0.0
 40
0.0
 40
0.0
 40
0.0
 40
0.1298305905
 40
0.272192019
 40
0.4217479239
 40
0.5705704614
 40
0.6417723664
 40
0.7091514411
 40
0.7716043221
 40
0.8282917673
 40
0.8788010985
 40
0.9233713837
 40
0.9630759909
 40
1.0
 40
1.0
 40
1.0
 40
1.0
 10
37.433719933
 20
28.5815926503
 30
0.0
 10
37.433719933
 20
28.5180462332
 30
0.0
 10
37.4556467395
 20
28.3845679206
 30
0.0
 10
37.5368964159
 20
28.1933262877
 30
0.0
 10
37.6573897625
 20
28.0131201428
 30
0.0
 10
37.7806345488
 20
27.8796985773
 30
0.0
 10
37.8872376044
 20
27.787739187
 30
0.0
 10
37.9667029447
 20
27.7295116181
 30
0.0
 10
38.044932685
 20
27.6821899891
 30
0.0
 10
38.1202363319
 20
27.6467625812
 30
0.0
 10
38.1912453534
 20
27.6240679308
 30
0.0
 10
38.2569873485
 20
27.6148116966
 30
0.0
 10
38.316704085
 20
27.6198295182
 30
0.0
 10
38.3523171627
 20
27.6335523412
 30
0.0
 10
38.3679654553
 20
27.6425940885
 30
0.0
  0
SPLINE
  5
266
100
AcDbEntity
  8
0
100
AcDbSpline
 62
7
  6
BYLAYER
 70
0
 71
3
 72
25
 73
21
 74
0
 42
0.0000001
 43
0.0000001
 44
0.0000000001
 40
0.0
 40
0.0
 40
0.0
 40
0.0
 40
0.0213317617
 40
0.0428925421
 40
0.0648977702
 40
0.08754232
 40
0.1353177366
 40
0.1872194304
 40
0.2436565314
 40
0.3046041427
 40
0.3696928749
 40
0.4382900598
 40
0.5095763993
 40
0.582601353
 40
0.6563322077
 40
0.7297102373
 40
0.8016873401
 40
0.8712713361
 40
0.9376318015
 40
1.0
 40
1.0
 40
1.0
 40
1.0
 10
28.0737602571
 20
32.8156627836
 30
0.0
 10
28.0312645738
 20
32.8401908356
 30
0.0
 10
27.9488852202
 20
32.8950562468
 30
0.0
 10
27.8358499939
 20
32.9931165733
 30
0.0
 10
27.7335955671
 20
33.106484311
 30
0.0
 10
27.6103246751
 20
33.2801966427
 30
0.0
 10
27.4869122032
 20
33.5354514661
 30
0.0
 10
27.3928637634
 20
33.883714808
 30
0.0
 10
27.3509316896
 20
34.2722016716
 30
0.0
 10
27.3616301923
 20
34.6928389521
 30
0.0
 10
27.4245111109
 20
35.1369713148
 30
0.0
 10
27.5381308218
 20
35.5953122925
 30
0.0
 10
27.7000550784
 20
36.0581978291
 30
0.0
 10
27.9068704086
 20
36.515783969
 30
0.0
 10
28.1541423104
 20
36.9583337206
 30
0.0
 10
28.4365930825
 20
37.376411089
 30
0.0
 10
28.7481999674
 20
37.7610692006
 30
0.0
 10
29.0823836298
 20
38.104217218
 30
0.0
 10
29.4320070105
 20
38.398377033
 30
0.0
 10
29.6788645442
 20
38.5633876506
 30
0.0
 10
29.8031017467
 20
38.6351156047
 30
0.0
  0
SPLINE
  5
267
100
AcDbEntity
  8
0
100
AcDbSpline
 62
7
  6
BYLAYER
 70
0
 71
3
 72
25
 73
21
 74
0
 42
0.0000001
 43
0.0000001
 44
0.0000000001
 40
0.0
 40
0.0
 40
0.0
 40
0.0
 40
0.0623684896
 40
0.1287295559
 40
0.1983144
 40
0.2702920801
 40
0.3436691319
 40
0.4173991635
 40
0.4904248718
 40
0.5617119239
 40
0.6303093187
 40
0.6953977773
 40
0.7563448077
 40
0.8127812711
 40
0.8646824647
 40
0.9124577472
 40
0.9351022897
 40
0.9571076404
 40
0.9786684253
 40
1.0
 40
1.0
 40
1.0
 40
1.0
 10
42.5310767993
 20
31.2867820233
 30
0.0
 10
42.4068391916
 20
31.2150538352
 30
0.0
 10
42.1599803861
 20
31.0500421309
 30
0.0
 10
41.8103550083
 20
30.7558794641
 30
0.0
 10
41.4761692742
 20
30.4127278051
 30
0.0
 10
41.1645644729
 20
30.0280676485
 30
0.0
 10
40.8821148263
 20
29.609993762
 30
0.0
 10
40.6348474198
 20
29.1674450521
 30
0.0
 10
40.4280315021
 20
28.7098583803
 30
0.0
 10
40.2661076856
 20
28.2469692658
 30
0.0
 10
40.1524893155
 20
27.7886271043
 30
0.0
 10
40.089610473
 20
27.3444965852
 30
0.0
 10
40.0789128423
 20
26.9238633893
 30
0.0
 10
40.1208453905
 20
26.5353809256
 30
0.0
 10
40.2148948235
 20
26.1871218645
 30
0.0
 10
40.338302986
 20
25.9318667267
 30
0.0
 10
40.4615764878
 20
25.7581566394
 30
0.0
 10
40.5638295854
 20
25.6447878277
 30
0.0
 10
40.676863707
 20
25.5467265325
 30
0.0
 10
40.7592430636
 20
25.4918622095
 30
0.0
 10
40.8017380383
 20
25.4673339287
 30
0.0
  0
SPLINE
  5
268
100
AcDbEntity
  8
0
100
AcDbSpline
 62
7
  6
BYLAYER
 70
0
 71
3
 72
15
 73
11
 74
0
 42
0.0000001
 43
0.0000001
 44
0.0000000001
 40
0.0
 40
0.0
 40
0.0
 40
0.0
 40
0.1080103014
 40
0.2180603915
 40
0.3320037688
 40
0.4513482869
 40
0.5772538703
 40
0.7105121109
 40
0.8514965481
 40
1.0
 40
1.0
 40
1.0
 40
1.0
 10
44.2604155603
 20
31.4580746474
 30
0.0
 10
44.2037076277
 20
31.490806708
 30
0.0
 10
44.0833178205
 20
31.5471955623
 30
0.0
 10
43.8885041908
 20
31.6010609879
 30
0.0
 10
43.6808387225
 20
31.6242001189
 30
0.0
 10
43.4625304495
 20
31.6166490414
 30
0.0
 10
43.2356576156
 20
31.5785775265
 30
0.0
 10
43.0022967829
 20
31.5105530205
 30
0.0
 10
42.7647708623
 20
31.4132746414
 30
0.0
 10
42.6090397699
 20
31.3317936967
 30
0.0
 10
42.5310767993
 20
31.2867820233
 30
0.0
  0
SPLINE
  5
269
100
AcDbEntity
  8
0
100
AcDbSpline
 62
7
  6
BYLAYER
 70
0
 71
3
 72
19
 73
15
 74
0
 42
0.0000001
 43
0.0000001
 44
0.0000000001
 40
0.0
 40
0.0
 40
0.0
 40
0.0
 40
0.1395788035
 40
0.2861340069
 40
0.4330412242
 40
0.5736214776
 40
0.6397494918
 40
0.702293928
 40
0.7608691547
 40
0.815335457
 40
0.8658139457
 40
0.9127899893
 40
0.9571119686
 40
1.0
 40
1.0
 40
1.0
 40
1.0
 10
43.3671816653
 20
29.16190574
 30
0.0
 10
43.3843209084
 20
29.2515895192
 30
0.0
 10
43.4370504006
 20
29.4323133617
 30
0.0
 10
43.5583999825
 20
29.6894067792
 30
0.0
 10
43.7170757254
 20
29.9261272716
 30
0.0
 10
43.8749037043
 20
30.0968882418
 30
0.0
 10
44.0111973337
 20
30.2088293675
 30
0.0
 10
44.1133121888
 20
30.2769008966
 30
0.0
 10
44.2157127186
 20
30.3295365296
 30
0.0
 10
44.3166802712
 20
30.365902642
 30
0.0
 10
44.4146191
 20
30.3851659686
 30
0.0
 10
44.5079095931
 20
30.3869240794
 30
0.0
 10
44.5948313794
 20
30.3707400192
 30
0.0
 10
44.6477534627
 20
30.3479134798
 30
0.0
 10
44.6720485623
 20
30.3338825936
 30
0.0
  0
SPLINE
  5
26A
100
AcDbEntity
  8
0
100
AcDbSpline
 62
7
  6
BYLAYER
 70
0
 71
3
 72
22
 73
18
 74
0
 42
0.0000001
 43
0.0000001
 44
0.0000000001
 40
0.0
 40
0.0
 40
0.0
 40
0.0
 40
0.062373971
 40
0.1287730301
 40
0.1983828964
 40
0.2703758875
 40
0.4173945748
 40
0.4904371197
 40
0.5617454992
 40
0.6303617101
 40
0.695469307
 40
0.7564337952
 40
0.8128864848
 40
0.8648039885
 40
0.9125917616
 40
0.9571799132
 40
1.0
 40
1.0
 40
1.0
 40
1.0
 10
40.586541247
 20
27.3400328649
 30
0.0
 10
40.586541247
 20
27.4126008685
 30
0.0
 10
40.5964164797
 20
27.562517141
 30
0.0
 10
40.6368304606
 20
27.7901410593
 30
0.0
 10
40.7026600439
 20
28.023421263
 30
0.0
 10
40.823109323
 20
28.3372236377
 30
0.0
 10
40.9857609299
 20
28.6378124229
 30
0.0
 10
41.1836416186
 20
28.9134296521
 30
0.0
 10
41.3454969428
 20
29.1015071363
 30
0.0
 10
41.5175940687
 20
29.2672243753
 30
0.0
 10
41.6962805711
 20
29.4071428314
 30
0.0
 10
41.8778883713
 20
29.5182379394
 30
0.0
 10
42.0587040828
 20
29.5981447895
 30
0.0
 10
42.2351300902
 20
29.6450480176
 30
0.0
 10
42.4037128185
 20
29.6574235983
 30
0.0
 10
42.5607074428
 20
29.6344513254
 30
0.0
 10
42.6558043423
 20
29.5949053346
 30
0.0
 10
42.6989529201
 20
29.5700041686
 30
0.0
  0
SPLINE
  5
26B
100
AcDbEntity
  8
0
100
AcDbSpline
 62
7
  6
BYLAYER
 70
0
 71
3
 72
14
 73
10
 74
0
 42
0.0000001
 43
0.0000001
 44
0.0000000001
 40
0.0
 40
0.0
 40
0.0
 40
0.0
 40
0.1080613898
 40
0.2181602199
 40
0.3321559844
 40
0.4515606544
 40
0.710371365
 40
0.8514083586
 40
1.0
 40
1.0
 40
1.0
 40
1.0
 10
31.420344674
 20
39.4961193848
 30
0.0
 10
31.3547650574
 20
39.5339818132
 30
0.0
 10
31.215515655
 20
39.5991578899
 30
0.0
 10
30.9902327128
 20
39.6614970903
 30
0.0
 10
30.7500398871
 20
39.6882309367
 30
0.0
 10
30.4043306985
 20
39.6762552566
 30
0.0
 10
30.0465948096
 20
39.5900941466
 30
0.0
 10
29.6907211722
 20
39.4443368885
 30
0.0
 10
29.5105551147
 20
39.350070966
 30
0.0
 10
29.4203786079
 20
39.2980078463
 30
0.0
  0
SPLINE
  5
26C
100
AcDbEntity
  8
0
100
AcDbSpline
 62
7
  6
BYLAYER
 70
0
 71
3
 72
15
 73
11
 74
0
 42
0.0000001
 43
0.0000001
 44
0.0000000001
 40
0.0
 40
0.0
 40
0.0
 40
0.0
 40
0.1485045812
 40
0.2894876972
 40
0.4227432562
 40
0.5486472396
 40
0.6679912859
 40
0.7819349064
 40
0.8919864648
 40
1.0
 40
1.0
 40
1.0
 40
1.0
 10
29.8031017467
 20
38.6351156047
 30
0.0
 10
29.881065432
 20
38.6801276907
 30
0.0
 10
30.0367963757
 20
38.7616092297
 30
0.0
 10
30.2743210058
 20
38.8588873544
 30
0.0
 10
30.5076788764
 20
38.926910892
 30
0.0
 10
30.7345489516
 20
38.9649839922
 30
0.0
 10
30.9528561415
 20
38.9725359
 30
0.0
 10
31.1605237256
 20
38.9494033009
 30
0.0
 10
31.3553393252
 20
38.8955323175
 30
0.0
 10
31.4757331487
 20
38.8391454087
 30
0.0
 10
31.5324432362
 20
38.8064129553
 30
0.0
  0
SPLINE
  5
26D
100
AcDbEntity
  8
0
100
AcDbSpline
 62
7
  6
BYLAYER
 70
0
 71
3
 72
9
 73
5
 74
0
 42
0.0000001
 43
0.0000001
 44
0.0000000001
 40
0.0
 40
0.0
 40
0.0
 40
0.0
 40
0.2446327607
 40
1.0
 40
1.0
 40
1.0
 40
1.0
 10
6.1441177822
 20
46.2042963854
 30
0.0
 10
6.1441175393
 20
46.2378805025
 30
0.0
 10
6.1459567776
 20
46.375160873
 30
0.0
 10
6.1549512131
 20
46.512323139
 30
0.0
 10
6.1653081192
 20
46.6155043416
 30
0.0
  0
SPLINE
  5
26E
100
AcDbEntity
  8
0
100
AcDbSpline
 62
7
  6
BYLAYER
 70
0
 71
3
 72
15
 73
11
 74
0
 42
0.0000001
 43
0.0000001
 44
0.0000000001
 40
0.0
 40
0.0
 40
0.0
 40
0.0
 40
0.1171710051
 40
0.2409125033
 40
0.3692636372
 40
0.4999868386
 40
0.630709724
 40
0.7590635869
 40
0.8827944496
 40
1.0
 40
1.0
 40
1.0
 40
1.0
 10
6.1653081192
 20
46.6155043416
 30
0.0
 10
6.185021994
 20
46.8119048204
 30
0.0
 10
6.2521466882
 20
47.2133337218
 30
0.0
 10
6.4227805571
 20
47.8126637007
 30
0.0
 10
6.6620283385
 20
48.4126979419
 30
0.0
 10
6.9634449962
 20
48.9972063359
 30
0.0
 10
7.3189216852
 20
49.5505110792
 30
0.0
 10
7.718936791
 20
50.0577080211
 30
0.0
 10
8.1526471168
 20
50.5052173684
 30
0.0
 10
8.4667824189
 20
50.764068898
 30
0.0
 10
8.6270630405
 20
50.8793723444
 30
0.0
  0
SPLINE
  5
26F
100
AcDbEntity
  8
0
100
AcDbSpline
 62
7
  6
BYLAYER
 70
0
 71
3
 72
9
 73
5
 74
0
 42
0.0000001
 43
0.0000001
 44
0.0000000001
 40
0.0
 40
0.0
 40
0.0
 40
0.0
 40
0.255534425
 40
1.0
 40
1.0
 40
1.0
 40
1.0
 10
8.6270630405
 20
50.8793723444
 30
0.0
 10
8.6555367138
 20
50.8998558728
 30
0.0
 10
8.7678980385
 20
50.9787046208
 30
0.0
 10
8.8840345289
 20
51.0522154784
 30
0.0
 10
8.972533131
 20
51.1033098652
 30
0.0
  0
SPLINE
  5
270
100
AcDbEntity
  8
0
100
AcDbSpline
 62
7
  6
BYLAYER
 70
0
 71
3
 72
13
 73
9
 74
0
 42
0.0000001
 43
0.0000001
 44
0.0000000001
 40
0.0
 40
0.0
 40
0.0
 40
0.0
 40
0.119812831
 40
0.2420932646
 40
0.3670385634
 40
0.4942754968
 40
0.7518300661
 40
1.0
 40
1.0
 40
1.0
 40
1.0
 10
44.3504603717
 20
25.1669913861
 30
0.0
 10
44.3682935607
 20
25.08762814
 30
0.0
 10
44.4223025892
 20
24.9309042454
 30
0.0
 10
44.5475165942
 20
24.714114528
 30
0.0
 10
44.7079126408
 20
24.515787045
 30
0.0
 10
44.9577345654
 20
24.2753216788
 30
0.0
 10
45.3083620239
 20
24.0238155182
 30
0.0
 10
45.6049225292
 20
23.8508550473
 30
0.0
 10
45.7508385574
 20
23.7666187822
 30
0.0
  0
SPLINE
  5
271
100
AcDbEntity
  8
0
100
AcDbSpline
 62
7
  6
BYLAYER
 70
0
 71
3
 72
9
 73
5
 74
0
 42
0.0000001
 43
0.0000001
 44
0.0000000001
 40
0.0
 40
0.0
 40
0.0
 40
0.0
 40
0.5000056477
 40
1.0
 40
1.0
 40
1.0
 40
1.0
 10
44.3504638628
 20
25.6348092215
 30
0.0
 10
44.333263086
 20
25.5582597268
 30
0.0
 10
44.3152569152
 20
25.4008997803
 30
0.0
 10
44.333259838
 20
25.2435391189
 30
0.0
 10
44.3504603717
 20
25.1669913861
 30
0.0
  0
SPLINE
  5
272
100
AcDbEntity
  8
0
100
AcDbSpline
 62
7
  6
BYLAYER
 70
0
 71
3
 72
12
 73
8
 74
0
 42
0.0000001
 43
0.0000001
 44
0.0000000001
 40
0.0
 40
0.0
 40
0.0
 40
0.0
 40
0.0985063869
 40
0.2004455096
 40
0.4254241608
 40
0.6908992238
 40
1.0
 40
1.0
 40
1.0
 40
1.0
 10
41.1597476148
 20
32.4781093737
 30
0.0
 10
41.1597478898
 20
32.4900912004
 30
0.0
 10
41.1572390663
 20
32.5145373956
 30
0.0
 10
41.1419734998
 20
32.5642750133
 30
0.0
 10
41.1025221353
 20
32.6260547598
 30
0.0
 10
41.0312116765
 20
32.6930233072
 30
0.0
 10
40.9726360591
 20
32.7316953009
 30
0.0
 10
40.9400755018
 20
32.7504937222
 30
0.0
  0
SPLINE
  5
273
100
AcDbEntity
  8
0
100
AcDbSpline
 62
7
  6
BYLAYER
 70
0
 71
3
 72
13
 73
9
 74
0
 42
0.0000001
 43
0.0000001
 44
0.0000000001
 40
0.0
 40
0.0
 40
0.0
 40
0.0
 40
0.2481719975
 40
0.505726437
 40
0.6329630781
 40
0.7579095749
 40
0.8801906975
 40
1.0
 40
1.0
 40
1.0
 40
1.0
 10
45.7507974252
 20
27.0351576385
 30
0.0
 10
45.604890715
 20
26.9509110717
 30
0.0
 10
45.3083302269
 20
26.7779655759
 30
0.0
 10
44.9577165823
 20
26.5264563388
 30
0.0
 10
44.7079022313
 20
26.2859952898
 30
0.0
 10
44.5475129533
 20
26.0876694337
 30
0.0
 10
44.4223020714
 20
25.8708866963
 30
0.0
 10
44.3682961239
 20
25.7141682481
 30
0.0
 10
44.3504640681
 20
25.6348093401
 30
0.0
  0
SPLINE
  5
274
100
AcDbEntity
  8
0
100
AcDbSpline
 62
7
  6
BYLAYER
 70
0
 71
3
 72
14
 73
10
 74
0
 42
0.0000001
 43
0.0000001
 44
0.0000000001
 40
0.0
 40
0.0
 40
0.0
 40
0.0
 40
0.1153545708
 40
0.2407231537
 40
0.3721170779
 40
0.505762481
 40
0.6380981114
 40
0.766118971
 40
1.0
 40
1.0
 40
1.0
 40
1.0
 10
40.9400755018
 20
32.7504937222
 30
0.0
 10
40.9033414711
 20
32.7717016449
 30
0.0
 10
40.823634921
 20
32.8107680183
 30
0.0
 10
40.6947767455
 20
32.8574386043
 30
0.0
 10
40.5553247444
 20
32.8925620654
 30
0.0
 10
40.4105144397
 20
32.9137937079
 30
0.0
 10
40.2652769748
 20
32.9187194293
 30
0.0
 10
40.0842415419
 20
32.9018617828
 30
0.0
 10
39.9538931514
 20
32.8606843863
 30
0.0
 10
39.87941533
 20
32.8176848528
 30
0.0
  0
SPLINE
  5
275
100
AcDbEntity
  8
0
100
AcDbSpline
 62
7
  6
BYLAYER
 70
0
 71
3
 72
11
 73
7
 74
0
 42
0.0000001
 43
0.0000001
 44
0.0000000001
 40
0.0
 40
0.0
 40
0.0
 40
0.0
 40
0.2738480769
 40
0.5283956111
 40
0.7680020194
 40
1.0
 40
1.0
 40
1.0
 40
1.0
 10
39.87941533
 20
32.8176848528
 30
0.0
 10
39.845996112
 20
32.7983903734
 30
0.0
 10
39.7849819454
 20
32.754477522
 30
0.0
 10
39.7138007618
 20
32.6714404772
 30
0.0
 10
39.6697209297
 20
32.5776504871
 30
0.0
 10
39.6597623909
 20
32.5108039818
 30
0.0
 10
39.6597543001
 20
32.4781121317
 30
0.0
  0
SPLINE
  5
276
100
AcDbEntity
  8
0
100
AcDbSpline
 62
7
  6
BYLAYER
 70
0
 71
3
 72
13
 73
9
 74
0
 42
0.0000001
 43
0.0000001
 44
0.0000000001
 40
0.0
 40
0.0
 40
0.0
 40
0.0
 40
0.1080956887
 40
0.2182377587
 40
0.3322521784
 40
0.4516794299
 40
0.7106583866
 40
1.0
 40
1.0
 40
1.0
 40
1.0
 10
40.9489930041
 20
26.5389160998
 30
0.0
 10
40.920298082
 20
26.5554760203
 30
0.0
 10
40.8651331748
 20
26.5939766802
 30
0.0
 10
40.7922661066
 20
26.6657274993
 30
0.0
 10
40.7295468533
 20
26.7508373283
 30
0.0
 10
40.6584701559
 20
26.8845007995
 30
0.0
 10
40.5999205231
 20
27.082792811
 30
0.0
 10
40.586541247
 20
27.251351899
 30
0.0
 10
40.586541247
 20
27.3400328649
 30
0.0
  0
SPLINE
  5
277
100
AcDbEntity
  8
0
100
AcDbSpline
 62
7
  6
BYLAYER
 70
0
 71
3
 72
15
 73
11
 74
0
 42
0.0000001
 43
0.0000001
 44
0.0000000001
 40
0.0
 40
0.0
 40
0.0
 40
0.0
 40
0.082897921
 40
0.166893651
 40
0.2594376744
 40
0.3661917618
 40
0.4911294096
 40
0.6371653672
 40
0.8064059568
 40
1.0
 40
1.0
 40
1.0
 40
1.0
 10
46.5265227515
 20
27.3602182643
 30
0.0
 10
46.513983341
 20
27.3674573585
 30
0.0
 10
46.4865906458
 20
27.3787186499
 30
0.0
 10
46.4409810361
 20
27.3832967697
 30
0.0
 10
46.3916412358
 20
27.376420427
 30
0.0
 10
46.3374701091
 20
27.3593702504
 30
0.0
 10
46.2769372521
 20
27.332952814
 30
0.0
 10
46.2085352838
 20
27.297783713
 30
0.0
 10
46.1308905638
 20
27.2545167828
 30
0.0
 10
46.0759711245
 20
27.2228936685
 30
0.0
 10
46.0466870943
 20
27.2059886188
 30
0.0
  0
SPLINE
  5
278
100
AcDbEntity
  8
0
100
AcDbSpline
 62
7
  6
BYLAYER
 70
0
 71
3
 72
11
 73
7
 74
0
 42
0.0000001
 43
0.0000001
 44
0.0000000001
 40
0.0
 40
0.0
 40
0.0
 40
0.0
 40
0.2320313943
 40
0.4716112801
 40
0.7260722869
 40
1.0
 40
1.0
 40
1.0
 40
1.0
 10
37.6179746131
 20
28.9416293822
 30
0.0
 10
37.5896571213
 20
28.9252807044
 30
0.0
 10
37.5367562087
 20
28.8832100545
 30
0.0
 10
37.4775692343
 20
28.7981560953
 30
0.0
 10
37.4412394424
 20
28.6949938881
 30
0.0
 10
37.433719933
 20
28.6201947113
 30
0.0
 10
37.433719933
 20
28.5815926503
 30
0.0
  0
ENDSEC
  0
SECTION
  2
OBJECTS
  0
DICTIONARY
  5
C
100
AcDbDictionary
280
0
281
1
  3
ACAD_GROUP
350
D
  3
ACAD_MLINESTYLE
350
17
  3
ACAD_LAYOUT
350
1A
  3
ACAD_PLOTSETTINGS
350
19
  3
ACAD_PLOTSTYLENAME
350
E
  0
DICTIONARY
  5
D
102
{ACAD_REACTORS
330
C
102
}
100
AcDbDictionary
280
0
281
1
  0
ACDBDICTIONARYWDFLT
  5
E
102
{ACAD_REACTORS
330
C
102
}
100
AcDbDictionary
281
1
  3
Normal
350
F
100
AcDbDictionaryWithDefault
340
F
  0
DICTIONARY
  5
17
102
{ACAD_REACTORS
330
C
102
}
100
AcDbDictionary
280
0
281
1
  3
Standard
350
18
  0
DICTIONARY
  5
19
102
{ACAD_REACTORS
330
C
102
}
100
AcDbDictionary
281
1
  0
DICTIONARY
  5
1A
102
{ACAD_REACTORS
330
C
102
}
100
AcDbDictionary
281
1
  3
Model
350
279
  3
Layout1
350
27A
  0
ACDBPLACEHOLDER
  5
F
102
{ACAD_REACTORS
330
E
102
}
  0
MLINESTYLE
  5
18
102
{ACAD_REACTORS
330
17
102
}
100
AcDbMlineStyle
  2
STANDARD
 70
0
  3

 62
256
 51
90.0
 52
90.0
 71
2
 49
0.5
 62
256
  6
BYLAYER
 49
-0.5
 62
256
  6
BYLAYER
  0
LAYOUT
  5
279
102
{ACAD_REACTORS
330
1A
102
}
100
AcDbPlotSettings
  1

  2
none_device
  4

  6

 40
0.0
 41
0.0
 42
0.0
 43
0.0
 44
210.0
 45
297.0
 46
0.0
 47
0.0
 48
0.0
 49
0.0
140
0.0
141
0.0
142
1.0
143
1.0
 70
1024
 72
1
 73
0
 74
0
  7

 75
0
147
1.0
148
0.0
149
0.0
100
AcDbLayout
  1
Model
 70
0
 71
0
 10
0.0
 20
0.0
 11
210.0
 21
297.0
 12
0.0
 22
0.0
 32
0.0
 14
0.0
 24
0.0
 34
0.0
 15
0.0
 25
0.0
 35
0.0
146
0.0
 13
0.0
 23
0.0
 33
0.0
 16
1.0
 26
0.0
 36
0.0
 17
0.0
 27
1.0
 37
0.0
 76
0
330
210
345
0
346
0
  0
LAYOUT
  5
27A
102
{ACAD_REACTORS
330
1A
102
}
100
AcDbPlotSettings
  1

  2
none_device
  4

  6

 40
0.0
 41
0.0
 42
0.0
 43
0.0
 44
210.0
 45
297.0
 46
0.0
 47
0.0
 48
0.0
 49
0.0
140
0.0
141
0.0
142
1.0
143
1.0
 70
0
 72
1
 73
0
 74
0
  7

 75
0
147
1.0
148
0.0
149
0.0
100
AcDbLayout
  1
Layout1
 70
0
 71
1
 10
0.0
 20
0.0
 11
210.0
 21
297.0
 12
0.0
 22
0.0
 32
0.0
 14
0.0
 24
0.0
 34
0.0
 15
0.0
 25
0.0
 35
0.0
146
0.0
 13
0.0
 23
0.0
 33
0.0
 16
1.0
 26
0.0
 36
0.0
 17
0.0
 27
1.0
 37
0.0
 76
0
330
211
345
0
346
0
  0
ENDSEC
  0
EOF
