999
DXF file: C:\Users\sesa63760\Dev\_Creo\CAD\MCADID0000799_3D-CAD\drw0001_1.dxf
999
Pro/ENGINEER 2019471 by Parametric Technology Corporation
  0
SECTION
  2
HEADER
  9
$ACADVER
  1
AC1024
  9
$DWGCODEPAGE
  3
ANSI_1252
  9
$EXTMAX
 10
44.0006410493
 20
62.2294780554
 30
0.0
  9
$EXTMIN
 10
0.0
 20
0.0
 30
0.0
  9
$LIMMIN
 10
0.0
 20
0.0
  9
$LIMMAX
 10
44.0006410493
 20
62.2294780554
  9
$VIEWCTR
 10
22.0003205246
 20
31.1147390277
  9
$VIEWSIZE
 40
62.2294780554
  9
$CLAYER
  8
0
  9
$LTSCALE
 40
4.056440051
  9
$CELTYPE
  6
BYLAYER
  9
$DIMSCALE
 40
1.0
  9
$DIMASZ
 40
0.5238171553
  9
$DIMEXO
 40
1.0
  9
$DIMDLI
 40
2.802631308
  9
$DIMEXE
 40
1.0
  9
$DIMCEN
 40
0.6637810993
  9
$DIMLFAC
 40
1.0
  9
$DIMBLK
  1
_FILLED
  9
$DIMALT
 70
0
  9
$DIMALTF
 40
0.0393700787
  9
$DIMTXT
 40
0.7333440175
  9
$DIMTOL
 70
1
  9
$DIMLIM
 70
0
  9
$DIMTFAC
 40
1.0
  9
$DIMTP
 40
0.01
  9
$DIMTM
 40
0.01
  9
$DIMGAP
 40
0.625
  9
$DIMDSEP
 70
46
  9
$AUNITS
 70
0
  9
$PDMODE
 70
3
  9
$PDSIZE
 40
0.3125
  9
$HANDSEED
  5
335
  9
$TILEMODE
 70
1
  9
$MEASUREMENT
 70
1
  9
$INSUNITS
 70
4
  0
ENDSEC
  0
SECTION
  2
CLASSES
  0
CLASS
  1
ACDBDICTIONARYWDFLT
  2
AcDbDictionaryWithDefault
  3
AutoCAD 2000
 90
0
 91
1
280
0
281
0
  0
CLASS
  1
ACDBPLACEHOLDER
  2
AcDbPlaceHolder
  3
AutoCAD 2000
 90
0
 91
1
280
0
281
0
  0
CLASS
  1
LAYOUT
  2
AcDbLayout
  3
AutoCAD 2000
 90
0
 91
0
280
0
281
0
  0
ENDSEC
  0
SECTION
  2
TABLES
  0
TABLE
  2
VPORT
  5
8
100
AcDbSymbolTable
 70
2
  0
VPORT
  5
1F4
100
AcDbSymbolTableRecord
100
AcDbViewportTableRecord
  2
*ACTIVE
 70
0
 10
0.0
 20
0.0
 11
1.0
 21
1.0
 12
22.0003205246
 22
31.1147390277
 13
0.0
 23
0.0
 14
1.0
 24
1.0
 15
0.0
 25
0.0
 16
0.0
 26
0.0
 36
1.0
 17
0.0
 27
0.0
 37
0.0
 40
62.2294780554
 41
0.7070707071
 42
50.0
 43
0.0
 44
0.0
 50
0.0
 51
0.0
 71
0
 72
100
 73
1
 74
1
 75
0
 76
0
 77
0
 78
0
  0
ENDTAB
  0
TABLE
  2
LTYPE
  5
5
100
AcDbSymbolTable
 70
6
  0
LTYPE
  5
14
100
AcDbSymbolTableRecord
100
AcDbLinetypeTableRecord
  2
BYBLOCK
 70
0
  3

 72
65
 73
0
 40
0.0
  0
LTYPE
  5
15
100
AcDbSymbolTableRecord
100
AcDbLinetypeTableRecord
  2
BYLAYER
 70
0
  3

 72
65
 73
0
 40
0.0
  0
LTYPE
  5
16
100
AcDbSymbolTableRecord
100
AcDbLinetypeTableRecord
  2
CONTINUOUS
 70
64
  3
Solid line
 72
65
 73
0
 40
0.0
  0
LTYPE
  5
1F5
100
AcDbSymbolTableRecord
100
AcDbLinetypeTableRecord
  2
CENTER
 70
64
  3
____ _ ____ _ ____ _ ____ _ ____ _ ____ _ ____
 72
65
 73
4
 40
0.6
 49
0.375
 74
0
 49
-0.075
 74
0
 49
0.075
 74
0
 49
-0.075
 74
0
  0
LTYPE
  5
1F6
100
AcDbSymbolTableRecord
100
AcDbLinetypeTableRecord
  2
HIDDEN
 70
64
  3
- - - - - - - - - - - - - - - - - - - -
 72
65
 73
2
 40
0.2
 49
0.1
 74
0
 49
-0.1
 74
0
  0
LTYPE
  5
1F7
100
AcDbSymbolTableRecord
100
AcDbLinetypeTableRecord
  2
PHANTOM
 70
64
  3
_____ _ _ _____ _ _ _____ _ _ _____
 72
65
 73
6
 40
0.8
 49
0.45
 74
0
 49
-0.05
 74
0
 49
0.1
 74
0
 49
-0.05
 74
0
 49
0.1
 74
0
 49
-0.05
 74
0
  0
LTYPE
  5
1F8
100
AcDbSymbolTableRecord
100
AcDbLinetypeTableRecord
  2
DOT
 70
64
  3
. . . . . . . . . . . . . . . . . . . .
 72
65
 73
2
 40
0.2
 49
0.1
 74
0
 49
-0.1
 74
0
  0
LTYPE
  5
1F9
100
AcDbSymbolTableRecord
100
AcDbLinetypeTableRecord
  2
DASHED
 70
64
  3
- - - - - - - - - - - - - - - - - - - -
 72
65
 73
2
 40
0.2
 49
0.1
 74
0
 49
-0.1
 74
0
  0
ENDTAB
  0
TABLE
  2
LAYER
  5
2
100
AcDbSymbolTable
 70
36
  0
LAYER
  5
10
100
AcDbSymbolTableRecord
100
AcDbLayerTableRecord
  2
0
 70
0
 62
7
  6
CONTINUOUS
370
-3
390
F
  0
LAYER
  5
1FA
100
AcDbSymbolTableRecord
100
AcDbLayerTableRecord
  2
DEFAULT_1
 70
0
 62
7
  6
CENTER
370
-3
390
F
  0
LAYER
  5
1FB
100
AcDbSymbolTableRecord
100
AcDbLayerTableRecord
  2
DEFAULT_2
 70
0
 62
8
  6
HIDDEN
370
-3
390
F
  0
LAYER
  5
1FC
100
AcDbSymbolTableRecord
100
AcDbLayerTableRecord
  2
DEFAULT_3
 70
0
 62
7
  6
PHANTOM
370
-3
390
F
  0
LAYER
  5
1FD
100
AcDbSymbolTableRecord
100
AcDbLayerTableRecord
  2
00_COMPONENTS
 70
0
 62
7
  6
CONTINUOUS
370
-3
390
F
  0
LAYER
  5
1FE
100
AcDbSymbolTableRecord
100
AcDbLayerTableRecord
  2
01_1_DEFAULT_DATUMS
 70
0
 62
7
  6
CONTINUOUS
370
-3
390
F
  0
LAYER
  5
1FF
100
AcDbSymbolTableRecord
100
AcDbLayerTableRecord
  2
01_PLANES
 70
0
 62
7
  6
CONTINUOUS
370
-3
390
F
  0
LAYER
  5
200
100
AcDbSymbolTableRecord
100
AcDbLayerTableRecord
  2
02_COORD_SYS
 70
0
 62
7
  6
CONTINUOUS
370
-3
390
F
  0
LAYER
  5
201
100
AcDbSymbolTableRecord
100
AcDbLayerTableRecord
  2
03_AXES
 70
0
 62
7
  6
CONTINUOUS
370
-3
390
F
  0
LAYER
  5
202
100
AcDbSymbolTableRecord
100
AcDbLayerTableRecord
  2
04_POINTS
 70
0
 62
7
  6
CONTINUOUS
370
-3
390
F
  0
LAYER
  5
203
100
AcDbSymbolTableRecord
100
AcDbLayerTableRecord
  2
05_CURVES
 70
0
 62
7
  6
CONTINUOUS
370
-3
390
F
  0
LAYER
  5
204
100
AcDbSymbolTableRecord
100
AcDbLayerTableRecord
  2
06_SURFS
 70
0
 62
7
  6
CONTINUOUS
370
-3
390
F
  0
LAYER
  5
205
100
AcDbSymbolTableRecord
100
AcDbLayerTableRecord
  2
07_COSMETICS
 70
0
 62
7
  6
CONTINUOUS
370
-3
390
F
  0
LAYER
  5
206
100
AcDbSymbolTableRecord
100
AcDbLayerTableRecord
  2
10_NOTES
 70
0
 62
7
  6
CONTINUOUS
370
-3
390
F
  0
LAYER
  5
207
100
AcDbSymbolTableRecord
100
AcDbLayerTableRecord
  2
11_NOTES_PUB
 70
0
 62
7
  6
CONTINUOUS
370
-3
390
F
  0
LAYER
  5
208
100
AcDbSymbolTableRecord
100
AcDbLayerTableRecord
  2
13_REF_GTOL
 70
0
 62
7
  6
CONTINUOUS
370
-3
390
F
  0
LAYER
  5
209
100
AcDbSymbolTableRecord
100
AcDbLayerTableRecord
  2
16_MISC
 70
0
 62
7
  6
CONTINUOUS
370
-3
390
F
  0
LAYER
  5
20A
100
AcDbSymbolTableRecord
100
AcDbLayerTableRecord
  2
17_NO_PRINT
 70
0
 62
7
  6
CONTINUOUS
370
-3
390
F
  0
LAYER
  5
20B
100
AcDbSymbolTableRecord
100
AcDbLayerTableRecord
  2
18_DATUM_CAMS_JOINTS
 70
0
 62
7
  6
CONTINUOUS
370
-3
390
F
  0
LAYER
  5
20C
100
AcDbSymbolTableRecord
100
AcDbLayerTableRecord
  2
19_DATUM_FUNCTIONAL
 70
0
 62
7
  6
CONTINUOUS
370
-3
390
F
  0
LAYER
  5
20D
100
AcDbSymbolTableRecord
100
AcDbLayerTableRecord
  2
20_DATUM_KINEMATIC_SCHEME
 70
0
 62
7
  6
CONTINUOUS
370
-3
390
F
  0
ENDTAB
  0
TABLE
  2
STYLE
  5
3
100
AcDbSymbolTable
 70
1
  0
STYLE
  5
11
100
AcDbSymbolTableRecord
100
AcDbTextStyleTableRecord
  2
STANDARD
 70
0
 40
0.0
 41
0.8
 50
0.0
 71
0
 42
0.2
  3
txt
  4

  0
STYLE
  5
20E
100
AcDbSymbolTableRecord
100
AcDbTextStyleTableRecord
  2
TEXTSTYLE_1
 70
0
 40
0.0
 41
0.8
 50
0.0
 71
0
 42
0.2
  3
gdt
  4

  0
ENDTAB
  0
TABLE
  2
VIEW
  5
6
100
AcDbSymbolTable
 70
0
  0
ENDTAB
  0
TABLE
  2
UCS
  5
7
100
AcDbSymbolTable
 70
0
  0
ENDTAB
  0
TABLE
  2
APPID
  5
9
100
AcDbSymbolTable
 70
1
  0
APPID
  5
20F
100
AcDbSymbolTableRecord
100
AcDbRegAppTableRecord
  2
ACAD
 70
0
  0
ENDTAB
  0
TABLE
  2
BLOCK_RECORD
  5
1
100
AcDbSymbolTable
 70
0
  0
BLOCK_RECORD
  5
210
100
AcDbSymbolTableRecord
100
AcDbBlockTableRecord
  2
*Model_Space
  0
BLOCK_RECORD
  5
211
100
AcDbSymbolTableRecord
100
AcDbBlockTableRecord
  2
*Paper_Space
  0
BLOCK_RECORD
  5
212
100
AcDbSymbolTableRecord
100
AcDbBlockTableRecord
  2
_FILLED
  0
ENDTAB
  0
TABLE
  2
DIMSTYLE
  5
A
100
AcDbSymbolTable
 70
1
100
AcDbDimStyleTable
 71
0
  0
DIMSTYLE
105
213
100
AcDbSymbolTableRecord
100
AcDbDimStyleTableRecord
  2
STANDARD
 70
0
  3

  4

 40
1.0
 41
0.5238171553
 42
1.0
 43
0.38
 44
1.0
 45
0.0
 46
0.0
 47
0.01
 48
0.01
140
0.7333440175
141
0.09
142
0.0
143
25.4
144
1.0
145
0.0
146
1.0
147
0.625
 71
1
 72
0
 73
0
 74
0
 75
0
 76
0
 77
1
 78
8
 79
2
170
0
171
1
172
0
173
0
174
0
175
0
176
0
177
0
178
0
270
2
179
2
271
2
272
2
273
2
274
2
275
0
280
0
281
0
282
0
283
1
284
8
285
0
286
0
287
3
288
0
340
11
278
46
341
212
342
212
343
212
344
212
  0
ENDTAB
  0
ENDSEC
  0
SECTION
  2
BLOCKS
  0
BLOCK
  5
20
100
AcDbEntity
  8
0
100
AcDbBlockBegin
  2
*Model_Space
 70
0
 10
0.0
 20
0.0
 30
0.0
  3
*Model_Space
  1

  0
ENDBLK
  5
21
100
AcDbEntity
  8
0
100
AcDbBlockEnd
  0
BLOCK
  5
1C
100
AcDbEntity
  8
0
100
AcDbBlockBegin
  2
*Paper_Space
 70
0
 10
0.0
 20
0.0
 30
0.0
  3
*Paper_Space
  1

  0
ENDBLK
  5
1D
100
AcDbEntity
  8
0
100
AcDbBlockEnd
  0
BLOCK
  5
214
100
AcDbEntity
  8
0
100
AcDbBlockBegin
  2
_FILLED
 70
64
 10
0.0
 20
0.0
  3
_FILLED
  1

  0
SOLID
  5
215
100
AcDbEntity
  8
0
  6
BYBLOCK
 62
0
100
AcDbTrace
 10
0.0
 20
0.0
 11
-1.0
 21
0.25
 12
-1.0
 22
-0.25
 13
-1.0
 23
-0.25
  0
ENDBLK
  5
216
100
AcDbEntity
  8
0
  6
BYBLOCK
 62
0
100
AcDbBlockEnd
  0
ENDSEC
  0
SECTION
  2
ENTITIES
  0
LWPOLYLINE
  5
217
100
AcDbEntity
  8
0
100
AcDbPolyline
 62
7
  6
CONTINUOUS
 90
4
 70
0
 10
6.1953041992
 20
52.9760173772
 10
6.0263218776
 20
52.8278584404
 10
5.9401843103
 20
52.6782164717
 10
5.8973096124
 20
52.4688492026
  0
LINE
  5
218
100
AcDbEntity
  8
0
100
AcDbLine
 62
7
  6
CONTINUOUS
 10
14.4526824641
 20
57.5784102675
 11
6.1951538159
 21
52.9759338914
  0
LINE
  5
219
100
AcDbEntity
  8
0
100
AcDbLine
 62
7
  6
CONTINUOUS
 10
14.5394675149
 20
57.5283078428
 11
6.3430603648
 21
52.9598987575
  0
LWPOLYLINE
  5
21A
100
AcDbEntity
  8
0
100
AcDbPolyline
 62
7
  6
CONTINUOUS
 90
4
 70
0
 10
30.2680983369
 20
4.8517974444
 10
30.3699761518
 20
4.8121495826
 10
30.4965280226
 20
4.8053119669
 10
30.6719880216
 20
4.8653530867
  0
LINE
  5
21B
100
AcDbEntity
  8
0
100
AcDbLine
 62
7
  6
CONTINUOUS
 10
6.0890962866
 20
18.8112344552
 11
30.2678067148
 21
4.8519652817
  0
LINE
  5
21C
100
AcDbEntity
  8
0
100
AcDbLine
 62
7
  6
CONTINUOUS
 10
30.1646124052
 20
5.0806494457
 11
5.9851782661
 21
19.0403364444
  0
LINE
  5
21D
100
AcDbEntity
  8
0
100
AcDbLine
 62
7
  6
CONTINUOUS
 10
5.9851783693
 20
19.0403363849
 11
5.8973095205
 21
19.162805187
  0
LINE
  5
21E
100
AcDbEntity
  8
0
100
AcDbLine
 62
7
  6
CONTINUOUS
 10
5.8973095204
 20
19.1628114259
 11
5.8973095204
 21
52.4689516502
  0
LINE
  5
21F
100
AcDbEntity
  8
0
100
AcDbLine
 62
7
  6
CONTINUOUS
 10
5.9851782661
 20
19.0403364444
 11
5.9851782661
 21
52.3464784636
  0
LINE
  5
220
100
AcDbEntity
  8
0
100
AcDbLine
 62
7
  6
CONTINUOUS
 10
19.2058581593
 20
49.3341687558
 11
21.3982627628
 21
50.6445210719
  0
LINE
  5
221
100
AcDbEntity
  8
0
100
AcDbLine
 62
7
  6
CONTINUOUS
 10
22.5882588905
 20
51.3557557499
 11
23.3330974476
 21
51.8009294769
  0
LINE
  5
222
100
AcDbEntity
  8
0
100
AcDbLine
 62
7
  6
CONTINUOUS
 10
22.9795455549
 20
52.6555367513
 11
18.2162866634
 21
49.9054852004
  0
LINE
  5
223
100
AcDbEntity
  8
0
100
AcDbLine
 62
7
  6
CONTINUOUS
 10
21.3982627628
 20
51.6980125592
 11
21.6122994885
 21
51.8173096293
  0
LINE
  5
224
100
AcDbEntity
  8
0
100
AcDbLine
 62
7
  6
CONTINUOUS
 10
19.2584386919
 20
49.3038120579
 11
21.3982627628
 21
50.4964800043
  0
LINE
  5
225
100
AcDbEntity
  8
0
100
AcDbLine
 62
7
  6
CONTINUOUS
 10
8.3944069585
 20
19.8095521831
 11
17.014230748
 21
14.8330071824
  0
LINE
  5
226
100
AcDbEntity
  8
0
100
AcDbLine
 62
7
  6
CONTINUOUS
 10
19.1355599234
 20
13.6082849188
 11
27.7553837128
 21
8.6317399181
  0
LINE
  5
227
100
AcDbEntity
  8
0
100
AcDbLine
 62
7
  6
CONTINUOUS
 10
9.0054122181
 20
20.6042358249
 11
8.9657885862
 21
20.6358675383
  0
LINE
  5
228
100
AcDbEntity
  8
0
100
AcDbLine
 62
7
  6
CONTINUOUS
 10
8.9657885862
 20
20.6358675383
 11
7.2654923452
 21
22.4581687106
  0
LINE
  5
229
100
AcDbEntity
  8
0
100
AcDbLine
 62
7
  6
CONTINUOUS
 10
7.5968994269
 20
22.2445902571
 11
9.1727448119
 21
20.5556699248
  0
LINE
  5
22A
100
AcDbEntity
  8
0
100
AcDbLine
 62
7
  6
CONTINUOUS
 10
8.6979006361
 20
21.6089412929
 11
9.4114102868
 21
20.844233684
  0
LINE
  5
22B
100
AcDbEntity
  8
0
100
AcDbLine
 62
7
  6
CONTINUOUS
 10
7.564091277
 20
23.1710208477
 11
6.7930838661
 21
25.1719414157
  0
LWPOLYLINE
  5
22C
100
AcDbEntity
  8
0
100
AcDbPolyline
 62
7
  6
CONTINUOUS
 90
4
 70
0
 10
5.8973095518
 20
19.1628152858
 10
5.9210068272
 20
19.0185355956
 10
5.9890332739
 20
18.8962802145
 10
6.0891633906
 20
18.8111959541
  0
LINE
  5
22D
100
AcDbEntity
  8
0
100
AcDbLine
 62
7
  6
CONTINUOUS
 10
27.7553837128
 20
9.7791629658
 11
19.7817572077
 21
14.3826342305
  0
LINE
  5
22E
100
AcDbEntity
  8
0
100
AcDbLine
 62
7
  6
CONTINUOUS
 10
17.014230748
 20
15.9804302301
 11
9.0054049964
 21
20.6042233294
  0
LINE
  5
22F
100
AcDbEntity
  8
0
100
AcDbLine
 62
7
  6
CONTINUOUS
 10
27.7553837128
 20
9.7879349465
 11
19.7421404959
 21
14.414278413
  0
LINE
  5
230
100
AcDbEntity
  8
0
100
AcDbLine
 62
7
  6
CONTINUOUS
 10
17.014230748
 20
15.9892022107
 11
8.9657882846
 21
20.6358675119
  0
LINE
  5
231
100
AcDbEntity
  8
0
100
AcDbLine
 62
7
  6
CONTINUOUS
 10
27.4585308735
 20
9.9986052525
 11
25.3372731287
 21
11.2232862765
  0
LINE
  5
232
100
AcDbEntity
  8
0
100
AcDbLine
 62
7
  6
CONTINUOUS
 10
24.7644428207
 20
11.5540025272
 11
22.6431850759
 21
12.7786835512
  0
LINE
  5
233
100
AcDbEntity
  8
0
100
AcDbLine
 62
7
  6
CONTINUOUS
 10
22.0703547679
 20
13.1093998019
 11
19.9490970231
 21
14.3340808259
  0
LINE
  5
234
100
AcDbEntity
  8
0
100
AcDbLine
 62
7
  6
CONTINUOUS
 10
16.6821786623
 20
16.2201943514
 11
14.5609209175
 21
17.4448753754
  0
LINE
  5
235
100
AcDbEntity
  8
0
100
AcDbLine
 62
7
  6
CONTINUOUS
 10
13.9880906095
 20
17.7755916261
 11
11.8668328647
 21
19.0002726501
  0
LINE
  5
236
100
AcDbEntity
  8
0
100
AcDbLine
 62
7
  6
CONTINUOUS
 10
11.2940025566
 20
19.3309889008
 11
9.1727448119
 21
20.5556699248
  0
LINE
  5
237
100
AcDbEntity
  8
0
100
AcDbLine
 62
7
  6
CONTINUOUS
 10
7.5968994269
 20
22.2445902571
 11
9.7181571717
 21
21.0199092332
  0
LINE
  5
238
100
AcDbEntity
  8
0
100
AcDbLine
 62
7
  6
CONTINUOUS
 10
10.2909874797
 20
20.6891929824
 11
12.4122452245
 21
19.4645119584
  0
LINE
  5
239
100
AcDbEntity
  8
0
100
AcDbLine
 62
7
  6
CONTINUOUS
 10
12.9850755326
 20
19.1337957077
 11
15.1063332773
 21
17.9091146837
  0
LINE
  5
23A
100
AcDbEntity
  8
0
100
AcDbLine
 62
7
  6
CONTINUOUS
 10
18.3732516382
 20
16.0230011583
 11
20.494509383
 21
14.7983201343
  0
LINE
  5
23B
100
AcDbEntity
  8
0
100
AcDbLine
 62
7
  6
CONTINUOUS
 10
21.067339691
 20
14.4676038835
 11
23.1885974358
 21
13.2429228595
  0
LINE
  5
23C
100
AcDbEntity
  8
0
100
AcDbLine
 62
7
  6
CONTINUOUS
 10
23.7614277438
 20
12.9122066088
 11
25.8826854886
 21
11.6875255848
  0
LINE
  5
23D
100
AcDbEntity
  8
0
100
AcDbLine
 62
7
  6
CONTINUOUS
 10
7.2654912326
 20
22.4581695535
 11
15.3477568052
 21
17.7919769128
  0
LINE
  5
23E
100
AcDbEntity
  8
0
100
AcDbLine
 62
7
  6
CONTINUOUS
 10
18.0418434438
 20
16.2365804546
 11
26.1241090165
 21
11.570387814
  0
LINE
  5
23F
100
AcDbEntity
  8
0
100
AcDbLine
 62
7
  6
CONTINUOUS
 10
26.1762042668
 20
11.9416130204
 11
18.0939386942
 21
16.607805661
  0
LINE
  5
240
100
AcDbEntity
  8
0
100
AcDbLine
 62
7
  6
CONTINUOUS
 10
15.3998520556
 20
18.1632021193
 11
7.3175864829
 21
22.8293947599
  0
LINE
  5
241
100
AcDbEntity
  8
0
100
AcDbLine
 62
7
  6
CONTINUOUS
 10
7.564090581
 20
23.171021267
 11
15.6463561536
 21
18.5048286264
  0
LINE
  5
242
100
AcDbEntity
  8
0
100
AcDbLine
 62
7
  6
CONTINUOUS
 10
18.3404427922
 20
16.9494321681
 11
26.4227083649
 21
12.2832395275
  0
LINE
  5
243
100
AcDbEntity
  8
0
100
AcDbLine
 62
7
  6
CONTINUOUS
 10
19.7817644293
 20
14.382646726
 11
19.7421407974
 21
14.4142784394
  0
LINE
  5
244
100
AcDbEntity
  8
0
100
AcDbLine
 62
7
  6
CONTINUOUS
 10
11.2940025566
 20
19.3309889008
 11
9.7181571717
 21
21.0199092332
  0
LINE
  5
245
100
AcDbEntity
  8
0
100
AcDbLine
 62
7
  6
CONTINUOUS
 10
10.2909874797
 20
20.6891929824
 11
11.8668328647
 21
19.0002726501
  0
LINE
  5
246
100
AcDbEntity
  8
0
100
AcDbLine
 62
7
  6
CONTINUOUS
 10
11.3919950279
 20
20.0535403585
 11
12.105500271
 21
19.288837473
  0
LINE
  5
247
100
AcDbEntity
  8
0
100
AcDbLine
 62
7
  6
CONTINUOUS
 10
13.9880906095
 20
17.7755916261
 11
12.4122452245
 21
19.4645119584
  0
LINE
  5
248
100
AcDbEntity
  8
0
100
AcDbLine
 62
7
  6
CONTINUOUS
 10
12.9850755326
 20
19.1337957077
 11
14.5609209175
 21
17.4448753754
  0
LINE
  5
249
100
AcDbEntity
  8
0
100
AcDbLine
 62
7
  6
CONTINUOUS
 10
14.0860830807
 20
18.4981430838
 11
14.7995883238
 21
17.7334401982
  0
LINE
  5
24A
100
AcDbEntity
  8
0
100
AcDbLine
 62
7
  6
CONTINUOUS
 10
16.6821786623
 20
16.2201943514
 11
15.1063332773
 21
17.9091146837
  0
LINE
  5
24B
100
AcDbEntity
  8
0
100
AcDbLine
 62
7
  6
CONTINUOUS
 10
15.3477560981
 20
17.7919773211
 11
17.014230748
 21
16.0059246116
  0
LINE
  5
24C
100
AcDbEntity
  8
0
100
AcDbLine
 62
7
  6
CONTINUOUS
 10
8.3944069585
 20
29.1993299801
 11
8.3944069585
 21
27.760584421
  0
LINE
  5
24D
100
AcDbEntity
  8
0
100
AcDbLine
 62
7
  6
CONTINUOUS
 10
8.3944069585
 20
21.2482487133
 11
8.3944069585
 21
19.8095521831
  0
LINE
  5
24E
100
AcDbEntity
  8
0
100
AcDbLine
 62
7
  6
CONTINUOUS
 10
26.3480308388
 20
48.8403272776
 11
26.5583641128
 21
48.9617624881
  0
LINE
  5
24F
100
AcDbEntity
  8
0
100
AcDbLine
 62
7
  6
CONTINUOUS
 10
26.3480308388
 20
47.6387947227
 11
24.2452318865
 21
46.4247507977
  0
LINE
  5
250
100
AcDbEntity
  8
0
100
AcDbLine
 62
7
  6
CONTINUOUS
 10
6.7930833824
 20
25.171942671
 11
14.8753475409
 21
20.5057508468
  0
LINE
  5
251
100
AcDbEntity
  8
0
100
AcDbLine
 62
7
  6
CONTINUOUS
 10
17.5694355937
 20
18.9503535721
 11
25.6516997521
 21
14.2841617479
  0
LINE
  5
252
100
AcDbEntity
  8
0
100
AcDbLine
 62
7
  6
CONTINUOUS
 10
25.7811398672
 20
14.8329408307
 11
17.6988757088
 21
19.4991326549
  0
LINE
  5
253
100
AcDbEntity
  8
0
100
AcDbLine
 62
7
  6
CONTINUOUS
 10
15.0047876559
 20
21.0545299296
 11
6.9225234975
 21
25.7207217538
  0
LINE
  5
254
100
AcDbEntity
  8
0
100
AcDbLine
 62
7
  6
CONTINUOUS
 10
8.3079927714
 20
24.9962761286
 11
8.0877131068
 21
25.171071808
  0
LINE
  5
255
100
AcDbEntity
  8
0
100
AcDbLine
 62
7
  6
CONTINUOUS
 10
11.0020808242
 20
23.4408788538
 11
10.7818011596
 21
23.6156745333
  0
LINE
  5
256
100
AcDbEntity
  8
0
100
AcDbLine
 62
7
  6
CONTINUOUS
 10
13.696168877
 20
21.8854815791
 11
13.4758892124
 21
22.0602772586
  0
LINE
  5
257
100
AcDbEntity
  8
0
100
AcDbLine
 62
7
  6
CONTINUOUS
 10
8.0738705452
 20
25.8775188925
 11
8.4794493326
 21
25.4428381473
  0
LINE
  5
258
100
AcDbEntity
  8
0
100
AcDbLine
 62
7
  6
CONTINUOUS
 10
19.7421407974
 20
14.4142784394
 11
18.0418445565
 21
16.2365796117
  0
LINE
  5
259
100
AcDbEntity
  8
0
100
AcDbLine
 62
7
  6
CONTINUOUS
 10
18.3732516382
 20
16.0230011583
 11
19.9490970231
 21
14.3340808259
  0
LINE
  5
25A
100
AcDbEntity
  8
0
100
AcDbLine
 62
7
  6
CONTINUOUS
 10
10.7679585981
 20
24.3221216178
 11
11.1735373854
 21
23.8874408725
  0
LINE
  5
25B
100
AcDbEntity
  8
0
100
AcDbLine
 62
7
  6
CONTINUOUS
 10
19.4742528474
 20
15.387352194
 11
20.187762498
 21
14.6226445851
  0
LINE
  5
25C
100
AcDbEntity
  8
0
100
AcDbLine
 62
7
  6
CONTINUOUS
 10
22.0703547679
 20
13.1093998019
 11
20.494509383
 21
14.7983201343
  0
LINE
  5
25D
100
AcDbEntity
  8
0
100
AcDbLine
 62
7
  6
CONTINUOUS
 10
21.067339691
 20
14.4676038835
 11
22.6431850759
 21
12.7786835512
  0
LINE
  5
25E
100
AcDbEntity
  8
0
100
AcDbLine
 62
7
  6
CONTINUOUS
 10
13.4620466509
 20
22.766724343
 11
13.8676254382
 21
22.3320435978
  0
LINE
  5
25F
100
AcDbEntity
  8
0
100
AcDbLine
 62
7
  6
CONTINUOUS
 10
24.9085847271
 20
46.0417725207
 11
27.9601767023
 21
47.8656423513
  0
LINE
  5
260
100
AcDbEntity
  8
0
100
AcDbLine
 62
7
  6
CONTINUOUS
 10
25.9590795689
 20
46.596859451
 11
25.9397550334
 21
46.5857024919
  0
LINE
  5
261
100
AcDbEntity
  8
0
100
AcDbLine
 62
7
  6
CONTINUOUS
 10
25.2873839149
 20
45.8230776552
 11
30.134512082
 21
48.5247083526
  0
LINE
  5
262
100
AcDbEntity
  8
0
100
AcDbLine
 62
7
  6
CONTINUOUS
 10
19.0843449826
 20
18.7746870297
 11
18.864065318
 21
18.9494827092
  0
LINE
  5
263
100
AcDbEntity
  8
0
100
AcDbLine
 62
7
  6
CONTINUOUS
 10
21.7784330355
 20
17.2192897549
 11
21.5581533708
 21
17.3940854344
  0
LINE
  5
264
100
AcDbEntity
  8
0
100
AcDbLine
 62
7
  6
CONTINUOUS
 10
24.4725210883
 20
15.6638924802
 11
24.2522414236
 21
15.8386881597
  0
LINE
  5
265
100
AcDbEntity
  8
0
100
AcDbLine
 62
7
  6
CONTINUOUS
 10
9.9877468774
 20
27.3242238103
 11
10.208026542
 21
27.1494281308
  0
LINE
  5
266
100
AcDbEntity
  8
0
100
AcDbLine
 62
7
  6
CONTINUOUS
 10
12.6818349302
 20
25.7688265355
 11
12.9021145948
 21
25.5940308561
  0
LINE
  5
267
100
AcDbEntity
  8
0
100
AcDbLine
 62
7
  6
CONTINUOUS
 10
22.1683472391
 20
13.8319512596
 11
22.8818524822
 21
13.0672483741
  0
LINE
  5
268
100
AcDbEntity
  8
0
100
AcDbLine
 62
7
  6
CONTINUOUS
 10
24.7644428207
 20
11.5540025272
 11
23.1885974358
 21
13.2429228595
  0
LINE
  5
269
100
AcDbEntity
  8
0
100
AcDbLine
 62
7
  6
CONTINUOUS
 10
23.7614277438
 20
12.9122066088
 11
25.3372731287
 21
11.2232862765
  0
LINE
  5
26A
100
AcDbEntity
  8
0
100
AcDbLine
 62
7
  6
CONTINUOUS
 10
24.8624352919
 20
12.2765539849
 11
25.5759405351
 21
11.5118510993
  0
LINE
  5
26B
100
AcDbEntity
  8
0
100
AcDbLine
 62
7
  6
CONTINUOUS
 10
27.4585308735
 20
9.9986052525
 11
25.8826854886
 21
11.6875255848
  0
LINE
  5
26C
100
AcDbEntity
  8
0
100
AcDbLine
 62
7
  6
CONTINUOUS
 10
26.1241083094
 20
11.5703882222
 11
27.7553837128
 21
9.8220604847
  0
LINE
  5
26D
100
AcDbEntity
  8
0
100
AcDbLine
 62
7
  6
CONTINUOUS
 10
18.8502227565
 20
19.6559297936
 11
19.2558015438
 21
19.2212490484
  0
LINE
  5
26E
100
AcDbEntity
  8
0
100
AcDbLine
 62
7
  6
CONTINUOUS
 10
14.8753480245
 20
20.5057495916
 11
15.6463554354
 21
18.5048290235
  0
LINE
  5
26F
100
AcDbEntity
  8
0
100
AcDbLine
 62
7
  6
CONTINUOUS
 10
6.9225240767
 20
25.7207225565
 11
8.9664315607
 21
28.5533453029
  0
LINE
  5
270
100
AcDbEntity
  8
0
100
AcDbLine
 62
7
  6
CONTINUOUS
 10
8.9664321399
 20
28.5533461057
 11
17.014230748
 21
23.9070525262
  0
LINE
  5
271
100
AcDbEntity
  8
0
100
AcDbLine
 62
7
  6
CONTINUOUS
 10
19.7427843512
 20
22.3317570068
 11
27.7553837128
 21
17.7057852619
  0
LINE
  5
272
100
AcDbEntity
  8
0
100
AcDbLine
 62
7
  6
CONTINUOUS
 10
19.9455705385
 20
22.5226651934
 11
27.7520320045
 21
18.0157122447
  0
LINE
  5
273
100
AcDbEntity
  8
0
100
AcDbLine
 62
7
  6
CONTINUOUS
 10
9.1692183272
 20
28.7442542923
 11
17.0108790547
 21
24.2169795351
  0
LINE
  5
274
100
AcDbEntity
  8
0
100
AcDbLine
 62
7
  6
CONTINUOUS
 10
27.7553837128
 20
18.0215177151
 11
19.1355599234
 21
22.9980627158
  0
LINE
  5
275
100
AcDbEntity
  8
0
100
AcDbLine
 62
7
  6
CONTINUOUS
 10
17.014230748
 20
24.2227849794
 11
8.3944069585
 21
29.1993299801
  0
LINE
  5
276
100
AcDbEntity
  8
0
100
AcDbLine
 62
7
  6
CONTINUOUS
 10
15.375922983
 20
24.2134292608
 11
15.5962026476
 21
24.0386335813
  0
LINE
  5
277
100
AcDbEntity
  8
0
100
AcDbLine
 62
7
  6
CONTINUOUS
 10
20.7640990886
 20
21.1026347114
 11
20.9843787532
 21
20.9278390319
  0
LINE
  5
278
100
AcDbEntity
  8
0
100
AcDbLine
 62
7
  6
CONTINUOUS
 10
23.4581871414
 20
19.5472374367
 11
23.6784668061
 21
19.3724417572
  0
LINE
  5
279
100
AcDbEntity
  8
0
100
AcDbLine
 62
7
  6
CONTINUOUS
 10
21.5443108093
 20
18.1005325189
 11
21.9498895966
 21
17.6658517737
  0
LINE
  5
27A
100
AcDbEntity
  8
0
100
AcDbLine
 62
7
  6
CONTINUOUS
 10
24.2383988621
 20
16.5451352441
 11
24.6439776494
 21
16.1104544989
  0
LINE
  5
27B
100
AcDbEntity
  8
0
100
AcDbLine
 62
7
  6
CONTINUOUS
 10
18.3404434882
 20
16.9494317488
 11
17.5694360774
 21
18.9503523168
  0
LINE
  5
27C
100
AcDbEntity
  8
0
100
AcDbLine
 62
7
  6
CONTINUOUS
 10
7.31758719
 20
22.8293943517
 11
7.564091277
 21
23.1710208477
  0
LINE
  5
27D
100
AcDbEntity
  8
0
100
AcDbLine
 62
7
  6
CONTINUOUS
 10
35.0101229111
 20
16.5273776593
 11
35.4129185715
 21
16.3028541994
  0
LINE
  5
27E
100
AcDbEntity
  8
0
100
AcDbLine
 62
7
  6
CONTINUOUS
 10
36.39513691
 20
15.7277451922
 11
35.4129164226
 21
16.2948182113
  0
LINE
  5
27F
100
AcDbEntity
  8
0
100
AcDbLine
 62
7
  6
CONTINUOUS
 10
26.1522751942
 20
17.9918401619
 11
26.3725548589
 21
17.8170444824
  0
LINE
  5
280
100
AcDbEntity
  8
0
100
AcDbLine
 62
7
  6
CONTINUOUS
 10
17.014230748
 20
14.8330071824
 11
17.014230748
 21
24.2227849794
  0
LINE
  5
281
100
AcDbEntity
  8
0
100
AcDbLine
 62
7
  6
CONTINUOUS
 10
9.1692197414
 20
28.7442551088
 11
9.1759286091
 21
28.7481284523
  0
LINE
  5
282
100
AcDbEntity
  8
0
100
AcDbLine
 62
7
  6
CONTINUOUS
 10
19.1355599234
 20
22.9980627158
 11
19.1355599234
 21
21.4902131797
  0
LINE
  5
283
100
AcDbEntity
  8
0
100
AcDbLine
 62
7
  6
CONTINUOUS
 10
19.1355599234
 20
15.0643845863
 11
19.1355599234
 21
13.6082849188
  0
LINE
  5
284
100
AcDbEntity
  8
0
100
AcDbLine
 62
7
  6
CONTINUOUS
 10
30.5200047105
 20
39.0016492091
 11
38.574590122
 21
43.6519372611
  0
LINE
  5
285
100
AcDbEntity
  8
0
100
AcDbLine
 62
7
  6
CONTINUOUS
 10
38.7867149622
 20
43.2845282999
 11
30.7321347242
 21
38.6342434048
  0
LINE
  5
286
100
AcDbEntity
  8
0
100
AcDbLine
 62
7
  6
CONTINUOUS
 10
25.6517002358
 20
14.2841604927
 11
26.4227076466
 21
12.2832399246
  0
LINE
  5
287
100
AcDbEntity
  8
0
100
AcDbLine
 62
7
  6
CONTINUOUS
 10
21.3982627628
 20
50.4964800043
 11
21.3982627628
 21
51.6980125592
  0
LINE
  5
288
100
AcDbEntity
  8
0
100
AcDbLine
 62
7
  6
CONTINUOUS
 10
17.014230748
 20
23.8393889581
 11
15.0047882352
 21
21.0545307323
  0
LINE
  5
289
100
AcDbEntity
  8
0
100
AcDbLine
 62
7
  6
CONTINUOUS
 10
5.8973095386
 20
52.4688914281
 11
5.9851783693
 21
52.346478404
  0
LINE
  5
28A
100
AcDbEntity
  8
0
100
AcDbLine
 62
7
  6
CONTINUOUS
 10
23.3330974476
 20
51.8009294769
 11
23.3330974476
 21
52.4514075426
  0
LINE
  5
28B
100
AcDbEntity
  8
0
100
AcDbLine
 62
7
  6
CONTINUOUS
 10
15.6463554354
 20
18.5048290235
 11
15.3998513485
 21
18.1632025275
  0
LINE
  5
28C
100
AcDbEntity
  8
0
100
AcDbLine
 62
7
  6
CONTINUOUS
 10
8.0738706847
 20
25.8775180512
 11
10.4525926141
 21
26.6070365532
  0
LINE
  5
28D
100
AcDbEntity
  8
0
100
AcDbLine
 62
7
  6
CONTINUOUS
 10
8.4794493326
 20
25.4428381473
 11
10.4037591861
 21
26.0329952499
  0
LINE
  5
28E
100
AcDbEntity
  8
0
100
AcDbLine
 62
7
  6
CONTINUOUS
 10
10.3688049952
 20
25.9625237383
 11
8.1371701179
 21
25.2781146392
  0
LINE
  5
28F
100
AcDbEntity
  8
0
100
AcDbLine
 62
7
  6
CONTINUOUS
 10
25.9590795689
 20
46.596859451
 11
25.9590795689
 21
46.5745457186
  0
LINE
  5
290
100
AcDbEntity
  8
0
100
AcDbLine
 62
7
  6
CONTINUOUS
 10
26.3480308388
 20
47.6387947227
 11
26.3480308388
 21
48.8403272776
  0
LINE
  5
291
100
AcDbEntity
  8
0
100
AcDbLine
 62
7
  6
CONTINUOUS
 10
17.698876288
 20
19.4991334576
 11
19.742783772
 21
22.3317562041
  0
LINE
  5
292
100
AcDbEntity
  8
0
100
AcDbLine
 62
7
  6
CONTINUOUS
 10
9.3794466097
 20
20.3882751887
 11
8.3944069585
 21
19.8095521831
  0
LINE
  5
293
100
AcDbEntity
  8
0
100
AcDbLine
 62
7
  6
CONTINUOUS
 10
36.39513691
 20
34.5621740923
 11
31.5458966092
 21
31.7140507327
  0
LINE
  5
294
100
AcDbEntity
  8
0
100
AcDbLine
 62
7
  6
CONTINUOUS
 10
9.721817691
 20
21.013183864
 11
9.4114102763
 21
20.8442336849
  0
LINE
  5
295
100
AcDbEntity
  8
0
100
AcDbLine
 62
7
  6
CONTINUOUS
 10
10.7679587375
 20
24.3221207765
 11
13.1466806669
 21
25.0516392785
  0
LINE
  5
296
100
AcDbEntity
  8
0
100
AcDbLine
 62
7
  6
CONTINUOUS
 10
11.1735373854
 20
23.8874408725
 11
13.0978472389
 21
24.4775979752
  0
LINE
  5
297
100
AcDbEntity
  8
0
100
AcDbLine
 62
7
  6
CONTINUOUS
 10
13.062893048
 20
24.4071264636
 11
10.8312581707
 21
23.7227173645
  0
LINE
  5
298
100
AcDbEntity
  8
0
100
AcDbLine
 62
7
  6
CONTINUOUS
 10
27.7553837128
 20
8.6317399181
 11
27.7553837128
 21
18.0215177151
  0
LINE
  5
299
100
AcDbEntity
  8
0
100
AcDbLine
 62
7
  6
CONTINUOUS
 10
27.9601767023
 20
48.3013899359
 11
27.9601767023
 21
47.8656423513
  0
LINE
  5
29A
100
AcDbEntity
  8
0
100
AcDbLine
 62
7
  6
CONTINUOUS
 10
18.0939394013
 20
16.6078052528
 11
18.3404434882
 21
16.9494317488
  0
LINE
  5
29B
100
AcDbEntity
  8
0
100
AcDbLine
 62
7
  6
CONTINUOUS
 10
31.5458966092
 20
29.2079494161
 11
36.39513691
 21
32.0577935347
  0
LINE
  5
29C
100
AcDbEntity
  8
0
100
AcDbLine
 62
7
  6
CONTINUOUS
 10
19.9455719526
 20
22.5226660099
 11
19.9522808204
 21
22.5265393534
  0
LINE
  5
29D
100
AcDbEntity
  8
0
100
AcDbLine
 62
7
  6
CONTINUOUS
 10
35.4129164221
 20
32.6248665542
 11
31.5458987764
 21
30.4315733392
  0
LINE
  5
29E
100
AcDbEntity
  8
0
100
AcDbLine
 62
7
  6
CONTINUOUS
 10
12.4159057423
 20
19.457786592
 11
12.10550027
 21
19.2888374724
  0
LINE
  5
29F
100
AcDbEntity
  8
0
100
AcDbLine
 62
7
  6
CONTINUOUS
 10
13.4620467903
 20
22.7667235018
 11
15.8407687197
 21
23.4962420038
  0
LINE
  5
2A0
100
AcDbEntity
  8
0
100
AcDbLine
 62
7
  6
CONTINUOUS
 10
13.8676254382
 20
22.3320435978
 11
15.7919352917
 21
22.9222007004
  0
LINE
  5
2A1
100
AcDbEntity
  8
0
100
AcDbLine
 62
7
  6
CONTINUOUS
 10
15.7569811008
 20
22.8517291889
 11
13.5253462235
 21
22.1673200897
  0
LINE
  5
2A2
100
AcDbEntity
  8
0
100
AcDbLine
 62
7
  6
CONTINUOUS
 10
30.1646124052
 20
38.3867914648
 11
30.1646124052
 21
5.0806494457
  0
LINE
  5
2A3
100
AcDbEntity
  8
0
100
AcDbLine
 62
7
  6
CONTINUOUS
 10
30.5907194634
 20
5.0817302295
 11
30.5907194634
 21
38.3878603188
  0
LINE
  5
2A4
100
AcDbEntity
  8
0
100
AcDbLine
 62
7
  6
CONTINUOUS
 10
15.109993795
 20
17.9023893175
 11
14.7995883228
 21
17.7334401977
  0
LINE
  5
2A5
100
AcDbEntity
  8
0
100
AcDbLine
 62
7
  6
CONTINUOUS
 10
35.0101229111
 20
32.8574260019
 11
35.4129185715
 21
32.632902542
  0
LINE
  5
2A6
100
AcDbEntity
  8
0
100
AcDbLine
 62
7
  6
CONTINUOUS
 10
36.39513691
 20
32.0577935347
 11
35.4129164221
 21
32.6248665542
  0
LINE
  5
2A7
100
AcDbEntity
  8
0
100
AcDbLine
 62
7
  6
CONTINUOUS
 10
31.5458987764
 20
31.713906114
 11
31.5458987764
 21
29.2080915324
  0
LINE
  5
2A8
100
AcDbEntity
  8
0
100
AcDbLine
 62
7
  6
CONTINUOUS
 10
31.5458987764
 20
15.3838577715
 11
31.5458987764
 21
12.8780431898
  0
LINE
  5
2A9
100
AcDbEntity
  8
0
100
AcDbLine
 62
7
  6
CONTINUOUS
 10
32.3478648054
 20
14.556383704
 11
32.3478648054
 21
15.8550255219
  0
LINE
  5
2AA
100
AcDbEntity
  8
0
100
AcDbLine
 62
7
  6
CONTINUOUS
 10
18.8502228959
 20
19.6559289523
 11
21.2289448253
 21
20.3854474544
  0
LINE
  5
2AB
100
AcDbEntity
  8
0
100
AcDbLine
 62
7
  6
CONTINUOUS
 10
19.2558015438
 20
19.2212490484
 11
21.1801113973
 21
19.811406151
  0
LINE
  5
2AC
100
AcDbEntity
  8
0
100
AcDbLine
 62
7
  6
CONTINUOUS
 10
21.1451572064
 20
19.7409346394
 11
18.9135223291
 21
19.0565255403
  0
LINE
  5
2AD
100
AcDbEntity
  8
0
100
AcDbLine
 62
7
  6
CONTINUOUS
 10
5.9851782661
 20
52.3464784636
 11
30.1646124052
 21
38.3867914648
  0
LINE
  5
2AE
100
AcDbEntity
  8
0
100
AcDbLine
 62
7
  6
CONTINUOUS
 10
33.8787573604
 20
15.4246746096
 11
33.8787573604
 21
16.7541706614
  0
LINE
  5
2AF
100
AcDbEntity
  8
0
100
AcDbLine
 62
7
  6
CONTINUOUS
 10
33.8787573604
 20
31.7547229528
 11
33.8787573604
 21
33.084219004
  0
LINE
  5
2B0
100
AcDbEntity
  8
0
100
AcDbLine
 62
7
  6
CONTINUOUS
 10
35.0101234999
 20
16.0663623144
 11
35.0101234999
 21
17.4186603816
  0
LINE
  5
2B1
100
AcDbEntity
  8
0
100
AcDbLine
 62
7
  6
CONTINUOUS
 10
35.0101234999
 20
32.3964106576
 11
35.0101234999
 21
33.7487087241
  0
LINE
  5
2B2
100
AcDbEntity
  8
0
100
AcDbLine
 62
7
  6
CONTINUOUS
 10
27.7553837128
 20
17.5690177168
 11
25.7811404464
 21
14.8329416335
  0
LINE
  5
2B3
100
AcDbEntity
  8
0
100
AcDbLine
 62
7
  6
CONTINUOUS
 10
21.5443109488
 20
18.1005316776
 11
23.9230328782
 21
18.8300501796
  0
LINE
  5
2B4
100
AcDbEntity
  8
0
100
AcDbLine
 62
7
  6
CONTINUOUS
 10
30.5200047105
 20
39.0016492091
 11
6.3430603648
 21
52.9598987575
  0
LINE
  5
2B5
100
AcDbEntity
  8
0
100
AcDbLine
 62
7
  6
CONTINUOUS
 10
35.2150421437
 20
9.1830466627
 11
35.2150421437
 21
7.6808487528
  0
LINE
  5
2B6
100
AcDbEntity
  8
0
100
AcDbLine
 62
7
  6
CONTINUOUS
 10
35.4129185715
 20
16.2949591261
 11
35.4129185715
 21
16.3028541994
  0
LINE
  5
2B7
100
AcDbEntity
  8
0
100
AcDbLine
 62
7
  6
CONTINUOUS
 10
35.4129185715
 20
32.6250075031
 11
35.4129185715
 21
32.632902542
  0
LINE
  5
2B8
100
AcDbEntity
  8
0
100
AcDbLine
 62
7
  6
CONTINUOUS
 10
36.3951347427
 20
15.7276030759
 11
36.3951347427
 21
18.2322703684
  0
LINE
  5
2B9
100
AcDbEntity
  8
0
100
AcDbLine
 62
7
  6
CONTINUOUS
 10
36.3951347427
 20
32.0576514185
 11
36.3951347427
 21
34.562318711
  0
LINE
  5
2BA
100
AcDbEntity
  8
0
100
AcDbLine
 62
7
  6
CONTINUOUS
 10
36.9324481027
 20
9.8176214655
 11
36.9324481027
 21
10.2095026702
  0
LINE
  5
2BB
100
AcDbEntity
  8
0
100
AcDbLine
 62
7
  6
CONTINUOUS
 10
26.4227076466
 20
12.2832399246
 11
26.1762035597
 21
11.9416134286
  0
LINE
  5
2BC
100
AcDbEntity
  8
0
100
AcDbLine
 62
7
  6
CONTINUOUS
 10
20.1292716375
 20
14.1820012198
 11
19.1355599234
 21
13.6082849188
  0
LINE
  5
2BD
100
AcDbEntity
  8
0
100
AcDbLine
 62
7
  6
CONTINUOUS
 10
20.4981699022
 20
14.7915947651
 11
20.1877624875
 21
14.622644586
  0
LINE
  5
2BE
100
AcDbEntity
  8
0
100
AcDbLine
 62
7
  6
CONTINUOUS
 10
21.9498895966
 20
17.6658517737
 11
23.8741994501
 21
18.2560088763
  0
LINE
  5
2BF
100
AcDbEntity
  8
0
100
AcDbLine
 62
7
  6
CONTINUOUS
 10
23.8392452592
 20
18.1855373647
 11
21.6076103819
 21
17.5011282656
  0
LINE
  5
2C0
100
AcDbEntity
  8
0
100
AcDbLine
 62
7
  6
CONTINUOUS
 10
24.2383990016
 20
16.5451344029
 11
26.617120931
 21
17.2746529049
  0
LINE
  5
2C1
100
AcDbEntity
  8
0
100
AcDbLine
 62
7
  6
CONTINUOUS
 10
18.2162866634
 20
49.9054852004
 11
19.2584386919
 21
49.3038120579
  0
LINE
  5
2C2
100
AcDbEntity
  8
0
100
AcDbLine
 62
7
  6
CONTINUOUS
 10
24.2452318865
 20
46.4247507977
 11
25.2873839149
 21
45.8230776552
  0
LINE
  5
2C3
100
AcDbEntity
  8
0
100
AcDbLine
 62
7
  6
CONTINUOUS
 10
37.7384008866
 20
17.3608710242
 11
37.7384008866
 21
11.0994542435
  0
LINE
  5
2C4
100
AcDbEntity
  8
0
100
AcDbLine
 62
7
  6
CONTINUOUS
 10
38.7867144403
 20
43.5294681462
 11
38.7867149622
 21
17.9880244561
  0
LINE
  5
2C5
100
AcDbEntity
  8
0
100
AcDbLine
 62
7
  6
CONTINUOUS
 10
23.1922579535
 20
13.2361974931
 11
22.8818524812
 21
13.0672483735
  0
LINE
  5
2C6
100
AcDbEntity
  8
0
100
AcDbLine
 62
7
  6
CONTINUOUS
 10
24.6439776494
 20
16.1104544989
 11
26.5682875029
 21
16.7006116015
  0
LINE
  5
2C7
100
AcDbEntity
  8
0
100
AcDbLine
 62
7
  6
CONTINUOUS
 10
26.533333312
 20
16.63014009
 11
24.3016984348
 21
15.9457309909
  0
LINE
  5
2C8
100
AcDbEntity
  8
0
100
AcDbLine
 62
7
  6
CONTINUOUS
 10
26.2914012229
 20
46.3826840627
 11
25.8781575536
 21
46.6212650089
  0
LINE
  5
2C9
100
AcDbEntity
  8
0
100
AcDbLine
 62
7
  6
CONTINUOUS
 10
20.2624559999
 20
49.8634184654
 11
20.1754309858
 21
49.913661244
  0
LINE
  5
2CA
100
AcDbEntity
  8
0
100
AcDbLine
 62
7
  6
CONTINUOUS
 10
25.8971477161
 20
46.632615014
 11
25.9590795689
 21
46.596859451
  0
LINE
  5
2CB
100
AcDbEntity
  8
0
100
AcDbLine
 62
7
  6
CONTINUOUS
 10
21.3982627628
 20
50.4964800043
 11
26.3480308388
 21
47.6387947227
  0
LINE
  5
2CC
100
AcDbEntity
  8
0
100
AcDbLine
 62
7
  6
CONTINUOUS
 10
30.6720622594
 20
4.8653972955
 11
30.7321294036
 21
5.0015097829
  0
LINE
  5
2CD
100
AcDbEntity
  8
0
100
AcDbLine
 62
7
  6
CONTINUOUS
 10
36.39513691
 20
18.2321257497
 11
31.5458966092
 21
15.3840023901
  0
LINE
  5
2CE
100
AcDbEntity
  8
0
100
AcDbLine
 62
7
  6
CONTINUOUS
 10
25.8863460062
 20
11.6808002186
 11
25.575940534
 21
11.5118510988
  0
LINE
  5
2CF
100
AcDbEntity
  8
0
100
AcDbLine
 62
7
  6
CONTINUOUS
 10
27.9601767023
 20
48.3013899359
 11
26.5583641128
 21
48.9617624881
  0
LINE
  5
2D0
100
AcDbEntity
  8
0
100
AcDbLine
 62
7
  6
CONTINUOUS
 10
21.6122994885
 20
51.8173096293
 11
23.0387945505
 21
51.1426869673
  0
LINE
  5
2D1
100
AcDbEntity
  8
0
100
AcDbLine
 62
7
  6
CONTINUOUS
 10
21.3982627628
 20
51.6980125592
 11
26.3480308388
 21
48.8403272776
  0
LINE
  5
2D2
100
AcDbEntity
  8
0
100
AcDbLine
 62
7
  6
CONTINUOUS
 10
26.5583641128
 20
48.9617624881
 11
21.6122994885
 21
51.8173096293
  0
LINE
  5
2D3
100
AcDbEntity
  8
0
100
AcDbLine
 62
7
  6
CONTINUOUS
 10
23.0387945505
 20
51.1426869673
 11
27.9601767023
 21
48.3013899359
  0
LINE
  5
2D4
100
AcDbEntity
  8
0
100
AcDbLine
 62
7
  6
CONTINUOUS
 10
30.134512082
 20
48.5247083526
 11
38.7867144403
 21
43.5294681462
  0
LINE
  5
2D5
100
AcDbEntity
  8
0
100
AcDbLine
 62
7
  6
CONTINUOUS
 10
14.4526477833
 20
57.5784302903
 11
23.3330974476
 21
52.4514075426
  0
LINE
  5
2D6
100
AcDbEntity
  8
0
100
AcDbLine
 62
7
  6
CONTINUOUS
 10
37.7384008866
 20
17.3608710242
 11
38.7867149622
 21
17.9880244561
  0
LINE
  5
2D7
100
AcDbEntity
  8
0
100
AcDbLine
 62
7
  6
CONTINUOUS
 10
31.5458966092
 20
12.8779010735
 11
36.39513691
 21
15.7277451922
  0
LINE
  5
2D8
100
AcDbEntity
  8
0
100
AcDbLine
 62
7
  6
CONTINUOUS
 10
35.4129164226
 20
16.2948182113
 11
31.5458987764
 21
14.101524996
  0
LINE
  5
2D9
100
AcDbEntity
  8
0
100
AcDbLine
 62
7
  6
CONTINUOUS
 10
6.343060439
 20
52.9598987154
 11
6.1953140588
 21
52.9760230131
  0
LINE
  5
2DA
100
AcDbEntity
  8
0
100
AcDbLine
 62
7
  6
CONTINUOUS
 10
35.2150421437
 20
7.6808487528
 11
35.1542113602
 21
7.5442885076
  0
LINE
  5
2DB
100
AcDbEntity
  8
0
100
AcDbLine
 62
7
  6
CONTINUOUS
 10
36.57889621
 20
9.1980600176
 11
36.9324481027
 21
9.8176214655
  0
LINE
  5
2DC
100
AcDbEntity
  8
0
100
AcDbLine
 62
7
  6
CONTINUOUS
 10
37.3848489939
 20
10.4798927956
 11
37.7384008866
 21
11.0994542435
  0
LINE
  5
2DD
100
AcDbEntity
  8
0
100
AcDbLine
 62
7
  6
CONTINUOUS
 10
35.2150421437
 20
9.1830466627
 11
37.3848489939
 21
10.4798927956
  0
LINE
  5
2DE
100
AcDbEntity
  8
0
100
AcDbLine
 62
7
  6
CONTINUOUS
 10
35.2150421437
 20
8.3829142495
 11
36.57889621
 21
9.1980600176
  0
LINE
  5
2DF
100
AcDbEntity
  8
0
100
AcDbLine
 62
7
  6
CONTINUOUS
 10
30.7321340433
 20
5.0015125559
 11
35.2150421437
 21
7.6808487528
  0
LINE
  5
2E0
100
AcDbEntity
  8
0
100
AcDbLine
 62
7
  6
CONTINUOUS
 10
35.1542151088
 20
7.5442820955
 11
30.6720622594
 21
4.8653972955
  0
ARC
  5
2E1
100
AcDbEntity
  8
0
100
AcDbCircle
 62
7
  6
CONTINUOUS
 10
9.7545386347
 20
25.2444013149
 40
1.2904383409
100
AcDbArc
 50
171.1542378191
 51
173.9081838713
  0
ARC
  5
2E2
100
AcDbEntity
  8
0
100
AcDbCircle
 62
7
  6
CONTINUOUS
 10
12.4486266876
 20
23.6890040402
 40
1.290438341
100
AcDbArc
 50
171.1542378191
 51
173.9081838713
  0
ARC
  5
2E3
100
AcDbEntity
  8
0
100
AcDbCircle
 62
7
  6
CONTINUOUS
 10
15.1427147403
 20
22.1336067655
 40
1.2904383409
100
AcDbArc
 50
171.1542378191
 51
173.9081838714
  0
ARC
  5
2E4
100
AcDbEntity
  8
0
100
AcDbCircle
 62
7
  6
CONTINUOUS
 10
20.530890846
 20
19.022812216
 40
1.2904383409
100
AcDbArc
 50
171.1542378191
 51
173.9081838713
  0
ARC
  5
2E5
100
AcDbEntity
  8
0
100
AcDbCircle
 62
7
  6
CONTINUOUS
 10
23.2249788988
 20
17.4674149413
 40
1.2904383409
100
AcDbArc
 50
171.1542378191
 51
173.9081838713
  0
ARC
  5
2E6
100
AcDbEntity
  8
0
100
AcDbCircle
 62
7
  6
CONTINUOUS
 10
25.9190669516
 20
15.9120176666
 40
1.2904383409
100
AcDbArc
 50
171.1542378191
 51
173.9081838714
  0
ARC
  5
2E7
100
AcDbEntity
  8
0
100
AcDbCircle
 62
7
  6
CONTINUOUS
 10
9.6899105941
 20
26.2819635201
 40
0.92068427
100
AcDbArc
 50
44.760966581
 51
60.0607326813
  0
ARC
  5
2E8
100
AcDbEntity
  8
0
100
AcDbCircle
 62
7
  6
CONTINUOUS
 10
12.3839986469
 20
24.7265662453
 40
0.92068427
100
AcDbArc
 50
44.760966581
 51
60.0607326813
  0
ARC
  5
2E9
100
AcDbEntity
  8
0
100
AcDbCircle
 62
7
  6
CONTINUOUS
 10
15.0780866997
 20
23.1711689706
 40
0.92068427
100
AcDbArc
 50
44.760966581
 51
60.0607326813
  0
ARC
  5
2EA
100
AcDbEntity
  8
0
100
AcDbCircle
 62
7
  6
CONTINUOUS
 10
20.4662628053
 20
20.0603744212
 40
0.92068427
100
AcDbArc
 50
44.760966581
 51
60.0607326813
  0
ARC
  5
2EB
100
AcDbEntity
  8
0
100
AcDbCircle
 62
7
  6
CONTINUOUS
 10
23.1603508581
 20
18.5049771464
 40
0.92068427
100
AcDbArc
 50
44.760966581
 51
60.0607326813
  0
ARC
  5
2EC
100
AcDbEntity
  8
0
100
AcDbCircle
 62
7
  6
CONTINUOUS
 10
25.8544389109
 20
16.9495798717
 40
0.92068427
100
AcDbArc
 50
44.760966581
 51
60.0607326813
  0
ARC
  5
2ED
100
AcDbEntity
  8
0
100
AcDbCircle
 62
7
  6
CONTINUOUS
 10
9.7005686064
 20
26.2937748517
 40
0.9048000147
100
AcDbArc
 50
43.0168659187
 51
44.705127439
  0
ARC
  5
2EE
100
AcDbEntity
  8
0
100
AcDbCircle
 62
7
  6
CONTINUOUS
 10
12.3946566592
 20
24.738377577
 40
0.9048000147
100
AcDbArc
 50
43.0168659187
 51
44.705127439
  0
ARC
  5
2EF
100
AcDbEntity
  8
0
100
AcDbCircle
 62
7
  6
CONTINUOUS
 10
15.088744712
 20
23.1829803023
 40
0.9048000147
100
AcDbArc
 50
43.0168659187
 51
44.705127439
  0
ARC
  5
2F0
100
AcDbEntity
  8
0
100
AcDbCircle
 62
7
  6
CONTINUOUS
 10
20.4769208176
 20
20.0721857528
 40
0.9048000148
100
AcDbArc
 50
43.0168659187
 51
44.705127439
  0
ARC
  5
2F1
100
AcDbEntity
  8
0
100
AcDbCircle
 62
7
  6
CONTINUOUS
 10
23.1710088704
 20
18.5167884781
 40
0.9048000147
100
AcDbArc
 50
43.0168659187
 51
44.705127439
  0
ARC
  5
2F2
100
AcDbEntity
  8
0
100
AcDbCircle
 62
7
  6
CONTINUOUS
 10
25.8650969233
 20
16.9613912034
 40
0.9048000147
100
AcDbArc
 50
43.0168659187
 51
44.705127439
  0
ARC
  5
2F3
100
AcDbEntity
  8
0
100
AcDbCircle
 62
7
  6
CONTINUOUS
 10
11.6704897304
 20
24.0627155371
 40
0.9047820067
100
AcDbArc
 50
223.0168298392
 51
223.8789658241
  0
ARC
  5
2F4
100
AcDbEntity
  8
0
100
AcDbCircle
 62
7
  6
CONTINUOUS
 10
25.1409299945
 20
16.2857291636
 40
0.9047820068
100
AcDbArc
 50
223.0168298392
 51
223.878965824
  0
ARC
  5
2F5
100
AcDbEntity
  8
0
100
AcDbCircle
 62
7
  6
CONTINUOUS
 10
14.3645777832
 20
22.5073182624
 40
0.9047820067
100
AcDbArc
 50
223.0168298392
 51
223.8789658241
  0
ARC
  5
2F6
100
AcDbEntity
  8
0
100
AcDbCircle
 62
7
  6
CONTINUOUS
 10
8.9764016776
 20
25.6181128118
 40
0.9047820067
100
AcDbArc
 50
223.0168298392
 51
223.8789658241
  0
ARC
  5
2F7
100
AcDbEntity
  8
0
100
AcDbCircle
 62
7
  6
CONTINUOUS
 10
19.7527538888
 20
19.396523713
 40
0.9047820067
100
AcDbArc
 50
223.0168298393
 51
223.8789658241
  0
ARC
  5
2F8
100
AcDbEntity
  8
0
100
AcDbCircle
 62
7
  6
CONTINUOUS
 10
22.4468419416
 20
17.8411264382
 40
0.9047820066
100
AcDbArc
 50
223.0168298392
 51
223.8789658241
  0
SPLINE
  5
2F9
100
AcDbEntity
  8
0
100
AcDbSpline
 62
7
  6
CONTINUOUS
 70
0
 71
3
 72
11
 73
7
 74
0
 42
0.0000001
 43
0.0000001
 44
0.0000000001
 40
0.0
 40
0.0
 40
0.0
 40
0.0
 40
0.2277108482
 40
0.4759499305
 40
0.7366033644
 40
1.0
 40
1.0
 40
1.0
 40
1.0
 10
6.7717620765
 20
25.2992614851
 30
0.0
 10
6.7717620765
 20
25.3337223974
 30
0.0
 10
6.7795515361
 20
25.4058286649
 30
0.0
 10
6.809720795
 20
25.5135552757
 30
0.0
 10
6.8572830817
 20
25.6207231879
 30
0.0
 10
6.8991997287
 20
25.6883974686
 30
0.0
 10
6.9225240767
 20
25.7207225565
 30
0.0
  0
SPLINE
  5
2FA
100
AcDbEntity
  8
0
100
AcDbSpline
 62
7
  6
CONTINUOUS
 70
0
 71
3
 72
9
 73
5
 74
0
 42
0.0000001
 43
0.0000001
 44
0.0000000001
 40
0.0
 40
0.0
 40
0.0
 40
0.0
 40
0.2322171874
 40
1.0
 40
1.0
 40
1.0
 40
1.0
 10
6.7930838661
 20
25.1719414157
 30
0.0
 10
6.7894791961
 20
25.1812964074
 30
0.0
 10
6.7762595108
 20
25.2224704486
 30
0.0
 10
6.7717620765
 20
25.2661142265
 30
0.0
 10
6.7717620765
 20
25.2992614851
 30
0.0
  0
SPLINE
  5
2FB
100
AcDbEntity
  8
0
100
AcDbSpline
 62
7
  6
CONTINUOUS
 70
0
 71
3
 72
11
 73
7
 74
0
 42
0.0000001
 43
0.0000001
 44
0.0000000001
 40
0.0
 40
0.0
 40
0.0
 40
0.0
 40
0.2277108509
 40
0.4759499745
 40
0.7366034294
 40
1.0
 40
1.0
 40
1.0
 40
1.0
 10
7.2271294686
 20
22.5765169864
 30
0.0
 10
7.2271294686
 20
22.5971936014
 30
0.0
 10
7.2318031756
 20
22.6404575066
 30
0.0
 10
7.2499048369
 20
22.7050936795
 30
0.0
 10
7.2784423862
 20
22.7693945966
 30
0.0
 10
7.3035924819
 20
22.8099992817
 30
0.0
 10
7.31758719
 20
22.8293943517
 30
0.0
  0
SPLINE
  5
2FC
100
AcDbEntity
  8
0
100
AcDbSpline
 62
7
  6
CONTINUOUS
 70
0
 71
3
 72
11
 73
7
 74
0
 42
0.0000001
 43
0.0000001
 44
0.0000000001
 40
0.0
 40
0.0
 40
0.0
 40
0.0
 40
0.220255247
 40
0.4580409431
 40
0.7175124019
 40
1.0
 40
1.0
 40
1.0
 40
1.0
 10
7.2654923452
 20
22.4581687106
 30
0.0
 10
7.2591245501
 20
22.4649936137
 30
0.0
 10
7.2476957511
 20
22.4809494776
 30
0.0
 10
7.2357317826
 20
22.5091139893
 30
0.0
 10
7.2285824044
 20
22.541535054
 30
0.0
 10
7.2271294686
 20
22.5645453839
 30
0.0
 10
7.2271294686
 20
22.5765169864
 30
0.0
  0
SPLINE
  5
2FD
100
AcDbEntity
  8
0
100
AcDbSpline
 62
7
  6
CONTINUOUS
 70
0
 71
3
 72
11
 73
7
 74
0
 42
0.0000001
 43
0.0000001
 44
0.0000000001
 40
0.0
 40
0.0
 40
0.0
 40
0.0
 40
0.2663623875
 40
0.5241034763
 40
0.7696073545
 40
1.0
 40
1.0
 40
1.0
 40
1.0
 10
8.9664315607
 20
28.5533453029
 30
0.0
 10
8.9809988262
 20
28.5735337468
 30
0.0
 10
9.0114454029
 20
28.6120088429
 30
0.0
 10
9.061244454
 20
28.6640692224
 30
0.0
 10
9.1135430501
 20
28.7086039248
 30
0.0
 10
9.15057113
 20
28.7334885169
 30
0.0
 10
9.1692197414
 20
28.7442551088
 30
0.0
  0
SPLINE
  5
2FE
100
AcDbEntity
  8
0
100
AcDbSpline
 62
7
  6
CONTINUOUS
 70
0
 71
3
 72
27
 73
23
 74
0
 42
0.0000001
 43
0.0000001
 44
0.0000000001
 40
0.0
 40
0.0
 40
0.0
 40
0.0
 40
0.0275647337
 40
0.0552495573
 40
0.0831773235
 40
0.1114510946
 40
0.1693062294
 40
0.1990910894
 40
0.2294719116
 40
0.2919886688
 40
0.3567822567
 40
0.3899387278
 40
0.4234932779
 40
0.4914137125
 40
0.5598563819
 40
0.6280337555
 40
0.6951841313
 40
0.7606468123
 40
0.823940723
 40
0.8848293272
 40
0.943386928
 40
1.0
 40
1.0
 40
1.0
 40
1.0
 10
10.2080512296
 20
27.1494511649
 30
0.0
 10
10.2320895702
 20
27.1236868803
 30
0.0
 10
10.2773945174
 20
27.0692738597
 30
0.0
 10
10.3359442962
 20
26.9802678233
 30
0.0
 10
10.3846908005
 20
26.8844973424
 30
0.0
 10
10.4364850493
 20
26.7479620292
 30
0.0
 10
10.4665499984
 20
26.6016077838
 30
0.0
 10
10.4750135655
 20
26.4508112639
 30
0.0
 10
10.4690354937
 20
26.2938795154
 30
0.0
 10
10.4336161571
 20
26.0943053742
 30
0.0
 10
10.3641984926
 20
25.9002824465
 30
0.0
 10
10.2894079195
 20
25.7495716713
 30
0.0
 10
10.2012308615
 20
25.6016007096
 30
0.0
 10
10.0691905131
 20
25.4280423144
 30
0.0
 10
9.8816685144
 20
25.2445433456
 30
0.0
 10
9.6703277249
 20
25.0906682399
 30
0.0
 10
9.4419387599
 20
24.9714123277
 30
0.0
 10
9.2037679973
 20
24.8906543579
 30
0.0
 10
8.9634021817
 20
24.8511367553
 30
0.0
 10
8.7284809839
 20
24.8543589636
 30
0.0
 10
8.5067597233
 20
24.9005218715
 30
0.0
 10
8.3706677056
 20
24.960091557
 30
0.0
 10
8.3079927714
 20
24.9962761286
 30
0.0
  0
SPLINE
  5
2FF
100
AcDbEntity
  8
0
100
AcDbSpline
 62
7
  6
CONTINUOUS
 70
0
 71
3
 72
27
 73
23
 74
0
 42
0.0000001
 43
0.0000001
 44
0.0000000001
 40
0.0
 40
0.0
 40
0.0
 40
0.0
 40
0.0275647337
 40
0.0552495573
 40
0.0831773235
 40
0.1114510946
 40
0.1693062294
 40
0.1990910894
 40
0.2294719116
 40
0.2919886688
 40
0.3567822567
 40
0.3899387278
 40
0.4234932779
 40
0.4914137125
 40
0.5598563819
 40
0.6280337555
 40
0.6951841313
 40
0.7606468123
 40
0.823940723
 40
0.8848293272
 40
0.943386928
 40
1.0
 40
1.0
 40
1.0
 40
1.0
 10
12.9021392824
 20
25.5940538901
 30
0.0
 10
12.926177623
 20
25.5682896056
 30
0.0
 10
12.9714825702
 20
25.5138765849
 30
0.0
 10
13.030032349
 20
25.4248705486
 30
0.0
 10
13.0787788533
 20
25.3291000676
 30
0.0
 10
13.1305731021
 20
25.1925647545
 30
0.0
 10
13.1606380512
 20
25.046210509
 30
0.0
 10
13.1691016183
 20
24.8954139892
 30
0.0
 10
13.1631235465
 20
24.7384822406
 30
0.0
 10
13.12770421
 20
24.5389080995
 30
0.0
 10
13.0582865454
 20
24.3448851718
 30
0.0
 10
12.9834959723
 20
24.1941743965
 30
0.0
 10
12.8953189144
 20
24.0462034349
 30
0.0
 10
12.7632785659
 20
23.8726450396
 30
0.0
 10
12.5757565672
 20
23.6891460709
 30
0.0
 10
12.3644157777
 20
23.5352709652
 30
0.0
 10
12.1360268127
 20
23.416015053
 30
0.0
 10
11.8978560501
 20
23.3352570832
 30
0.0
 10
11.6574902345
 20
23.2957394806
 30
0.0
 10
11.4225690367
 20
23.2989616889
 30
0.0
 10
11.2008477761
 20
23.3451245967
 30
0.0
 10
11.0647557584
 20
23.4046942823
 30
0.0
 10
11.0020808242
 20
23.4408788538
 30
0.0
  0
SPLINE
  5
300
100
AcDbEntity
  8
0
100
AcDbSpline
 62
7
  6
CONTINUOUS
 70
0
 71
3
 72
27
 73
23
 74
0
 42
0.0000001
 43
0.0000001
 44
0.0000000001
 40
0.0
 40
0.0
 40
0.0
 40
0.0
 40
0.0275647337
 40
0.0552495573
 40
0.0831773235
 40
0.1114510946
 40
0.1693062294
 40
0.1990910894
 40
0.2294719116
 40
0.2919886688
 40
0.3567822567
 40
0.3899387278
 40
0.4234932779
 40
0.4914137125
 40
0.5598563819
 40
0.6280337555
 40
0.6951841313
 40
0.7606468123
 40
0.823940723
 40
0.8848293272
 40
0.943386928
 40
1.0
 40
1.0
 40
1.0
 40
1.0
 10
15.5962273352
 20
24.0386566154
 30
0.0
 10
15.6202656758
 20
24.0128923309
 30
0.0
 10
15.665570623
 20
23.9584793102
 30
0.0
 10
15.7241204018
 20
23.8694732739
 30
0.0
 10
15.7728669061
 20
23.7737027929
 30
0.0
 10
15.8246611549
 20
23.6371674797
 30
0.0
 10
15.8547261041
 20
23.4908132343
 30
0.0
 10
15.8631896712
 20
23.3400167144
 30
0.0
 10
15.8572115993
 20
23.1830849659
 30
0.0
 10
15.8217922628
 20
22.9835108248
 30
0.0
 10
15.7523745982
 20
22.789487897
 30
0.0
 10
15.6775840252
 20
22.6387771218
 30
0.0
 10
15.5894069672
 20
22.4908061602
 30
0.0
 10
15.4573666187
 20
22.3172477649
 30
0.0
 10
15.26984462
 20
22.1337487961
 30
0.0
 10
15.0585038305
 20
21.9798736905
 30
0.0
 10
14.8301148655
 20
21.8606177783
 30
0.0
 10
14.5919441029
 20
21.7798598084
 30
0.0
 10
14.3515782874
 20
21.7403422059
 30
0.0
 10
14.1166570895
 20
21.7435644142
 30
0.0
 10
13.8949358289
 20
21.789727322
 30
0.0
 10
13.7588438112
 20
21.8492970076
 30
0.0
 10
13.696168877
 20
21.8854815791
 30
0.0
  0
SPLINE
  5
301
100
AcDbEntity
  8
0
100
AcDbSpline
 62
7
  6
CONTINUOUS
 70
0
 71
3
 72
20
 73
16
 74
0
 42
0.0000001
 43
0.0000001
 44
0.0000000001
 40
0.0
 40
0.0
 40
0.0
 40
0.0
 40
0.0548534402
 40
0.1109918831
 40
0.168633787
 40
0.2279595352
 40
0.288992024
 40
0.3516422754
 40
0.4157251279
 40
0.4809686775
 40
0.6133689138
 40
0.7459568724
 40
0.8114245022
 40
0.8757975051
 40
1.0
 40
1.0
 40
1.0
 40
1.0
 10
10.1494073062
 20
27.0797869946
 30
0.0
 10
10.1056743475
 20
27.1050356589
 30
0.0
 10
10.0129299069
 20
27.1490784175
 30
0.0
 10
9.8636810554
 20
27.1937427279
 30
0.0
 10
9.7054709893
 20
27.2169300185
 30
0.0
 10
9.5411283867
 20
27.2183235878
 30
0.0
 10
9.3734359414
 20
27.1979705567
 30
0.0
 10
9.2052649104
 20
27.1562719742
 30
0.0
 10
9.039457989
 20
27.0939570176
 30
0.0
 10
8.82439884
 20
26.984387653
 30
0.0
 10
8.5774437676
 20
26.8029123028
 30
0.0
 10
8.3735577024
 20
26.5738993769
 30
0.0
 10
8.2437901346
 20
26.3695648317
 30
0.0
 10
8.1408267347
 20
26.1592491272
 30
0.0
 10
8.0914478925
 20
25.9904999979
 30
0.0
 10
8.0738706847
 20
25.8775180512
 30
0.0
  0
SPLINE
  5
302
100
AcDbEntity
  8
0
100
AcDbSpline
 62
7
  6
CONTINUOUS
 70
0
 71
3
 72
9
 73
5
 74
0
 42
0.0000001
 43
0.0000001
 44
0.0000000001
 40
0.0
 40
0.0
 40
0.0
 40
0.0
 40
0.502783592
 40
1.0
 40
1.0
 40
1.0
 40
1.0
 10
8.1371701179
 20
25.2781146392
 30
0.0
 10
8.1583995447
 20
25.2269291841
 30
0.0
 10
8.209523596
 20
25.1285619622
 30
0.0
 10
8.2774821612
 20
25.04092566
 30
0.0
 10
8.3148672891
 20
25.0008586239
 30
0.0
  0
SPLINE
  5
303
100
AcDbEntity
  8
0
100
AcDbSpline
 62
7
  6
CONTINUOUS
 70
0
 71
3
 72
20
 73
16
 74
0
 42
0.0000001
 43
0.0000001
 44
0.0000000001
 40
0.0
 40
0.0
 40
0.0
 40
0.0
 40
0.0548534402
 40
0.1109918831
 40
0.168633787
 40
0.2279595352
 40
0.288992024
 40
0.3516422754
 40
0.4157251279
 40
0.4809686775
 40
0.6133689138
 40
0.7459568724
 40
0.8114245022
 40
0.8757975051
 40
1.0
 40
1.0
 40
1.0
 40
1.0
 10
12.8434953591
 20
25.5243897199
 30
0.0
 10
12.7997624003
 20
25.5496383842
 30
0.0
 10
12.7070179597
 20
25.5936811428
 30
0.0
 10
12.5577691082
 20
25.6383454532
 30
0.0
 10
12.3995590421
 20
25.6615327438
 30
0.0
 10
12.2352164395
 20
25.6629263131
 30
0.0
 10
12.0675239942
 20
25.642573282
 30
0.0
 10
11.8993529632
 20
25.6008746994
 30
0.0
 10
11.7335460418
 20
25.5385597429
 30
0.0
 10
11.5184868928
 20
25.4289903783
 30
0.0
 10
11.2715318204
 20
25.2475150281
 30
0.0
 10
11.0676457552
 20
25.0185021022
 30
0.0
 10
10.9378781874
 20
24.814167557
 30
0.0
 10
10.8349147875
 20
24.6038518525
 30
0.0
 10
10.7855359453
 20
24.4351027232
 30
0.0
 10
10.7679587375
 20
24.3221207765
 30
0.0
  0
SPLINE
  5
304
100
AcDbEntity
  8
0
100
AcDbSpline
 62
7
  6
CONTINUOUS
 70
0
 71
3
 72
9
 73
5
 74
0
 42
0.0000001
 43
0.0000001
 44
0.0000000001
 40
0.0
 40
0.0
 40
0.0
 40
0.0
 40
0.502783592
 40
1.0
 40
1.0
 40
1.0
 40
1.0
 10
10.8312581707
 20
23.7227173645
 30
0.0
 10
10.8524875976
 20
23.6715319094
 30
0.0
 10
10.9036116488
 20
23.5731646875
 30
0.0
 10
10.971570214
 20
23.4855283853
 30
0.0
 10
11.0089553419
 20
23.4454613492
 30
0.0
  0
SPLINE
  5
305
100
AcDbEntity
  8
0
100
AcDbSpline
 62
7
  6
CONTINUOUS
 70
0
 71
3
 72
20
 73
16
 74
0
 42
0.0000001
 43
0.0000001
 44
0.0000000001
 40
0.0
 40
0.0
 40
0.0
 40
0.0
 40
0.0548534402
 40
0.1109918831
 40
0.168633787
 40
0.2279595352
 40
0.288992024
 40
0.3516422754
 40
0.4157251279
 40
0.4809686775
 40
0.6133689138
 40
0.7459568724
 40
0.8114245022
 40
0.8757975051
 40
1.0
 40
1.0
 40
1.0
 40
1.0
 10
15.5375834119
 20
23.9689924451
 30
0.0
 10
15.4938504531
 20
23.9942411095
 30
0.0
 10
15.4011060125
 20
24.0382838681
 30
0.0
 10
15.251857161
 20
24.0829481785
 30
0.0
 10
15.0936470949
 20
24.1061354691
 30
0.0
 10
14.9293044923
 20
24.1075290383
 30
0.0
 10
14.761612047
 20
24.0871760073
 30
0.0
 10
14.593441016
 20
24.0454774247
 30
0.0
 10
14.4276340946
 20
23.9831624682
 30
0.0
 10
14.2125749456
 20
23.8735931035
 30
0.0
 10
13.9656198733
 20
23.6921177533
 30
0.0
 10
13.761733808
 20
23.4631048274
 30
0.0
 10
13.6319662402
 20
23.2587702823
 30
0.0
 10
13.5290028403
 20
23.0484545778
 30
0.0
 10
13.4796239981
 20
22.8797054485
 30
0.0
 10
13.4620467903
 20
22.7667235018
 30
0.0
  0
SPLINE
  5
306
100
AcDbEntity
  8
0
100
AcDbSpline
 62
7
  6
CONTINUOUS
 70
0
 71
3
 72
9
 73
5
 74
0
 42
0.0000001
 43
0.0000001
 44
0.0000000001
 40
0.0
 40
0.0
 40
0.0
 40
0.0
 40
0.502783592
 40
1.0
 40
1.0
 40
1.0
 40
1.0
 10
13.5253462235
 20
22.1673200897
 30
0.0
 10
13.5465756504
 20
22.1161346347
 30
0.0
 10
13.5976997016
 20
22.0177674128
 30
0.0
 10
13.6656582669
 20
21.9301311106
 30
0.0
 10
13.7030433947
 20
21.8900640745
 30
0.0
  0
SPLINE
  5
307
100
AcDbEntity
  8
0
100
AcDbSpline
 62
7
  6
CONTINUOUS
 70
0
 71
3
 72
11
 73
7
 74
0
 42
0.0000001
 43
0.0000001
 44
0.0000000001
 40
0.0
 40
0.0
 40
0.0
 40
0.0
 40
0.2824874425
 40
0.541958822
 40
0.7797446989
 40
1.0
 40
1.0
 40
1.0
 40
1.0
 10
15.309393627
 20
17.9103251622
 30
0.0
 10
15.309393627
 20
17.8983536217
 30
0.0
 10
15.3108465412
 20
17.8753434081
 30
0.0
 10
15.317995864
 20
17.8429224915
 30
0.0
 10
15.3299596807
 20
17.8147580753
 30
0.0
 10
15.3413883309
 20
17.7988021943
 30
0.0
 10
15.3477560981
 20
17.7919773211
 30
0.0
  0
SPLINE
  5
308
100
AcDbEntity
  8
0
100
AcDbSpline
 62
7
  6
CONTINUOUS
 70
0
 71
3
 72
11
 73
7
 74
0
 42
0.0000001
 43
0.0000001
 44
0.0000000001
 40
0.0
 40
0.0
 40
0.0
 40
0.0
 40
0.2633965706
 40
0.5240500255
 40
0.7722891491
 40
1.0
 40
1.0
 40
1.0
 40
1.0
 10
15.3998513485
 20
18.1632025275
 30
0.0
 10
15.3858566403
 20
18.1438074575
 30
0.0
 10
15.3607065446
 20
18.1032027724
 30
0.0
 10
15.3321689953
 20
18.0389018554
 30
0.0
 10
15.314067334
 20
17.9742656824
 30
0.0
 10
15.309393627
 20
17.9310017773
 30
0.0
 10
15.309393627
 20
17.9103251622
 30
0.0
  0
SPLINE
  5
309
100
AcDbEntity
  8
0
100
AcDbSpline
 62
7
  6
CONTINUOUS
 70
0
 71
3
 72
27
 73
23
 74
0
 42
0.0000001
 43
0.0000001
 44
0.0000000001
 40
0.0
 40
0.0
 40
0.0
 40
0.0
 40
0.0275647337
 40
0.0552495573
 40
0.0831773235
 40
0.1114510946
 40
0.1693062294
 40
0.1990910894
 40
0.2294719116
 40
0.2919886688
 40
0.3567822567
 40
0.3899387278
 40
0.4234932779
 40
0.4914137125
 40
0.5598563819
 40
0.6280337555
 40
0.6951841313
 40
0.7606468123
 40
0.823940723
 40
0.8848293272
 40
0.943386928
 40
1.0
 40
1.0
 40
1.0
 40
1.0
 10
10.781776472
 20
23.6156514992
 30
0.0
 10
10.7577381314
 20
23.6414157838
 30
0.0
 10
10.7124331842
 20
23.6958288044
 30
0.0
 10
10.6538834054
 20
23.7848348408
 30
0.0
 10
10.6051369011
 20
23.8806053217
 30
0.0
 10
10.5533426523
 20
24.0171406349
 30
0.0
 10
10.5232777031
 20
24.1634948804
 30
0.0
 10
10.514814136
 20
24.3142914002
 30
0.0
 10
10.5207922079
 20
24.4712231487
 30
0.0
 10
10.5562115444
 20
24.6707972899
 30
0.0
 10
10.625629209
 20
24.8648202176
 30
0.0
 10
10.700419782
 20
25.0155309929
 30
0.0
 10
10.78859684
 20
25.1635019545
 30
0.0
 10
10.9206371885
 20
25.3370603497
 30
0.0
 10
11.1081591872
 20
25.5205593185
 30
0.0
 10
11.3194999767
 20
25.6744344242
 30
0.0
 10
11.5478889417
 20
25.7936903364
 30
0.0
 10
11.7860597043
 20
25.8744483062
 30
0.0
 10
12.0264255198
 20
25.9139659088
 30
0.0
 10
12.2613467177
 20
25.9107437005
 30
0.0
 10
12.4830679783
 20
25.8645807926
 30
0.0
 10
12.619159996
 20
25.8050111071
 30
0.0
 10
12.6818349302
 20
25.7688265355
 30
0.0
  0
SPLINE
  5
30A
100
AcDbEntity
  8
0
100
AcDbSpline
 62
7
  6
CONTINUOUS
 70
0
 71
3
 72
9
 73
5
 74
0
 42
0.0000001
 43
0.0000001
 44
0.0000000001
 40
0.0
 40
0.0
 40
0.0
 40
0.0
 40
0.2689917761
 40
1.0
 40
1.0
 40
1.0
 40
1.0
 10
14.8540262349
 20
20.6330696609
 30
0.0
 10
14.8540262349
 20
20.6214601444
 30
0.0
 10
14.8556119107
 20
20.5783580294
 30
0.0
 10
14.8640042049
 20
20.5351895512
 30
0.0
 10
14.8753480245
 20
20.5057495916
 30
0.0
  0
SPLINE
  5
30B
100
AcDbEntity
  8
0
100
AcDbSpline
 62
7
  6
CONTINUOUS
 70
0
 71
3
 72
11
 73
7
 74
0
 42
0.0000001
 43
0.0000001
 44
0.0000000001
 40
0.0
 40
0.0
 40
0.0
 40
0.0
 40
0.2633966356
 40
0.5240500695
 40
0.7722891518
 40
1.0
 40
1.0
 40
1.0
 40
1.0
 10
15.0047882352
 20
21.0545307323
 30
0.0
 10
14.9814638871
 20
21.0222056444
 30
0.0
 10
14.9395472402
 20
20.9545313638
 30
0.0
 10
14.8919849534
 20
20.8473634516
 30
0.0
 10
14.8618156945
 20
20.7396368407
 30
0.0
 10
14.8540262349
 20
20.6675305733
 30
0.0
 10
14.8540262349
 20
20.6330696609
 30
0.0
  0
SPLINE
  5
30C
100
AcDbEntity
  8
0
100
AcDbSpline
 62
7
  6
CONTINUOUS
 70
0
 71
3
 72
27
 73
23
 74
0
 42
0.0000001
 43
0.0000001
 44
0.0000000001
 40
0.0
 40
0.0
 40
0.0
 40
0.0
 40
0.0275647337
 40
0.0552495573
 40
0.0831773235
 40
0.1114510946
 40
0.1693062294
 40
0.1990910894
 40
0.2294719116
 40
0.2919886688
 40
0.3567822567
 40
0.3899387278
 40
0.4234932779
 40
0.4914137125
 40
0.5598563819
 40
0.6280337555
 40
0.6951841313
 40
0.7606468123
 40
0.823940723
 40
0.8848293272
 40
0.943386928
 40
1.0
 40
1.0
 40
1.0
 40
1.0
 10
13.4758645248
 20
22.0602542245
 30
0.0
 10
13.4518261842
 20
22.0860185091
 30
0.0
 10
13.406521237
 20
22.1404315297
 30
0.0
 10
13.3479714582
 20
22.2294375661
 30
0.0
 10
13.2992249539
 20
22.325208047
 30
0.0
 10
13.2474307051
 20
22.4617433602
 30
0.0
 10
13.217365756
 20
22.6080976056
 30
0.0
 10
13.2089021889
 20
22.7588941255
 30
0.0
 10
13.2148802607
 20
22.915825874
 30
0.0
 10
13.2502995972
 20
23.1154000152
 30
0.0
 10
13.3197172618
 20
23.3094229429
 30
0.0
 10
13.3945078349
 20
23.4601337181
 30
0.0
 10
13.4826848928
 20
23.6081046797
 30
0.0
 10
13.6147252413
 20
23.781663075
 30
0.0
 10
13.80224724
 20
23.9651620438
 30
0.0
 10
14.0135880295
 20
24.1190371495
 30
0.0
 10
14.2419769945
 20
24.2382930616
 30
0.0
 10
14.4801477571
 20
24.3190510315
 30
0.0
 10
14.7205135727
 20
24.3585686341
 30
0.0
 10
14.9554347705
 20
24.3553464258
 30
0.0
 10
15.1771560311
 20
24.3091835179
 30
0.0
 10
15.3132480488
 20
24.2496138324
 30
0.0
 10
15.375922983
 20
24.2134292608
 30
0.0
  0
SPLINE
  5
30D
100
AcDbEntity
  8
0
100
AcDbSpline
 62
7
  6
CONTINUOUS
 70
0
 71
3
 72
12
 73
8
 74
0
 42
0.0000001
 43
0.0000001
 44
0.0000000001
 40
0.0
 40
0.0
 40
0.0
 40
0.0
 40
0.2347779852
 40
0.4803846446
 40
0.6071097605
 40
0.7362251585
 40
1.0
 40
1.0
 40
1.0
 40
1.0
 10
9.4114102763
 20
20.8442336849
 30
0.0
 10
9.3851918111
 20
20.8299632002
 30
0.0
 10
9.33476361
 20
20.7946041031
 30
0.0
 10
9.2808092053
 20
20.7388446584
 30
0.0
 10
9.2424732285
 20
20.6878258027
 30
0.0
 10
9.2070825392
 20
20.6319774019
 30
0.0
 10
9.1852083106
 20
20.5868053078
 30
0.0
 10
9.1727448119
 20
20.5556699248
 30
0.0
  0
SPLINE
  5
30E
100
AcDbEntity
  8
0
100
AcDbSpline
 62
7
  6
CONTINUOUS
 70
0
 71
3
 72
27
 73
23
 74
0
 42
0.0000001
 43
0.0000001
 44
0.0000000001
 40
0.0
 40
0.0
 40
0.0
 40
0.0
 40
0.0275647337
 40
0.0552495573
 40
0.0831773235
 40
0.1114510946
 40
0.1693062294
 40
0.1990910894
 40
0.2294719116
 40
0.2919886688
 40
0.3567822567
 40
0.3899387278
 40
0.4234932779
 40
0.4914137125
 40
0.5598563819
 40
0.6280337555
 40
0.6951841313
 40
0.7606468123
 40
0.823940723
 40
0.8848293272
 40
0.943386928
 40
1.0
 40
1.0
 40
1.0
 40
1.0
 10
8.0876884192
 20
25.171048774
 30
0.0
 10
8.0636500785
 20
25.1968130585
 30
0.0
 10
8.0183451314
 20
25.2512260792
 30
0.0
 10
7.9597953526
 20
25.3402321155
 30
0.0
 10
7.9110488483
 20
25.4360025965
 30
0.0
 10
7.8592545994
 20
25.5725379096
 30
0.0
 10
7.8291896503
 20
25.7188921551
 30
0.0
 10
7.8207260832
 20
25.869688675
 30
0.0
 10
7.826704155
 20
26.0266204235
 30
0.0
 10
7.8621234916
 20
26.2261945646
 30
0.0
 10
7.9315411562
 20
26.4202174923
 30
0.0
 10
8.0063317292
 20
26.5709282676
 30
0.0
 10
8.0945087872
 20
26.7188992292
 30
0.0
 10
8.2265491357
 20
26.8924576245
 30
0.0
 10
8.4140711344
 20
27.0759565932
 30
0.0
 10
8.6254119239
 20
27.2298316989
 30
0.0
 10
8.8538008889
 20
27.3490876111
 30
0.0
 10
9.0919716515
 20
27.4298455809
 30
0.0
 10
9.332337467
 20
27.4693631835
 30
0.0
 10
9.5672586649
 20
27.4661409752
 30
0.0
 10
9.7889799255
 20
27.4199780674
 30
0.0
 10
9.9250719431
 20
27.3604083818
 30
0.0
 10
9.9877468774
 20
27.3242238103
 30
0.0
  0
SPLINE
  5
30F
100
AcDbEntity
  8
0
100
AcDbSpline
 62
7
  6
CONTINUOUS
 70
0
 71
3
 72
11
 73
7
 74
0
 42
0.0000001
 43
0.0000001
 44
0.0000000001
 40
0.0
 40
0.0
 40
0.0
 40
0.0
 40
0.2277108482
 40
0.4759499305
 40
0.7366033644
 40
1.0
 40
1.0
 40
1.0
 40
1.0
 10
17.5481142877
 20
19.0776723862
 30
0.0
 10
17.5481142877
 20
19.1121332985
 30
0.0
 10
17.5559037474
 20
19.184239566
 30
0.0
 10
17.5860730062
 20
19.2919661768
 30
0.0
 10
17.633635293
 20
19.399134089
 30
0.0
 10
17.6755519399
 20
19.4668083697
 30
0.0
 10
17.698876288
 20
19.4991334576
 30
0.0
  0
SPLINE
  5
310
100
AcDbEntity
  8
0
100
AcDbSpline
 62
7
  6
CONTINUOUS
 70
0
 71
3
 72
9
 73
5
 74
0
 42
0.0000001
 43
0.0000001
 44
0.0000000001
 40
0.0
 40
0.0
 40
0.0
 40
0.0
 40
0.2322171874
 40
1.0
 40
1.0
 40
1.0
 40
1.0
 10
17.5694360774
 20
18.9503523168
 30
0.0
 10
17.5658314074
 20
18.9597073086
 30
0.0
 10
17.5526117221
 20
19.0008813497
 30
0.0
 10
17.5481142877
 20
19.0445251277
 30
0.0
 10
17.5481142877
 20
19.0776723862
 30
0.0
  0
SPLINE
  5
311
100
AcDbEntity
  8
0
100
AcDbSpline
 62
7
  6
CONTINUOUS
 70
0
 71
3
 72
11
 73
7
 74
0
 42
0.0000001
 43
0.0000001
 44
0.0000000001
 40
0.0
 40
0.0
 40
0.0
 40
0.0
 40
0.2277108509
 40
0.4759499745
 40
0.7366034294
 40
1.0
 40
1.0
 40
1.0
 40
1.0
 10
18.0034816798
 20
16.3549278875
 30
0.0
 10
18.0034816798
 20
16.3756045026
 30
0.0
 10
18.0081553869
 20
16.4188684077
 30
0.0
 10
18.0262570481
 20
16.4835045807
 30
0.0
 10
18.0547945974
 20
16.5478054977
 30
0.0
 10
18.0799446931
 20
16.5884101828
 30
0.0
 10
18.0939394013
 20
16.6078052528
 30
0.0
  0
SPLINE
  5
312
100
AcDbEntity
  8
0
100
AcDbSpline
 62
7
  6
CONTINUOUS
 70
0
 71
3
 72
11
 73
7
 74
0
 42
0.0000001
 43
0.0000001
 44
0.0000000001
 40
0.0
 40
0.0
 40
0.0
 40
0.0
 40
0.220255247
 40
0.4580409431
 40
0.7175124019
 40
1.0
 40
1.0
 40
1.0
 40
1.0
 10
18.0418445565
 20
16.2365796117
 30
0.0
 10
18.0354767614
 20
16.2434045148
 30
0.0
 10
18.0240479623
 20
16.2593603787
 30
0.0
 10
18.0120839939
 20
16.2875248904
 30
0.0
 10
18.0049346156
 20
16.3199459551
 30
0.0
 10
18.0034816798
 20
16.342956285
 30
0.0
 10
18.0034816798
 20
16.3549278875
 30
0.0
  0
SPLINE
  5
313
100
AcDbEntity
  8
0
100
AcDbSpline
 62
7
  6
CONTINUOUS
 70
0
 71
3
 72
11
 73
7
 74
0
 42
0.0000001
 43
0.0000001
 44
0.0000000001
 40
0.0
 40
0.0
 40
0.0
 40
0.0
 40
0.2663623875
 40
0.5241034763
 40
0.7696073545
 40
1.0
 40
1.0
 40
1.0
 40
1.0
 10
19.742783772
 20
22.3317562041
 30
0.0
 10
19.7573510375
 20
22.3519446479
 30
0.0
 10
19.7877976142
 20
22.390419744
 30
0.0
 10
19.8375966652
 20
22.4424801235
 30
0.0
 10
19.8898952614
 20
22.4870148259
 30
0.0
 10
19.9269233412
 20
22.511899418
 30
0.0
 10
19.9455719526
 20
22.5226660099
 30
0.0
  0
SPLINE
  5
314
100
AcDbEntity
  8
0
100
AcDbSpline
 62
7
  6
CONTINUOUS
 70
0
 71
3
 72
27
 73
23
 74
0
 42
0.0000001
 43
0.0000001
 44
0.0000000001
 40
0.0
 40
0.0
 40
0.0
 40
0.0
 40
0.0275647337
 40
0.0552495573
 40
0.0831773235
 40
0.1114510946
 40
0.1693062294
 40
0.1990910894
 40
0.2294719116
 40
0.2919886688
 40
0.3567822567
 40
0.3899387278
 40
0.4234932779
 40
0.4914137125
 40
0.5598563819
 40
0.6280337555
 40
0.6951841313
 40
0.7606468123
 40
0.823940723
 40
0.8848293272
 40
0.943386928
 40
1.0
 40
1.0
 40
1.0
 40
1.0
 10
20.9844034408
 20
20.927862066
 30
0.0
 10
21.0084417815
 20
20.9020977814
 30
0.0
 10
21.0537467286
 20
20.8476847608
 30
0.0
 10
21.1122965074
 20
20.7586787244
 30
0.0
 10
21.1610430117
 20
20.6629082435
 30
0.0
 10
21.2128372606
 20
20.5263729303
 30
0.0
 10
21.2429022097
 20
20.3800186849
 30
0.0
 10
21.2513657768
 20
20.229222165
 30
0.0
 10
21.245387705
 20
20.0722904165
 30
0.0
 10
21.2099683684
 20
19.8727162753
 30
0.0
 10
21.1405507039
 20
19.6786933476
 30
0.0
 10
21.0657601308
 20
19.5279825724
 30
0.0
 10
20.9775830728
 20
19.3800116108
 30
0.0
 10
20.8455427243
 20
19.2064532155
 30
0.0
 10
20.6580207257
 20
19.0229542467
 30
0.0
 10
20.4466799361
 20
18.869079141
 30
0.0
 10
20.2182909712
 20
18.7498232289
 30
0.0
 10
19.9801202085
 20
18.669065259
 30
0.0
 10
19.739754393
 20
18.6295476564
 30
0.0
 10
19.5048331951
 20
18.6327698647
 30
0.0
 10
19.2831119345
 20
18.6789327726
 30
0.0
 10
19.1470199169
 20
18.7385024581
 30
0.0
 10
19.0843449826
 20
18.7746870297
 30
0.0
  0
SPLINE
  5
315
100
AcDbEntity
  8
0
100
AcDbSpline
 62
7
  6
CONTINUOUS
 70
0
 71
3
 72
27
 73
23
 74
0
 42
0.0000001
 43
0.0000001
 44
0.0000000001
 40
0.0
 40
0.0
 40
0.0
 40
0.0
 40
0.0275647337
 40
0.0552495573
 40
0.0831773235
 40
0.1114510946
 40
0.1693062294
 40
0.1990910894
 40
0.2294719116
 40
0.2919886688
 40
0.3567822567
 40
0.3899387278
 40
0.4234932779
 40
0.4914137125
 40
0.5598563819
 40
0.6280337555
 40
0.6951841313
 40
0.7606468123
 40
0.823940723
 40
0.8848293272
 40
0.943386928
 40
1.0
 40
1.0
 40
1.0
 40
1.0
 10
23.6784914936
 20
19.3724647913
 30
0.0
 10
23.7025298343
 20
19.3467005067
 30
0.0
 10
23.7478347814
 20
19.292287486
 30
0.0
 10
23.8063845602
 20
19.2032814497
 30
0.0
 10
23.8551310645
 20
19.1075109688
 30
0.0
 10
23.9069253134
 20
18.9709756556
 30
0.0
 10
23.9369902625
 20
18.8246214101
 30
0.0
 10
23.9454538296
 20
18.6738248903
 30
0.0
 10
23.9394757578
 20
18.5168931418
 30
0.0
 10
23.9040564212
 20
18.3173190006
 30
0.0
 10
23.8346387567
 20
18.1232960729
 30
0.0
 10
23.7598481836
 20
17.9725852976
 30
0.0
 10
23.6716711256
 20
17.824614336
 30
0.0
 10
23.5396307771
 20
17.6510559408
 30
0.0
 10
23.3521087785
 20
17.467556972
 30
0.0
 10
23.1407679889
 20
17.3136818663
 30
0.0
 10
22.912379024
 20
17.1944259541
 30
0.0
 10
22.6742082613
 20
17.1136679843
 30
0.0
 10
22.4338424458
 20
17.0741503817
 30
0.0
 10
22.198921248
 20
17.07737259
 30
0.0
 10
21.9771999873
 20
17.1235354978
 30
0.0
 10
21.8411079697
 20
17.1831051834
 30
0.0
 10
21.7784330355
 20
17.2192897549
 30
0.0
  0
SPLINE
  5
316
100
AcDbEntity
  8
0
100
AcDbSpline
 62
7
  6
CONTINUOUS
 70
0
 71
3
 72
27
 73
23
 74
0
 42
0.0000001
 43
0.0000001
 44
0.0000000001
 40
0.0
 40
0.0
 40
0.0
 40
0.0
 40
0.0275647337
 40
0.0552495573
 40
0.0831773235
 40
0.1114510946
 40
0.1693062294
 40
0.1990910894
 40
0.2294719116
 40
0.2919886688
 40
0.3567822567
 40
0.3899387278
 40
0.4234932779
 40
0.4914137125
 40
0.5598563819
 40
0.6280337555
 40
0.6951841313
 40
0.7606468123
 40
0.823940723
 40
0.8848293272
 40
0.943386928
 40
1.0
 40
1.0
 40
1.0
 40
1.0
 10
26.3725795464
 20
17.8170675165
 30
0.0
 10
26.3966178871
 20
17.791303232
 30
0.0
 10
26.4419228342
 20
17.7368902113
 30
0.0
 10
26.500472613
 20
17.647884175
 30
0.0
 10
26.5492191173
 20
17.552113694
 30
0.0
 10
26.6010133662
 20
17.4155783809
 30
0.0
 10
26.6310783153
 20
17.2692241354
 30
0.0
 10
26.6395418824
 20
17.1184276155
 30
0.0
 10
26.6335638106
 20
16.961495867
 30
0.0
 10
26.598144474
 20
16.7619217259
 30
0.0
 10
26.5287268095
 20
16.5678987982
 30
0.0
 10
26.4539362364
 20
16.4171880229
 30
0.0
 10
26.3657591784
 20
16.2692170613
 30
0.0
 10
26.2337188299
 20
16.095658666
 30
0.0
 10
26.0461968313
 20
15.9121596973
 30
0.0
 10
25.8348560417
 20
15.7582845916
 30
0.0
 10
25.6064670768
 20
15.6390286794
 30
0.0
 10
25.3682963141
 20
15.5582707095
 30
0.0
 10
25.1279304986
 20
15.518753107
 30
0.0
 10
24.8930093008
 20
15.5219753153
 30
0.0
 10
24.6712880401
 20
15.5681382231
 30
0.0
 10
24.5351960225
 20
15.6277079087
 30
0.0
 10
24.4725210883
 20
15.6638924802
 30
0.0
  0
SPLINE
  5
317
100
AcDbEntity
  8
0
100
AcDbSpline
 62
7
  6
CONTINUOUS
 70
0
 71
3
 72
20
 73
16
 74
0
 42
0.0000001
 43
0.0000001
 44
0.0000000001
 40
0.0
 40
0.0
 40
0.0
 40
0.0
 40
0.0548534402
 40
0.1109918831
 40
0.168633787
 40
0.2279595352
 40
0.288992024
 40
0.3516422754
 40
0.4157251279
 40
0.4809686775
 40
0.6133689138
 40
0.7459568724
 40
0.8114245022
 40
0.8757975051
 40
1.0
 40
1.0
 40
1.0
 40
1.0
 10
20.9257595175
 20
20.8581978957
 30
0.0
 10
20.8820265587
 20
20.88344656
 30
0.0
 10
20.7892821181
 20
20.9274893187
 30
0.0
 10
20.6400332667
 20
20.972153629
 30
0.0
 10
20.4818232005
 20
20.9953409196
 30
0.0
 10
20.3174805979
 20
20.9967344889
 30
0.0
 10
20.1497881526
 20
20.9763814578
 30
0.0
 10
19.9816171216
 20
20.9346828753
 30
0.0
 10
19.8158102002
 20
20.8723679187
 30
0.0
 10
19.6007510513
 20
20.7627985541
 30
0.0
 10
19.3537959789
 20
20.5813232039
 30
0.0
 10
19.1499099136
 20
20.352310278
 30
0.0
 10
19.0201423458
 20
20.1479757329
 30
0.0
 10
18.9171789459
 20
19.9376600283
 30
0.0
 10
18.8678001037
 20
19.768910899
 30
0.0
 10
18.8502228959
 20
19.6559289523
 30
0.0
  0
SPLINE
  5
318
100
AcDbEntity
  8
0
100
AcDbSpline
 62
7
  6
CONTINUOUS
 70
0
 71
3
 72
9
 73
5
 74
0
 42
0.0000001
 43
0.0000001
 44
0.0000000001
 40
0.0
 40
0.0
 40
0.0
 40
0.0
 40
0.502783592
 40
1.0
 40
1.0
 40
1.0
 40
1.0
 10
18.9135223291
 20
19.0565255403
 30
0.0
 10
18.934751756
 20
19.0053400852
 30
0.0
 10
18.9858758073
 20
18.9069728633
 30
0.0
 10
19.0538343725
 20
18.8193365611
 30
0.0
 10
19.0912195004
 20
18.779269525
 30
0.0
  0
SPLINE
  5
319
100
AcDbEntity
  8
0
100
AcDbSpline
 62
7
  6
CONTINUOUS
 70
0
 71
3
 72
20
 73
16
 74
0
 42
0.0000001
 43
0.0000001
 44
0.0000000001
 40
0.0
 40
0.0
 40
0.0
 40
0.0
 40
0.0548534402
 40
0.1109918831
 40
0.168633787
 40
0.2279595352
 40
0.288992024
 40
0.3516422754
 40
0.4157251279
 40
0.4809686775
 40
0.6133689138
 40
0.7459568724
 40
0.8114245022
 40
0.8757975051
 40
1.0
 40
1.0
 40
1.0
 40
1.0
 10
23.6198475703
 20
19.302800621
 30
0.0
 10
23.5761146115
 20
19.3280492853
 30
0.0
 10
23.4833701709
 20
19.3720920439
 30
0.0
 10
23.3341213195
 20
19.4167563543
 30
0.0
 10
23.1759112534
 20
19.4399436449
 30
0.0
 10
23.0115686507
 20
19.4413372142
 30
0.0
 10
22.8438762054
 20
19.4209841831
 30
0.0
 10
22.6757051744
 20
19.3792856005
 30
0.0
 10
22.509898253
 20
19.316970644
 30
0.0
 10
22.2948391041
 20
19.2074012794
 30
0.0
 10
22.0478840317
 20
19.0259259292
 30
0.0
 10
21.8439979664
 20
18.7969130033
 30
0.0
 10
21.7142303986
 20
18.5925784581
 30
0.0
 10
21.6112669987
 20
18.3822627536
 30
0.0
 10
21.5618881565
 20
18.2135136243
 30
0.0
 10
21.5443109488
 20
18.1005316776
 30
0.0
  0
SPLINE
  5
31A
100
AcDbEntity
  8
0
100
AcDbSpline
 62
7
  6
CONTINUOUS
 70
0
 71
3
 72
9
 73
5
 74
0
 42
0.0000001
 43
0.0000001
 44
0.0000000001
 40
0.0
 40
0.0
 40
0.0
 40
0.0
 40
0.502783592
 40
1.0
 40
1.0
 40
1.0
 40
1.0
 10
21.6076103819
 20
17.5011282656
 30
0.0
 10
21.6288398088
 20
17.4499428105
 30
0.0
 10
21.6799638601
 20
17.3515755886
 30
0.0
 10
21.7479224253
 20
17.2639392864
 30
0.0
 10
21.7853075532
 20
17.2238722503
 30
0.0
  0
SPLINE
  5
31B
100
AcDbEntity
  8
0
100
AcDbSpline
 62
7
  6
CONTINUOUS
 70
0
 71
3
 72
20
 73
16
 74
0
 42
0.0000001
 43
0.0000001
 44
0.0000000001
 40
0.0
 40
0.0
 40
0.0
 40
0.0
 40
0.0548534402
 40
0.1109918831
 40
0.168633787
 40
0.2279595352
 40
0.288992024
 40
0.3516422754
 40
0.4157251279
 40
0.4809686775
 40
0.6133689138
 40
0.7459568724
 40
0.8114245022
 40
0.8757975051
 40
1.0
 40
1.0
 40
1.0
 40
1.0
 10
26.3139356231
 20
17.7474033462
 30
0.0
 10
26.2702026643
 20
17.7726520106
 30
0.0
 10
26.1774582237
 20
17.8166947692
 30
0.0
 10
26.0282093723
 20
17.8613590796
 30
0.0
 10
25.8699993062
 20
17.8845463702
 30
0.0
 10
25.7056567035
 20
17.8859399394
 30
0.0
 10
25.5379642582
 20
17.8655869084
 30
0.0
 10
25.3697932272
 20
17.8238883258
 30
0.0
 10
25.2039863058
 20
17.7615733693
 30
0.0
 10
24.9889271569
 20
17.6520040046
 30
0.0
 10
24.7419720845
 20
17.4705286545
 30
0.0
 10
24.5380860192
 20
17.2415157285
 30
0.0
 10
24.4083184515
 20
17.0371811834
 30
0.0
 10
24.3053550515
 20
16.8268654789
 30
0.0
 10
24.2559762094
 20
16.6581163496
 30
0.0
 10
24.2383990016
 20
16.5451344029
 30
0.0
  0
SPLINE
  5
31C
100
AcDbEntity
  8
0
100
AcDbSpline
 62
7
  6
CONTINUOUS
 70
0
 71
3
 72
9
 73
5
 74
0
 42
0.0000001
 43
0.0000001
 44
0.0000000001
 40
0.0
 40
0.0
 40
0.0
 40
0.0
 40
0.502783592
 40
1.0
 40
1.0
 40
1.0
 40
1.0
 10
24.3016984348
 20
15.9457309909
 30
0.0
 10
24.3229278616
 20
15.8945455358
 30
0.0
 10
24.3740519129
 20
15.7961783139
 30
0.0
 10
24.4420104781
 20
15.7085420117
 30
0.0
 10
24.479395606
 20
15.6684749756
 30
0.0
  0
SPLINE
  5
31D
100
AcDbEntity
  8
0
100
AcDbSpline
 62
7
  6
CONTINUOUS
 70
0
 71
3
 72
11
 73
7
 74
0
 42
0.0000001
 43
0.0000001
 44
0.0000000001
 40
0.0
 40
0.0
 40
0.0
 40
0.0
 40
0.2824874425
 40
0.541958822
 40
0.7797446989
 40
1.0
 40
1.0
 40
1.0
 40
1.0
 10
26.0857458383
 20
11.6887360633
 30
0.0
 10
26.0857458383
 20
11.6767645228
 30
0.0
 10
26.0871987524
 20
11.6537543092
 30
0.0
 10
26.0943480752
 20
11.6213333926
 30
0.0
 10
26.106311892
 20
11.5931689764
 30
0.0
 10
26.1177405422
 20
11.5772130954
 30
0.0
 10
26.1241083094
 20
11.5703882222
 30
0.0
  0
SPLINE
  5
31E
100
AcDbEntity
  8
0
100
AcDbSpline
 62
7
  6
CONTINUOUS
 70
0
 71
3
 72
11
 73
7
 74
0
 42
0.0000001
 43
0.0000001
 44
0.0000000001
 40
0.0
 40
0.0
 40
0.0
 40
0.0
 40
0.2633965706
 40
0.5240500255
 40
0.7722891491
 40
1.0
 40
1.0
 40
1.0
 40
1.0
 10
26.1762035597
 20
11.9416134286
 30
0.0
 10
26.1622088515
 20
11.9222183586
 30
0.0
 10
26.1370587558
 20
11.8816136735
 30
0.0
 10
26.1085212066
 20
11.8173127565
 30
0.0
 10
26.0904195453
 20
11.7526765835
 30
0.0
 10
26.0857458383
 20
11.7094126784
 30
0.0
 10
26.0857458383
 20
11.6887360633
 30
0.0
  0
SPLINE
  5
31F
100
AcDbEntity
  8
0
100
AcDbSpline
 62
7
  6
CONTINUOUS
 70
0
 71
3
 72
27
 73
23
 74
0
 42
0.0000001
 43
0.0000001
 44
0.0000000001
 40
0.0
 40
0.0
 40
0.0
 40
0.0
 40
0.0275647337
 40
0.0552495573
 40
0.0831773235
 40
0.1114510946
 40
0.1693062294
 40
0.1990910894
 40
0.2294719116
 40
0.2919886688
 40
0.3567822567
 40
0.3899387278
 40
0.4234932779
 40
0.4914137125
 40
0.5598563819
 40
0.6280337555
 40
0.6951841313
 40
0.7606468123
 40
0.823940723
 40
0.8848293272
 40
0.943386928
 40
1.0
 40
1.0
 40
1.0
 40
1.0
 10
21.5581286832
 20
17.3940624003
 30
0.0
 10
21.5340903426
 20
17.4198266849
 30
0.0
 10
21.4887853954
 20
17.4742397056
 30
0.0
 10
21.4302356167
 20
17.5632457419
 30
0.0
 10
21.3814891123
 20
17.6590162228
 30
0.0
 10
21.3296948635
 20
17.795551536
 30
0.0
 10
21.2996299144
 20
17.9419057815
 30
0.0
 10
21.2911663473
 20
18.0927023013
 30
0.0
 10
21.2971444191
 20
18.2496340498
 30
0.0
 10
21.3325637557
 20
18.449208191
 30
0.0
 10
21.4019814202
 20
18.6432311187
 30
0.0
 10
21.4767719933
 20
18.793941894
 30
0.0
 10
21.5649490513
 20
18.9419128556
 30
0.0
 10
21.6969893997
 20
19.1154712508
 30
0.0
 10
21.8845113984
 20
19.2989702196
 30
0.0
 10
22.095852188
 20
19.4528453253
 30
0.0
 10
22.3242411529
 20
19.5721012375
 30
0.0
 10
22.5624119155
 20
19.6528592073
 30
0.0
 10
22.8027777311
 20
19.6923768099
 30
0.0
 10
23.0376989289
 20
19.6891546016
 30
0.0
 10
23.2594201895
 20
19.6429916938
 30
0.0
 10
23.3955122072
 20
19.5834220082
 30
0.0
 10
23.4581871414
 20
19.5472374367
 30
0.0
  0
SPLINE
  5
320
100
AcDbEntity
  8
0
100
AcDbSpline
 62
7
  6
CONTINUOUS
 70
0
 71
3
 72
9
 73
5
 74
0
 42
0.0000001
 43
0.0000001
 44
0.0000000001
 40
0.0
 40
0.0
 40
0.0
 40
0.0
 40
0.2689917761
 40
1.0
 40
1.0
 40
1.0
 40
1.0
 10
25.6303784462
 20
14.411480562
 30
0.0
 10
25.6303784462
 20
14.3998710455
 30
0.0
 10
25.6319641219
 20
14.3567689305
 30
0.0
 10
25.6403564161
 20
14.3136004523
 30
0.0
 10
25.6517002358
 20
14.2841604927
 30
0.0
  0
SPLINE
  5
321
100
AcDbEntity
  8
0
100
AcDbSpline
 62
7
  6
CONTINUOUS
 70
0
 71
3
 72
11
 73
7
 74
0
 42
0.0000001
 43
0.0000001
 44
0.0000000001
 40
0.0
 40
0.0
 40
0.0
 40
0.0
 40
0.2633966356
 40
0.5240500695
 40
0.7722891518
 40
1.0
 40
1.0
 40
1.0
 40
1.0
 10
25.7811404464
 20
14.8329416335
 30
0.0
 10
25.7578160983
 20
14.8006165456
 30
0.0
 10
25.7158994514
 20
14.7329422649
 30
0.0
 10
25.6683371646
 20
14.6257743527
 30
0.0
 10
25.6381679058
 20
14.5180477418
 30
0.0
 10
25.6303784462
 20
14.4459414744
 30
0.0
 10
25.6303784462
 20
14.411480562
 30
0.0
  0
SPLINE
  5
322
100
AcDbEntity
  8
0
100
AcDbSpline
 62
7
  6
CONTINUOUS
 70
0
 71
3
 72
27
 73
23
 74
0
 42
0.0000001
 43
0.0000001
 44
0.0000000001
 40
0.0
 40
0.0
 40
0.0
 40
0.0
 40
0.0275647337
 40
0.0552495573
 40
0.0831773235
 40
0.1114510946
 40
0.1693062294
 40
0.1990910894
 40
0.2294719116
 40
0.2919886688
 40
0.3567822567
 40
0.3899387278
 40
0.4234932779
 40
0.4914137125
 40
0.5598563819
 40
0.6280337555
 40
0.6951841313
 40
0.7606468123
 40
0.823940723
 40
0.8848293272
 40
0.943386928
 40
1.0
 40
1.0
 40
1.0
 40
1.0
 10
24.2522167361
 20
15.8386651256
 30
0.0
 10
24.2281783954
 20
15.8644294102
 30
0.0
 10
24.1828734482
 20
15.9188424308
 30
0.0
 10
24.1243236695
 20
16.0078484672
 30
0.0
 10
24.0755771652
 20
16.1036189481
 30
0.0
 10
24.0237829163
 20
16.2401542613
 30
0.0
 10
23.9937179672
 20
16.3865085067
 30
0.0
 10
23.9852544001
 20
16.5373050266
 30
0.0
 10
23.9912324719
 20
16.6942367751
 30
0.0
 10
24.0266518085
 20
16.8938109163
 30
0.0
 10
24.096069473
 20
17.087833844
 30
0.0
 10
24.1708600461
 20
17.2385446192
 30
0.0
 10
24.2590371041
 20
17.3865155808
 30
0.0
 10
24.3910774525
 20
17.5600739761
 30
0.0
 10
24.5785994512
 20
17.7435729449
 30
0.0
 10
24.7899402408
 20
17.8974480506
 30
0.0
 10
25.0183292057
 20
18.0167039627
 30
0.0
 10
25.2564999683
 20
18.0974619326
 30
0.0
 10
25.4968657839
 20
18.1369795352
 30
0.0
 10
25.7317869817
 20
18.1337573269
 30
0.0
 10
25.9535082423
 20
18.087594419
 30
0.0
 10
26.08960026
 20
18.0280247335
 30
0.0
 10
26.1522751942
 20
17.9918401619
 30
0.0
  0
SPLINE
  5
323
100
AcDbEntity
  8
0
100
AcDbSpline
 62
7
  6
CONTINUOUS
 70
0
 71
3
 72
12
 73
8
 74
0
 42
0.0000001
 43
0.0000001
 44
0.0000000001
 40
0.0
 40
0.0
 40
0.0
 40
0.0
 40
0.2347779852
 40
0.4803846446
 40
0.6071097605
 40
0.7362251585
 40
1.0
 40
1.0
 40
1.0
 40
1.0
 10
20.1877624875
 20
14.622644586
 30
0.0
 10
20.1615440224
 20
14.6083741013
 30
0.0
 10
20.1111158212
 20
14.5730150042
 30
0.0
 10
20.0571614166
 20
14.5172555595
 30
0.0
 10
20.0188254397
 20
14.4662367038
 30
0.0
 10
19.9834347505
 20
14.410388303
 30
0.0
 10
19.9615605219
 20
14.3652162089
 30
0.0
 10
19.9490970231
 20
14.3340808259
 30
0.0
  0
SPLINE
  5
324
100
AcDbEntity
  8
0
100
AcDbSpline
 62
7
  6
CONTINUOUS
 70
0
 71
3
 72
27
 73
23
 74
0
 42
0.0000001
 43
0.0000001
 44
0.0000000001
 40
0.0
 40
0.0
 40
0.0
 40
0.0
 40
0.0275647337
 40
0.0552495573
 40
0.0831773235
 40
0.1114510946
 40
0.1693062294
 40
0.1990910894
 40
0.2294719116
 40
0.2919886688
 40
0.3567822567
 40
0.3899387278
 40
0.4234932779
 40
0.4914137125
 40
0.5598563819
 40
0.6280337555
 40
0.6951841313
 40
0.7606468123
 40
0.823940723
 40
0.8848293272
 40
0.943386928
 40
1.0
 40
1.0
 40
1.0
 40
1.0
 10
18.8640406304
 20
18.9494596751
 30
0.0
 10
18.8400022898
 20
18.9752239596
 30
0.0
 10
18.7946973426
 20
19.0296369803
 30
0.0
 10
18.7361475639
 20
19.1186430166
 30
0.0
 10
18.6874010595
 20
19.2144134976
 30
0.0
 10
18.6356068107
 20
19.3509488107
 30
0.0
 10
18.6055418616
 20
19.4973030562
 30
0.0
 10
18.5970782945
 20
19.6480995761
 30
0.0
 10
18.6030563663
 20
19.8050313246
 30
0.0
 10
18.6384757029
 20
20.0046054657
 30
0.0
 10
18.7078933674
 20
20.1986283934
 30
0.0
 10
18.7826839405
 20
20.3493391687
 30
0.0
 10
18.8708609985
 20
20.4973101303
 30
0.0
 10
19.0029013469
 20
20.6708685256
 30
0.0
 10
19.1904233456
 20
20.8543674943
 30
0.0
 10
19.4017641351
 20
21.0082426
 30
0.0
 10
19.6301531001
 20
21.1274985122
 30
0.0
 10
19.8683238627
 20
21.2082564821
 30
0.0
 10
20.1086896783
 20
21.2477740846
 30
0.0
 10
20.3436108761
 20
21.2445518763
 30
0.0
 10
20.5653321367
 20
21.1983889685
 30
0.0
 10
20.7014241544
 20
21.1388192829
 30
0.0
 10
20.7640990886
 20
21.1026347114
 30
0.0
  0
SPLINE
  5
325
100
AcDbEntity
  8
0
100
AcDbSpline
 62
7
  6
CONTINUOUS
 70
0
 71
3
 72
11
 73
7
 74
0
 42
0.0000001
 43
0.0000001
 44
0.0000000001
 40
0.0
 40
0.0
 40
0.0
 40
0.0
 40
0.2274660661
 40
0.500505871
 40
0.7732217324
 40
1.0
 40
1.0
 40
1.0
 40
1.0
 10
30.5888763349
 20
5.0806505458
 30
0.0
 10
30.5599991991
 20
5.0639796199
 30
0.0
 10
30.4901467927
 20
5.0381446567
 30
0.0
 10
30.3765662871
 20
5.0254121707
 30
0.0
 10
30.2630963418
 20
5.0382160292
 30
0.0
 10
30.1934018343
 20
5.0640282534
 30
0.0
 10
30.1646124052
 20
5.0806494457
 30
0.0
  0
SPLINE
  5
326
100
AcDbEntity
  8
0
100
AcDbSpline
 62
7
  6
CONTINUOUS
 70
0
 71
3
 72
11
 73
7
 74
0
 42
0.0000001
 43
0.0000001
 44
0.0000000001
 40
0.0
 40
0.0
 40
0.0
 40
0.0
 40
0.2267782676
 40
0.4994941291
 40
0.772533934
 40
1.0
 40
1.0
 40
1.0
 40
1.0
 10
30.1646124052
 20
38.3867914648
 30
0.0
 10
30.1934018343
 20
38.3701702725
 30
0.0
 10
30.2630963418
 20
38.3443580484
 30
0.0
 10
30.3765662871
 20
38.3315541899
 30
0.0
 10
30.4901467927
 20
38.3442866758
 30
0.0
 10
30.5599991991
 20
38.3701216391
 30
0.0
 10
30.5888763349
 20
38.3867925649
 30
0.0
  0
SPLINE
  5
327
100
AcDbEntity
  8
0
100
AcDbSpline
 62
7
  6
CONTINUOUS
 70
0
 71
3
 72
11
 73
7
 74
0
 42
0.0000001
 43
0.0000001
 44
0.0000000001
 40
0.0
 40
0.0
 40
0.0
 40
0.0
 40
0.2273839368
 40
0.5000010328
 40
0.7726175239
 40
1.0
 40
1.0
 40
1.0
 40
1.0
 10
30.7321294036
 20
38.6342403329
 30
0.0
 10
30.7323782637
 20
38.6676096824
 30
0.0
 10
30.7202824988
 20
38.7411337172
 30
0.0
 10
30.6747366432
 20
38.846044814
 30
0.0
 10
30.6066536293
 20
38.9379437604
 30
0.0
 10
30.5490277502
 20
38.9851804924
 30
0.0
 10
30.5200046376
 20
39.0016492519
 30
0.0
  0
SPLINE
  5
328
100
AcDbEntity
  8
0
100
AcDbSpline
 62
7
  6
CONTINUOUS
 70
0
 71
3
 72
15
 73
11
 74
0
 42
0.0000001
 43
0.0000001
 44
0.0000000001
 40
0.0
 40
0.0
 40
0.0
 40
0.0
 40
0.1142114449
 40
0.2373121515
 40
0.3667602994
 40
0.4996715607
 40
0.6326296011
 40
0.7622118792
 40
0.8855218565
 40
1.0
 40
1.0
 40
1.0
 40
1.0
 10
6.3430600547
 20
52.959898937
 30
0.0
 10
6.3185785385
 20
52.9461087899
 30
0.0
 10
6.2703323996
 20
52.9127046807
 30
0.0
 10
6.2039201096
 20
52.8512926337
 30
0.0
 10
6.1425073205
 20
52.7787396744
 30
0.0
 10
6.0885173221
 20
52.6975810384
 30
0.0
 10
6.0444224341
 20
52.6106116166
 30
0.0
 10
6.0114393248
 20
52.5213608855
 30
0.0
 10
5.9905851732
 20
52.4331898222
 30
0.0
 10
5.9851779096
 20
52.3746425529
 30
0.0
 10
5.9851779096
 20
52.3464786694
 30
0.0
  0
SPLINE
  5
329
100
AcDbEntity
  8
0
100
AcDbSpline
 62
7
  6
CONTINUOUS
 70
0
 71
3
 72
15
 73
11
 74
0
 42
0.0000001
 43
0.0000001
 44
0.0000000001
 40
0.0
 40
0.0
 40
0.0
 40
0.0
 40
0.1145698146
 40
0.2380085821
 40
0.3677192131
 40
0.500772624
 40
0.633716072
 40
0.7631113461
 40
0.8860578976
 40
1.0
 40
1.0
 40
1.0
 40
1.0
 10
30.1646127535
 20
38.3867912637
 30
0.0
 10
30.1646127535
 20
38.4149632242
 30
0.0
 10
30.1699845914
 20
38.4735337055
 30
0.0
 10
30.1906909096
 20
38.5617762799
 30
0.0
 10
30.223440067
 20
38.6511498611
 30
0.0
 10
30.2672216755
 20
38.7382883048
 30
0.0
 10
30.3208289703
 20
38.8196588602
 30
0.0
 10
30.3818064976
 20
38.8924552592
 30
0.0
 10
30.4477463488
 20
38.9541317675
 30
0.0
 10
30.4956773518
 20
38.9877511439
 30
0.0
 10
30.5200050133
 20
39.0016490348
 30
0.0
  0
SPLINE
  5
32A
100
AcDbEntity
  8
0
100
AcDbSpline
 62
7
  6
CONTINUOUS
 70
0
 71
3
 72
15
 73
11
 74
0
 42
0.0000001
 43
0.0000001
 44
0.0000000001
 40
0.0
 40
0.0
 40
0.0
 40
0.0
 40
0.1450835004
 40
0.2751955492
 40
0.3916228883
 40
0.499990294
 40
0.6083595321
 40
0.7247916193
 40
0.854910466
 40
1.0
 40
1.0
 40
1.0
 40
1.0
 10
30.5907194634
 20
5.0817302295
 30
0.0
 10
30.5907194637
 20
5.0715677501
 30
0.0
 10
30.5922883966
 20
5.052231266
 30
0.0
 10
30.6000437728
 20
5.0256675524
 30
0.0
 10
30.6132477658
 20
5.004173311
 30
0.0
 10
30.631533222
 20
4.9889280785
 30
0.0
 10
30.6540013188
 20
4.9810556631
 30
0.0
 10
30.6792263478
 20
4.9807510393
 30
0.0
 10
30.7060072281
 20
4.9877243708
 30
0.0
 10
30.7234105034
 20
4.996298687
 30
0.0
 10
30.7321340433
 20
5.0015125559
 30
0.0
  0
SPLINE
  5
32B
100
AcDbEntity
  8
0
100
AcDbSpline
 62
7
  6
CONTINUOUS
 70
0
 71
3
 72
12
 73
8
 74
0
 42
0.0000001
 43
0.0000001
 44
0.0000000001
 40
0.0
 40
0.0
 40
0.0
 40
0.0
 40
0.1134510026
 40
0.2366218287
 40
0.4991847655
 40
0.7623566235
 40
1.0
 40
1.0
 40
1.0
 40
1.0
 10
30.7321347242
 20
38.6342434048
 30
0.0
 10
30.722486752
 20
38.6286731801
 30
0.0
 10
30.7034000454
 20
38.6152204187
 30
0.0
 10
30.6675720849
 20
38.5816038702
 30
0.0
 10
30.629735496
 20
38.5295141411
 30
0.0
 10
30.5994446318
 20
38.4604149892
 30
0.0
 10
30.5907194641
 20
38.4111960874
 30
0.0
 10
30.5907194634
 20
38.3878603188
 30
0.0
  0
SPLINE
  5
32C
100
AcDbEntity
  8
0
100
AcDbSpline
 62
7
  6
CONTINUOUS
 70
0
 71
3
 72
11
 73
7
 74
0
 42
0.0000001
 43
0.0000001
 44
0.0000000001
 40
0.0
 40
0.0
 40
0.0
 40
0.0
 40
0.2174512065
 40
0.4506397828
 40
0.7097635801
 40
1.0
 40
1.0
 40
1.0
 40
1.0
 10
30.267807539
 20
4.8519650552
 30
0.0
 10
30.2513790353
 20
4.8614573589
 30
0.0
 10
30.220785311
 20
4.8875806867
 30
0.0
 10
30.1882957115
 20
4.9412368375
 30
0.0
 10
30.1685941662
 20
5.0072223247
 30
0.0
 10
30.1646127617
 20
5.0553247286
 30
0.0
 10
30.1646127617
 20
5.0806492399
 30
0.0
  0
SPLINE
  5
32D
100
AcDbEntity
  8
0
100
AcDbSpline
 62
7
  6
CONTINUOUS
 70
0
 71
3
 72
11
 73
7
 74
0
 42
0.0000001
 43
0.0000001
 44
0.0000000001
 40
0.0
 40
0.0
 40
0.0
 40
0.0
 40
0.2828182672
 40
0.5418383264
 40
0.7794584888
 40
1.0
 40
1.0
 40
1.0
 40
1.0
 10
5.9851779178
 20
19.0403366455
 30
0.0
 10
5.9851779178
 20
19.0201925819
 30
0.0
 10
5.9877547783
 20
18.9815222297
 30
0.0
 10
6.0001876911
 20
18.9271441175
 30
0.0
 10
6.0205906619
 20
18.879969659
 30
0.0
 10
6.0399295578
 20
18.8532375967
 30
0.0
 10
6.050704772
 20
18.8418075335
 30
0.0
  0
SPLINE
  5
32E
100
AcDbEntity
  8
0
100
AcDbSpline
 62
7
  6
CONTINUOUS
 70
0
 71
3
 72
9
 73
5
 74
0
 42
0.0000001
 43
0.0000001
 44
0.0000000001
 40
0.0
 40
0.0
 40
0.0
 40
0.0
 40
0.2534073385
 40
1.0
 40
1.0
 40
1.0
 40
1.0
 10
6.050704772
 20
18.8418075335
 30
0.0
 10
6.0535539847
 20
18.8387851638
 30
0.0
 10
6.065197625
 20
18.8272441781
 30
0.0
 10
6.0784997006
 20
18.8173573226
 30
0.0
 10
6.0890956797
 20
18.8112350549
 30
0.0
  0
ELLIPSE
  5
32F
100
AcDbEntity
  8
0
100
AcDbEllipse
 62
7
  6
CONTINUOUS
 10
14.9116676996
 20
17.2336302087
 30
0.0
 11
0.1021118904
 21
0.5374770718
 31
0.0
 40
0.7268492103
 41
0.5369227693
 42
1.3081068876
  0
ELLIPSE
  5
330
100
AcDbEntity
  8
0
100
AcDbEllipse
 62
7
  6
CONTINUOUS
 10
12.2175796468
 20
18.7890274834
 30
0.0
 11
0.1021118904
 21
0.5374770718
 31
0.0
 40
0.7268492103
 41
0.5369227693
 42
1.3081068876
  0
ELLIPSE
  5
331
100
AcDbEntity
  8
0
100
AcDbEllipse
 62
7
  6
CONTINUOUS
 10
25.6880199108
 20
11.0120411098
 30
0.0
 11
0.1021118904
 21
0.5374770718
 31
0.0
 40
0.7268492103
 41
0.5369227693
 42
1.3081068876
  0
ELLIPSE
  5
332
100
AcDbEntity
  8
0
100
AcDbEllipse
 62
7
  6
CONTINUOUS
 10
22.993931858
 20
12.5674383845
 30
0.0
 11
0.1021118904
 21
0.5374770718
 31
0.0
 40
0.7268492103
 41
0.5369227693
 42
1.3081068876
  0
ENDSEC
  0
SECTION
  2
OBJECTS
  0
DICTIONARY
  5
C
100
AcDbDictionary
280
0
281
1
  3
ACAD_GROUP
350
D
  3
ACAD_MLINESTYLE
350
17
  3
ACAD_LAYOUT
350
1A
  3
ACAD_PLOTSETTINGS
350
19
  3
ACAD_PLOTSTYLENAME
350
E
  0
DICTIONARY
  5
D
102
{ACAD_REACTORS
330
C
102
}
100
AcDbDictionary
280
0
281
1
  0
ACDBDICTIONARYWDFLT
  5
E
102
{ACAD_REACTORS
330
C
102
}
100
AcDbDictionary
281
1
  3
Normal
350
F
100
AcDbDictionaryWithDefault
340
F
  0
DICTIONARY
  5
17
102
{ACAD_REACTORS
330
C
102
}
100
AcDbDictionary
280
0
281
1
  3
Standard
350
18
  0
DICTIONARY
  5
19
102
{ACAD_REACTORS
330
C
102
}
100
AcDbDictionary
281
1
  0
DICTIONARY
  5
1A
102
{ACAD_REACTORS
330
C
102
}
100
AcDbDictionary
281
1
  3
Model
350
333
  3
Layout1
350
334
  0
ACDBPLACEHOLDER
  5
F
102
{ACAD_REACTORS
330
E
102
}
  0
MLINESTYLE
  5
18
102
{ACAD_REACTORS
330
17
102
}
100
AcDbMlineStyle
  2
STANDARD
 70
0
  3

 62
256
 51
90.0
 52
90.0
 71
2
 49
0.5
 62
256
  6
BYLAYER
 49
-0.5
 62
256
  6
BYLAYER
  0
LAYOUT
  5
333
102
{ACAD_REACTORS
330
1A
102
}
100
AcDbPlotSettings
  1

  2
none_device
  4

  6

 40
0.0
 41
0.0
 42
0.0
 43
0.0
 44
210.0
 45
297.0
 46
0.0
 47
0.0
 48
0.0
 49
0.0
140
0.0
141
0.0
142
1.0
143
1.0
 70
1024
 72
1
 73
0
 74
0
  7

 75
0
147
1.0
148
0.0
149
0.0
100
AcDbLayout
  1
Model
 70
0
 71
0
 10
0.0
 20
0.0
 11
210.0
 21
297.0
 12
0.0
 22
0.0
 32
0.0
 14
0.0
 24
0.0
 34
0.0
 15
0.0
 25
0.0
 35
0.0
146
0.0
 13
0.0
 23
0.0
 33
0.0
 16
1.0
 26
0.0
 36
0.0
 17
0.0
 27
1.0
 37
0.0
 76
0
330
210
345
0
346
0
  0
LAYOUT
  5
334
102
{ACAD_REACTORS
330
1A
102
}
100
AcDbPlotSettings
  1

  2
none_device
  4

  6

 40
0.0
 41
0.0
 42
0.0
 43
0.0
 44
210.0
 45
297.0
 46
0.0
 47
0.0
 48
0.0
 49
0.0
140
0.0
141
0.0
142
1.0
143
1.0
 70
0
 72
1
 73
0
 74
0
  7

 75
0
147
1.0
148
0.0
149
0.0
100
AcDbLayout
  1
Layout1
 70
0
 71
1
 10
0.0
 20
0.0
 11
210.0
 21
297.0
 12
0.0
 22
0.0
 32
0.0
 14
0.0
 24
0.0
 34
0.0
 15
0.0
 25
0.0
 35
0.0
146
0.0
 13
0.0
 23
0.0
 33
0.0
 16
1.0
 26
0.0
 36
0.0
 17
0.0
 27
1.0
 37
0.0
 76
0
330
211
345
0
346
0
  0
ENDSEC
  0
EOF
