999
DXF file: C:\Users\sesa63760\Dev\_Creo\CAD\MCADUE0002397_3D-CAD\drw0001_7.dxf
999
Pro/ENGINEER 2019471 by Parametric Technology Corporation
  0
SECTION
  2
HEADER
  9
$ACADVER
  1
AC1024
  9
$DWGCODEPAGE
  3
ANSI_1252
  9
$EXTMAX
 10
754.1399553522
 20
1066.5693654267
 30
0.0
  9
$EXTMIN
 10
0.0
 20
0.0
 30
0.0
  9
$LIMMIN
 10
0.0
 20
0.0
  9
$LIMMAX
 10
754.1399553522
 20
1066.5693654267
  9
$VIEWCTR
 10
377.0699776761
 20
533.2846827133
  9
$VIEWSIZE
 40
1066.5693654267
  9
$CLAYER
  8
0
  9
$LTSCALE
 40
69.5245215982
  9
$CELTYPE
  6
BYLAYER
  9
$DIMSCALE
 40
1.0
  9
$DIMASZ
 40
8.9778566113
  9
$DIMEXO
 40
1.0
  9
$DIMDLI
 40
48.0351240133
  9
$DIMEXE
 40
1.0
  9
$DIMCEN
 40
11.3767398979
  9
$DIMLFAC
 40
1.0
  9
$DIMBLK
  1
_FILLED
  9
$DIMALT
 70
0
  9
$DIMALTF
 40
0.0393700787
  9
$DIMTXT
 40
12.5689992559
  9
$DIMTOL
 70
1
  9
$DIMLIM
 70
0
  9
$DIMTFAC
 40
1.0
  9
$DIMTP
 40
0.01
  9
$DIMTM
 40
0.01
  9
$DIMGAP
 40
0.625
  9
$DIMDSEP
 70
46
  9
$AUNITS
 70
0
  9
$PDMODE
 70
3
  9
$PDSIZE
 40
0.3125
  9
$HANDSEED
  5
2F9
  9
$TILEMODE
 70
1
  9
$MEASUREMENT
 70
1
  9
$INSUNITS
 70
4
  0
ENDSEC
  0
SECTION
  2
CLASSES
  0
CLASS
  1
ACDBDICTIONARYWDFLT
  2
AcDbDictionaryWithDefault
  3
AutoCAD 2000
 90
0
 91
1
280
0
281
0
  0
CLASS
  1
ACDBPLACEHOLDER
  2
AcDbPlaceHolder
  3
AutoCAD 2000
 90
0
 91
1
280
0
281
0
  0
CLASS
  1
LAYOUT
  2
AcDbLayout
  3
AutoCAD 2000
 90
0
 91
0
280
0
281
0
  0
ENDSEC
  0
SECTION
  2
TABLES
  0
TABLE
  2
VPORT
  5
8
100
AcDbSymbolTable
 70
2
  0
VPORT
  5
1F4
100
AcDbSymbolTableRecord
100
AcDbViewportTableRecord
  2
*ACTIVE
 70
0
 10
0.0
 20
0.0
 11
1.0
 21
1.0
 12
377.0699776761
 22
533.2846827133
 13
0.0
 23
0.0
 14
1.0
 24
1.0
 15
0.0
 25
0.0
 16
0.0
 26
0.0
 36
1.0
 17
0.0
 27
0.0
 37
0.0
 40
1066.5693654267
 41
0.7070707071
 42
50.0
 43
0.0
 44
0.0
 50
0.0
 51
0.0
 71
0
 72
100
 73
1
 74
1
 75
0
 76
0
 77
0
 78
0
  0
ENDTAB
  0
TABLE
  2
LTYPE
  5
5
100
AcDbSymbolTable
 70
6
  0
LTYPE
  5
14
100
AcDbSymbolTableRecord
100
AcDbLinetypeTableRecord
  2
BYBLOCK
 70
0
  3

 72
65
 73
0
 40
0.0
  0
LTYPE
  5
15
100
AcDbSymbolTableRecord
100
AcDbLinetypeTableRecord
  2
BYLAYER
 70
0
  3

 72
65
 73
0
 40
0.0
  0
LTYPE
  5
16
100
AcDbSymbolTableRecord
100
AcDbLinetypeTableRecord
  2
CONTINUOUS
 70
64
  3
Solid line
 72
65
 73
0
 40
0.0
  0
LTYPE
  5
1F5
100
AcDbSymbolTableRecord
100
AcDbLinetypeTableRecord
  2
CENTER
 70
64
  3
____ _ ____ _ ____ _ ____ _ ____ _ ____ _ ____
 72
65
 73
4
 40
0.6
 49
0.375
 74
0
 49
-0.075
 74
0
 49
0.075
 74
0
 49
-0.075
 74
0
  0
LTYPE
  5
1F6
100
AcDbSymbolTableRecord
100
AcDbLinetypeTableRecord
  2
HIDDEN
 70
64
  3
- - - - - - - - - - - - - - - - - - - -
 72
65
 73
2
 40
0.2
 49
0.1
 74
0
 49
-0.1
 74
0
  0
LTYPE
  5
1F7
100
AcDbSymbolTableRecord
100
AcDbLinetypeTableRecord
  2
PHANTOM
 70
64
  3
_____ _ _ _____ _ _ _____ _ _ _____
 72
65
 73
6
 40
0.8
 49
0.45
 74
0
 49
-0.05
 74
0
 49
0.1
 74
0
 49
-0.05
 74
0
 49
0.1
 74
0
 49
-0.05
 74
0
  0
LTYPE
  5
1F8
100
AcDbSymbolTableRecord
100
AcDbLinetypeTableRecord
  2
DOT
 70
64
  3
. . . . . . . . . . . . . . . . . . . .
 72
65
 73
2
 40
0.2
 49
0.1
 74
0
 49
-0.1
 74
0
  0
LTYPE
  5
1F9
100
AcDbSymbolTableRecord
100
AcDbLinetypeTableRecord
  2
DASHED
 70
64
  3
- - - - - - - - - - - - - - - - - - - -
 72
65
 73
2
 40
0.2
 49
0.1
 74
0
 49
-0.1
 74
0
  0
ENDTAB
  0
TABLE
  2
LAYER
  5
2
100
AcDbSymbolTable
 70
36
  0
LAYER
  5
10
100
AcDbSymbolTableRecord
100
AcDbLayerTableRecord
  2
0
 70
0
 62
7
  6
CONTINUOUS
370
-3
390
F
  0
LAYER
  5
1FA
100
AcDbSymbolTableRecord
100
AcDbLayerTableRecord
  2
DEFAULT_1
 70
0
 62
7
  6
CENTER
370
-3
390
F
  0
LAYER
  5
1FB
100
AcDbSymbolTableRecord
100
AcDbLayerTableRecord
  2
DEFAULT_2
 70
0
 62
8
  6
HIDDEN
370
-3
390
F
  0
LAYER
  5
1FC
100
AcDbSymbolTableRecord
100
AcDbLayerTableRecord
  2
DEFAULT_3
 70
0
 62
7
  6
PHANTOM
370
-3
390
F
  0
LAYER
  5
1FD
100
AcDbSymbolTableRecord
100
AcDbLayerTableRecord
  2
00_COMPONENTS
 70
0
 62
7
  6
CONTINUOUS
370
-3
390
F
  0
LAYER
  5
1FE
100
AcDbSymbolTableRecord
100
AcDbLayerTableRecord
  2
01_1_DEFAULT_DATUMS
 70
0
 62
7
  6
CONTINUOUS
370
-3
390
F
  0
LAYER
  5
1FF
100
AcDbSymbolTableRecord
100
AcDbLayerTableRecord
  2
01_PLANES
 70
0
 62
7
  6
CONTINUOUS
370
-3
390
F
  0
LAYER
  5
200
100
AcDbSymbolTableRecord
100
AcDbLayerTableRecord
  2
02_COORD_SYS
 70
0
 62
7
  6
CONTINUOUS
370
-3
390
F
  0
LAYER
  5
201
100
AcDbSymbolTableRecord
100
AcDbLayerTableRecord
  2
03_AXES
 70
0
 62
7
  6
CONTINUOUS
370
-3
390
F
  0
LAYER
  5
202
100
AcDbSymbolTableRecord
100
AcDbLayerTableRecord
  2
04_POINTS
 70
0
 62
7
  6
CONTINUOUS
370
-3
390
F
  0
LAYER
  5
203
100
AcDbSymbolTableRecord
100
AcDbLayerTableRecord
  2
05_CURVES
 70
0
 62
7
  6
CONTINUOUS
370
-3
390
F
  0
LAYER
  5
204
100
AcDbSymbolTableRecord
100
AcDbLayerTableRecord
  2
06_SURFS
 70
0
 62
7
  6
CONTINUOUS
370
-3
390
F
  0
LAYER
  5
205
100
AcDbSymbolTableRecord
100
AcDbLayerTableRecord
  2
07_COSMETICS
 70
0
 62
7
  6
CONTINUOUS
370
-3
390
F
  0
LAYER
  5
206
100
AcDbSymbolTableRecord
100
AcDbLayerTableRecord
  2
10_NOTES
 70
0
 62
7
  6
CONTINUOUS
370
-3
390
F
  0
LAYER
  5
207
100
AcDbSymbolTableRecord
100
AcDbLayerTableRecord
  2
11_NOTES_PUB
 70
0
 62
7
  6
CONTINUOUS
370
-3
390
F
  0
LAYER
  5
208
100
AcDbSymbolTableRecord
100
AcDbLayerTableRecord
  2
13_REF_GTOL
 70
0
 62
7
  6
CONTINUOUS
370
-3
390
F
  0
LAYER
  5
209
100
AcDbSymbolTableRecord
100
AcDbLayerTableRecord
  2
16_MISC
 70
0
 62
7
  6
CONTINUOUS
370
-3
390
F
  0
LAYER
  5
20A
100
AcDbSymbolTableRecord
100
AcDbLayerTableRecord
  2
17_NO_PRINT
 70
0
 62
7
  6
CONTINUOUS
370
-3
390
F
  0
LAYER
  5
20B
100
AcDbSymbolTableRecord
100
AcDbLayerTableRecord
  2
18_DATUM_CAMS_JOINTS
 70
0
 62
7
  6
CONTINUOUS
370
-3
390
F
  0
LAYER
  5
20C
100
AcDbSymbolTableRecord
100
AcDbLayerTableRecord
  2
19_DATUM_FUNCTIONAL
 70
0
 62
7
  6
CONTINUOUS
370
-3
390
F
  0
LAYER
  5
20D
100
AcDbSymbolTableRecord
100
AcDbLayerTableRecord
  2
20_DATUM_KINEMATIC_SCHEME
 70
0
 62
7
  6
CONTINUOUS
370
-3
390
F
  0
ENDTAB
  0
TABLE
  2
STYLE
  5
3
100
AcDbSymbolTable
 70
1
  0
STYLE
  5
11
100
AcDbSymbolTableRecord
100
AcDbTextStyleTableRecord
  2
STANDARD
 70
0
 40
0.0
 41
0.8
 50
0.0
 71
0
 42
0.2
  3
txt
  4

  0
STYLE
  5
20E
100
AcDbSymbolTableRecord
100
AcDbTextStyleTableRecord
  2
TEXTSTYLE_1
 70
0
 40
0.0
 41
0.8
 50
0.0
 71
0
 42
0.2
  3
gdt
  4

  0
ENDTAB
  0
TABLE
  2
VIEW
  5
6
100
AcDbSymbolTable
 70
0
  0
ENDTAB
  0
TABLE
  2
UCS
  5
7
100
AcDbSymbolTable
 70
0
  0
ENDTAB
  0
TABLE
  2
APPID
  5
9
100
AcDbSymbolTable
 70
1
  0
APPID
  5
20F
100
AcDbSymbolTableRecord
100
AcDbRegAppTableRecord
  2
ACAD
 70
0
  0
ENDTAB
  0
TABLE
  2
BLOCK_RECORD
  5
1
100
AcDbSymbolTable
 70
0
  0
BLOCK_RECORD
  5
210
100
AcDbSymbolTableRecord
100
AcDbBlockTableRecord
  2
*Model_Space
  0
BLOCK_RECORD
  5
211
100
AcDbSymbolTableRecord
100
AcDbBlockTableRecord
  2
*Paper_Space
  0
BLOCK_RECORD
  5
212
100
AcDbSymbolTableRecord
100
AcDbBlockTableRecord
  2
_FILLED
  0
ENDTAB
  0
TABLE
  2
DIMSTYLE
  5
A
100
AcDbSymbolTable
 70
1
100
AcDbDimStyleTable
 71
0
  0
DIMSTYLE
105
213
100
AcDbSymbolTableRecord
100
AcDbDimStyleTableRecord
  2
STANDARD
 70
0
  3

  4

 40
1.0
 41
8.9778566113
 42
1.0
 43
0.38
 44
1.0
 45
0.0
 46
0.0
 47
0.01
 48
0.01
140
12.5689992559
141
0.09
142
0.0
143
25.4
144
1.0
145
0.0
146
1.0
147
0.625
 71
1
 72
0
 73
0
 74
0
 75
0
 76
0
 77
1
 78
8
 79
2
170
0
171
1
172
0
173
0
174
0
175
0
176
0
177
0
178
0
270
2
179
2
271
2
272
2
273
2
274
2
275
0
280
0
281
0
282
0
283
1
284
8
285
0
286
0
287
3
288
0
340
11
278
46
341
212
342
212
343
212
344
212
  0
ENDTAB
  0
ENDSEC
  0
SECTION
  2
BLOCKS
  0
BLOCK
  5
20
100
AcDbEntity
  8
0
100
AcDbBlockBegin
  2
*Model_Space
 70
0
 10
0.0
 20
0.0
 30
0.0
  3
*Model_Space
  1

  0
ENDBLK
  5
21
100
AcDbEntity
  8
0
100
AcDbBlockEnd
  0
BLOCK
  5
1C
100
AcDbEntity
  8
0
100
AcDbBlockBegin
  2
*Paper_Space
 70
0
 10
0.0
 20
0.0
 30
0.0
  3
*Paper_Space
  1

  0
ENDBLK
  5
1D
100
AcDbEntity
  8
0
100
AcDbBlockEnd
  0
BLOCK
  5
214
100
AcDbEntity
  8
0
100
AcDbBlockBegin
  2
_FILLED
 70
64
 10
0.0
 20
0.0
  3
_FILLED
  1

  0
SOLID
  5
215
100
AcDbEntity
  8
0
  6
BYBLOCK
 62
0
100
AcDbTrace
 10
0.0
 20
0.0
 11
-1.0
 21
0.25
 12
-1.0
 22
-0.25
 13
-1.0
 23
-0.25
  0
ENDBLK
  5
216
100
AcDbEntity
  8
0
  6
BYBLOCK
 62
0
100
AcDbBlockEnd
  0
ENDSEC
  0
SECTION
  2
ENTITIES
  0
LINE
  5
217
100
AcDbEntity
  8
0
100
AcDbLine
 62
7
  6
CONTINUOUS
 10
80.0754481356
 20
481.3956236324
 11
80.0754481356
 21
487.3956236324
  0
LINE
  5
218
100
AcDbEntity
  8
0
100
AcDbLine
 62
7
  6
CONTINUOUS
 10
81.5754481356
 20
481.3956236324
 11
81.5754481356
 21
487.3956236324
  0
LINE
  5
219
100
AcDbEntity
  8
0
100
AcDbLine
 62
7
  6
CONTINUOUS
 10
86.4254481356
 20
480.8956236324
 11
86.4254481356
 21
481.8956236324
  0
LINE
  5
21A
100
AcDbEntity
  8
0
100
AcDbLine
 62
7
  6
CONTINUOUS
 10
91.6754481356
 20
501.5225886912
 11
91.6754481356
 21
504.2686585736
  0
LINE
  5
21B
100
AcDbEntity
  8
0
100
AcDbLine
 62
7
  6
CONTINUOUS
 10
92.9254481356
 20
480.8956236324
 11
92.9254481356
 21
481.8956236324
  0
LINE
  5
21C
100
AcDbEntity
  8
0
100
AcDbLine
 62
7
  6
CONTINUOUS
 10
93.0504481356
 20
500.1456236324
 11
93.0504481356
 21
505.6456236324
  0
LINE
  5
21D
100
AcDbEntity
  8
0
100
AcDbLine
 62
7
  6
CONTINUOUS
 10
93.0754481356
 20
481.3956236324
 11
93.0754481356
 21
494.8943728956
  0
LINE
  5
21E
100
AcDbEntity
  8
0
100
AcDbLine
 62
7
  6
CONTINUOUS
 10
94.4564094822
 20
480.3956236324
 11
94.4564094822
 21
478.8956236324
  0
LINE
  5
21F
100
AcDbEntity
  8
0
100
AcDbLine
 62
7
  6
CONTINUOUS
 10
94.5754481356
 20
494.8943728956
 11
94.5754481356
 21
481.3956236324
  0
LINE
  5
220
100
AcDbEntity
  8
0
100
AcDbLine
 62
7
  6
CONTINUOUS
 10
96.0397526504
 20
521.1776404147
 11
96.0397526504
 21
542.2491743602
  0
LINE
  5
221
100
AcDbEntity
  8
0
100
AcDbLine
 62
7
  6
CONTINUOUS
 10
96.6754481356
 20
478.8956236324
 11
96.6754481356
 21
480.3956236324
  0
LWPOLYLINE
  5
222
100
AcDbEntity
  8
0
100
AcDbPolyline
 62
7
  6
CONTINUOUS
 90
3
 70
0
 10
92.3271949516
 20
486.8633610379
 10
92.6562441027
 20
485.0150783971
 10
93.0754481356
 20
483.8960095251
  0
LINE
  5
223
100
AcDbEntity
  8
0
100
AcDbLine
 62
7
  6
CONTINUOUS
 10
92.1946763997
 20
487.8359055671
 11
92.3271949516
 21
486.8633610379
  0
LINE
  5
224
100
AcDbEntity
  8
0
100
AcDbLine
 62
7
  6
CONTINUOUS
 10
98.0397526504
 20
542.2491743602
 11
98.0397526504
 21
521.1776404147
  0
LINE
  5
225
100
AcDbEntity
  8
0
100
AcDbLine
 62
7
  6
CONTINUOUS
 10
98.8754481356
 20
481.3956236324
 11
98.8754481356
 21
510.8955280243
  0
LINE
  5
226
100
AcDbEntity
  8
0
100
AcDbLine
 62
7
  6
CONTINUOUS
 10
100.3754481356
 20
481.3956236324
 11
100.3754481356
 21
564.8956236324
  0
LINE
  5
227
100
AcDbEntity
  8
0
100
AcDbLine
 62
7
  6
CONTINUOUS
 10
102.3754481356
 20
564.8956236324
 11
102.3754481356
 21
495.0456236324
  0
LINE
  5
228
100
AcDbEntity
  8
0
100
AcDbLine
 62
7
  6
CONTINUOUS
 10
102.6754481356
 20
495.0456236324
 11
102.6754481356
 21
516.8956236324
  0
LINE
  5
229
100
AcDbEntity
  8
0
100
AcDbLine
 62
7
  6
CONTINUOUS
 10
104.6754481356
 20
516.8956236324
 11
104.6754481356
 21
495.0456236324
  0
LINE
  5
22A
100
AcDbEntity
  8
0
100
AcDbLine
 62
7
  6
CONTINUOUS
 10
106.4463475838
 20
508.2956236324
 11
106.4463475838
 21
497.4956236334
  0
LINE
  5
22B
100
AcDbEntity
  8
0
100
AcDbLine
 62
7
  6
CONTINUOUS
 10
91.4014012789
 20
488.9222039629
 11
91.2893192698
 21
488.099145116
  0
LINE
  5
22C
100
AcDbEntity
  8
0
100
AcDbLine
 62
7
  6
CONTINUOUS
 10
98.5349589364
 20
499.7366980794
 11
98.8754481356
 21
498.8960095313
  0
LINE
  5
22D
100
AcDbEntity
  8
0
100
AcDbLine
 62
7
  6
CONTINUOUS
 10
98.320593061
 20
500.6317439257
 11
98.5349589364
 21
499.7366980794
  0
LINE
  5
22E
100
AcDbEntity
  8
0
100
AcDbLine
 62
7
  6
CONTINUOUS
 10
133.4504481356
 20
592.8956236324
 11
133.4504481356
 21
568.8956236324
  0
LINE
  5
22F
100
AcDbEntity
  8
0
100
AcDbLine
 62
7
  6
CONTINUOUS
 10
135.4504481356
 20
592.8956236324
 11
135.4504481356
 21
568.8956236324
  0
LWPOLYLINE
  5
230
100
AcDbEntity
  8
0
100
AcDbPolyline
 62
7
  6
CONTINUOUS
 90
3
 70
0
 10
92.0204719546
 20
491.6233422102
 10
91.7423733615
 20
490.8186228057
 10
91.4014012789
 20
488.9222039629
  0
LINE
  5
231
100
AcDbEntity
  8
0
100
AcDbLine
 62
7
  6
CONTINUOUS
 10
96.4416764391
 20
543.7491743602
 11
100.2414735394
 21
550.3306159965
  0
LINE
  5
232
100
AcDbEntity
  8
0
100
AcDbLine
 62
7
  6
CONTINUOUS
 10
100.3754481356
 20
546.562666804
 11
98.1737272467
 21
542.7491743602
  0
LINE
  5
233
100
AcDbEntity
  8
0
100
AcDbLine
 62
7
  6
CONTINUOUS
 10
152.9554481356
 20
519.8956236324
 11
152.9554481356
 21
517.8956236324
  0
LINE
  5
234
100
AcDbEntity
  8
0
100
AcDbLine
 62
7
  6
CONTINUOUS
 10
91.6754481356
 20
501.5206236324
 11
93.0504481356
 21
500.1456236324
  0
LINE
  5
235
100
AcDbEntity
  8
0
100
AcDbLine
 62
7
  6
CONTINUOUS
 10
93.0754481356
 20
493.0999473955
 11
92.0204719546
 21
491.6233422102
  0
LWPOLYLINE
  5
236
100
AcDbEntity
  8
0
100
AcDbPolyline
 62
7
  6
CONTINUOUS
 90
4
 70
0
 10
98.8754481356
 20
508.0999467009
 10
97.9655485165
 20
506.9239432883
 10
97.6155475711
 20
506.0726801129
 10
97.5160433537
 20
505.6594166598
  0
LINE
  5
237
100
AcDbEntity
  8
0
100
AcDbLine
 62
7
  6
CONTINUOUS
 10
91.6754481356
 20
504.2706236324
 11
93.0504481356
 21
505.6456236324
  0
LINE
  5
238
100
AcDbEntity
  8
0
100
AcDbLine
 62
7
  6
CONTINUOUS
 10
98.1737272466
 20
542.7491743602
 11
96.441676439
 21
543.7491743602
  0
LINE
  5
239
100
AcDbEntity
  8
0
100
AcDbLine
 62
7
  6
CONTINUOUS
 10
99.4642617052
 20
548.9844456115
 11
100.3987502259
 21
548.4449184125
  0
LINE
  5
23A
100
AcDbEntity
  8
0
100
AcDbLine
 62
7
  6
CONTINUOUS
 10
100.2414735394
 20
550.3306159965
 11
100.3754481356
 21
550.2532657273
  0
LINE
  5
23B
100
AcDbEntity
  8
0
100
AcDbLine
 62
7
  6
CONTINUOUS
 10
664.5375005774
 20
487.9725953821
 11
665.4615770015
 21
488.099145116
  0
LINE
  5
23C
100
AcDbEntity
  8
0
100
AcDbLine
 62
7
  6
CONTINUOUS
 10
91.2893192698
 20
488.099145116
 11
92.2577586958
 21
487.9665201266
  0
LINE
  5
23D
100
AcDbEntity
  8
0
100
AcDbLine
 62
7
  6
CONTINUOUS
 10
82.5754481356
 20
478.8956236324
 11
92.0754481356
 21
478.8956236324
  0
LINE
  5
23E
100
AcDbEntity
  8
0
100
AcDbLine
 62
7
  6
CONTINUOUS
 10
92.4604235049
 20
478.8956236324
 11
97.8754481356
 21
478.8956236324
  0
LINE
  5
23F
100
AcDbEntity
  8
0
100
AcDbLine
 62
7
  6
CONTINUOUS
 10
658.8754481356
 20
478.8956236324
 11
664.2904727667
 21
478.8956236324
  0
LINE
  5
240
100
AcDbEntity
  8
0
100
AcDbLine
 62
7
  6
CONTINUOUS
 10
664.6754481356
 20
478.8956236324
 11
674.1754481356
 21
478.8956236324
  0
LINE
  5
241
100
AcDbEntity
  8
0
100
AcDbLine
 62
7
  6
CONTINUOUS
 10
674.1754481356
 20
480.3956236324
 11
664.6754481356
 21
480.3956236324
  0
LINE
  5
242
100
AcDbEntity
  8
0
100
AcDbLine
 62
7
  6
CONTINUOUS
 10
92.0754481356
 20
480.3956236324
 11
82.5754481356
 21
480.3956236324
  0
LINE
  5
243
100
AcDbEntity
  8
0
100
AcDbLine
 62
7
  6
CONTINUOUS
 10
94.4564094823
 20
480.3956236324
 11
97.8754481356
 21
480.3956236324
  0
LINE
  5
244
100
AcDbEntity
  8
0
100
AcDbLine
 62
7
  6
CONTINUOUS
 10
658.8754481356
 20
480.3956236324
 11
662.2944867889
 21
480.3956236324
  0
LINE
  5
245
100
AcDbEntity
  8
0
100
AcDbLine
 62
7
  6
CONTINUOUS
 10
670.3254481356
 20
480.8956236324
 11
663.8254481356
 21
480.8956236324
  0
LINE
  5
246
100
AcDbEntity
  8
0
100
AcDbLine
 62
7
  6
CONTINUOUS
 10
92.9254481356
 20
480.8956236324
 11
86.4254481356
 21
480.8956236324
  0
LINE
  5
247
100
AcDbEntity
  8
0
100
AcDbLine
 62
7
  6
CONTINUOUS
 10
94.5754481356
 20
481.3956236324
 11
93.0754481356
 21
481.3956236324
  0
LINE
  5
248
100
AcDbEntity
  8
0
100
AcDbLine
 62
7
  6
CONTINUOUS
 10
662.1754481356
 20
481.3956236324
 11
663.6754481356
 21
481.3956236324
  0
LINE
  5
249
100
AcDbEntity
  8
0
100
AcDbLine
 62
7
  6
CONTINUOUS
 10
86.4255375247
 20
481.8956236324
 11
92.9253587465
 21
481.8956236324
  0
LINE
  5
24A
100
AcDbEntity
  8
0
100
AcDbLine
 62
7
  6
CONTINUOUS
 10
663.8255375247
 20
481.8956236324
 11
670.3253587465
 21
481.8956236324
  0
LINE
  5
24B
100
AcDbEntity
  8
0
100
AcDbLine
 62
7
  6
CONTINUOUS
 10
80.0754481356
 20
487.3956236324
 11
81.5754481356
 21
487.3956236324
  0
LINE
  5
24C
100
AcDbEntity
  8
0
100
AcDbLine
 62
7
  6
CONTINUOUS
 10
675.1754481356
 20
487.3956236324
 11
676.6754481356
 21
487.3956236324
  0
LINE
  5
24D
100
AcDbEntity
  8
0
100
AcDbLine
 62
7
  6
CONTINUOUS
 10
93.0754481356
 20
490.7103900628
 11
94.5754481356
 21
490.7103900628
  0
LINE
  5
24E
100
AcDbEntity
  8
0
100
AcDbLine
 62
7
  6
CONTINUOUS
 10
662.1754481356
 20
490.7103900628
 11
663.6754481356
 21
490.7103900628
  0
LINE
  5
24F
100
AcDbEntity
  8
0
100
AcDbLine
 62
7
  6
CONTINUOUS
 10
663.6754481356
 20
494.8956236324
 11
662.1754481356
 21
494.8956236324
  0
LINE
  5
250
100
AcDbEntity
  8
0
100
AcDbLine
 62
7
  6
CONTINUOUS
 10
94.5754481356
 20
494.8956236324
 11
93.0754481356
 21
494.8956236324
  0
LINE
  5
251
100
AcDbEntity
  8
0
100
AcDbLine
 62
7
  6
CONTINUOUS
 10
652.0754481356
 20
497.4956236324
 11
650.3045486874
 21
497.4956236324
  0
LINE
  5
252
100
AcDbEntity
  8
0
100
AcDbLine
 62
7
  6
CONTINUOUS
 10
104.6754481356
 20
497.4956236324
 11
106.4463475838
 21
497.4956236324
  0
LINE
  5
253
100
AcDbEntity
  8
0
100
AcDbLine
 62
7
  6
CONTINUOUS
 10
663.7004481356
 20
500.1456236324
 11
658.4303032102
 21
500.1456236324
  0
LINE
  5
254
100
AcDbEntity
  8
0
100
AcDbLine
 62
7
  6
CONTINUOUS
 10
654.3754481356
 20
500.1456236324
 11
654.0754481356
 21
500.1456236324
  0
LINE
  5
255
100
AcDbEntity
  8
0
100
AcDbLine
 62
7
  6
CONTINUOUS
 10
93.0504481356
 20
500.1456236324
 11
98.320593061
 21
500.1456236324
  0
LINE
  5
256
100
AcDbEntity
  8
0
100
AcDbLine
 62
7
  6
CONTINUOUS
 10
102.3754481356
 20
500.1456236324
 11
102.6754481356
 21
500.1456236324
  0
LINE
  5
257
100
AcDbEntity
  8
0
100
AcDbLine
 62
7
  6
CONTINUOUS
 10
108.0005694939
 20
500.2011849153
 11
108.0201226779
 21
500.2011849153
  0
LINE
  5
258
100
AcDbEntity
  8
0
100
AcDbLine
 62
7
  6
CONTINUOUS
 10
648.7307735933
 20
500.2011849153
 11
648.7503267774
 21
500.2011849153
  0
LINE
  5
259
100
AcDbEntity
  8
0
100
AcDbLine
 62
7
  6
CONTINUOUS
 10
98.8754481356
 20
502.8956236324
 11
100.3754481356
 21
502.8956236324
  0
LINE
  5
25A
100
AcDbEntity
  8
0
100
AcDbLine
 62
7
  6
CONTINUOUS
 10
656.3754481356
 20
502.8956236324
 11
657.8754481356
 21
502.8956236324
  0
LINE
  5
25B
100
AcDbEntity
  8
0
100
AcDbLine
 62
7
  6
CONTINUOUS
 10
648.7503267774
 20
505.5900623494
 11
648.7307735933
 21
505.5900623494
  0
LINE
  5
25C
100
AcDbEntity
  8
0
100
AcDbLine
 62
7
  6
CONTINUOUS
 10
108.0201226779
 20
505.5900623494
 11
108.0005694939
 21
505.5900623494
  0
LINE
  5
25D
100
AcDbEntity
  8
0
100
AcDbLine
 62
7
  6
CONTINUOUS
 10
663.7004481356
 20
505.6456236324
 11
659.1775673643
 21
505.6456236324
  0
LINE
  5
25E
100
AcDbEntity
  8
0
100
AcDbLine
 62
7
  6
CONTINUOUS
 10
654.3754481356
 20
505.6456236324
 11
654.0754481356
 21
505.6456236324
  0
LINE
  5
25F
100
AcDbEntity
  8
0
100
AcDbLine
 62
7
  6
CONTINUOUS
 10
93.0504481356
 20
505.6456236324
 11
97.573328907
 21
505.6456236324
  0
LINE
  5
260
100
AcDbEntity
  8
0
100
AcDbLine
 62
7
  6
CONTINUOUS
 10
102.3754481356
 20
505.6456236324
 11
102.6754481356
 21
505.6456236324
  0
LINE
  5
261
100
AcDbEntity
  8
0
100
AcDbLine
 62
7
  6
CONTINUOUS
 10
652.0754481356
 20
508.2956236324
 11
650.3045486874
 21
508.2956236324
  0
LINE
  5
262
100
AcDbEntity
  8
0
100
AcDbLine
 62
7
  6
CONTINUOUS
 10
104.6754481356
 20
508.2956236324
 11
106.4463475838
 21
508.2956236324
  0
LINE
  5
263
100
AcDbEntity
  8
0
100
AcDbLine
 62
7
  6
CONTINUOUS
 10
657.8754481356
 20
510.8956236324
 11
656.3754481356
 21
510.8956236324
  0
LINE
  5
264
100
AcDbEntity
  8
0
100
AcDbLine
 62
7
  6
CONTINUOUS
 10
100.3754481356
 20
510.8956236324
 11
98.8754481356
 21
510.8956236324
  0
LINE
  5
265
100
AcDbEntity
  8
0
100
AcDbLine
 62
7
  6
CONTINUOUS
 10
651.0754481356
 20
517.8956236324
 11
603.7954481356
 21
517.8956236324
  0
LINE
  5
266
100
AcDbEntity
  8
0
100
AcDbLine
 62
7
  6
CONTINUOUS
 10
105.6754481356
 20
517.8956236324
 11
152.9554481356
 21
517.8956236324
  0
LINE
  5
267
100
AcDbEntity
  8
0
100
AcDbLine
 62
7
  6
CONTINUOUS
 10
651.0754481356
 20
519.8956236324
 11
603.7954481356
 21
519.8956236324
  0
LINE
  5
268
100
AcDbEntity
  8
0
100
AcDbLine
 62
7
  6
CONTINUOUS
 10
152.9554481356
 20
519.8956236324
 11
105.6754481356
 21
519.8956236324
  0
LINE
  5
269
100
AcDbEntity
  8
0
100
AcDbLine
 62
7
  6
CONTINUOUS
 10
96.0397526504
 20
521.1776404147
 11
98.0397526504
 21
521.1776404147
  0
LINE
  5
26A
100
AcDbEntity
  8
0
100
AcDbLine
 62
7
  6
CONTINUOUS
 10
658.7111436208
 20
521.1776404147
 11
660.7111436208
 21
521.1776404147
  0
LINE
  5
26B
100
AcDbEntity
  8
0
100
AcDbLine
 62
7
  6
CONTINUOUS
 10
660.7111436208
 20
524.6120619554
 11
658.7111436208
 21
524.6120619554
  0
LINE
  5
26C
100
AcDbEntity
  8
0
100
AcDbLine
 62
7
  6
CONTINUOUS
 10
98.0397526504
 20
524.6120619554
 11
96.0397526504
 21
524.6120619554
  0
LINE
  5
26D
100
AcDbEntity
  8
0
100
AcDbLine
 62
7
  6
CONTINUOUS
 10
96.0397526504
 20
542.2491743602
 11
98.0397526504
 21
542.2491743602
  0
LINE
  5
26E
100
AcDbEntity
  8
0
100
AcDbLine
 62
7
  6
CONTINUOUS
 10
658.7111436208
 20
542.2491743602
 11
660.7111436208
 21
542.2491743602
  0
LINE
  5
26F
100
AcDbEntity
  8
0
100
AcDbLine
 62
7
  6
CONTINUOUS
 10
103.3754481356
 20
565.8956236324
 11
132.4504481356
 21
565.8956236324
  0
LINE
  5
270
100
AcDbEntity
  8
0
100
AcDbLine
 62
7
  6
CONTINUOUS
 10
624.3004481356
 20
565.8956236324
 11
653.3754481356
 21
565.8956236324
  0
LINE
  5
271
100
AcDbEntity
  8
0
100
AcDbLine
 62
7
  6
CONTINUOUS
 10
132.4504481356
 20
567.8956236324
 11
103.3754481356
 21
567.8956236324
  0
LINE
  5
272
100
AcDbEntity
  8
0
100
AcDbLine
 62
7
  6
CONTINUOUS
 10
624.3004481356
 20
567.8956236324
 11
653.3754481356
 21
567.8956236324
  0
LINE
  5
273
100
AcDbEntity
  8
0
100
AcDbLine
 62
7
  6
CONTINUOUS
 10
133.4504481356
 20
592.8956236324
 11
135.4504481356
 21
592.8956236324
  0
LINE
  5
274
100
AcDbEntity
  8
0
100
AcDbLine
 62
7
  6
CONTINUOUS
 10
621.3004481356
 20
592.8956236324
 11
623.3004481356
 21
592.8956236324
  0
LINE
  5
275
100
AcDbEntity
  8
0
100
AcDbLine
 62
7
  6
CONTINUOUS
 10
656.3754481356
 20
550.2532657273
 11
656.5094227318
 21
550.3306159965
  0
LINE
  5
276
100
AcDbEntity
  8
0
100
AcDbLine
 62
7
  6
CONTINUOUS
 10
656.3754481356
 20
548.4583718806
 11
657.286634566
 21
548.9844456115
  0
LINE
  5
277
100
AcDbEntity
  8
0
100
AcDbLine
 62
7
  6
CONTINUOUS
 10
660.3092198322
 20
543.7491743602
 11
658.5771690246
 21
542.7491743602
  0
LINE
  5
278
100
AcDbEntity
  8
0
100
AcDbLine
 62
7
  6
CONTINUOUS
 10
665.0754481356
 20
504.2706236324
 11
663.7004481356
 21
505.6456236324
  0
LINE
  5
279
100
AcDbEntity
  8
0
100
AcDbLine
 62
7
  6
CONTINUOUS
 10
603.7954481356
 20
517.8956236324
 11
603.7954481356
 21
519.8956236324
  0
LINE
  5
27A
100
AcDbEntity
  8
0
100
AcDbLine
 62
7
  6
CONTINUOUS
 10
664.7304242617
 20
491.623342335
 11
663.6754481356
 21
493.0999473955
  0
LINE
  5
27B
100
AcDbEntity
  8
0
100
AcDbLine
 62
7
  6
CONTINUOUS
 10
621.3004481356
 20
568.8956236324
 11
621.3004481356
 21
592.8956236324
  0
LINE
  5
27C
100
AcDbEntity
  8
0
100
AcDbLine
 62
7
  6
CONTINUOUS
 10
623.3004481356
 20
568.8956236324
 11
623.3004481356
 21
592.8956236324
  0
LINE
  5
27D
100
AcDbEntity
  8
0
100
AcDbLine
 62
7
  6
CONTINUOUS
 10
665.0754481356
 20
501.5206236324
 11
663.7004481356
 21
500.1456236324
  0
LINE
  5
27E
100
AcDbEntity
  8
0
100
AcDbLine
 62
7
  6
CONTINUOUS
 10
658.5771690246
 20
542.7491743602
 11
656.3754481356
 21
546.562666804
  0
LINE
  5
27F
100
AcDbEntity
  8
0
100
AcDbLine
 62
7
  6
CONTINUOUS
 10
656.5094227319
 20
550.3306159965
 11
660.3092198322
 21
543.7491743602
  0
LWPOLYLINE
  5
280
100
AcDbEntity
  8
0
100
AcDbPolyline
 62
7
  6
CONTINUOUS
 90
3
 70
0
 10
659.1353487002
 20
506.0726801129
 10
658.7853477548
 20
506.9239432883
 10
657.8754481356
 20
508.0999467009
  0
LINE
  5
281
100
AcDbEntity
  8
0
100
AcDbLine
 62
7
  6
CONTINUOUS
 10
665.0085228875
 20
490.81862287
 11
664.7304242617
 21
491.623342335
  0
LINE
  5
282
100
AcDbEntity
  8
0
100
AcDbLine
 62
7
  6
CONTINUOUS
 10
650.3045486874
 20
497.4956236324
 11
650.3045486874
 21
508.2956236314
  0
LINE
  5
283
100
AcDbEntity
  8
0
100
AcDbLine
 62
7
  6
CONTINUOUS
 10
652.0754481356
 20
516.8956236324
 11
652.0754481356
 21
495.0456236324
  0
LINE
  5
284
100
AcDbEntity
  8
0
100
AcDbLine
 62
7
  6
CONTINUOUS
 10
654.0754481356
 20
516.8956236324
 11
654.0754481356
 21
495.0456236324
  0
LINE
  5
285
100
AcDbEntity
  8
0
100
AcDbLine
 62
7
  6
CONTINUOUS
 10
654.3754481356
 20
495.0456236324
 11
654.3754481356
 21
564.8956236324
  0
LINE
  5
286
100
AcDbEntity
  8
0
100
AcDbLine
 62
7
  6
CONTINUOUS
 10
656.3754481356
 20
564.8956236324
 11
656.3754481356
 21
481.3956236324
  0
LINE
  5
287
100
AcDbEntity
  8
0
100
AcDbLine
 62
7
  6
CONTINUOUS
 10
657.8754481356
 20
481.3956236324
 11
657.8754481356
 21
510.8955280243
  0
LINE
  5
288
100
AcDbEntity
  8
0
100
AcDbLine
 62
7
  6
CONTINUOUS
 10
658.7111436208
 20
521.1776404147
 11
658.7111436208
 21
542.2491743602
  0
LINE
  5
289
100
AcDbEntity
  8
0
100
AcDbLine
 62
7
  6
CONTINUOUS
 10
660.0754481356
 20
480.3956236324
 11
660.0754481356
 21
478.8956236324
  0
LINE
  5
28A
100
AcDbEntity
  8
0
100
AcDbLine
 62
7
  6
CONTINUOUS
 10
660.7111436208
 20
542.2491743602
 11
660.7111436208
 21
521.1776404147
  0
LINE
  5
28B
100
AcDbEntity
  8
0
100
AcDbLine
 62
7
  6
CONTINUOUS
 10
662.1754481356
 20
481.3956236324
 11
662.1754481356
 21
494.8943728956
  0
LINE
  5
28C
100
AcDbEntity
  8
0
100
AcDbLine
 62
7
  6
CONTINUOUS
 10
662.294486789
 20
478.8956236324
 11
662.294486789
 21
480.3956236324
  0
LINE
  5
28D
100
AcDbEntity
  8
0
100
AcDbLine
 62
7
  6
CONTINUOUS
 10
663.6754481356
 20
494.8943728956
 11
663.6754481356
 21
481.3956236324
  0
LINE
  5
28E
100
AcDbEntity
  8
0
100
AcDbLine
 62
7
  6
CONTINUOUS
 10
663.7004481356
 20
505.6456236324
 11
663.7004481356
 21
500.1456236324
  0
LINE
  5
28F
100
AcDbEntity
  8
0
100
AcDbLine
 62
7
  6
CONTINUOUS
 10
663.8254481356
 20
481.8956236324
 11
663.8254481356
 21
480.8956236324
  0
LINE
  5
290
100
AcDbEntity
  8
0
100
AcDbLine
 62
7
  6
CONTINUOUS
 10
665.0754481356
 20
504.2686585736
 11
665.0754481356
 21
501.5225886912
  0
LINE
  5
291
100
AcDbEntity
  8
0
100
AcDbLine
 62
7
  6
CONTINUOUS
 10
670.3254481356
 20
481.8956236324
 11
670.3254481356
 21
480.8956236324
  0
LINE
  5
292
100
AcDbEntity
  8
0
100
AcDbLine
 62
7
  6
CONTINUOUS
 10
675.1754481356
 20
487.3956236324
 11
675.1754481356
 21
481.3956236324
  0
LINE
  5
293
100
AcDbEntity
  8
0
100
AcDbLine
 62
7
  6
CONTINUOUS
 10
676.6754481356
 20
487.3956236324
 11
676.6754481356
 21
481.3956236324
  0
LINE
  5
294
100
AcDbEntity
  8
0
100
AcDbLine
 62
7
  6
CONTINUOUS
 10
664.4237013351
 20
486.8633611492
 11
664.5562198729
 21
487.8359055676
  0
LINE
  5
295
100
AcDbEntity
  8
0
100
AcDbLine
 62
7
  6
CONTINUOUS
 10
664.0946521685
 20
485.0150783971
 11
664.4237013351
 21
486.8633611492
  0
LINE
  5
296
100
AcDbEntity
  8
0
100
AcDbLine
 62
7
  6
CONTINUOUS
 10
658.2159373349
 20
499.7366980794
 11
658.4303032102
 21
500.6317439257
  0
LINE
  5
297
100
AcDbEntity
  8
0
100
AcDbLine
 62
7
  6
CONTINUOUS
 10
663.6754481356
 20
483.8960095251
 11
664.0946523018
 21
485.0150789105
  0
LINE
  5
298
100
AcDbEntity
  8
0
100
AcDbLine
 62
7
  6
CONTINUOUS
 10
657.8754481356
 20
498.8960095313
 11
658.2159373349
 21
499.7366980794
  0
LINE
  5
299
100
AcDbEntity
  8
0
100
AcDbLine
 62
7
  6
CONTINUOUS
 10
659.2381739574
 20
505.6456236324
 11
659.1353487002
 21
506.0726801129
  0
LINE
  5
29A
100
AcDbEntity
  8
0
100
AcDbLine
 62
7
  6
CONTINUOUS
 10
665.3494949234
 20
488.92220446
 11
665.0085228769
 21
490.8186229291
  0
LINE
  5
29B
100
AcDbEntity
  8
0
100
AcDbLine
 62
7
  6
CONTINUOUS
 10
665.4615770015
 20
488.099145116
 11
665.3494949234
 21
488.92220446
  0
ARC
  5
29C
100
AcDbEntity
  8
0
100
AcDbCircle
 62
7
  6
CONTINUOUS
 10
100.2754481356
 20
502.8956236324
 40
8.2
100
AcDbArc
 50
318.8116402575
 51
340.8167779393
  0
ARC
  5
29D
100
AcDbEntity
  8
0
100
AcDbCircle
 62
7
  6
CONTINUOUS
 10
100.2754481356
 20
502.8956236324
 40
8.2
100
AcDbArc
 50
19.1832220607
 51
41.1883597425
  0
ARC
  5
29E
100
AcDbEntity
  8
0
100
AcDbCircle
 62
7
  6
CONTINUOUS
 10
100.559271516
 20
502.6850216545
 40
7.8448939153
100
AcDbArc
 50
341.5414650538
 51
354.8362151756
  0
ARC
  5
29F
100
AcDbEntity
  8
0
100
AcDbCircle
 62
7
  6
CONTINUOUS
 10
100.5665777658
 20
502.6849021819
 40
7.8379260314
100
AcDbArc
 50
341.5253831498
 51
345.963921496
  0
ARC
  5
2A0
100
AcDbEntity
  8
0
100
AcDbCircle
 62
7
  6
CONTINUOUS
 10
100.5674254548
 20
503.1070691273
 40
7.8368926014
100
AcDbArc
 50
9.5965676831
 51
18.4715600293
  0
ARC
  5
2A1
100
AcDbEntity
  8
0
100
AcDbCircle
 62
7
  6
CONTINUOUS
 10
100.5855946543
 20
502.6799106408
 40
7.8182663172
100
AcDbArc
 50
345.965609164
 51
350.4120710653
  0
ARC
  5
2A2
100
AcDbEntity
  8
0
100
AcDbCircle
 62
7
  6
CONTINUOUS
 10
100.5855946544
 20
503.111336624
 40
7.8182663171
100
AcDbArc
 50
9.5879289344
 51
14.034390836
  0
ARC
  5
2A3
100
AcDbEntity
  8
0
100
AcDbCircle
 62
7
  6
CONTINUOUS
 10
100.5954257807
 20
502.678013272
 40
7.808256496
100
AcDbArc
 50
350.413783589
 51
354.8635555733
  0
ARC
  5
2A4
100
AcDbEntity
  8
0
100
AcDbCircle
 62
7
  6
CONTINUOUS
 10
100.5954257805
 20
503.1132339928
 40
7.8082564963
100
AcDbArc
 50
5.1364444266
 51
9.5862164106
  0
ARC
  5
2A5
100
AcDbEntity
  8
0
100
AcDbCircle
 62
7
  6
CONTINUOUS
 10
100.2754481356
 20
502.8956236324
 40
7.7446755904
100
AcDbArc
 50
355.9276244829
 51
4.0723755171
  0
ARC
  5
2A6
100
AcDbEntity
  8
0
100
AcDbCircle
 62
7
  6
CONTINUOUS
 10
105.6754481356
 20
516.8956236324
 40
3.0
100
AcDbArc
 50
90.0
 51
180.0
  0
ARC
  5
2A7
100
AcDbEntity
  8
0
100
AcDbCircle
 62
7
  6
CONTINUOUS
 10
97.8754481356
 20
481.3956236324
 40
2.5
100
AcDbArc
 50
270.0
 51
360.0
  0
ARC
  5
2A8
100
AcDbEntity
  8
0
100
AcDbCircle
 62
7
  6
CONTINUOUS
 10
82.5754481356
 20
481.3956236324
 40
2.5
100
AcDbArc
 50
180.0
 51
270.0
  0
ARC
  5
2A9
100
AcDbEntity
  8
0
100
AcDbCircle
 62
7
  6
CONTINUOUS
 10
92.0754481356
 20
481.3956236324
 40
2.5
100
AcDbArc
 50
270.0
 51
360.0
  0
ARC
  5
2AA
100
AcDbEntity
  8
0
100
AcDbCircle
 62
7
  6
CONTINUOUS
 10
102.5254481356
 20
495.0456236324
 40
2.15
100
AcDbArc
 50
180.0
 51
360.0
  0
ARC
  5
2AB
100
AcDbEntity
  8
0
100
AcDbCircle
 62
7
  6
CONTINUOUS
 10
97.8754481356
 20
481.3956236324
 40
1.0
100
AcDbArc
 50
270.0
 51
360.0
  0
ARC
  5
2AC
100
AcDbEntity
  8
0
100
AcDbCircle
 62
7
  6
CONTINUOUS
 10
105.6754481356
 20
516.8956236324
 40
1.0
100
AcDbArc
 50
90.0
 51
180.0
  0
ARC
  5
2AD
100
AcDbEntity
  8
0
100
AcDbCircle
 62
7
  6
CONTINUOUS
 10
82.5754481356
 20
481.3956236324
 40
1.0
100
AcDbArc
 50
180.0
 51
270.0
  0
ARC
  5
2AE
100
AcDbEntity
  8
0
100
AcDbCircle
 62
7
  6
CONTINUOUS
 10
92.0754481356
 20
481.3956236324
 40
1.0
100
AcDbArc
 50
270.0
 51
360.0
  0
ARC
  5
2AF
100
AcDbEntity
  8
0
100
AcDbCircle
 62
7
  6
CONTINUOUS
 10
107.5586364426
 20
501.4745976946
 40
0.9684377519
100
AcDbArc
 50
45.207762898
 51
48.4914351541
  0
ARC
  5
2B0
100
AcDbEntity
  8
0
100
AcDbCircle
 62
7
  6
CONTINUOUS
 10
107.5668702602
 20
504.3079448096
 40
0.9565130712
100
AcDbArc
 50
311.4879011836
 51
314.8125849917
  0
ARC
  5
2B1
100
AcDbEntity
  8
0
100
AcDbCircle
 62
7
  6
CONTINUOUS
 10
102.5254481356
 20
495.0456236324
 40
0.15
100
AcDbArc
 50
180.0
 51
360.0
  0
ARC
  5
2B2
100
AcDbEntity
  8
0
100
AcDbCircle
 62
7
  6
CONTINUOUS
 10
132.4504481356
 20
568.8956236324
 40
3.0
100
AcDbArc
 50
270.0
 51
360.0
  0
ARC
  5
2B3
100
AcDbEntity
  8
0
100
AcDbCircle
 62
7
  6
CONTINUOUS
 10
103.3754481356
 20
564.8956236324
 40
3.0
100
AcDbArc
 50
90.0
 51
180.0
  0
ARC
  5
2B4
100
AcDbEntity
  8
0
100
AcDbCircle
 62
7
  6
CONTINUOUS
 10
99.0397526504
 20
542.2491743602
 40
3.0
100
AcDbArc
 50
150.0000000004
 51
180.0
  0
ARC
  5
2B5
100
AcDbEntity
  8
0
100
AcDbCircle
 62
7
  6
CONTINUOUS
 10
132.4504481356
 20
568.8956236324
 40
1.0
100
AcDbArc
 50
270.0
 51
360.0
  0
ARC
  5
2B6
100
AcDbEntity
  8
0
100
AcDbCircle
 62
7
  6
CONTINUOUS
 10
103.3754481356
 20
564.8956236324
 40
1.0
100
AcDbArc
 50
90.0
 51
180.0
  0
ARC
  5
2B7
100
AcDbEntity
  8
0
100
AcDbCircle
 62
7
  6
CONTINUOUS
 10
99.0397526504
 20
542.2491743602
 40
1.0
100
AcDbArc
 50
150.0000000004
 51
180.0
  0
ARC
  5
2B8
100
AcDbEntity
  8
0
100
AcDbCircle
 62
7
  6
CONTINUOUS
 10
99.3754481356
 20
550.8306159965
 40
1.0
100
AcDbArc
 50
330.0000000003
 51
344.9999999998
  0
ARC
  5
2B9
100
AcDbEntity
  8
0
100
AcDbCircle
 62
7
  6
CONTINUOUS
 10
656.4754481356
 20
502.8956236324
 40
8.2
100
AcDbArc
 50
199.1832220607
 51
221.1883597425
  0
ARC
  5
2BA
100
AcDbEntity
  8
0
100
AcDbCircle
 62
7
  6
CONTINUOUS
 10
656.4754481356
 20
502.8956236324
 40
8.2
100
AcDbArc
 50
138.8116402575
 51
160.8167779393
  0
ARC
  5
2BB
100
AcDbEntity
  8
0
100
AcDbCircle
 62
7
  6
CONTINUOUS
 10
656.1916247553
 20
503.1062256103
 40
7.8448939153
100
AcDbArc
 50
161.5414650538
 51
174.8362151756
  0
ARC
  5
2BC
100
AcDbEntity
  8
0
100
AcDbCircle
 62
7
  6
CONTINUOUS
 10
656.1843185054
 20
503.1063450829
 40
7.8379260314
100
AcDbArc
 50
161.5253831498
 51
165.9639214961
  0
ARC
  5
2BD
100
AcDbEntity
  8
0
100
AcDbCircle
 62
7
  6
CONTINUOUS
 10
656.1834708165
 20
502.6841781375
 40
7.8368926015
100
AcDbArc
 50
189.5965676834
 51
198.4715600293
  0
ARC
  5
2BE
100
AcDbEntity
  8
0
100
AcDbCircle
 62
7
  6
CONTINUOUS
 10
656.1653016169
 20
502.6799106407
 40
7.8182663171
100
AcDbArc
 50
189.5879289344
 51
194.034390836
  0
ARC
  5
2BF
100
AcDbEntity
  8
0
100
AcDbCircle
 62
7
  6
CONTINUOUS
 10
656.1653016168
 20
503.111336624
 40
7.818266317
100
AcDbArc
 50
165.965609164
 51
170.4120710656
  0
ARC
  5
2C0
100
AcDbEntity
  8
0
100
AcDbCircle
 62
7
  6
CONTINUOUS
 10
656.1554704906
 20
502.678013272
 40
7.8082564962
100
AcDbArc
 50
185.1364444267
 51
189.586216411
  0
ARC
  5
2C1
100
AcDbEntity
  8
0
100
AcDbCircle
 62
7
  6
CONTINUOUS
 10
656.1554704907
 20
503.1132339928
 40
7.8082564963
100
AcDbArc
 50
170.4137835894
 51
174.8635555734
  0
ARC
  5
2C2
100
AcDbEntity
  8
0
100
AcDbCircle
 62
7
  6
CONTINUOUS
 10
656.4754481356
 20
502.8956236324
 40
7.7446755904
100
AcDbArc
 50
175.927624483
 51
184.0723755171
  0
ARC
  5
2C3
100
AcDbEntity
  8
0
100
AcDbCircle
 62
7
  6
CONTINUOUS
 10
651.0754481356
 20
516.8956236324
 40
3.0
100
AcDbArc
 50
0.0
 51
90.0
  0
ARC
  5
2C4
100
AcDbEntity
  8
0
100
AcDbCircle
 62
7
  6
CONTINUOUS
 10
658.8754481356
 20
481.3956236324
 40
2.5
100
AcDbArc
 50
180.0
 51
270.0
  0
ARC
  5
2C5
100
AcDbEntity
  8
0
100
AcDbCircle
 62
7
  6
CONTINUOUS
 10
674.1754481356
 20
481.3956236324
 40
2.5
100
AcDbArc
 50
270.0
 51
360.0
  0
ARC
  5
2C6
100
AcDbEntity
  8
0
100
AcDbCircle
 62
7
  6
CONTINUOUS
 10
664.6754481356
 20
481.3956236324
 40
2.5
100
AcDbArc
 50
180.0
 51
270.0
  0
ARC
  5
2C7
100
AcDbEntity
  8
0
100
AcDbCircle
 62
7
  6
CONTINUOUS
 10
654.2254481356
 20
495.0456236324
 40
2.15
100
AcDbArc
 50
180.0
 51
360.0
  0
ARC
  5
2C8
100
AcDbEntity
  8
0
100
AcDbCircle
 62
7
  6
CONTINUOUS
 10
658.8754481356
 20
481.3956236324
 40
1.0
100
AcDbArc
 50
180.0
 51
270.0
  0
ARC
  5
2C9
100
AcDbEntity
  8
0
100
AcDbCircle
 62
7
  6
CONTINUOUS
 10
664.6754481356
 20
481.3956236324
 40
1.0
100
AcDbArc
 50
180.0
 51
270.0
  0
ARC
  5
2CA
100
AcDbEntity
  8
0
100
AcDbCircle
 62
7
  6
CONTINUOUS
 10
674.1754481356
 20
481.3956236324
 40
1.0
100
AcDbArc
 50
270.0
 51
360.0
  0
ARC
  5
2CB
100
AcDbEntity
  8
0
100
AcDbCircle
 62
7
  6
CONTINUOUS
 10
651.0754481356
 20
516.8956236324
 40
1.0
100
AcDbArc
 50
0.0
 51
90.0
  0
ARC
  5
2CC
100
AcDbEntity
  8
0
100
AcDbCircle
 62
7
  6
CONTINUOUS
 10
649.1922598287
 20
504.3166495703
 40
0.968437752
100
AcDbArc
 50
225.2077628981
 51
228.4914351539
  0
ARC
  5
2CD
100
AcDbEntity
  8
0
100
AcDbCircle
 62
7
  6
CONTINUOUS
 10
649.1840260112
 20
501.483302455
 40
0.9565130713
100
AcDbArc
 50
131.4879011837
 51
134.8125849912
  0
ARC
  5
2CE
100
AcDbEntity
  8
0
100
AcDbCircle
 62
7
  6
CONTINUOUS
 10
670.8254481356
 20
480.8956236324
 40
0.5
100
AcDbArc
 50
180.0
 51
269.9998200595
  0
ARC
  5
2CF
100
AcDbEntity
  8
0
100
AcDbCircle
 62
7
  6
CONTINUOUS
 10
654.2254481356
 20
495.0456236324
 40
0.15
100
AcDbArc
 50
180.0
 51
360.0
  0
ARC
  5
2D0
100
AcDbEntity
  8
0
100
AcDbCircle
 62
7
  6
CONTINUOUS
 10
657.7111436208
 20
542.2491743602
 40
3.0
100
AcDbArc
 50
0.0
 51
29.9999999996
  0
ARC
  5
2D1
100
AcDbEntity
  8
0
100
AcDbCircle
 62
7
  6
CONTINUOUS
 10
653.3754481356
 20
564.8956236324
 40
3.0
100
AcDbArc
 50
0.0
 51
90.0
  0
ARC
  5
2D2
100
AcDbEntity
  8
0
100
AcDbCircle
 62
7
  6
CONTINUOUS
 10
624.3004481356
 20
568.8956236324
 40
3.0
100
AcDbArc
 50
180.0
 51
270.0
  0
ARC
  5
2D3
100
AcDbEntity
  8
0
100
AcDbCircle
 62
7
  6
CONTINUOUS
 10
657.7111436208
 20
542.2491743602
 40
1.0
100
AcDbArc
 50
0.0
 51
29.9999999996
  0
ARC
  5
2D4
100
AcDbEntity
  8
0
100
AcDbCircle
 62
7
  6
CONTINUOUS
 10
657.3754481356
 20
550.8306159965
 40
1.0
100
AcDbArc
 50
195.0000000002
 51
209.9999999997
  0
ARC
  5
2D5
100
AcDbEntity
  8
0
100
AcDbCircle
 62
7
  6
CONTINUOUS
 10
653.3754481356
 20
564.8956236324
 40
1.0
100
AcDbArc
 50
0.0
 51
90.0
  0
ARC
  5
2D6
100
AcDbEntity
  8
0
100
AcDbCircle
 62
7
  6
CONTINUOUS
 10
624.3004481356
 20
568.8956236324
 40
1.0
100
AcDbArc
 50
180.0
 51
270.0
  0
SPLINE
  5
2D7
100
AcDbEntity
  8
0
100
AcDbSpline
 62
7
  6
CONTINUOUS
 70
0
 71
3
 72
11
 73
7
 74
0
 42
0.0000001
 43
0.0000001
 44
0.0000000001
 40
0.0
 40
0.0
 40
0.0
 40
0.0
 40
0.3978062161
 40
0.7053976264
 40
0.9063027932
 40
1.0
 40
1.0
 40
1.0
 40
1.0
 10
663.7987408121
 20
486.7840601052
 30
0.0
 10
663.821857005
 20
486.6388676487
 30
0.0
 10
663.8637525116
 20
486.3842191158
 30
0.0
 10
663.93988063
 20
486.0486534683
 30
0.0
 10
663.9956144202
 20
485.8513034982
 30
0.0
 10
664.0674328728
 20
485.7363680927
 30
0.0
 10
664.1020607953
 20
485.7365828216
 30
0.0
  0
SPLINE
  5
2D8
100
AcDbEntity
  8
0
100
AcDbSpline
 62
7
  6
CONTINUOUS
 70
0
 71
3
 72
9
 73
5
 74
0
 42
0.0000001
 43
0.0000001
 44
0.0000000001
 40
0.0
 40
0.0
 40
0.0
 40
0.0
 40
0.1640887632
 40
1.0
 40
1.0
 40
1.0
 40
1.0
 10
665.0261540963
 20
490.0552075413
 30
0.0
 10
665.0179484312
 20
490.055085943
 30
0.0
 10
664.9689364227
 20
490.0360830651
 30
0.0
 10
664.9486488864
 20
489.9826126607
 30
0.0
 10
664.9320865169
 20
489.9442269454
 30
0.0
  0
SPLINE
  5
2D9
100
AcDbEntity
  8
0
100
AcDbSpline
 62
7
  6
CONTINUOUS
 70
0
 71
3
 72
9
 73
5
 74
0
 42
0.0000001
 43
0.0000001
 44
0.0000000001
 40
0.0
 40
0.0
 40
0.0
 40
0.0
 40
0.3873102292
 40
1.0
 40
1.0
 40
1.0
 40
1.0
 10
664.9320865169
 20
489.9442269454
 30
0.0
 10
664.8638030596
 20
489.7859700406
 30
0.0
 10
664.7786437599
 20
489.3439943617
 30
0.0
 10
664.7067321194
 20
488.906969968
 30
0.0
 10
664.667561873
 20
488.637140734
 30
0.0
  0
SPLINE
  5
2DA
100
AcDbEntity
  8
0
100
AcDbSpline
 62
7
  6
CONTINUOUS
 70
0
 71
3
 72
8
 73
4
 74
0
 42
0.0000001
 43
0.0000001
 44
0.0000000001
 40
0.0
 40
0.0
 40
0.0
 40
0.0
 40
1.0
 40
1.0
 40
1.0
 40
1.0
 10
664.667561873
 20
488.637140734
 30
0.0
 10
664.6288243651
 20
488.3702924747
 30
0.0
 10
664.5926658889
 20
488.1030749013
 30
0.0
 10
664.5562221047
 20
487.8359037229
 30
0.0
  0
SPLINE
  5
2DB
100
AcDbEntity
  8
0
100
AcDbSpline
 62
7
  6
CONTINUOUS
 70
0
 71
3
 72
8
 73
4
 74
0
 42
0.0000001
 43
0.0000001
 44
0.0000000001
 40
0.0
 40
0.0
 40
0.0
 40
0.0
 40
1.0
 40
1.0
 40
1.0
 40
1.0
 10
648.3785694503
 20
501.9789569657
 30
0.0
 10
648.4085488815
 20
502.0477653822
 30
0.0
 10
648.4566820487
 20
502.1089266221
 30
0.0
 10
648.509885116
 20
502.1618680812
 30
0.0
  0
SPLINE
  5
2DC
100
AcDbEntity
  8
0
100
AcDbSpline
 62
7
  6
CONTINUOUS
 70
0
 71
3
 72
8
 73
4
 74
0
 42
0.0000001
 43
0.0000001
 44
0.0000000001
 40
0.0
 40
0.0
 40
0.0
 40
0.0
 40
1.0
 40
1.0
 40
1.0
 40
1.0
 10
648.5503725629
 20
502.1998222127
 30
0.0
 10
648.6121192884
 20
502.2545191748
 30
0.0
 10
648.6801352363
 20
502.3022927736
 30
0.0
 10
648.7503267774
 20
502.3456236324
 30
0.0
  0
SPLINE
  5
2DD
100
AcDbEntity
  8
0
100
AcDbSpline
 62
7
  6
CONTINUOUS
 70
0
 71
3
 72
9
 73
5
 74
0
 42
0.0000001
 43
0.0000001
 44
0.0000000001
 40
0.0
 40
0.0
 40
0.0
 40
0.0
 40
0.2041669471
 40
1.0
 40
1.0
 40
1.0
 40
1.0
 10
648.3785694503
 20
501.9789569657
 30
0.0
 10
648.3928939726
 20
502.0118344306
 30
0.0
 10
648.4840219524
 20
502.163832205
 30
0.0
 10
648.6313761934
 20
502.2721926907
 30
0.0
 10
648.7503267774
 20
502.3456236324
 30
0.0
  0
SPLINE
  5
2DE
100
AcDbEntity
  8
0
100
AcDbSpline
 62
7
  6
CONTINUOUS
 70
0
 71
3
 72
8
 73
4
 74
0
 42
0.0000001
 43
0.0000001
 44
0.0000000001
 40
0.0
 40
0.0
 40
0.0
 40
0.0
 40
1.0
 40
1.0
 40
1.0
 40
1.0
 10
648.3785694503
 20
503.8122902991
 30
0.0
 10
648.4085542781
 20
503.7434694965
 30
0.0
 10
648.4567275363
 20
503.6823145349
 30
0.0
 10
648.5099585688
 20
503.6293820313
 30
0.0
  0
SPLINE
  5
2DF
100
AcDbEntity
  8
0
100
AcDbSpline
 62
7
  6
CONTINUOUS
 70
0
 71
3
 72
8
 73
4
 74
0
 42
0.0000001
 43
0.0000001
 44
0.0000000001
 40
0.0
 40
0.0
 40
0.0
 40
0.0
 40
1.0
 40
1.0
 40
1.0
 40
1.0
 10
648.5504451422
 20
503.5914285091
 30
0.0
 10
648.6121601695
 20
503.5367242245
 30
0.0
 10
648.6801512913
 20
503.4889445801
 30
0.0
 10
648.7503267774
 20
503.4456236324
 30
0.0
  0
SPLINE
  5
2E0
100
AcDbEntity
  8
0
100
AcDbSpline
 62
7
  6
CONTINUOUS
 70
0
 71
3
 72
9
 73
5
 74
0
 42
0.0000001
 43
0.0000001
 44
0.0000000001
 40
0.0
 40
0.0
 40
0.0
 40
0.0
 40
0.2041888969
 40
1.0
 40
1.0
 40
1.0
 40
1.0
 10
648.3785694503
 20
503.8122902991
 30
0.0
 10
648.3928954483
 20
503.7794094472
 30
0.0
 10
648.4840459322
 20
503.6274257305
 30
0.0
 10
648.6313800081
 20
503.5190522192
 30
0.0
 10
648.7503267774
 20
503.4456236324
 30
0.0
  0
LINE
  5
2E1
100
AcDbEntity
  8
0
100
AcDbLine
 62
7
  6
CONTINUOUS
 10
658.7150526802
 20
502.8956249997
 11
658.7052057406
 21
502.8036793995
  0
SPLINE
  5
2E2
100
AcDbEntity
  8
0
100
AcDbSpline
 62
7
  6
CONTINUOUS
 70
0
 71
3
 72
8
 73
4
 74
0
 42
0.0000001
 43
0.0000001
 44
0.0000000001
 40
0.0
 40
0.0
 40
0.0
 40
0.0
 40
1.0
 40
1.0
 40
1.0
 40
1.0
 10
658.7052057406
 20
502.8036793995
 30
0.0
 10
658.6695709945
 20
502.4710612096
 30
0.0
 10
658.6338741449
 20
502.138439995
 30
0.0
 10
658.595120065
 20
501.806170802
 30
0.0
  0
SPLINE
  5
2E3
100
AcDbEntity
  8
0
100
AcDbSpline
 62
7
  6
CONTINUOUS
 70
0
 71
3
 72
9
 73
5
 74
0
 42
0.0000001
 43
0.0000001
 44
0.0000000001
 40
0.0
 40
0.0
 40
0.0
 40
0.0
 40
0.2900257365
 40
1.0
 40
1.0
 40
1.0
 40
1.0
 10
658.595120065
 20
501.806170802
 30
0.0
 10
658.5818373771
 20
501.6922878766
 30
0.0
 10
658.5343711693
 20
501.299881458
 30
0.0
 10
658.4823094738
 20
500.9076024413
 30
0.0
 10
658.430311742
 20
500.6317893015
 30
0.0
  0
SPLINE
  5
2E4
100
AcDbEntity
  8
0
100
AcDbSpline
 62
7
  6
CONTINUOUS
 70
0
 71
3
 72
11
 73
7
 74
0
 42
0.0000001
 43
0.0000001
 44
0.0000000001
 40
0.0
 40
0.0
 40
0.0
 40
0.0
 40
0.3815265368
 40
0.6984940232
 40
0.9108169503
 40
1.0
 40
1.0
 40
1.0
 40
1.0
 10
665.4586054618
 20
488.1208326141
 30
0.0
 10
665.4240293277
 20
488.373051482
 30
0.0
 10
665.3609997817
 20
488.8268504306
 30
0.0
 10
665.2583494865
 20
489.4539149106
 30
0.0
 10
665.1750397962
 20
489.8019628929
 30
0.0
 10
665.085655944
 20
490.0560892891
 30
0.0
 10
665.0261540963
 20
490.0552075413
 30
0.0
  0
SPLINE
  5
2E5
100
AcDbEntity
  8
0
100
AcDbSpline
 62
7
  6
CONTINUOUS
 70
0
 71
3
 72
10
 73
6
 74
0
 42
0.0000001
 43
0.0000001
 44
0.0000000001
 40
0.0
 40
0.0
 40
0.0
 40
0.0
 40
0.0913795305
 40
0.2871324935
 40
1.0
 40
1.0
 40
1.0
 40
1.0
 10
659.1775530097
 20
505.6457174565
 30
0.0
 10
659.1506556394
 20
505.6457708283
 30
0.0
 10
659.0948224539
 20
505.5570465387
 30
0.0
 10
659.0199714191
 20
505.2936281709
 30
0.0
 10
658.9726697037
 20
505.0173148699
 30
0.0
 10
658.9417253762
 20
504.809777682
 30
0.0
  0
SPLINE
  5
2E6
100
AcDbEntity
  8
0
100
AcDbSpline
 62
7
  6
CONTINUOUS
 70
0
 71
3
 72
9
 73
5
 74
0
 42
0.0000001
 43
0.0000001
 44
0.0000000001
 40
0.0
 40
0.0
 40
0.0
 40
0.0
 40
0.2163292992
 40
1.0
 40
1.0
 40
1.0
 40
1.0
 10
658.9417253762
 20
504.809777682
 30
0.0
 10
658.9212267162
 20
504.6722974199
 30
0.0
 10
658.8356080455
 20
504.0354313444
 30
0.0
 10
658.7686620235
 20
503.3963022781
 30
0.0
 10
658.715051518
 20
502.8956251223
 30
0.0
  0
SPLINE
  5
2E7
100
AcDbEntity
  8
0
100
AcDbSpline
 62
7
  6
CONTINUOUS
 70
0
 71
3
 72
11
 73
7
 74
0
 42
0.0000001
 43
0.0000001
 44
0.0000000001
 40
0.0
 40
0.0
 40
0.0
 40
0.0
 40
0.0937228951
 40
0.294636282
 40
0.6021867298
 40
1.0
 40
1.0
 40
1.0
 40
1.0
 10
92.6488348763
 20
485.7365557486
 30
0.0
 10
92.6833840995
 20
485.7363366115
 30
0.0
 10
92.7551328964
 20
485.8508849546
 30
0.0
 10
92.8107535252
 20
486.0477732527
 30
0.0
 10
92.8867975274
 20
486.3824222932
 30
0.0
 10
92.9286281477
 20
486.6364123864
 30
0.0
 10
92.9517074982
 20
486.781234416
 30
0.0
  0
SPLINE
  5
2E8
100
AcDbEntity
  8
0
100
AcDbSpline
 62
7
  6
CONTINUOUS
 70
0
 71
3
 72
8
 73
4
 74
0
 42
0.0000001
 43
0.0000001
 44
0.0000000001
 40
0.0
 40
0.0
 40
0.0
 40
0.0
 40
1.0
 40
1.0
 40
1.0
 40
1.0
 10
92.1946741507
 20
487.8359037549
 30
0.0
 10
92.1582291277
 20
488.1030838606
 30
0.0
 10
92.1220694445
 20
488.3703103671
 30
0.0
 10
92.0833304319
 20
488.6371675153
 30
0.0
  0
SPLINE
  5
2E9
100
AcDbEntity
  8
0
100
AcDbSpline
 62
7
  6
CONTINUOUS
 70
0
 71
3
 72
9
 73
5
 74
0
 42
0.0000001
 43
0.0000001
 44
0.0000000001
 40
0.0
 40
0.0
 40
0.0
 40
0.0
 40
0.6126972546
 40
1.0
 40
1.0
 40
1.0
 40
1.0
 10
92.0833304319
 20
488.6371675153
 30
0.0
 10
92.0441596109
 20
488.9069992145
 30
0.0
 10
91.9722464281
 20
489.3440212486
 30
0.0
 10
91.8870876814
 20
489.7859973273
 30
0.0
 10
91.8188000364
 20
489.9442482414
 30
0.0
  0
SPLINE
  5
2EA
100
AcDbEntity
  8
0
100
AcDbSpline
 62
7
  6
CONTINUOUS
 70
0
 71
3
 72
9
 73
5
 74
0
 42
0.0000001
 43
0.0000001
 44
0.0000000001
 40
0.0
 40
0.0
 40
0.0
 40
0.0
 40
0.3607959376
 40
1.0
 40
1.0
 40
1.0
 40
1.0
 10
91.8188000364
 20
489.9442482414
 30
0.0
 10
91.8117485334
 20
489.9605895108
 30
0.0
 10
91.7917133101
 20
490.0025185188
 30
0.0
 10
91.7562701218
 20
490.0547390814
 30
0.0
 10
91.7247421592
 20
490.0552062888
 30
0.0
  0
SPLINE
  5
2EB
100
AcDbEntity
  8
0
100
AcDbSpline
 62
7
  6
CONTINUOUS
 70
0
 71
3
 72
9
 73
5
 74
0
 42
0.0000001
 43
0.0000001
 44
0.0000000001
 40
0.0
 40
0.0
 40
0.0
 40
0.0
 40
0.2041888969
 40
1.0
 40
1.0
 40
1.0
 40
1.0
 10
108.3723268209
 20
501.9789569657
 30
0.0
 10
108.3580008229
 20
502.0118378176
 30
0.0
 10
108.2668503391
 20
502.1638215343
 30
0.0
 10
108.1195162632
 20
502.2721950456
 30
0.0
 10
108.0005694939
 20
502.3456236324
 30
0.0
  0
SPLINE
  5
2EC
100
AcDbEntity
  8
0
100
AcDbSpline
 62
7
  6
CONTINUOUS
 70
0
 71
3
 72
8
 73
4
 74
0
 42
0.0000001
 43
0.0000001
 44
0.0000000001
 40
0.0
 40
0.0
 40
0.0
 40
0.0
 40
1.0
 40
1.0
 40
1.0
 40
1.0
 10
108.3723268209
 20
501.9789569657
 30
0.0
 10
108.3423419932
 20
502.0477777683
 30
0.0
 10
108.2941687349
 20
502.1089327298
 30
0.0
 10
108.2409377024
 20
502.1618652335
 30
0.0
  0
SPLINE
  5
2ED
100
AcDbEntity
  8
0
100
AcDbSpline
 62
7
  6
CONTINUOUS
 70
0
 71
3
 72
8
 73
4
 74
0
 42
0.0000001
 43
0.0000001
 44
0.0000000001
 40
0.0
 40
0.0
 40
0.0
 40
0.0
 40
1.0
 40
1.0
 40
1.0
 40
1.0
 10
108.2004511291
 20
502.1998187557
 30
0.0
 10
108.1387361017
 20
502.2545230402
 30
0.0
 10
108.0707449799
 20
502.3023026847
 30
0.0
 10
108.0005694939
 20
502.3456236324
 30
0.0
  0
SPLINE
  5
2EE
100
AcDbEntity
  8
0
100
AcDbSpline
 62
7
  6
CONTINUOUS
 70
0
 71
3
 72
9
 73
5
 74
0
 42
0.0000001
 43
0.0000001
 44
0.0000000001
 40
0.0
 40
0.0
 40
0.0
 40
0.0
 40
0.2041669471
 40
1.0
 40
1.0
 40
1.0
 40
1.0
 10
108.3723268209
 20
503.8122902991
 30
0.0
 10
108.3580022986
 20
503.7794128342
 30
0.0
 10
108.2668743188
 20
503.6274150598
 30
0.0
 10
108.1195200778
 20
503.5190545741
 30
0.0
 10
108.0005694939
 20
503.4456236324
 30
0.0
  0
SPLINE
  5
2EF
100
AcDbEntity
  8
0
100
AcDbSpline
 62
7
  6
CONTINUOUS
 70
0
 71
3
 72
8
 73
4
 74
0
 42
0.0000001
 43
0.0000001
 44
0.0000000001
 40
0.0
 40
0.0
 40
0.0
 40
0.0
 40
1.0
 40
1.0
 40
1.0
 40
1.0
 10
108.3723268209
 20
503.8122902991
 30
0.0
 10
108.3423473897
 20
503.7434818826
 30
0.0
 10
108.2942142226
 20
503.6823206427
 30
0.0
 10
108.2410111553
 20
503.6293791836
 30
0.0
  0
SPLINE
  5
2F0
100
AcDbEntity
  8
0
100
AcDbSpline
 62
7
  6
CONTINUOUS
 70
0
 71
3
 72
8
 73
4
 74
0
 42
0.0000001
 43
0.0000001
 44
0.0000000001
 40
0.0
 40
0.0
 40
0.0
 40
0.0
 40
1.0
 40
1.0
 40
1.0
 40
1.0
 10
108.2005237083
 20
503.5914250521
 30
0.0
 10
108.1387769829
 20
503.53672809
 30
0.0
 10
108.0707610349
 20
503.4889544912
 30
0.0
 10
108.0005694939
 20
503.4456236324
 30
0.0
  0
SPLINE
  5
2F1
100
AcDbEntity
  8
0
100
AcDbSpline
 62
7
  6
CONTINUOUS
 70
0
 71
3
 72
9
 73
5
 74
0
 42
0.0000001
 43
0.0000001
 44
0.0000000001
 40
0.0
 40
0.0
 40
0.0
 40
0.0
 40
0.2051868604
 40
1.0
 40
1.0
 40
1.0
 40
1.0
 10
98.3205860429
 20
500.6317812509
 30
0.0
 10
98.3055577108
 20
500.7114967805
 30
0.0
 10
98.2399467116
 20
501.1014263647
 30
0.0
 10
98.1921805044
 20
501.4940562398
 30
0.0
 10
98.1557777757
 20
501.8061665561
 30
0.0
  0
SPLINE
  5
2F2
100
AcDbEntity
  8
0
100
AcDbSpline
 62
7
  6
CONTINUOUS
 70
0
 71
3
 72
8
 73
4
 74
0
 42
0.0000001
 43
0.0000001
 44
0.0000000001
 40
0.0
 40
0.0
 40
0.0
 40
0.0
 40
1.0
 40
1.0
 40
1.0
 40
1.0
 10
98.1557777757
 20
501.8061665561
 30
0.0
 10
98.1170237216
 20
502.1384367042
 30
0.0
 10
98.0813268952
 20
502.4710588723
 30
0.0
 10
98.0456921747
 20
502.803678016
 30
0.0
  0
LINE
  5
2F3
100
AcDbEntity
  8
0
100
AcDbLine
 62
7
  6
CONTINUOUS
 10
98.0456921747
 20
502.803678016
 11
98.0358451052
 21
502.8956251589
  0
SPLINE
  5
2F4
100
AcDbEntity
  8
0
100
AcDbSpline
 62
7
  6
CONTINUOUS
 70
0
 71
3
 72
9
 73
5
 74
0
 42
0.0000001
 43
0.0000001
 44
0.0000000001
 40
0.0
 40
0.0
 40
0.0
 40
0.0
 40
0.2744569364
 40
1.0
 40
1.0
 40
1.0
 40
1.0
 10
98.0358304168
 20
502.8956236086
 30
0.0
 10
98.0170554965
 20
503.0709596437
 30
0.0
 10
97.9482271527
 20
503.7097164068
 30
0.0
 10
97.8779052859
 20
504.3486421274
 30
0.0
 10
97.8091573963
 20
504.8097057769
 30
0.0
  0
SPLINE
  5
2F5
100
AcDbEntity
  8
0
100
AcDbSpline
 62
7
  6
CONTINUOUS
 70
0
 71
3
 72
10
 73
6
 74
0
 42
0.0000001
 43
0.0000001
 44
0.0000000001
 40
0.0
 40
0.0
 40
0.0
 40
0.0
 40
0.7128658562
 40
0.9086190846
 40
1.0
 40
1.0
 40
1.0
 40
1.0
 10
97.8091573963
 20
504.8097057769
 30
0.0
 10
97.7782129292
 20
505.0172375139
 30
0.0
 10
97.7309111012
 20
505.2935429934
 30
0.0
 10
97.6560595079
 20
505.556955924
 30
0.0
 10
97.6002260815
 20
505.6456770142
 30
0.0
 10
97.5733289295
 20
505.6456237794
 30
0.0
  0
SPLINE
  5
2F6
100
AcDbEntity
  8
0
100
AcDbSpline
 62
7
  6
CONTINUOUS
 70
0
 71
3
 72
11
 73
7
 74
0
 42
0.0000001
 43
0.0000001
 44
0.0000000001
 40
0.0
 40
0.0
 40
0.0
 40
0.0
 40
0.0891830651
 40
0.3015059924
 40
0.6184734727
 40
1.0
 40
1.0
 40
1.0
 40
1.0
 10
91.7247421592
 20
490.0552062888
 30
0.0
 10
91.6652403333
 20
490.0560880361
 30
0.0
 10
91.5758564462
 20
489.8019618253
 30
0.0
 10
91.4925467775
 20
489.453913995
 30
0.0
 10
91.3898964696
 20
488.8268498939
 30
0.0
 10
91.3268669266
 20
488.3730511993
 30
0.0
 10
91.2922907923
 20
488.1208324765
 30
0.0
  0
ENDSEC
  0
SECTION
  2
OBJECTS
  0
DICTIONARY
  5
C
100
AcDbDictionary
280
0
281
1
  3
ACAD_GROUP
350
D
  3
ACAD_MLINESTYLE
350
17
  3
ACAD_LAYOUT
350
1A
  3
ACAD_PLOTSETTINGS
350
19
  3
ACAD_PLOTSTYLENAME
350
E
  0
DICTIONARY
  5
D
102
{ACAD_REACTORS
330
C
102
}
100
AcDbDictionary
280
0
281
1
  0
ACDBDICTIONARYWDFLT
  5
E
102
{ACAD_REACTORS
330
C
102
}
100
AcDbDictionary
281
1
  3
Normal
350
F
100
AcDbDictionaryWithDefault
340
F
  0
DICTIONARY
  5
17
102
{ACAD_REACTORS
330
C
102
}
100
AcDbDictionary
280
0
281
1
  3
Standard
350
18
  0
DICTIONARY
  5
19
102
{ACAD_REACTORS
330
C
102
}
100
AcDbDictionary
281
1
  0
DICTIONARY
  5
1A
102
{ACAD_REACTORS
330
C
102
}
100
AcDbDictionary
281
1
  3
Model
350
2F7
  3
Layout1
350
2F8
  0
ACDBPLACEHOLDER
  5
F
102
{ACAD_REACTORS
330
E
102
}
  0
MLINESTYLE
  5
18
102
{ACAD_REACTORS
330
17
102
}
100
AcDbMlineStyle
  2
STANDARD
 70
0
  3

 62
256
 51
90.0
 52
90.0
 71
2
 49
0.5
 62
256
  6
BYLAYER
 49
-0.5
 62
256
  6
BYLAYER
  0
LAYOUT
  5
2F7
102
{ACAD_REACTORS
330
1A
102
}
100
AcDbPlotSettings
  1

  2
none_device
  4

  6

 40
0.0
 41
0.0
 42
0.0
 43
0.0
 44
210.0
 45
297.0
 46
0.0
 47
0.0
 48
0.0
 49
0.0
140
0.0
141
0.0
142
1.0
143
1.0
 70
1024
 72
1
 73
0
 74
0
  7

 75
0
147
1.0
148
0.0
149
0.0
100
AcDbLayout
  1
Model
 70
0
 71
0
 10
0.0
 20
0.0
 11
210.0
 21
297.0
 12
0.0
 22
0.0
 32
0.0
 14
0.0
 24
0.0
 34
0.0
 15
0.0
 25
0.0
 35
0.0
146
0.0
 13
0.0
 23
0.0
 33
0.0
 16
1.0
 26
0.0
 36
0.0
 17
0.0
 27
1.0
 37
0.0
 76
0
330
210
345
0
346
0
  0
LAYOUT
  5
2F8
102
{ACAD_REACTORS
330
1A
102
}
100
AcDbPlotSettings
  1

  2
none_device
  4

  6

 40
0.0
 41
0.0
 42
0.0
 43
0.0
 44
210.0
 45
297.0
 46
0.0
 47
0.0
 48
0.0
 49
0.0
140
0.0
141
0.0
142
1.0
143
1.0
 70
0
 72
1
 73
0
 74
0
  7

 75
0
147
1.0
148
0.0
149
0.0
100
AcDbLayout
  1
Layout1
 70
0
 71
1
 10
0.0
 20
0.0
 11
210.0
 21
297.0
 12
0.0
 22
0.0
 32
0.0
 14
0.0
 24
0.0
 34
0.0
 15
0.0
 25
0.0
 35
0.0
146
0.0
 13
0.0
 23
0.0
 33
0.0
 16
1.0
 26
0.0
 36
0.0
 17
0.0
 27
1.0
 37
0.0
 76
0
330
211
345
0
346
0
  0
ENDSEC
  0
EOF
