999
DXF file: C:\Users\sesa63760\Dev\_Creo\CAD\MCADID0005754_3D-CAD\mcadid0005754_3d-simplified_1.dxf
999
Pro/ENGINEER 2019471 by Parametric Technology Corporation
  0
SECTION
  2
HEADER
  9
$ACADVER
  1
AC1024
  9
$DWGCODEPAGE
  3
ANSI_1252
  9
$EXTMAX
 10
128.1782402326
 20
181.2806540432
 30
0.0
  9
$EXTMIN
 10
0.0
 20
0.0
 30
0.0
  9
$LIMMIN
 10
0.0
 20
0.0
  9
$LIMMAX
 10
128.1782402326
 20
181.2806540432
  9
$VIEWCTR
 10
64.0891201163
 20
90.6403270216
  9
$VIEWSIZE
 40
181.2806540432
  9
$CLAYER
  8
0
  9
$LTSCALE
 40
11.8168130043
  9
$CELTYPE
  6
BYLAYER
  9
$DIMSCALE
 40
1.0
  9
$DIMASZ
 40
1.5259314313
  9
$DIMEXO
 40
1.0
  9
$DIMDLI
 40
8.1643435302
  9
$DIMEXE
 40
1.0
  9
$DIMCEN
 40
1.9336603098
  9
$DIMLFAC
 40
1.0
  9
$DIMBLK
  1
_FILLED
  9
$DIMALT
 70
0
  9
$DIMALTF
 40
0.0393700787
  9
$DIMTXT
 40
2.1363040039
  9
$DIMTOL
 70
1
  9
$DIMLIM
 70
0
  9
$DIMTFAC
 40
1.0
  9
$DIMTP
 40
0.01
  9
$DIMTM
 40
0.01
  9
$DIMGAP
 40
0.625
  9
$DIMDSEP
 70
46
  9
$AUNITS
 70
0
  9
$PDMODE
 70
3
  9
$PDSIZE
 40
0.3125
  9
$HANDSEED
  5
2E1
  9
$TILEMODE
 70
1
  9
$MEASUREMENT
 70
1
  9
$INSUNITS
 70
4
  0
ENDSEC
  0
SECTION
  2
CLASSES
  0
CLASS
  1
ACDBDICTIONARYWDFLT
  2
AcDbDictionaryWithDefault
  3
AutoCAD 2000
 90
0
 91
1
280
0
281
0
  0
CLASS
  1
ACDBPLACEHOLDER
  2
AcDbPlaceHolder
  3
AutoCAD 2000
 90
0
 91
1
280
0
281
0
  0
CLASS
  1
LAYOUT
  2
AcDbLayout
  3
AutoCAD 2000
 90
0
 91
0
280
0
281
0
  0
ENDSEC
  0
SECTION
  2
TABLES
  0
TABLE
  2
VPORT
  5
8
100
AcDbSymbolTable
 70
2
  0
VPORT
  5
1F4
100
AcDbSymbolTableRecord
100
AcDbViewportTableRecord
  2
*ACTIVE
 70
0
 10
0.0
 20
0.0
 11
1.0
 21
1.0
 12
64.0891201163
 22
90.6403270216
 13
0.0
 23
0.0
 14
1.0
 24
1.0
 15
0.0
 25
0.0
 16
0.0
 26
0.0
 36
1.0
 17
0.0
 27
0.0
 37
0.0
 40
181.2806540432
 41
0.7070707071
 42
50.0
 43
0.0
 44
0.0
 50
0.0
 51
0.0
 71
0
 72
100
 73
1
 74
1
 75
0
 76
0
 77
0
 78
0
  0
ENDTAB
  0
TABLE
  2
LTYPE
  5
5
100
AcDbSymbolTable
 70
6
  0
LTYPE
  5
14
100
AcDbSymbolTableRecord
100
AcDbLinetypeTableRecord
  2
BYBLOCK
 70
0
  3

 72
65
 73
0
 40
0.0
  0
LTYPE
  5
15
100
AcDbSymbolTableRecord
100
AcDbLinetypeTableRecord
  2
BYLAYER
 70
0
  3

 72
65
 73
0
 40
0.0
  0
LTYPE
  5
16
100
AcDbSymbolTableRecord
100
AcDbLinetypeTableRecord
  2
CONTINUOUS
 70
64
  3
Solid line
 72
65
 73
0
 40
0.0
  0
LTYPE
  5
1F5
100
AcDbSymbolTableRecord
100
AcDbLinetypeTableRecord
  2
CENTER
 70
64
  3
____ _ ____ _ ____ _ ____ _ ____ _ ____ _ ____
 72
65
 73
4
 40
0.6
 49
0.375
 74
0
 49
-0.075
 74
0
 49
0.075
 74
0
 49
-0.075
 74
0
  0
LTYPE
  5
1F6
100
AcDbSymbolTableRecord
100
AcDbLinetypeTableRecord
  2
HIDDEN
 70
64
  3
- - - - - - - - - - - - - - - - - - - -
 72
65
 73
2
 40
0.2
 49
0.1
 74
0
 49
-0.1
 74
0
  0
LTYPE
  5
1F7
100
AcDbSymbolTableRecord
100
AcDbLinetypeTableRecord
  2
PHANTOM
 70
64
  3
_____ _ _ _____ _ _ _____ _ _ _____
 72
65
 73
6
 40
0.8
 49
0.45
 74
0
 49
-0.05
 74
0
 49
0.1
 74
0
 49
-0.05
 74
0
 49
0.1
 74
0
 49
-0.05
 74
0
  0
LTYPE
  5
1F8
100
AcDbSymbolTableRecord
100
AcDbLinetypeTableRecord
  2
DOT
 70
64
  3
. . . . . . . . . . . . . . . . . . . .
 72
65
 73
2
 40
0.2
 49
0.1
 74
0
 49
-0.1
 74
0
  0
LTYPE
  5
1F9
100
AcDbSymbolTableRecord
100
AcDbLinetypeTableRecord
  2
DASHED
 70
64
  3
- - - - - - - - - - - - - - - - - - - -
 72
65
 73
2
 40
0.2
 49
0.1
 74
0
 49
-0.1
 74
0
  0
ENDTAB
  0
TABLE
  2
LAYER
  5
2
100
AcDbSymbolTable
 70
36
  0
LAYER
  5
10
100
AcDbSymbolTableRecord
100
AcDbLayerTableRecord
  2
0
 70
0
 62
7
  6
CONTINUOUS
370
-3
390
F
  0
LAYER
  5
1FA
100
AcDbSymbolTableRecord
100
AcDbLayerTableRecord
  2
DEFAULT_1
 70
0
 62
7
  6
CENTER
370
-3
390
F
  0
LAYER
  5
1FB
100
AcDbSymbolTableRecord
100
AcDbLayerTableRecord
  2
DEFAULT_2
 70
0
 62
7
  6
HIDDEN
370
-3
390
F
  0
LAYER
  5
1FC
100
AcDbSymbolTableRecord
100
AcDbLayerTableRecord
  2
DEFAULT_3
 70
0
 62
7
  6
PHANTOM
370
-3
390
F
  0
LAYER
  5
1FD
100
AcDbSymbolTableRecord
100
AcDbLayerTableRecord
  2
00_COMPONENTS
 70
0
 62
7
  6
CONTINUOUS
370
-3
390
F
  0
LAYER
  5
1FE
100
AcDbSymbolTableRecord
100
AcDbLayerTableRecord
  2
01_1_DEFAULT_DATUMS
 70
0
 62
7
  6
CONTINUOUS
370
-3
390
F
  0
LAYER
  5
1FF
100
AcDbSymbolTableRecord
100
AcDbLayerTableRecord
  2
01_PLANES
 70
0
 62
7
  6
CONTINUOUS
370
-3
390
F
  0
LAYER
  5
200
100
AcDbSymbolTableRecord
100
AcDbLayerTableRecord
  2
02_COORD_SYS
 70
0
 62
7
  6
CONTINUOUS
370
-3
390
F
  0
LAYER
  5
201
100
AcDbSymbolTableRecord
100
AcDbLayerTableRecord
  2
03_AXES
 70
0
 62
7
  6
CONTINUOUS
370
-3
390
F
  0
LAYER
  5
202
100
AcDbSymbolTableRecord
100
AcDbLayerTableRecord
  2
04_POINTS
 70
0
 62
7
  6
CONTINUOUS
370
-3
390
F
  0
LAYER
  5
203
100
AcDbSymbolTableRecord
100
AcDbLayerTableRecord
  2
05_CURVES
 70
0
 62
7
  6
CONTINUOUS
370
-3
390
F
  0
LAYER
  5
204
100
AcDbSymbolTableRecord
100
AcDbLayerTableRecord
  2
06_SURFS
 70
0
 62
7
  6
CONTINUOUS
370
-3
390
F
  0
LAYER
  5
205
100
AcDbSymbolTableRecord
100
AcDbLayerTableRecord
  2
07_COSMETICS
 70
0
 62
7
  6
CONTINUOUS
370
-3
390
F
  0
LAYER
  5
206
100
AcDbSymbolTableRecord
100
AcDbLayerTableRecord
  2
10_NOTES
 70
0
 62
7
  6
CONTINUOUS
370
-3
390
F
  0
LAYER
  5
207
100
AcDbSymbolTableRecord
100
AcDbLayerTableRecord
  2
11_NOTES_PUB
 70
0
 62
7
  6
CONTINUOUS
370
-3
390
F
  0
LAYER
  5
208
100
AcDbSymbolTableRecord
100
AcDbLayerTableRecord
  2
13_REF_GTOL
 70
0
 62
7
  6
CONTINUOUS
370
-3
390
F
  0
LAYER
  5
209
100
AcDbSymbolTableRecord
100
AcDbLayerTableRecord
  2
16_MISC
 70
0
 62
7
  6
CONTINUOUS
370
-3
390
F
  0
LAYER
  5
20A
100
AcDbSymbolTableRecord
100
AcDbLayerTableRecord
  2
17_NO_PRINT
 70
0
 62
7
  6
CONTINUOUS
370
-3
390
F
  0
LAYER
  5
20B
100
AcDbSymbolTableRecord
100
AcDbLayerTableRecord
  2
18_DATUM_CAMS_JOINTS
 70
0
 62
7
  6
CONTINUOUS
370
-3
390
F
  0
LAYER
  5
20C
100
AcDbSymbolTableRecord
100
AcDbLayerTableRecord
  2
19_DATUM_FUNCTIONAL
 70
0
 62
7
  6
CONTINUOUS
370
-3
390
F
  0
LAYER
  5
20D
100
AcDbSymbolTableRecord
100
AcDbLayerTableRecord
  2
20_DATUM_KINEMATIC_SCHEME
 70
0
 62
7
  6
CONTINUOUS
370
-3
390
F
  0
LAYER
  5
20E
100
AcDbSymbolTableRecord
100
AcDbLayerTableRecord
  2
INTFCLR_16
 70
0
 62
7
  6
CONTINUOUS
370
-3
390
F
  0
LAYER
  5
20F
100
AcDbSymbolTableRecord
100
AcDbLayerTableRecord
  2
INTF_BLANK
 70
0
 62
7
  6
CONTINUOUS
370
-3
390
F
  0
LAYER
  5
210
100
AcDbSymbolTableRecord
100
AcDbLayerTableRecord
  2
_BLACK_HOLE
 70
0
 62
7
  6
CONTINUOUS
370
-3
390
F
  0
ENDTAB
  0
TABLE
  2
STYLE
  5
3
100
AcDbSymbolTable
 70
1
  0
STYLE
  5
11
100
AcDbSymbolTableRecord
100
AcDbTextStyleTableRecord
  2
STANDARD
 70
0
 40
0.0
 41
1.0
 50
0.0
 71
0
 42
0.2
  3
ARIAL.TTF
  4

  0
STYLE
  5
211
100
AcDbSymbolTableRecord
100
AcDbTextStyleTableRecord
  2
TEXTSTYLE_1
 70
0
 40
0.0
 41
0.8
 50
0.0
 71
0
 42
0.2
  3
gdt
  4

  0
ENDTAB
  0
TABLE
  2
VIEW
  5
6
100
AcDbSymbolTable
 70
0
  0
ENDTAB
  0
TABLE
  2
UCS
  5
7
100
AcDbSymbolTable
 70
0
  0
ENDTAB
  0
TABLE
  2
APPID
  5
9
100
AcDbSymbolTable
 70
1
  0
APPID
  5
212
100
AcDbSymbolTableRecord
100
AcDbRegAppTableRecord
  2
ACAD
 70
0
  0
ENDTAB
  0
TABLE
  2
BLOCK_RECORD
  5
1
100
AcDbSymbolTable
 70
0
  0
BLOCK_RECORD
  5
213
100
AcDbSymbolTableRecord
100
AcDbBlockTableRecord
  2
*Model_Space
  0
BLOCK_RECORD
  5
214
100
AcDbSymbolTableRecord
100
AcDbBlockTableRecord
  2
*Paper_Space
  0
BLOCK_RECORD
  5
215
100
AcDbSymbolTableRecord
100
AcDbBlockTableRecord
  2
_FILLED
  0
ENDTAB
  0
TABLE
  2
DIMSTYLE
  5
A
100
AcDbSymbolTable
 70
1
100
AcDbDimStyleTable
 71
0
  0
DIMSTYLE
105
216
100
AcDbSymbolTableRecord
100
AcDbDimStyleTableRecord
  2
STANDARD
 70
0
  3

  4

 40
1.0
 41
1.5259314313
 42
1.0
 43
0.38
 44
1.0
 45
0.0
 46
0.0
 47
0.01
 48
0.01
140
2.1363040039
141
0.09
142
0.0
143
25.4
144
1.0
145
0.0
146
1.0
147
0.625
 71
1
 72
0
 73
0
 74
0
 75
0
 76
0
 77
1
 78
8
 79
2
170
0
171
1
172
0
173
0
174
0
175
0
176
0
177
0
178
0
270
2
179
2
271
2
272
2
273
2
274
2
275
0
280
0
281
0
282
0
283
1
284
8
285
0
286
0
287
3
288
0
340
11
278
46
341
215
342
215
343
215
344
215
  0
ENDTAB
  0
ENDSEC
  0
SECTION
  2
BLOCKS
  0
BLOCK
  5
20
100
AcDbEntity
  8
0
100
AcDbBlockBegin
  2
*Model_Space
 70
0
 10
0.0
 20
0.0
 30
0.0
  3
*Model_Space
  1

  0
ENDBLK
  5
21
100
AcDbEntity
  8
0
100
AcDbBlockEnd
  0
BLOCK
  5
1C
100
AcDbEntity
  8
0
100
AcDbBlockBegin
  2
*Paper_Space
 70
0
 10
0.0
 20
0.0
 30
0.0
  3
*Paper_Space
  1

  0
ENDBLK
  5
1D
100
AcDbEntity
  8
0
100
AcDbBlockEnd
  0
BLOCK
  5
217
100
AcDbEntity
  8
0
100
AcDbBlockBegin
  2
_FILLED
 70
64
 10
0.0
 20
0.0
  3
_FILLED
  1

  0
SOLID
  5
218
100
AcDbEntity
  8
0
  6
BYBLOCK
 62
0
100
AcDbTrace
 10
0.0
 20
0.0
 11
-1.0
 21
0.25
 12
-1.0
 22
-0.25
 13
-1.0
 23
-0.25
  0
ENDBLK
  5
219
100
AcDbEntity
  8
0
  6
BYBLOCK
 62
0
100
AcDbBlockEnd
  0
ENDSEC
  0
SECTION
  2
ENTITIES
  0
LINE
  5
21A
100
AcDbEntity
  8
0
100
AcDbLine
 62
7
  6
BYLAYER
 10
29.7866469926
 20
48.7613686034
 11
30.2029262062
 21
48.5694504491
  0
LINE
  5
21B
100
AcDbEntity
  8
0
100
AcDbLine
 62
7
  6
BYLAYER
 10
14.9648463426
 20
74.9653728023
 11
14.9226726693
 21
74.5066810117
  0
LINE
  5
21C
100
AcDbEntity
  8
0
100
AcDbLine
 62
7
  6
BYLAYER
 10
69.0874140141
 20
139.053643737
 11
31.3280691069
 21
117.2534059202
  0
LINE
  5
21D
100
AcDbEntity
  8
0
100
AcDbLine
 62
7
  6
BYLAYER
 10
32.7830238368
 20
117.368804909
 11
70.5423687441
 21
139.1690427258
  0
LINE
  5
21E
100
AcDbEntity
  8
0
100
AcDbLine
 62
7
  6
BYLAYER
 10
35.8341795248
 20
116.4497306633
 11
73.593524432
 21
138.2499684801
  0
LWPOLYLINE
  5
21F
100
AcDbEntity
  8
0
100
AcDbPolyline
 62
7
  6
BYLAYER
 90
5
 70
0
 10
44.508888553
 20
56.2984596237
 10
47.5855087487
 20
53.9687292244
 10
53.5225580184
 20
51.6417293205
 10
58.8736316199
 20
51.7100256818
 10
61.1618330791
 20
52.6471766435
  0
LINE
  5
220
100
AcDbEntity
  8
0
100
AcDbLine
 62
7
  6
BYLAYER
 10
28.22939628
 20
83.8172767181
 11
27.7380347063
 21
87.5721960968
  0
LINE
  5
221
100
AcDbEntity
  8
0
100
AcDbLine
 62
7
  6
BYLAYER
 10
29.1580193218
 20
83.3698724585
 11
28.6217108151
 21
87.5750783865
  0
LINE
  5
222
100
AcDbEntity
  8
0
100
AcDbLine
 62
7
  6
BYLAYER
 10
28.2681588965
 20
87.3709563096
 11
28.7515419553
 21
83.5657104864
  0
LINE
  5
223
100
AcDbEntity
  8
0
100
AcDbLine
 62
7
  6
BYLAYER
 10
27.7040970313
 20
83.9324699193
 11
27.1520342771
 21
88.4936251832
  0
LINE
  5
224
100
AcDbEntity
  8
0
100
AcDbLine
 62
7
  6
BYLAYER
 10
30.409302458
 20
112.7934081194
 11
30.409302458
 21
99.8397527104
  0
LINE
  5
225
100
AcDbEntity
  8
0
100
AcDbLine
 62
7
  6
BYLAYER
 10
37.4946731798
 20
115.8991931087
 11
75.2540180871
 21
137.6994309254
  0
LINE
  5
226
100
AcDbEntity
  8
0
100
AcDbLine
 62
7
  6
BYLAYER
 10
77.6026979459
 20
136.8796957576
 11
39.8433530387
 21
115.0794579408
  0
LINE
  5
227
100
AcDbEntity
  8
0
100
AcDbLine
 62
7
  6
BYLAYER
 10
40.9211433771
 20
114.691828929
 11
78.6804882843
 21
136.4920667457
  0
LINE
  5
228
100
AcDbEntity
  8
0
100
AcDbLine
 62
7
  6
BYLAYER
 10
41.9506705471
 20
114.2159729417
 11
79.7100154544
 21
136.0162107584
  0
LINE
  5
229
100
AcDbEntity
  8
0
100
AcDbLine
 62
7
  6
BYLAYER
 10
81.1242440722
 20
135.2271260988
 11
69.8105798943
 21
128.695219421
  0
LINE
  5
22A
100
AcDbEntity
  8
0
100
AcDbLine
 62
7
  6
BYLAYER
 10
81.1242440722
 20
133.7275674834
 11
69.81058146
 21
127.1956617239
  0
LWPOLYLINE
  5
22B
100
AcDbEntity
  8
0
100
AcDbPolyline
 62
7
  6
BYLAYER
 90
6
 70
0
 10
33.1684559147
 20
80.827175028
 10
35.8530524462
 20
78.7398733867
 10
39.8381644162
 20
73.8247254466
 10
42.8096718144
 20
68.1180184577
 10
44.4579647541
 20
62.2041375812
 10
44.494308772
 20
60.2948102689
  0
LINE
  5
22C
100
AcDbEntity
  8
0
100
AcDbLine
 62
7
  6
BYLAYER
 10
19.783001304
 20
83.3296726378
 11
19.7726530529
 21
83.3205713106
  0
LINE
  5
22D
100
AcDbEntity
  8
0
100
AcDbLine
 62
7
  6
BYLAYER
 10
33.9511737344
 20
103.043684941
 11
38.7594798275
 21
105.8197451873
  0
LINE
  5
22E
100
AcDbEntity
  8
0
100
AcDbLine
 62
7
  6
BYLAYER
 10
20.4583171239
 20
83.719581132
 11
19.7708192116
 21
83.3226563966
  0
LINE
  5
22F
100
AcDbEntity
  8
0
100
AcDbLine
 62
7
  6
BYLAYER
 10
50.4037018552
 20
86.0547253774
 11
49.8002260442
 21
86.696111402
  0
LINE
  5
230
100
AcDbEntity
  8
0
100
AcDbLine
 62
7
  6
BYLAYER
 10
47.6932996993
 20
90.0969425349
 11
48.4207860632
 21
88.7602041772
  0
LINE
  5
231
100
AcDbEntity
  8
0
100
AcDbLine
 62
7
  6
BYLAYER
 10
48.7743379818
 20
88.9643262541
 11
48.0468516179
 21
90.3010646118
  0
LINE
  5
232
100
AcDbEntity
  8
0
100
AcDbLine
 62
7
  6
BYLAYER
 10
46.6530117504
 20
89.7808060635
 11
47.3804981143
 21
90.2775345286
  0
LINE
  5
233
100
AcDbEntity
  8
0
100
AcDbLine
 62
7
  6
BYLAYER
 10
29.5488856963
 20
83.1815557002
 11
31.2688449019
 21
84.174568683
  0
LINE
  5
234
100
AcDbEntity
  8
0
100
AcDbLine
 62
7
  6
BYLAYER
 10
35.2561874308
 20
84.744600001
 11
42.2718471839
 21
88.79506887
  0
LINE
  5
235
100
AcDbEntity
  8
0
100
AcDbLine
 62
7
  6
BYLAYER
 10
102.3375334362
 20
122.9799053109
 11
91.0238719005
 21
116.4479973992
  0
LINE
  5
236
100
AcDbEntity
  8
0
100
AcDbLine
 62
7
  6
BYLAYER
 10
49.8002260442
 20
86.696111402
 11
46.0901047091
 21
89.0086480892
  0
LINE
  5
237
100
AcDbEntity
  8
0
100
AcDbLine
 62
7
  6
BYLAYER
 10
47.3804981143
 20
90.2775345286
 11
47.7340500329
 21
90.4816566055
  0
LINE
  5
238
100
AcDbEntity
  8
0
100
AcDbLine
 62
7
  6
BYLAYER
 10
48.0468516179
 20
90.3010646118
 11
47.6932996993
 21
90.0969425349
  0
LINE
  5
239
100
AcDbEntity
  8
0
100
AcDbLine
 62
7
  6
BYLAYER
 10
103.7517583762
 20
122.1360192542
 11
65.992413469
 21
100.3357814374
  0
LINE
  5
23A
100
AcDbEntity
  8
0
100
AcDbLine
 62
7
  6
BYLAYER
 10
67.0219449803
 20
99.6228695193
 11
104.7812898875
 21
121.423107336
  0
LINE
  5
23B
100
AcDbEntity
  8
0
100
AcDbLine
 62
7
  6
BYLAYER
 10
48.4207860632
 20
88.7602041772
 11
48.7743379818
 21
88.9643262541
  0
LINE
  5
23C
100
AcDbEntity
  8
0
100
AcDbLine
 62
7
  6
BYLAYER
 10
21.9679104976
 20
73.0616473544
 11
21.8097490012
 21
72.970333317
  0
LINE
  5
23D
100
AcDbEntity
  8
0
100
AcDbLine
 62
7
  6
BYLAYER
 10
68.0997346541
 20
98.765998776
 11
105.8590795613
 21
120.5662365927
  0
LINE
  5
23E
100
AcDbEntity
  8
0
100
AcDbLine
 62
7
  6
BYLAYER
 10
46.0901047091
 20
89.0086480892
 11
43.3233396673
 21
89.5544960167
  0
LINE
  5
23F
100
AcDbEntity
  8
0
100
AcDbLine
 62
7
  6
BYLAYER
 10
70.4484144713
 20
96.8737721157
 11
108.2077593785
 21
118.6740099324
  0
LINE
  5
240
100
AcDbEntity
  8
0
100
AcDbLine
 62
7
  6
BYLAYER
 10
109.868252747
 20
117.3072181874
 11
72.1089078398
 21
95.5069803707
  0
LINE
  5
241
100
AcDbEntity
  8
0
100
AcDbLine
 62
7
  6
BYLAYER
 10
69.8105798943
 20
128.695219421
 11
69.81058146
 21
127.1956617239
  0
LINE
  5
242
100
AcDbEntity
  8
0
100
AcDbLine
 62
7
  6
BYLAYER
 10
75.1600702967
 20
92.9029795627
 11
112.9194152039
 21
114.7032173794
  0
LWPOLYLINE
  5
243
100
AcDbEntity
  8
0
100
AcDbPolyline
 62
7
  6
BYLAYER
 90
7
 70
0
 10
67.3359712109
 20
64.8156546223
 10
66.3705994212
 20
58.3212733948
 10
63.5757073559
 20
53.5820952885
 10
59.1740831507
 20
51.0316810444
 10
53.6416343531
 20
50.9737407898
 10
47.5315425914
 20
53.3874394962
 10
44.3803360811
 20
55.7817270748
  0
LINE
  5
244
100
AcDbEntity
  8
0
100
AcDbLine
 62
7
  6
BYLAYER
 10
55.5527288433
 20
63.9132650391
 11
56.941541026
 21
65.9069652583
  0
LINE
  5
245
100
AcDbEntity
  8
0
100
AcDbLine
 62
7
  6
BYLAYER
 10
77.5396171119
 20
87.9714913932
 11
115.2989620191
 21
109.7717292099
  0
LINE
  5
246
100
AcDbEntity
  8
0
100
AcDbLine
 62
7
  6
BYLAYER
 10
77.5337851929
 20
47.1294269788
 11
77.5337851929
 21
85.5866908257
  0
LINE
  5
247
100
AcDbEntity
  8
0
100
AcDbLine
 62
7
  6
BYLAYER
 10
115.2931301001
 20
107.3869286425
 11
77.5337851929
 21
85.5866908257
  0
LINE
  5
248
100
AcDbEntity
  8
0
100
AcDbLine
 62
7
  6
BYLAYER
 10
32.0578653259
 20
55.5852286262
 11
31.8997038295
 21
55.4939145888
  0
LINE
  5
249
100
AcDbEntity
  8
0
100
AcDbLine
 62
7
  6
BYLAYER
 10
81.1242440722
 20
135.2271260988
 11
81.1242440722
 21
133.7275674834
  0
LINE
  5
24A
100
AcDbEntity
  8
0
100
AcDbLine
 62
7
  6
BYLAYER
 10
55.0260042843
 20
63.6036485241
 11
55.5527288433
 21
63.9132650391
  0
LINE
  5
24B
100
AcDbEntity
  8
0
100
AcDbLine
 62
7
  6
BYLAYER
 10
48.5194712189
 20
61.2252467459
 11
55.771786746
 21
65.4123480741
  0
LINE
  5
24C
100
AcDbEntity
  8
0
100
AcDbLine
 62
7
  6
BYLAYER
 10
44.6439648775
 20
57.2556872497
 11
46.2687777487
 21
58.1937677987
  0
LWPOLYLINE
  5
24D
100
AcDbEntity
  8
0
100
AcDbPolyline
 62
7
  6
BYLAYER
 90
4
 70
0
 10
55.5367754063
 20
62.3901204262
 10
55.1795792071
 20
62.2013602792
 10
52.0487546971
 20
61.6612856856
 10
50.2013965469
 20
62.1963009903
  0
LINE
  5
24E
100
AcDbEntity
  8
0
100
AcDbLine
 62
7
  6
BYLAYER
 10
40.533075736
 20
48.9488717141
 11
39.8455778237
 21
48.5519469787
  0
LINE
  5
24F
100
AcDbEntity
  8
0
100
AcDbLine
 62
7
  6
BYLAYER
 10
39.8446594496
 20
48.5546918273
 11
39.8580759896
 21
48.5591807465
  0
LINE
  5
250
100
AcDbEntity
  8
0
100
AcDbLine
 62
7
  6
BYLAYER
 10
63.951039428
 20
51.0820831723
 11
68.7593455211
 21
53.8581434186
  0
LWPOLYLINE
  5
251
100
AcDbEntity
  8
0
100
AcDbPolyline
 62
7
  6
BYLAYER
 90
5
 70
0
 10
61.1408469067
 20
52.6986753654
 10
59.1951551439
 20
51.9057892292
 10
53.7984886511
 20
51.8615847044
 10
47.8418409835
 20
54.2289798421
 10
44.6077226154
 20
56.6957353529
  0
LWPOLYLINE
  5
252
100
AcDbEntity
  8
0
100
AcDbPolyline
 62
7
  6
BYLAYER
 90
5
 70
0
 10
63.951039428
 20
51.0820831723
 10
58.8337171234
 20
49.5403468837
 10
52.7837743713
 20
50.3141174034
 10
46.3904538686
 20
53.4360657255
 10
44.2449815103
 20
55.2376526486
  0
LINE
  5
253
100
AcDbEntity
  8
0
100
AcDbLine
 62
7
  6
BYLAYER
 10
77.5337851929
 20
47.1294269788
 11
115.2931301001
 21
68.9296647955
  0
LINE
  5
254
100
AcDbEntity
  8
0
100
AcDbLine
 62
7
  6
BYLAYER
 10
77.5395784414
 20
44.7379662277
 11
115.2989233486
 21
66.5382040445
  0
LINE
  5
255
100
AcDbEntity
  8
0
100
AcDbLine
 62
7
  6
BYLAYER
 10
101.0388587462
 20
122.2301194475
 11
81.1242440722
 21
133.7275674834
  0
LINE
  5
256
100
AcDbEntity
  8
0
100
AcDbLine
 62
7
  6
BYLAYER
 10
115.2931344191
 20
68.9296623021
 11
115.2931283061
 21
107.3869296781
  0
LINE
  5
257
100
AcDbEntity
  8
0
100
AcDbLine
 62
7
  6
BYLAYER
 10
114.3743634514
 20
64.4696669948
 11
76.6150185441
 21
42.6694291781
  0
ARC
  5
258
100
AcDbEntity
  8
0
100
AcDbCircle
 62
7
  6
BYLAYER
 10
-233.5216134236
 20
-441.4752537955
 40
656.8188434988
100
AcDbArc
 50
59.10306682
 51
59.2467301739
  0
ARC
  5
259
100
AcDbEntity
  8
0
100
AcDbCircle
 62
7
  6
BYLAYER
 10
-223.8640168442
 20
-409.7229670814
 40
624.4905470524
100
AcDbArc
 50
60.7658863065
 51
60.9144707991
  0
ARC
  5
25A
100
AcDbEntity
  8
0
100
AcDbCircle
 62
7
  6
BYLAYER
 10
-343.6036505044
 20
113.1647915269
 40
374.0126801251
100
AcDbArc
 50
359.9431074458
 51
0.3093793651
  0
ARC
  5
25B
100
AcDbEntity
  8
0
100
AcDbCircle
 62
7
  6
BYLAYER
 10
-13.8689070762
 20
-30.7665106136
 40
192.9681689606
100
AcDbArc
 50
48.9252393919
 51
50.1163311766
  0
ARC
  5
25C
100
AcDbEntity
  8
0
100
AcDbCircle
 62
7
  6
BYLAYER
 10
-50.9576137222
 20
-51.7809548574
 40
191.9351581683
100
AcDbArc
 50
48.9220339971
 51
50.1195365698
  0
ARC
  5
25D
100
AcDbEntity
  8
0
100
AcDbCircle
 62
7
  6
BYLAYER
 10
32.716458433
 20
29.6720649489
 40
116.6687346964
100
AcDbArc
 50
51.1763355087
 51
51.8524724952
  0
ARC
  5
25E
100
AcDbEntity
  8
0
100
AcDbCircle
 62
7
  6
BYLAYER
 10
-4.7735751536
 20
8.2104188421
 40
116.2361068261
100
AcDbArc
 50
51.1751243875
 51
51.8538382527
  0
ARC
  5
25F
100
AcDbEntity
  8
0
100
AcDbCircle
 62
7
  6
BYLAYER
 10
44.1244968088
 20
45.9425316544
 40
96.8972997596
100
AcDbArc
 50
72.2943857708
 51
74.1788896454
  0
ARC
  5
260
100
AcDbEntity
  8
0
100
AcDbCircle
 62
7
  6
BYLAYER
 10
6.6023929209
 20
24.9297819828
 40
96.0749632892
100
AcDbArc
 50
72.2863392345
 51
74.1868589457
  0
ARC
  5
261
100
AcDbEntity
  8
0
100
AcDbCircle
 62
7
  6
BYLAYER
 10
55.4869107468
 20
73.6951586938
 40
66.9432141005
100
AcDbArc
 50
69.7286613681
 51
70.708985504
  0
ARC
  5
262
100
AcDbEntity
  8
0
100
AcDbCircle
 62
7
  6
BYLAYER
 10
17.8231885636
 20
52.1607972459
 40
66.6606754635
100
AcDbArc
 50
69.7265837845
 51
70.7110630875
  0
ARC
  5
263
100
AcDbEntity
  8
0
100
AcDbCircle
 62
7
  6
BYLAYER
 10
90.1198956268
 20
107.7620282387
 40
66.6606652464
100
AcDbArc
 50
249.7265837114
 51
250.7110631653
  0
ARC
  5
264
100
AcDbEntity
  8
0
100
AcDbCircle
 62
7
  6
BYLAYER
 10
41.7825537414
 20
64.8155970762
 40
28.3818445943
100
AcDbArc
 50
0.000129896
 51
0.2271114987
  0
ARC
  5
265
100
AcDbEntity
  8
0
100
AcDbCircle
 62
7
  6
BYLAYER
 10
40.8462495776
 20
64.8155945671
 40
26.4897216333
100
AcDbArc
 50
0.000129896
 51
0.2271114987
  0
ARC
  5
266
100
AcDbEntity
  8
0
100
AcDbCircle
 62
7
  6
BYLAYER
 10
54.2275482204
 20
87.6771969306
 40
26.4897216178
100
AcDbArc
 50
180.000129896
 51
180.2271114988
  0
ARC
  5
267
100
AcDbEntity
  8
0
100
AcDbCircle
 62
7
  6
BYLAYER
 10
32.8269255366
 20
67.7531591351
 40
25.5018389007
100
AcDbArc
 50
27.4834492584
 51
29.6341567153
  0
ARC
  5
268
100
AcDbEntity
  8
0
100
AcDbCircle
 62
7
  6
BYLAYER
 10
32.9749997324
 20
67.8413555996
 40
25.3295233626
100
AcDbArc
 50
29.6263672175
 51
36.9069417651
  0
ARC
  5
269
100
AcDbEntity
  8
0
100
AcDbCircle
 62
7
  6
BYLAYER
 10
33.9365167597
 20
68.5405054496
 40
24.1408384328
100
AcDbArc
 50
36.9505146676
 51
39.0596854471
  0
ARC
  5
26A
100
AcDbEntity
  8
0
100
AcDbCircle
 62
7
  6
BYLAYER
 10
36.6534408716
 20
69.188892925
 40
21.4077440371
100
AcDbArc
 50
15.4371397662
 51
15.5705857967
  0
ARC
  5
26B
100
AcDbEntity
  8
0
100
AcDbCircle
 62
7
  6
BYLAYER
 10
20.6207290632
 20
65.6374604873
 40
19.7360652683
100
AcDbArc
 50
57.5838790579
 51
59.9767505848
  0
ARC
  5
26C
100
AcDbEntity
  8
0
100
AcDbCircle
 62
7
  6
BYLAYER
 10
38.2856344773
 20
66.2556760024
 40
19.4525233147
100
AcDbArc
 50
238.0698664381
 51
239.9961194581
  0
ARC
  5
26D
100
AcDbEntity
  8
0
100
AcDbCircle
 62
7
  6
BYLAYER
 10
21.6356832895
 20
65.687155001
 40
19.2113294325
100
AcDbArc
 50
56.4847154882
 51
59.9850677112
  0
ARC
  5
26E
100
AcDbEntity
  8
0
100
AcDbCircle
 62
7
  6
BYLAYER
 10
22.2184598442
 20
66.6893618213
 40
18.0520039916
100
AcDbArc
 50
59.9955218413
 51
61.2550857526
  0
ARC
  5
26F
100
AcDbEntity
  8
0
100
AcDbCircle
 62
7
  6
BYLAYER
 10
37.5055171623
 20
64.8684044105
 40
17.8610626556
100
AcDbArc
 50
239.9379219134
 51
244.3951639642
  0
ARC
  5
270
100
AcDbEntity
  8
0
100
AcDbCircle
 62
7
  6
BYLAYER
 10
36.4499032718
 20
64.390873773
 40
16.6415788013
100
AcDbArc
 50
239.9817089568
 51
242.2510294281
  0
ARC
  5
271
100
AcDbEntity
  8
0
100
AcDbCircle
 62
7
  6
BYLAYER
 10
44.0463570091
 20
70.2247691282
 40
13.9204103438
100
AcDbArc
 50
0.0003107197
 51
0.3351605614
  0
ARC
  5
272
100
AcDbEntity
  8
0
100
AcDbCircle
 62
7
  6
BYLAYER
 10
44.3206553896
 20
70.3064345174
 40
13.5875327307
100
AcDbArc
 50
359.6723243162
 51
0.0002485086
  0
ARC
  5
273
100
AcDbEntity
  8
0
100
AcDbCircle
 62
7
  6
BYLAYER
 10
35.0407770113
 20
61.38772414
 40
13.3221160797
100
AcDbArc
 50
247.5751548804
 51
249.7455502514
  0
ARC
  5
274
100
AcDbEntity
  8
0
100
AcDbCircle
 62
7
  6
BYLAYER
 10
31.5018786248
 20
64.2468056341
 40
9.5442712749
100
AcDbArc
 50
239.5086568808
 51
239.9998998265
  0
ARC
  5
275
100
AcDbEntity
  8
0
100
AcDbCircle
 62
7
  6
BYLAYER
 10
31.2729206007
 20
64.0181596576
 40
9.1850123816
100
AcDbArc
 50
240.0000805158
 51
240.4993213892
  0
ARC
  5
276
100
AcDbEntity
  8
0
100
AcDbCircle
 62
7
  6
BYLAYER
 10
36.4378221034
 20
54.4354972784
 40
6.7996436815
100
AcDbArc
 50
306.4513347556
 51
308.0678423539
  0
ARC
  5
277
100
AcDbEntity
  8
0
100
AcDbCircle
 62
7
  6
BYLAYER
 10
23.1624839185
 20
77.4309421734
 40
6.798550397
100
AcDbArc
 50
112.3771224245
 51
113.5751043899
  0
ARC
  5
278
100
AcDbEntity
  8
0
100
AcDbCircle
 62
7
  6
BYLAYER
 10
36.4727109769
 20
54.3881504858
 40
6.7408308623
100
AcDbArc
 50
304.1000465887
 51
306.4519071079
  0
ARC
  5
279
100
AcDbEntity
  8
0
100
AcDbCircle
 62
7
  6
BYLAYER
 10
23.1355512248
 20
77.4915062943
 40
6.7322694264
100
AcDbArc
 50
113.5711713832
 51
119.8664703504
  0
ARC
  5
27A
100
AcDbEntity
  8
0
100
AcDbCircle
 62
7
  6
BYLAYER
 10
36.496040843
 20
54.3540439728
 40
6.6995089819
100
AcDbArc
 50
300.1212384354
 51
304.098361268
  0
ARC
  5
27B
100
AcDbEntity
  8
0
100
AcDbCircle
 62
7
  6
BYLAYER
 10
70.6738867169
 20
121.0336496678
 40
5.2598198426
100
AcDbArc
 50
164.1546675961
 51
169.3295746462
  0
ARC
  5
27C
100
AcDbEntity
  8
0
100
AcDbCircle
 62
7
  6
BYLAYER
 10
30.2195022294
 20
58.403904502
 40
3.3602259918
100
AcDbArc
 50
300.0017445485
 51
302.800998421
  0
ARC
  5
27D
100
AcDbEntity
  8
0
100
AcDbCircle
 62
7
  6
BYLAYER
 10
23.4897633057
 20
70.0603605326
 40
3.3601175087
100
AcDbArc
 50
117.1997602606
 51
119.9991248077
  0
ARC
  5
27E
100
AcDbEntity
  8
0
100
AcDbCircle
 62
7
  6
BYLAYER
 10
29.9691299144
 20
58.4343569232
 40
3.30250333
100
AcDbArc
 50
302.1208948568
 51
304.9496868515
  0
ARC
  5
27F
100
AcDbEntity
  8
0
100
AcDbCircle
 62
7
  6
BYLAYER
 10
29.9768959636
 20
58.4222201289
 40
3.2880950741
100
AcDbArc
 50
301.7624258483
 51
302.1187330691
  0
ARC
  5
280
100
AcDbEntity
  8
0
100
AcDbCircle
 62
7
  6
BYLAYER
 10
101.3406946974
 20
134.9930529988
 40
96.0749631682
100
AcDbArc
 50
252.2863392319
 51
254.1868589454
  0
ARC
  5
281
100
AcDbEntity
  8
0
100
AcDbCircle
 62
7
  6
BYLAYER
 10
850.6950313053
 20
85.0717348891
 40
773.1613079018
100
AcDbArc
 50
179.7851383611
 51
179.9618386761
  0
ARC
  5
282
100
AcDbEntity
  8
0
100
AcDbCircle
 62
7
  6
BYLAYER
 10
622.4104535263
 20
107.3387760528
 40
507.1173275063
100
AcDbArc
 50
179.7251452642
 51
179.9945594454
  0
ARC
  5
283
100
AcDbEntity
  8
0
100
AcDbCircle
 62
7
  6
BYLAYER
 10
614.8009367011
 20
68.9526813733
 40
499.5078028124
100
AcDbArc
 50
180.0026403904
 51
180.2768901222
  0
ARC
  5
284
100
AcDbEntity
  8
0
100
AcDbCircle
 62
7
  6
BYLAYER
 10
451.546744032
 20
46.758044612
 40
374.0126860041
100
AcDbArc
 50
179.9431076061
 51
180.3093795182
  0
ARC
  5
285
100
AcDbEntity
  8
0
100
AcDbCircle
 62
7
  6
BYLAYER
 10
432.408312784
 20
704.0121717531
 40
753.409907887
100
AcDbArc
 50
240.2955045178
 51
240.8994775908
  0
SPLINE
  5
286
100
AcDbEntity
  8
0
100
AcDbSpline
 62
7
  6
BYLAYER
 70
0
 71
3
 72
24
 73
20
 74
0
 42
0.0000001
 43
0.0000001
 44
0.0000000001
 40
0.0
 40
0.0
 40
0.0
 40
0.0
 40
0.0624313462
 40
0.1287975704
 40
0.198404183
 40
0.2704165757
 40
0.3438599198
 40
0.4176962877
 40
0.4908577879
 40
0.5623014059
 40
0.6310575326
 40
0.6962829225
 40
0.7573212744
 40
0.8137757507
 40
0.8655968732
 40
0.9131830935
 40
0.9574661218
 40
0.9788524832
 40
1.0
 40
1.0
 40
1.0
 40
1.0
 10
91.0238726492
 20
116.4479978303
 30
0.0
 10
90.4852446724
 20
116.1370227128
 30
0.0
 10
89.3304874125
 20
115.5691386382
 30
0.0
 10
87.4670856083
 20
114.8998747294
 30
0.0
 10
85.4534379978
 20
114.3979743382
 30
0.0
 10
83.3328362068
 20
114.0732051198
 30
0.0
 10
81.1501095598
 20
113.9316764001
 30
0.0
 10
78.9518613673
 20
113.9754244904
 30
0.0
 10
76.7849408816
 20
114.2027809038
 30
0.0
 10
74.6955290547
 20
114.6081793285
 30
0.0
 10
72.728006877
 20
115.1825337978
 30
0.0
 10
70.9239485011
 20
115.9134480895
 30
0.0
 10
69.3212160674
 20
116.7857794351
 30
0.0
 10
67.953298338
 20
117.7822422401
 30
0.0
 10
66.8492213591
 20
118.8846057096
 30
0.0
 10
66.0342642972
 20
120.072843448
 30
0.0
 10
65.6106091489
 20
121.1310402875
 30
0.0
 10
65.4447254463
 20
121.9818611185
 30
0.0
 10
65.4172666976
 20
122.4061240754
 30
0.0
 10
65.4172670061
 20
122.6167997021
 30
0.0
  0
SPLINE
  5
287
100
AcDbEntity
  8
0
100
AcDbSpline
 62
7
  6
BYLAYER
 70
0
 71
3
 72
9
 73
5
 74
0
 42
0.0000001
 43
0.0000001
 44
0.0000000001
 40
0.0
 40
0.0
 40
0.0
 40
0.0
 40
0.2582269608
 40
1.0
 40
1.0
 40
1.0
 40
1.0
 10
79.7100070419
 20
136.0162151681
 30
0.0
 10
79.624602712
 20
136.0636179665
 30
0.0
 10
79.2907083484
 20
136.2413749808
 30
0.0
 10
78.9438194105
 20
136.3951943323
 30
0.0
 10
78.680488025
 20
136.4920685473
 30
0.0
  0
SPLINE
  5
288
100
AcDbEntity
  8
0
100
AcDbSpline
 62
7
  6
BYLAYER
 70
0
 71
3
 72
9
 73
5
 74
0
 42
0.0000001
 43
0.0000001
 44
0.0000000001
 40
0.0
 40
0.0
 40
0.0
 40
0.0
 40
0.50046347
 40
1.0
 40
1.0
 40
1.0
 40
1.0
 10
77.60269734
 20
136.8796996599
 30
0.0
 10
77.2109979731
 20
137.016764897
 30
0.0
 10
76.4290489089
 20
137.2927054782
 30
0.0
 10
75.6457280249
 20
137.5647414703
 30
0.0
 10
75.2540180896
 20
137.6994309245
 30
0.0
  0
SPLINE
  5
289
100
AcDbEntity
  8
0
100
AcDbSpline
 62
7
  6
BYLAYER
 70
0
 71
3
 72
11
 73
7
 74
0
 42
0.0000001
 43
0.0000001
 44
0.0000000001
 40
0.0
 40
0.0
 40
0.0
 40
0.0
 40
0.2738060862
 40
0.5284773554
 40
0.7682450032
 40
1.0
 40
1.0
 40
1.0
 40
1.0
 10
70.5420682094
 20
139.1691299084
 30
0.0
 10
70.4106204706
 20
139.2064619733
 30
0.0
 10
70.1509789049
 20
139.2600227539
 30
0.0
 10
69.7654171952
 20
139.2702061179
 30
0.0
 10
69.4060747775
 20
139.2053602584
 30
0.0
 10
69.1875986466
 20
139.1114391845
 30
0.0
 10
69.087436958
 20
139.0536040719
 30
0.0
  0
SPLINE
  5
28A
100
AcDbEntity
  8
0
100
AcDbSpline
 62
7
  6
BYLAYER
 70
0
 71
3
 72
21
 73
17
 74
0
 42
0.0000001
 43
0.0000001
 44
0.0000000001
 40
0.0
 40
0.0
 40
0.0
 40
0.0
 40
0.0625512611
 40
0.1288298437
 40
0.1981408247
 40
0.2696923266
 40
0.415519987
 40
0.5584270288
 40
0.6264720685
 40
0.6911436911
 40
0.7518909076
 40
0.8084317307
 40
0.8608292301
 40
0.9095618835
 40
0.955521383
 40
1.0
 40
1.0
 40
1.0
 40
1.0
 10
26.6590373776
 20
56.0224513846
 30
0.0
 10
26.2985402681
 20
56.2347214645
 30
0.0
 10
25.5838176209
 20
56.7201740029
 30
0.0
 10
24.5736572088
 20
57.5812364473
 30
0.0
 10
23.6111987203
 20
58.5807161573
 30
0.0
 10
22.4106853373
 20
60.0785507268
 30
0.0
 10
21.1524900166
 20
62.1476735279
 30
0.0
 10
20.2636980226
 20
64.3765359924
 30
0.0
 10
19.8286679701
 20
66.1706040757
 30
0.0
 10
19.6541183386
 20
67.4553024341
 30
0.0
 10
19.6303074187
 20
68.6751169741
 30
0.0
 10
19.7596227255
 20
69.8065531476
 30
0.0
 10
20.0427216152
 20
70.8276187052
 30
0.0
 10
20.4793013696
 20
71.7167298189
 30
0.0
 10
21.0651598858
 20
72.4502457978
 30
0.0
 10
21.5521250147
 20
72.8215949269
 30
0.0
 10
21.8097490012
 20
72.970333317
 30
0.0
  0
SPLINE
  5
28B
100
AcDbEntity
  8
0
100
AcDbSpline
 62
7
  6
BYLAYER
 70
0
 71
3
 72
12
 73
8
 74
0
 42
0.0000001
 43
0.0000001
 44
0.0000000001
 40
0.0
 40
0.0
 40
0.0
 40
0.0
 40
0.1103747633
 40
0.2224193866
 40
0.4571558555
 40
0.7147587217
 40
1.0
 40
1.0
 40
1.0
 40
1.0
 10
31.8997038295
 20
55.4939145888
 30
0.0
 10
31.7267532552
 20
55.3940621242
 30
0.0
 10
31.3602071363
 20
55.2224326721
 30
0.0
 10
30.5601873921
 20
54.9998646933
 30
0.0
 10
29.4495271417
 20
54.9679113016
 30
0.0
 10
28.0699581002
 20
55.2989456602
 30
0.0
 10
27.1766862173
 20
55.7231872931
 30
0.0
 10
26.7297285362
 20
55.9812325929
 30
0.0
  0
SPLINE
  5
28C
100
AcDbEntity
  8
0
100
AcDbSpline
 62
7
  6
BYLAYER
 70
0
 71
3
 72
13
 73
9
 74
0
 42
0.0000001
 43
0.0000001
 44
0.0000000001
 40
0.0
 40
0.0
 40
0.0
 40
0.0
 40
0.1189461936
 40
0.2385923092
 40
0.3594672638
 40
0.4819928817
 40
0.7341239064
 40
1.0
 40
1.0
 40
1.0
 40
1.0
 10
19.7714077265
 20
83.3230427986
 30
0.0
 10
19.4279420405
 20
83.1248177703
 30
0.0
 10
18.766397255
 20
82.6773768349
 30
0.0
 10
17.8756368849
 20
81.8701957187
 30
0.0
 10
17.0939190406
 20
80.9413254157
 30
0.0
 10
16.1999743218
 20
79.5472930318
 30
0.0
 10
15.3824714761
 20
77.5540069378
 30
0.0
 10
15.0591350116
 20
75.8467119119
 30
0.0
 10
14.9648644211
 20
74.9653172111
 30
0.0
  0
SPLINE
  5
28D
100
AcDbEntity
  8
0
100
AcDbSpline
 62
7
  6
BYLAYER
 70
0
 71
3
 72
15
 73
11
 74
0
 42
0.0000001
 43
0.0000001
 44
0.0000000001
 40
0.0
 40
0.0
 40
0.0
 40
0.0
 40
0.1184241421
 40
0.2437901197
 40
0.3740636145
 40
0.5064430916
 40
0.6378561603
 40
0.7653614629
 40
0.8865443127
 40
1.0
 40
1.0
 40
1.0
 40
1.0
 10
27.9974913295
 20
49.7464430135
 30
0.0
 10
27.0194884706
 20
50.3556027936
 30
0.0
 10
25.1111959239
 20
51.7829454762
 30
0.0
 10
22.5238980156
 20
54.3561771387
 30
0.0
 10
20.1942830403
 20
57.3388046048
 30
0.0
 10
18.2010641174
 20
60.6241070851
 30
0.0
 10
16.6143204951
 20
64.094500696
 30
0.0
 10
15.4929949563
 20
67.6292449261
 30
0.0
 10
14.8818409486
 20
71.110296244
 30
0.0
 10
14.837657831
 20
73.4060997273
 30
0.0
 10
14.9226726693
 20
74.5066810117
 30
0.0
  0
SPLINE
  5
28E
100
AcDbEntity
  8
0
100
AcDbSpline
 62
7
  6
BYLAYER
 70
0
 71
3
 72
13
 73
9
 74
0
 42
0.0000001
 43
0.0000001
 44
0.0000000001
 40
0.0
 40
0.0
 40
0.0
 40
0.0
 40
0.2658692357
 40
0.5180012204
 40
0.6405268002
 40
0.7614075852
 40
0.8810516452
 40
1.0
 40
1.0
 40
1.0
 40
1.0
 10
30.2028670756
 20
48.5694955628
 30
0.0
 10
31.0134224594
 20
48.2102445312
 30
0.0
 10
32.6539363435
 20
47.6362971317
 30
0.0
 10
34.7893489417
 20
47.3472278776
 30
0.0
 10
36.4439996804
 20
47.4242659446
 30
0.0
 10
37.6395800532
 20
47.6367975445
 30
0.0
 10
38.7843146592
 20
48.0046138603
 30
0.0
 10
39.5027481973
 20
48.3538911155
 30
0.0
 10
39.8462333205
 20
48.5522777154
 30
0.0
  0
SPLINE
  5
28F
100
AcDbEntity
  8
0
100
AcDbSpline
 62
7
  6
BYLAYER
 70
0
 71
3
 72
12
 73
8
 74
0
 42
0.0000001
 43
0.0000001
 44
0.0000000001
 40
0.0
 40
0.0
 40
0.0
 40
0.0
 40
0.1116201616
 40
0.2311668126
 40
0.486421388
 40
0.7490031968
 40
1.0
 40
1.0
 40
1.0
 40
1.0
 10
115.2989609923
 20
109.7714694499
 30
0.0
 10
115.3001920117
 20
109.9805376079
 30
0.0
 10
115.2703346882
 20
110.4140791173
 30
0.0
 10
115.0963311721
 20
111.3100891698
 30
0.0
 10
114.6755747418
 20
112.437299069
 30
0.0
 10
113.9255409238
 20
113.6750100652
 30
0.0
 10
113.2740932972
 20
114.394389114
 30
0.0
 10
112.9195218377
 20
114.7031031398
 30
0.0
  0
SPLINE
  5
290
100
AcDbEntity
  8
0
100
AcDbSpline
 62
7
  6
BYLAYER
 70
0
 71
3
 72
9
 73
5
 74
0
 42
0.0000001
 43
0.0000001
 44
0.0000000001
 40
0.0
 40
0.0
 40
0.0
 40
0.0
 40
0.5003149847
 40
1.0
 40
1.0
 40
1.0
 40
1.0
 10
108.2077593757
 20
118.6740099347
 30
0.0
 10
107.8170543322
 20
118.9908031306
 30
0.0
 10
107.0348268883
 20
119.622377456
 30
0.0
 10
106.2504536297
 20
120.2512807494
 30
0.0
 10
105.8590801253
 20
120.5662385123
 30
0.0
  0
SPLINE
  5
291
100
AcDbEntity
  8
0
100
AcDbSpline
 62
7
  6
BYLAYER
 70
0
 71
3
 72
9
 73
5
 74
0
 42
0.0000001
 43
0.0000001
 44
0.0000000001
 40
0.0
 40
0.0
 40
0.0
 40
0.0
 40
0.2566734905
 40
1.0
 40
1.0
 40
1.0
 40
1.0
 10
104.7813865092
 20
121.4230311401
 30
0.0
 10
104.6971459025
 20
121.4893093516
 30
0.0
 10
104.3651999051
 20
121.7427053446
 30
0.0
 10
104.0180111293
 20
121.9763590149
 30
0.0
 10
103.751790416
 20
122.13599936
 30
0.0
  0
SPLINE
  5
292
100
AcDbEntity
  8
0
100
AcDbSpline
 62
7
  6
BYLAYER
 70
0
 71
3
 72
9
 73
5
 74
0
 42
0.0000001
 43
0.0000001
 44
0.0000000001
 40
0.0
 40
0.0
 40
0.0
 40
0.0
 40
0.499536519
 40
1.0
 40
1.0
 40
1.0
 40
1.0
 10
70.4484144656
 20
44.0236419914
 30
0.0
 10
70.0567045394
 20
44.1583314425
 30
0.0
 10
69.273383623
 20
44.4303673386
 30
0.0
 10
68.4914345932
 20
44.7063080151
 30
0.0
 10
68.0997352181
 20
44.843373255
 30
0.0
  0
SPLINE
  5
293
100
AcDbEntity
  8
0
100
AcDbSpline
 62
7
  6
BYLAYER
 70
0
 71
3
 72
9
 73
5
 74
0
 42
0.0000001
 43
0.0000001
 44
0.0000000001
 40
0.0
 40
0.0
 40
0.0
 40
0.0
 40
0.2419224855
 40
1.0
 40
1.0
 40
1.0
 40
1.0
 10
67.0219445331
 20
45.2310043676
 30
0.0
 10
66.9360585453
 20
45.2626000607
 30
0.0
 10
66.5838387464
 20
45.4007511434
 30
0.0
 10
66.2431463954
 20
45.5676976531
 30
0.0
 10
65.9924163268
 20
45.7068628091
 30
0.0
  0
SPLINE
  5
294
100
AcDbEntity
  8
0
100
AcDbSpline
 62
7
  6
BYLAYER
 70
0
 71
3
 72
12
 73
8
 74
0
 42
0.0000001
 43
0.0000001
 44
0.0000000001
 40
0.0
 40
0.0
 40
0.0
 40
0.0
 40
0.2899427201
 40
0.5491755209
 40
0.7819982627
 40
0.8920359979
 40
1.0
 40
1.0
 40
1.0
 40
1.0
 10
30.403466367
 20
115.1843331046
 30
0.0
 10
30.4021243087
 20
115.4133315684
 30
0.0
 10
30.4343085353
 20
115.8488282426
 30
0.0
 10
30.6069593659
 20
116.4472489823
 30
0.0
 10
30.857985405
 20
116.8602212956
 30
0.0
 10
31.1122709048
 20
117.1115355034
 30
0.0
 10
31.2542467324
 20
117.210725964
 30
0.0
 10
31.3280923892
 20
117.2533656694
 30
0.0
  0
SPLINE
  5
295
100
AcDbEntity
  8
0
100
AcDbSpline
 62
7
  6
BYLAYER
 70
0
 71
3
 72
25
 73
21
 74
0
 42
0.0000001
 43
0.0000001
 44
0.0000000001
 40
0.0
 40
0.0
 40
0.0
 40
0.0
 40
0.0213195883
 40
0.0428581421
 40
0.0648230988
 40
0.0874028388
 40
0.1349570861
 40
0.1865067164
 40
0.2424794522
 40
0.3028856017
 40
0.3674040445
 40
0.4354606597
 40
0.5062944194
 40
0.5790127259
 40
0.6526402607
 40
0.7261618344
 40
0.7985677244
 40
0.8688970883
 40
0.9362766984
 40
1.0
 40
1.0
 40
1.0
 40
1.0
 10
40.5330578476
 20
48.9489030223
 30
0.0
 10
40.7744931285
 20
49.0882739589
 30
0.0
 10
41.242763148
 20
49.3992792959
 30
0.0
 10
41.8868452598
 20
49.9533769417
 30
0.0
 10
42.471028947
 20
50.5928837434
 30
0.0
 10
43.177494315
 20
51.5709706086
 30
0.0
 10
43.8911993311
 20
53.0063698905
 30
0.0
 10
44.4478309658
 20
54.9658121341
 30
0.0
 10
44.7148612667
 20
57.1529845842
 30
0.0
 10
44.6891008428
 20
59.5241527911
 30
0.0
 10
44.372523588
 20
62.0325539368
 30
0.0
 10
43.7719882388
 20
64.6279099105
 30
0.0
 10
42.8998769311
 20
67.2577659585
 30
0.0
 10
41.774008286
 20
69.8686181443
 30
0.0
 10
40.4173833631
 20
72.4071359978
 30
0.0
 10
38.8577667722
 20
74.8214112638
 30
0.0
 10
37.1270510308
 20
77.0620362526
 30
0.0
 10
35.2604434462
 20
79.0833086977
 30
0.0
 10
33.296173687
 20
80.8440308114
 30
0.0
 10
31.90399538
 20
81.8516161997
 30
0.0
 10
31.2005298031
 20
82.2981954224
 30
0.0
  0
SPLINE
  5
296
100
AcDbEntity
  8
0
100
AcDbSpline
 62
7
  6
BYLAYER
 70
0
 71
3
 72
24
 73
20
 74
0
 42
0.0000001
 43
0.0000001
 44
0.0000000001
 40
0.0
 40
0.0
 40
0.0
 40
0.0
 40
0.0213340627
 40
0.0428966662
 40
0.0874753608
 40
0.1352547046
 40
0.1871601519
 40
0.2436024106
 40
0.3045547573
 40
0.3696468822
 40
0.4382486872
 40
0.5095400581
 40
0.5825697012
 40
0.6563067261
 40
0.729687627
 40
0.8016698817
 40
0.8712645118
 40
0.9376158994
 40
1.0
 40
1.0
 40
1.0
 40
1.0
 10
46.2687528528
 20
58.1938110744
 30
0.0
 10
46.4530428906
 20
58.3002100895
 30
0.0
 10
46.8103349428
 20
58.5381769319
 30
0.0
 10
47.4710523431
 20
59.1110127218
 30
0.0
 10
48.1836768552
 20
60.0108628038
 30
0.0
 10
48.8135169866
 20
61.3152044382
 30
0.0
 10
49.2218503417
 20
62.8258997542
 30
0.0
 10
49.4035123535
 20
64.5106199516
 30
0.0
 10
49.3570824301
 20
66.3348713529
 30
0.0
 10
49.0844334939
 20
68.2609762865
 30
0.0
 10
48.5916926733
 20
70.2487060215
 30
0.0
 10
47.8894026324
 20
72.2561232363
 30
0.0
 10
46.9925139709
 20
74.2406042671
 30
0.0
 10
45.9201410113
 20
76.1598377407
 30
0.0
 10
44.6951938945
 20
77.9729351966
 30
0.0
 10
43.3437598384
 20
79.641126299
 30
0.0
 10
41.894509686
 20
81.1292132518
 30
0.0
 10
40.3783290297
 20
82.4050698831
 30
0.0
 10
39.3077058356
 20
83.1205806458
 30
0.0
 10
38.7688113253
 20
83.4317044978
 30
0.0
  0
SPLINE
  5
297
100
AcDbEntity
  8
0
100
AcDbSpline
 62
7
  6
BYLAYER
 70
0
 71
3
 72
14
 73
10
 74
0
 42
0.0000001
 43
0.0000001
 44
0.0000000001
 40
0.0
 40
0.0
 40
0.0
 40
0.0
 40
0.2914663391
 40
0.4252824091
 40
0.5514018939
 40
0.67054963
 40
0.7838891674
 40
0.8930985002
 40
1.0
 40
1.0
 40
1.0
 40
1.0
 10
57.9079659159
 20
70.2287275755
 30
0.0
 10
57.9038140878
 20
69.5033186309
 30
0.0
 10
57.8136746604
 20
68.440168592
 30
0.0
 10
57.4808921505
 20
67.1063603368
 30
0.0
 10
57.1462372514
 20
66.221561377
 30
0.0
 10
56.7232326109
 20
65.4324832786
 30
0.0
 10
56.2153002913
 20
64.7462505589
 30
0.0
 10
55.6273878151
 20
64.169749318
 30
0.0
 10
55.183705258
 20
63.8603873394
 30
0.0
 10
54.9532871049
 20
63.7273561508
 30
0.0
  0
SPLINE
  5
298
100
AcDbEntity
  8
0
100
AcDbSpline
 62
7
  6
BYLAYER
 70
0
 71
3
 72
17
 73
13
 74
0
 42
0.0000001
 43
0.0000001
 44
0.0000000001
 40
0.0
 40
0.0
 40
0.0
 40
0.0
 40
0.0458572481
 40
0.0925156949
 40
0.1405583909
 40
0.1905430793
 40
0.2979346549
 40
0.4169999271
 40
0.5480942776
 40
0.6902936185
 40
0.8417545556
 40
1.0
 40
1.0
 40
1.0
 40
1.0
 10
40.4033522435
 20
88.9287330086
 30
0.0
 10
40.6044530475
 20
89.0448379188
 30
0.0
 10
41.028288167
 20
89.2490902442
 30
0.0
 10
41.7097606939
 20
89.4623675415
 30
0.0
 10
42.4350072918
 20
89.5816156091
 30
0.0
 10
43.4772275962
 20
89.6148109728
 30
0.0
 10
44.8732893743
 20
89.3995989714
 30
0.0
 10
46.5820177016
 20
88.7742547146
 30
0.0
 10
48.319748412
 20
87.7959447902
 30
0.0
 10
50.0377153918
 20
86.4923112056
 30
0.0
 10
51.6877545258
 20
84.9001472603
 30
0.0
 10
52.6958749951
 20
83.6945474848
 30
0.0
 10
53.1789625183
 20
83.0552200942
 30
0.0
  0
SPLINE
  5
299
100
AcDbEntity
  8
0
100
AcDbSpline
 62
7
  6
BYLAYER
 70
0
 71
3
 72
13
 73
9
 74
0
 42
0.0000001
 43
0.0000001
 44
0.0000000001
 40
0.0
 40
0.0
 40
0.0
 40
0.0
 40
0.2626634849
 40
0.5236732847
 40
0.6502693882
 40
0.7725313311
 40
0.8894309116
 40
1.0
 40
1.0
 40
1.0
 40
1.0
 10
53.1789625183
 20
83.0552200942
 30
0.0
 10
53.9079633665
 20
82.0904462434
 30
0.0
 10
55.2202168988
 20
80.0567015875
 30
0.0
 10
56.4768229089
 20
77.3273147792
 30
0.0
 10
57.2108817399
 20
75.0955660239
 30
0.0
 10
57.6076558248
 20
73.4570415
 30
0.0
 10
57.8499916659
 20
71.8632692945
 30
0.0
 10
57.9081881202
 20
70.8155218274
 30
0.0
 10
57.9081881202
 20
70.3064934505
 30
0.0
  0
SPLINE
  5
29A
100
AcDbEntity
  8
0
100
AcDbSpline
 62
7
  6
BYLAYER
 70
0
 71
3
 72
15
 73
11
 74
0
 42
0.0000001
 43
0.0000001
 44
0.0000000001
 40
0.0
 40
0.0
 40
0.0
 40
0.0
 40
0.1080139342
 40
0.2180616739
 40
0.3319972288
 40
0.4513579952
 40
0.5772716048
 40
0.7104885206
 40
0.8514265022
 40
1.0
 40
1.0
 40
1.0
 40
1.0
 10
61.16183194
 20
52.6471786164
 30
0.0
 10
61.608615817
 20
52.9051284266
 30
0.0
 10
62.4675711991
 20
53.5045812128
 30
0.0
 10
63.6025987889
 20
54.6215489918
 30
0.0
 10
64.5787807431
 20
55.9472797475
 30
0.0
 10
65.3869094582
 20
57.4669009308
 30
0.0
 10
66.0210488088
 20
59.1647489738
 30
0.0
 10
66.4760736352
 20
61.0246691589
 30
0.0
 10
66.7483587012
 20
63.0284843122
 30
0.0
 10
66.8056389171
 20
64.4122116527
 30
0.0
 10
66.8056389171
 20
65.1218351882
 30
0.0
  0
SPLINE
  5
29B
100
AcDbEntity
  8
0
100
AcDbSpline
 62
7
  6
BYLAYER
 70
0
 71
3
 72
15
 73
11
 74
0
 42
0.0000001
 43
0.0000001
 44
0.0000000001
 40
0.0
 40
0.0
 40
0.0
 40
0.0
 40
0.1080126127
 40
0.2180608759
 40
0.3319981253
 40
0.4513586284
 40
0.5772757324
 40
0.7104913255
 40
0.851420808
 40
1.0
 40
1.0
 40
1.0
 40
1.0
 10
68.7593292743
 20
53.8581716023
 30
0.0
 10
69.2512089458
 20
54.142126408
 30
0.0
 10
70.1968437901
 20
54.802075803
 30
0.0
 10
71.4464436808
 20
56.0317468031
 30
0.0
 10
72.5210882503
 20
57.4913166905
 30
0.0
 10
73.4108483435
 20
59.1642806467
 30
0.0
 10
74.1089374923
 20
61.0335044949
 30
0.0
 10
74.6098679783
 20
63.0810881909
 30
0.0
 10
74.9096758055
 20
65.2870972997
 30
0.0
 10
74.9727044287
 20
66.8104546164
 30
0.0
 10
74.9727044287
 20
67.5917216673
 30
0.0
  0
SPLINE
  5
29C
100
AcDbEntity
  8
0
100
AcDbSpline
 62
7
  6
BYLAYER
 70
0
 71
3
 72
25
 73
21
 74
0
 42
0.0000001
 43
0.0000001
 44
0.0000000001
 40
0.0
 40
0.0
 40
0.0
 40
0.0
 40
0.0623835444
 40
0.1287226736
 40
0.1983152315
 40
0.2702915056
 40
0.3436686241
 40
0.4174002572
 40
0.4904244502
 40
0.5617107068
 40
0.6303077772
 40
0.695395369
 40
0.756343137
 40
0.8127807307
 40
0.8646816619
 40
0.9124569019
 40
0.9351016713
 40
0.9571072135
 40
0.978667765
 40
1.0
 40
1.0
 40
1.0
 40
1.0
 10
74.9727044287
 20
67.5917216673
 30
0.0
 10
74.9727044287
 20
68.8363133688
 30
0.0
 10
74.8040927167
 20
71.4061277769
 30
0.0
 10
74.1102725599
 20
75.3080338573
 30
0.0
 10
72.982258633
 20
79.306221412
 30
0.0
 10
71.4441796545
 20
83.315188592
 30
0.0
 10
69.5287703421
 20
87.249964331
 30
0.0
 10
67.2768875827
 20
91.0265914998
 30
0.0
 10
64.7365680194
 20
94.5645160756
 30
0.0
 10
61.9619271887
 20
97.7883377357
 30
0.0
 10
59.0118365535
 20
100.62952778
 30
0.0
 10
55.9483482872
 20
103.0278568138
 30
0.0
 10
52.8351759035
 20
104.9325218214
 30
0.0
 10
49.735209632
 20
106.3024347076
 30
0.0
 10
46.7113085763
 20
107.1061603876
 30
0.0
 10
44.2587472166
 20
107.2862058684
 30
0.0
 10
42.4193015204
 20
107.1135633132
 30
0.0
 10
41.1242128674
 20
106.8373555597
 30
0.0
 10
39.897480835
 20
106.4133027589
 30
0.0
 10
39.1280797543
 20
106.0324948705
 30
0.0
 10
38.7594960743
 20
105.8197170036
 30
0.0
  0
SPLINE
  5
29D
100
AcDbEntity
  8
0
100
AcDbSpline
 62
7
  6
BYLAYER
 70
0
 71
3
 72
15
 73
11
 74
0
 42
0.0000001
 43
0.0000001
 44
0.0000000001
 40
0.0
 40
0.0
 40
0.0
 40
0.0
 40
0.1423405371
 40
0.2786427725
 40
0.4090619903
 40
0.5341809008
 40
0.6547759298
 40
0.7718589572
 40
0.8865066964
 40
1.0
 40
1.0
 40
1.0
 40
1.0
 10
27.1520342771
 20
88.4936251832
 30
0.0
 10
27.1520342771
 20
89.2914859998
 30
0.0
 10
27.2178230784
 20
90.8544495012
 30
0.0
 10
27.5314081861
 20
93.1295474702
 30
0.0
 10
28.0609475358
 20
95.2658894888
 30
0.0
 10
28.8080560634
 20
97.2432604893
 30
0.0
 10
29.7737465189
 20
99.0403237652
 30
0.0
 10
30.9560095442
 20
100.6318402785
 30
0.0
 10
32.3448194152
 20
101.9909365652
 30
0.0
 10
33.4002391259
 20
102.7256045951
 30
0.0
 10
33.9511737344
 20
103.043684941
 30
0.0
  0
SPLINE
  5
29E
100
AcDbEntity
  8
0
100
AcDbSpline
 62
7
  6
BYLAYER
 70
0
 71
3
 72
25
 73
21
 74
0
 42
0.0000001
 43
0.0000001
 44
0.0000000001
 40
0.0
 40
0.0
 40
0.0
 40
0.0
 40
0.062382269
 40
0.1287226887
 40
0.198314422
 40
0.270290467
 40
0.343668028
 40
0.4174006292
 40
0.4904254403
 40
0.5617122071
 40
0.6303094515
 40
0.6953969152
 40
0.7563443871
 40
0.8127816367
 40
0.8646822477
 40
0.9124572337
 40
0.935101818
 40
0.9571073228
 40
0.9786677606
 40
1.0
 40
1.0
 40
1.0
 40
1.0
 10
66.8056389171
 20
65.1218351882
 30
0.0
 10
66.8056389171
 20
66.2523157704
 30
0.0
 10
66.6524708505
 20
68.5865614688
 30
0.0
 10
66.0222845119
 20
72.1307831175
 30
0.0
 10
64.9976392423
 20
75.7624641376
 30
0.0
 10
63.6005788732
 20
79.4039392163
 30
0.0
 10
61.8607236059
 20
82.9780378767
 30
0.0
 10
59.8152507481
 20
86.4085072257
 30
0.0
 10
57.5077646033
 20
89.62214646
 30
0.0
 10
54.9874479082
 20
92.5504647749
 30
0.0
 10
52.3077707234
 20
95.1312129025
 30
0.0
 10
49.52510308
 20
97.3096870378
 30
0.0
 10
46.6973155829
 20
99.0397442324
 30
0.0
 10
43.8815282932
 20
100.2840766571
 30
0.0
 10
41.134838092
 20
101.0141073954
 30
0.0
 10
38.9071030623
 20
101.1776948561
 30
0.0
 10
37.2362951329
 20
101.0207963579
 30
0.0
 10
36.0599069905
 20
100.7699972361
 30
0.0
 10
34.9456678289
 20
100.3847108876
 30
0.0
 10
34.2467535271
 20
100.0389018878
 30
0.0
 10
33.9119658736
 20
99.8456128814
 30
0.0
  0
SPLINE
  5
29F
100
AcDbEntity
  8
0
100
AcDbSpline
 62
7
  6
BYLAYER
 70
0
 71
3
 72
11
 73
7
 74
0
 42
0.0000001
 43
0.0000001
 44
0.0000000001
 40
0.0
 40
0.0
 40
0.0
 40
0.0
 40
0.2317518569
 40
0.4715177553
 40
0.7261914907
 40
1.0
 40
1.0
 40
1.0
 40
1.0
 10
76.6149952618
 20
42.669469429
 30
0.0
 10
76.5148220163
 20
42.6116277378
 30
0.0
 10
76.2963191417
 20
42.5176973711
 30
0.0
 10
75.9369288186
 20
42.4528520351
 30
0.0
 10
75.5513158075
 20
42.4630742578
 30
0.0
 10
75.2916437703
 20
42.5166597098
 30
0.0
 10
75.1601779739
 20
42.5539969032
 30
0.0
  0
SPLINE
  5
2A0
100
AcDbEntity
  8
0
100
AcDbSpline
 62
7
  6
BYLAYER
 70
0
 71
3
 72
11
 73
7
 74
0
 42
0.0000001
 43
0.0000001
 44
0.0000000001
 40
0.0
 40
0.0
 40
0.0
 40
0.0
 40
0.2747121381
 40
0.5294278627
 40
0.7688761244
 40
1.0
 40
1.0
 40
1.0
 40
1.0
 10
36.5393921123
 20
85.6628930813
 30
0.0
 10
36.6559900822
 20
86.1529629409
 30
0.0
 10
36.9508896866
 20
87.0833102861
 30
0.0
 10
37.614329331
 20
88.3372105948
 30
0.0
 10
38.4722173367
 20
89.3670610395
 30
0.0
 10
39.1699269586
 20
89.8908587648
 30
0.0
 10
39.536952669
 20
90.1027918565
 30
0.0
  0
SPLINE
  5
2A1
100
AcDbEntity
  8
0
100
AcDbSpline
 62
7
  6
BYLAYER
 70
0
 71
3
 72
12
 73
8
 74
0
 42
0.0000001
 43
0.0000001
 44
0.0000000001
 40
0.0
 40
0.0
 40
0.0
 40
0.0
 40
0.1079640151
 40
0.2180017713
 40
0.4508243934
 40
0.7100572688
 40
1.0
 40
1.0
 40
1.0
 40
1.0
 10
114.3743405074
 20
64.46970666
 30
0.0
 10
114.4481863766
 20
64.5123465577
 30
0.0
 10
114.5901623341
 20
64.6115378674
 30
0.0
 10
114.8444481406
 20
64.8628532042
 30
0.0
 10
115.0954747811
 20
65.2758269398
 30
0.0
 10
115.2681249313
 20
65.8742499541
 30
0.0
 10
115.3003088053
 20
66.3097480364
 30
0.0
 10
115.2989667426
 20
66.5387472339
 30
0.0
  0
SPLINE
  5
2A2
100
AcDbEntity
  8
0
100
AcDbSpline
 62
7
  6
BYLAYER
 70
0
 71
3
 72
14
 73
10
 74
0
 42
0.0000001
 43
0.0000001
 44
0.0000000001
 40
0.0
 40
0.0
 40
0.0
 40
0.0
 40
0.2892789561
 40
0.4225447416
 40
0.5484930628
 40
0.6678927781
 40
0.7818680015
 40
0.8919518921
 40
1.0
 40
1.0
 40
1.0
 40
1.0
 10
38.7688113253
 20
83.4317044978
 30
0.0
 10
38.1103807286
 20
83.8118409803
 30
0.0
 10
37.0995166086
 20
84.2929618957
 30
0.0
 10
35.7132219307
 20
84.6971642835
 30
0.0
 10
34.7292378005
 20
84.8621723862
 30
0.0
 10
33.782446966
 20
84.8951386963
 30
0.0
 10
32.8817986254
 20
84.7946495659
 30
0.0
 10
32.0369175235
 20
84.5610873207
 30
0.0
 10
31.514798251
 20
84.3165110813
 30
0.0
 10
31.2688697979
 20
84.1745254074
 30
0.0
  0
SPLINE
  5
2A3
100
AcDbEntity
  8
0
100
AcDbSpline
 62
7
  6
BYLAYER
 70
0
 71
3
 72
14
 73
10
 74
0
 42
0.0000001
 43
0.0000001
 44
0.0000000001
 40
0.0
 40
0.0
 40
0.0
 40
0.0
 40
0.2892789053
 40
0.4225403487
 40
0.5484916981
 40
0.6678925638
 40
0.7818661756
 40
0.8919502586
 40
1.0
 40
1.0
 40
1.0
 40
1.0
 10
30.4956964299
 20
82.7253887344
 30
0.0
 10
29.6145032387
 20
83.2341343512
 30
0.0
 10
28.2616514345
 20
83.8780134322
 30
0.0
 10
26.4063495656
 20
84.4189885333
 30
0.0
 10
25.0894583674
 20
84.639795286
 30
0.0
 10
23.8223384216
 20
84.683980037
 30
0.0
 10
22.6169810076
 20
84.5494532622
 30
0.0
 10
21.4862646426
 20
84.2368512201
 30
0.0
 10
20.7874840678
 20
83.9095544161
 30
0.0
 10
20.4583350123
 20
83.7195498237
 30
0.0
  0
SPLINE
  5
2A4
100
AcDbEntity
  8
0
100
AcDbSpline
 62
7
  6
BYLAYER
 70
0
 71
3
 72
10
 73
6
 74
0
 42
0.0000001
 43
0.0000001
 44
0.0000000001
 40
0.0
 40
0.0
 40
0.0
 40
0.0
 40
0.2425267592
 40
0.4882639362
 40
1.0
 40
1.0
 40
1.0
 40
1.0
 10
55.7717679093
 20
65.412381062
 30
0.0
 10
55.9565120691
 20
65.5190193845
 30
0.0
 10
56.3136223327
 20
65.7607697805
 30
0.0
 10
56.9672864286
 20
66.3523856841
 30
0.0
 10
57.3647047803
 20
66.8990643098
 30
0.0
 10
57.5862670444
 20
67.2908472446
 30
0.0
  0
SPLINE
  5
2A5
100
AcDbEntity
  8
0
100
AcDbSpline
 62
7
  6
BYLAYER
 70
0
 71
3
 72
22
 73
18
 74
0
 42
0.0000001
 43
0.0000001
 44
0.0000000001
 40
0.0
 40
0.0
 40
0.0
 40
0.0
 40
0.0428206252
 40
0.0874092562
 40
0.135198592
 40
0.1871147046
 40
0.2435693313
 40
0.3045347091
 40
0.369640347
 40
0.4382568652
 40
0.5095640879
 40
0.5826097058
 40
0.7296259317
 40
0.8016254634
 40
0.871232567
 40
0.9376081144
 40
1.0
 40
1.0
 40
1.0
 40
1.0
 10
32.0578600239
 20
55.5852377971
 30
0.0
 10
32.3066195884
 20
55.7288657447
 30
0.0
 10
32.7781672307
 20
56.089815593
 30
0.0
 10
33.345628289
 20
56.8074065258
 30
0.0
 10
33.7696864394
 20
57.6849623243
 30
0.0
 10
34.044278164
 20
58.7010841072
 30
0.0
 10
34.1664920332
 20
59.834352233
 30
0.0
 10
34.1352464124
 20
61.0614483819
 30
0.0
 10
33.9518642731
 20
62.3570759262
 30
0.0
 10
33.6204405778
 20
63.6941214966
 30
0.0
 10
33.1479858878
 20
65.0445634212
 30
0.0
 10
32.3421447957
 20
66.8271871924
 30
0.0
 10
31.3102638111
 20
68.5060812307
 30
0.0
 10
30.0904018969
 20
70.0120540485
 30
0.0
 10
29.1154268075
 20
71.0131690612
 30
0.0
 10
28.0955225148
 20
71.8713325339
 30
0.0
 10
27.3753497594
 20
72.352684668
 30
0.0
 10
27.0128879118
 20
72.5619473791
 30
0.0
  0
SPLINE
  5
2A6
100
AcDbEntity
  8
0
100
AcDbSpline
 62
7
  6
BYLAYER
 70
0
 71
3
 72
9
 73
5
 74
0
 42
0.0000001
 43
0.0000001
 44
0.0000000001
 40
0.0
 40
0.0
 40
0.0
 40
0.0
 40
0.4865044794
 40
1.0
 40
1.0
 40
1.0
 40
1.0
 10
55.5937185664
 20
64.1689629466
 30
0.0
 10
55.2286997624
 20
64.0297349749
 30
0.0
 10
54.4421582474
 20
63.8326453407
 30
0.0
 10
53.6335305769
 20
63.8086562369
 30
0.0
 10
53.2219519773
 20
63.8337740638
 30
0.0
  0
SPLINE
  5
2A7
100
AcDbEntity
  8
0
100
AcDbSpline
 62
7
  6
BYLAYER
 70
0
 71
3
 72
11
 73
7
 74
0
 42
0.0000001
 43
0.0000001
 44
0.0000000001
 40
0.0
 40
0.0
 40
0.0
 40
0.0
 40
0.2410573614
 40
0.48585379
 40
0.7378452995
 40
1.0
 40
1.0
 40
1.0
 40
1.0
 10
40.4033709685
 20
88.9287005747
 30
0.0
 10
40.1875531839
 20
88.8041117107
 30
0.0
 10
39.7713435887
 20
88.5188133155
 30
0.0
 10
39.2131395748
 20
87.9950056585
 30
0.0
 10
38.7231348497
 20
87.3790272872
 30
0.0
 10
38.4507097787
 20
86.9206220441
 30
0.0
 10
38.326551201
 20
86.6797279843
 30
0.0
  0
SPLINE
  5
2A8
100
AcDbEntity
  8
0
100
AcDbSpline
 62
7
  6
BYLAYER
 70
0
 71
3
 72
12
 73
8
 74
0
 42
0.0000001
 43
0.0000001
 44
0.0000000001
 40
0.0
 40
0.0
 40
0.0
 40
0.0
 40
0.1079438393
 40
0.2183139639
 40
0.4520875651
 40
0.7113775417
 40
1.0
 40
1.0
 40
1.0
 40
1.0
 10
21.9538730626
 20
73.0489104876
 30
0.0
 10
22.118212029
 20
73.1333715815
 30
0.0
 10
22.4653773769
 20
73.2769279563
 30
0.0
 10
23.2211635957
 20
73.4556739736
 30
0.0
 10
24.2690203231
 20
73.4571029604
 30
0.0
 10
25.5756960343
 20
73.1253366178
 30
0.0
 10
26.4268648349
 20
72.717653752
 30
0.0
 10
26.8547264153
 20
72.4706333417
 30
0.0
  0
SPLINE
  5
2A9
100
AcDbEntity
  8
0
100
AcDbSpline
 62
7
  6
BYLAYER
 70
0
 71
3
 72
28
 73
24
 74
0
 42
0.0000001
 43
0.0000001
 44
0.0000000001
 40
0.0
 40
0.0
 40
0.0
 40
0.0
 40
0.056649534
 40
0.1075115665
 40
0.1312612823
 40
0.1542275036
 40
0.1767676612
 40
0.1992745944
 40
0.2221442538
 40
0.245741891
 40
0.2703754978
 40
0.2962830142
 40
0.3236254344
 40
0.3524946423
 40
0.4148073352
 40
0.482892564
 40
0.5557131461
 40
0.6318067263
 40
0.7094527285
 40
0.7868158927
 40
0.8620831596
 40
0.9335924348
 40
1.0
 40
1.0
 40
1.0
 40
1.0
 10
30.2029204898
 20
48.5695106207
 30
0.0
 10
31.0178398274
 20
48.2082419186
 30
0.0
 10
32.6295346835
 20
47.6537145435
 30
0.0
 10
34.7088039816
 20
47.4394945013
 30
0.0
 10
36.2396313887
 20
47.6136396702
 30
0.0
 10
37.2955160892
 20
47.9011986457
 30
0.0
 10
38.273777724
 20
48.3469107978
 30
0.0
 10
39.1643417736
 20
48.9463655203
 30
0.0
 10
39.9581693768
 20
49.6932103894
 30
0.0
 10
40.6477779422
 20
50.5794648099
 30
0.0
 10
41.2276391617
 20
51.5959264048
 30
0.0
 10
41.6930363528
 20
52.732986219
 30
0.0
 10
42.0409492893
 20
53.9802101019
 30
0.0
 10
42.3521701564
 20
55.8219664847
 30
0.0
 10
42.4130042014
 20
58.3409810522
 30
0.0
 10
42.0021270849
 20
61.5220774024
 30
0.0
 10
41.1251513001
 20
64.8312417123
 30
0.0
 10
39.8127262502
 20
68.1539913193
 30
0.0
 10
38.1104288949
 20
71.3755826773
 30
0.0
 10
36.0776120156
 20
74.3838087549
 30
0.0
 10
33.784573682
 20
77.0741868632
 30
0.0
 10
31.3116287829
 20
79.3530329489
 30
0.0
 10
29.5224776354
 20
80.5984270352
 30
0.0
 10
28.6175144034
 20
81.1208959809
 30
0.0
  0
SPLINE
  5
2AA
100
AcDbEntity
  8
0
100
AcDbSpline
 62
7
  6
BYLAYER
 70
0
 71
3
 72
13
 73
9
 74
0
 42
0.0000001
 43
0.0000001
 44
0.0000000001
 40
0.0
 40
0.0
 40
0.0
 40
0.0
 40
0.1104138962
 40
0.2225230478
 40
0.3378990945
 40
0.4578799634
 40
0.7152071577
 40
1.0
 40
1.0
 40
1.0
 40
1.0
 10
39.536952669
 20
90.1027918565
 30
0.0
 10
39.7730555418
 20
90.2391256619
 30
0.0
 10
40.2709305749
 20
90.4775101125
 30
0.0
 10
41.072060721
 20
90.720840616
 30
0.0
 10
41.923251016
 20
90.849484993
 30
0.0
 10
43.1428567349
 20
90.8679906038
 30
0.0
 10
44.7679575529
 20
90.582311575
 30
0.0
 10
46.0207412275
 20
90.0886265817
 30
0.0
 10
46.6530117504
 20
89.7808060635
 30
0.0
  0
SPLINE
  5
2AB
100
AcDbEntity
  8
0
100
AcDbSpline
 62
7
  6
BYLAYER
 70
0
 71
3
 72
12
 73
8
 74
0
 42
0.0000001
 43
0.0000001
 44
0.0000000001
 40
0.0
 40
0.0
 40
0.0
 40
0.0
 40
0.2899427202
 40
0.5491755211
 40
0.7819982628
 40
0.892035998
 40
1.0
 40
1.0
 40
1.0
 40
1.0
 10
77.5396212838
 20
44.7385020034
 30
0.0
 10
77.5409633423
 20
44.5095035387
 30
0.0
 10
77.5087791167
 20
44.0740068625
 30
0.0
 10
77.3361282868
 20
43.4755861199
 30
0.0
 10
77.0851022473
 20
43.0626138045
 30
0.0
 10
76.8308167469
 20
42.8112995954
 30
0.0
 10
76.6888409188
 20
42.7121091344
 30
0.0
 10
76.6149952618
 20
42.669469429
 30
0.0
  0
SPLINE
  5
2AC
100
AcDbEntity
  8
0
100
AcDbSpline
 62
7
  6
BYLAYER
 70
0
 71
3
 72
14
 73
10
 74
0
 42
0.0000001
 43
0.0000001
 44
0.0000000001
 40
0.0
 40
0.0
 40
0.0
 40
0.0
 40
0.1080476216
 40
0.2181316173
 40
0.3321058833
 40
0.451506391
 40
0.5774568836
 40
0.7107185521
 40
1.0
 40
1.0
 40
1.0
 40
1.0
 10
55.8903970606
 20
62.5941217227
 30
0.0
 10
56.152716494
 20
62.7455938573
 30
0.0
 10
56.6571117307
 20
63.0974871744
 30
0.0
 10
57.3234905196
 20
63.7533950179
 30
0.0
 10
57.8967087846
 20
64.5317861191
 30
0.0
 10
58.3711782337
 20
65.4240312034
 30
0.0
 10
58.7435637849
 20
66.4210177361
 30
0.0
 10
59.1095203053
 20
67.9172453621
 30
0.0
 10
59.2042064278
 20
69.1076656051
 30
0.0
 10
59.2042064278
 20
69.9186657535
 30
0.0
  0
SPLINE
  5
2AD
100
AcDbEntity
  8
0
100
AcDbSpline
 62
7
  6
BYLAYER
 70
0
 71
3
 72
9
 73
5
 74
0
 42
0.0000001
 43
0.0000001
 44
0.0000000001
 40
0.0
 40
0.0
 40
0.0
 40
0.0
 40
0.49953653
 40
1.0
 40
1.0
 40
1.0
 40
1.0
 10
37.4946731824
 20
115.8991931078
 30
0.0
 10
37.8863831177
 20
115.7645036536
 30
0.0
 10
38.6697040017
 20
115.4924676615
 30
0.0
 10
39.4516530658
 20
115.2165270803
 30
0.0
 10
39.8433524328
 20
115.0794618432
 30
0.0
  0
SPLINE
  5
2AE
100
AcDbEntity
  8
0
100
AcDbSpline
 62
7
  6
BYLAYER
 70
0
 71
3
 72
9
 73
5
 74
0
 42
0.0000001
 43
0.0000001
 44
0.0000000001
 40
0.0
 40
0.0
 40
0.0
 40
0.0
 40
0.2419224855
 40
1.0
 40
1.0
 40
1.0
 40
1.0
 10
40.9211431178
 20
114.6918307305
 30
0.0
 10
41.0070291064
 20
114.6602350371
 30
0.0
 10
41.3592489089
 20
114.5220839531
 30
0.0
 10
41.6999412631
 20
114.3551374412
 30
0.0
 10
41.9506713343
 20
114.2159722838
 30
0.0
  0
SPLINE
  5
2AF
100
AcDbEntity
  8
0
100
AcDbSpline
 62
7
  6
BYLAYER
 70
0
 71
3
 72
11
 73
7
 74
0
 42
0.0000001
 43
0.0000001
 44
0.0000000001
 40
0.0
 40
0.0
 40
0.0
 40
0.0
 40
0.2484132801
 40
0.497935086
 40
0.7484182713
 40
1.0
 40
1.0
 40
1.0
 40
1.0
 10
41.9506713302
 20
114.2159725454
 30
0.0
 10
43.9596145631
 20
113.0985529362
 30
0.0
 10
47.9738873126
 20
110.8361056575
 30
0.0
 10
53.9829822722
 20
107.3925300307
 30
0.0
 10
59.9951274242
 20
103.8955945935
 30
0.0
 10
63.9947267953
 20
101.5312996624
 30
0.0
 10
65.9924365149
 20
100.3357665301
 30
0.0
  0
SPLINE
  5
2B0
100
AcDbEntity
  8
0
100
AcDbSpline
 62
7
  6
BYLAYER
 70
0
 71
3
 72
15
 73
11
 74
0
 42
0.0000001
 43
0.0000001
 44
0.0000000001
 40
0.0
 40
0.0
 40
0.0
 40
0.0
 40
0.1080139342
 40
0.2180616739
 40
0.3319972288
 40
0.4513579952
 40
0.5772716048
 40
0.7104885206
 40
0.8514265022
 40
1.0
 40
1.0
 40
1.0
 40
1.0
 10
33.9119658736
 20
99.8456128814
 30
0.0
 10
33.4651819966
 20
99.5876630712
 30
0.0
 10
32.6062266145
 20
98.9882102849
 30
0.0
 10
31.4711990247
 20
97.871242506
 30
0.0
 10
30.4950170705
 20
96.5455117502
 30
0.0
 10
29.6868883554
 20
95.025890567
 30
0.0
 10
29.0527490048
 20
93.328042524
 30
0.0
 10
28.5977241784
 20
91.4681223388
 30
0.0
 10
28.3254391124
 20
89.4643071856
 30
0.0
 10
28.2681588965
 20
88.080579845
 30
0.0
 10
28.2681588965
 20
87.3709563096
 30
0.0
  0
SPLINE
  5
2B1
100
AcDbEntity
  8
0
100
AcDbSpline
 62
7
  6
BYLAYER
 70
0
 71
3
 72
9
 73
5
 74
0
 42
0.0000001
 43
0.0000001
 44
0.0000000001
 40
0.0
 40
0.0
 40
0.0
 40
0.0
 40
0.2432937002
 40
1.0
 40
1.0
 40
1.0
 40
1.0
 10
65.9924365244
 20
100.3357671243
 30
0.0
 10
66.0795650153
 20
100.2835201666
 30
0.0
 10
66.4339844127
 20
100.0626283928
 30
0.0
 10
66.7736114348
 20
99.8182498283
 30
0.0
 10
67.0219447157
 20
99.6228679767
 30
0.0
  0
SPLINE
  5
2B2
100
AcDbEntity
  8
0
100
AcDbSpline
 62
7
  6
BYLAYER
 70
0
 71
3
 72
9
 73
5
 74
0
 42
0.0000001
 43
0.0000001
 44
0.0000000001
 40
0.0
 40
0.0
 40
0.0
 40
0.0
 40
0.4996850153
 40
1.0
 40
1.0
 40
1.0
 40
1.0
 10
68.0997352181
 20
98.7660006956
 30
0.0
 10
68.4911087225
 20
98.4510429327
 30
0.0
 10
69.2754819811
 20
97.8221396392
 30
0.0
 10
70.057709425
 20
97.1905653138
 30
0.0
 10
70.4484144685
 20
96.873772118
 30
0.0
  0
SPLINE
  5
2B3
100
AcDbEntity
  8
0
100
AcDbSpline
 62
7
  6
BYLAYER
 70
0
 71
3
 72
15
 73
11
 74
0
 42
0.0000001
 43
0.0000001
 44
0.0000000001
 40
0.0
 40
0.0
 40
0.0
 40
0.0
 40
0.1485794229
 40
0.2895078576
 40
0.4227227911
 40
0.5486397505
 40
0.668000319
 40
0.7819383222
 40
0.8919870679
 40
1.0
 40
1.0
 40
1.0
 40
1.0
 10
70.1643983356
 20
64.815661421
 30
0.0
 10
70.1643983356
 20
64.0343928499
 30
0.0
 10
70.1013721104
 20
62.5110391375
 30
0.0
 10
69.8015638341
 20
60.305036884
 30
0.0
 10
69.300636736
 20
58.2574621122
 30
0.0
 10
68.6025598995
 20
56.3882366117
 30
0.0
 10
67.7127936204
 20
54.7152710252
 30
0.0
 10
66.6381529262
 20
53.2556895796
 30
0.0
 10
65.3885501931
 20
52.0260075843
 30
0.0
 10
64.4429090834
 20
51.3660591315
 30
0.0
 10
63.9510282945
 20
51.0821024568
 30
0.0
  0
SPLINE
  5
2B4
100
AcDbEntity
  8
0
100
AcDbSpline
 62
7
  6
BYLAYER
 70
0
 71
3
 72
32
 73
28
 74
0
 42
0.0000001
 43
0.0000001
 44
0.0000000001
 40
0.0
 40
0.0
 40
0.0
 40
0.0
 40
0.0309941464
 40
0.0603975915
 40
0.0881930305
 40
0.1144668971
 40
0.1393746813
 40
0.1631504195
 40
0.1861132442
 40
0.2086482464
 40
0.23117804
 40
0.2541263642
 40
0.2778795352
 40
0.3027573408
 40
0.3289980846
 40
0.3567581656
 40
0.3861151091
 40
0.4170784798
 40
0.4496000676
 40
0.4835812053
 40
0.5552972965
 40
0.6308075222
 40
0.7083124519
 40
0.7858524372
 40
0.8614646376
 40
0.9333395197
 40
1.0
 40
1.0
 40
1.0
 40
1.0
 10
27.7378266027
 20
87.6771368754
 30
0.0
 10
27.7378266027
 20
88.4052417318
 30
0.0
 10
27.7965111061
 20
89.8250545558
 30
0.0
 10
28.0754796517
 20
91.8812668055
 30
0.0
 10
28.5416617629
 20
93.7901171897
 30
0.0
 10
29.1913585777
 20
95.5330021699
 30
0.0
 10
30.0193732891
 20
97.0934062781
 30
0.0
 10
31.0194887531
 20
98.4552152897
 30
0.0
 10
32.1828381027
 20
99.6035078845
 30
0.0
 10
33.4978799077
 20
100.5250832241
 30
0.0
 10
34.9504710854
 20
101.208854961
 30
0.0
 10
36.5239791777
 20
101.6479870853
 30
0.0
 10
38.2011771692
 20
101.8390425429
 30
0.0
 10
39.9647402197
 20
101.7817802912
 30
0.0
 10
41.7976050536
 20
101.4786653814
 30
0.0
 10
43.6826035405
 20
100.9335705438
 30
0.0
 10
45.6023763612
 20
100.152608782
 30
0.0
 10
47.5392141748
 20
99.1436488067
 30
0.0
 10
49.4751156415
 20
97.9162874282
 30
0.0
 10
52.0772075026
 20
95.969657957
 30
0.0
 10
55.201282998
 20
93.0575300846
 30
0.0
 10
58.595807583
 20
88.9988371353
 30
0.0
 10
61.577543895
 20
84.4633499046
 30
0.0
 10
64.0346330856
 20
79.6212073169
 30
0.0
 10
65.8755062634
 20
74.6522503224
 30
0.0
 10
67.0317557236
 20
69.7428591237
 30
0.0
 10
67.3295594185
 20
66.486550405
 30
0.0
 10
67.3357631073
 20
64.920595401
 30
0.0
  0
SPLINE
  5
2B5
100
AcDbEntity
  8
0
100
AcDbSpline
 62
7
  6
BYLAYER
 70
0
 71
3
 72
12
 73
8
 74
0
 42
0.0000001
 43
0.0000001
 44
0.0000000001
 40
0.0
 40
0.0
 40
0.0
 40
0.0
 40
0.2509978375
 40
0.5135805972
 40
0.7688351951
 40
0.8883807748
 40
1.0
 40
1.0
 40
1.0
 40
1.0
 10
75.1601769339
 20
92.9028653201
 30
0.0
 10
75.514757193
 20
92.5941436327
 30
0.0
 10
76.1662192159
 20
91.8747448649
 30
0.0
 10
76.916261521
 20
90.6369993728
 30
0.0
 10
77.3370162366
 20
89.5097619427
 30
0.0
 10
77.5110042021
 20
88.613732514
 30
0.0
 10
77.5408461612
 20
88.1801852952
 30
0.0
 10
77.5396151267
 20
87.971114564
 30
0.0
  0
SPLINE
  5
2B6
100
AcDbEntity
  8
0
100
AcDbSpline
 62
7
  6
BYLAYER
 70
0
 71
3
 72
15
 73
11
 74
0
 42
0.0000001
 43
0.0000001
 44
0.0000000001
 40
0.0
 40
0.0
 40
0.0
 40
0.0
 40
0.1480024139
 40
0.2886607912
 40
0.4218709347
 40
0.5479948978
 40
0.6676955733
 40
0.7819653831
 40
0.8921755088
 40
1.0
 40
1.0
 40
1.0
 40
1.0
 10
28.6217108151
 20
87.5750783865
 30
0.0
 10
28.6217108151
 20
88.2622201844
 30
0.0
 10
28.6754833357
 20
89.6032607295
 30
0.0
 10
28.9305627084
 20
91.5481088797
 30
0.0
 10
29.3568617087
 20
93.3592163567
 30
0.0
 10
29.9511284411
 20
95.0199888395
 30
0.0
 10
30.7087597045
 20
96.5157256099
 30
0.0
 10
31.6246329584
 20
97.8321239358
 30
0.0
 10
32.6905838876
 20
98.9557479745
 30
0.0
 10
33.5002987156
 20
99.5721193668
 30
0.0
 10
33.9223444557
 20
99.8413451669
 30
0.0
  0
SPLINE
  5
2B7
100
AcDbEntity
  8
0
100
AcDbSpline
 62
7
  6
BYLAYER
 70
0
 71
3
 72
25
 73
21
 74
0
 42
0.0000001
 43
0.0000001
 44
0.0000000001
 40
0.0
 40
0.0
 40
0.0
 40
0.0
 40
0.0213306471
 40
0.0428887367
 40
0.0648901059
 40
0.0875283921
 40
0.1352822443
 40
0.1871496976
 40
0.2435433408
 40
0.3044401802
 40
0.3694745419
 40
0.4380214167
 40
0.5092660047
 40
0.5822623593
 40
0.6559850139
 40
0.7293766172
 40
0.8013944188
 40
0.8710565102
 40
0.937493328
 40
1.0
 40
1.0
 40
1.0
 40
1.0
 10
33.9511848679
 20
103.0436656564
 30
0.0
 10
34.3190496483
 20
103.2560294285
 30
0.0
 10
35.0868752821
 20
103.6361858274
 30
0.0
 10
36.31098718
 20
104.0598298569
 30
0.0
 10
37.6032158026
 20
104.3362336315
 30
0.0
 10
39.4384309923
 20
104.5099108781
 30
0.0
 10
41.8853015296
 20
104.3327897122
 30
0.0
 10
44.9025559116
 20
103.534672556
 30
0.0
 10
47.9961007722
 20
102.1723327149
 30
0.0
 10
51.1034422798
 20
100.2769342626
 30
0.0
 10
54.1620532081
 20
97.8892221094
 30
0.0
 10
57.1085720162
 20
95.0595833677
 30
0.0
 10
59.881262126
 20
91.8477746135
 30
0.0
 10
62.4215195761
 20
88.3218099801
 30
0.0
 10
64.6754413701
 20
84.556545863
 30
0.0
 10
66.5951365339
 20
80.6319776265
 30
0.0
 10
68.1398105219
 20
76.6315311022
 30
0.0
 10
69.2767105458
 20
72.6396853922
 30
0.0
 10
69.9816148555
 20
68.7414968653
 30
0.0
 10
70.1592443623
 20
66.1727980857
 30
0.0
 10
70.1641753675
 20
64.9280979696
 30
0.0
  0
SPLINE
  5
2B8
100
AcDbEntity
  8
0
100
AcDbSpline
 62
7
  6
BYLAYER
 70
0
 71
3
 72
15
 73
11
 74
0
 42
0.0000001
 43
0.0000001
 44
0.0000000001
 40
0.0
 40
0.0
 40
0.0
 40
0.0
 40
0.1132595206
 40
0.2351344518
 40
0.3634050308
 40
0.495323506
 40
0.6278849574
 40
0.7580392711
 40
0.8828989754
 40
1.0
 40
1.0
 40
1.0
 40
1.0
 10
59.2042064278
 20
69.9186657535
 30
0.0
 10
59.2042064278
 20
70.7667696374
 30
0.0
 10
59.0569896813
 20
72.5290556163
 30
0.0
 10
58.4662315037
 20
75.1921182342
 30
0.0
 10
57.5169673475
 20
77.897759564
 30
0.0
 10
56.2411855897
 20
80.5539188267
 30
0.0
 10
54.6822541808
 20
83.0709485324
 30
0.0
 10
52.8927266315
 20
85.3635309483
 30
0.0
 10
50.9337810151
 20
87.353808488
 30
0.0
 10
49.5035475247
 20
88.4773418719
 30
0.0
 10
48.7743379818
 20
88.9643262541
 30
0.0
  0
SPLINE
  5
2B9
100
AcDbEntity
  8
0
100
AcDbSpline
 62
7
  6
BYLAYER
 70
0
 71
3
 72
13
 73
9
 74
0
 42
0.0000001
 43
0.0000001
 44
0.0000000001
 40
0.0
 40
0.0
 40
0.0
 40
0.0
 40
0.3077075081
 40
0.5854895229
 40
0.7060798274
 40
0.8134186675
 40
0.9097663881
 40
1.0
 40
1.0
 40
1.0
 40
1.0
 10
48.0468516179
 20
90.3010646118
 30
0.0
 10
48.0273515537
 20
90.3368955017
 30
0.0
 10
47.9822535317
 20
90.4009790576
 30
0.0
 10
47.9100869258
 20
90.4630101132
 30
0.0
 10
47.849078878
 20
90.4917693947
 30
0.0
 10
47.80666597
 20
90.5012500531
 30
0.0
 10
47.7671686646
 20
90.4985598703
 30
0.0
 10
47.7439292258
 20
90.488402129
 30
0.0
 10
47.7340500329
 20
90.4816566056
 30
0.0
  0
SPLINE
  5
2BA
100
AcDbEntity
  8
0
100
AcDbSpline
 62
7
  6
BYLAYER
 70
0
 71
3
 72
13
 73
9
 74
0
 42
0.0000001
 43
0.0000001
 44
0.0000000001
 40
0.0
 40
0.0
 40
0.0
 40
0.0
 40
0.2845863743
 40
0.5418441931
 40
0.6618502553
 40
0.7772868841
 40
0.8894837473
 40
1.0
 40
1.0
 40
1.0
 40
1.0
 10
46.9676954224
 20
90.0037729492
 30
0.0
 10
46.3385653344
 20
90.3075337548
 30
0.0
 10
45.0921718203
 20
90.7941509667
 30
0.0
 10
43.4764103717
 20
91.0734635067
 30
0.0
 10
42.2639250637
 20
91.0523547522
 30
0.0
 10
41.4175091775
 20
90.9229265529
 30
0.0
 10
40.6207413211
 20
90.679959203
 30
0.0
 10
40.125451839
 20
90.4425804361
 30
0.0
 10
39.8905045902
 20
90.3069139289
 30
0.0
  0
SPLINE
  5
2BB
100
AcDbEntity
  8
0
100
AcDbSpline
 62
7
  6
BYLAYER
 70
0
 71
3
 72
11
 73
7
 74
0
 42
0.0000001
 43
0.0000001
 44
0.0000000001
 40
0.0
 40
0.0
 40
0.0
 40
0.0
 40
0.2317518569
 40
0.4715177553
 40
0.7261914907
 40
1.0
 40
1.0
 40
1.0
 40
1.0
 10
31.3280923892
 20
117.2533656694
 30
0.0
 10
31.4282656347
 20
117.3112073606
 30
0.0
 10
31.6467685093
 20
117.4051377272
 30
0.0
 10
32.0061588323
 20
117.4699830634
 30
0.0
 10
32.3917718433
 20
117.4597608405
 30
0.0
 10
32.6514438805
 20
117.4061753884
 30
0.0
 10
32.7829096769
 20
117.368838195
 30
0.0
  0
SPLINE
  5
2BC
100
AcDbEntity
  8
0
100
AcDbSpline
 62
7
  6
BYLAYER
 70
0
 71
3
 72
13
 73
9
 74
0
 42
0.0000001
 43
0.0000001
 44
0.0000000001
 40
0.0
 40
0.0
 40
0.0
 40
0.0
 40
0.0902336119
 40
0.1865813325
 40
0.2939201726
 40
0.4145104771
 40
0.6922924919
 40
1.0
 40
1.0
 40
1.0
 40
1.0
 10
47.3804981143
 20
90.2775345286
 30
0.0
 10
47.3903773072
 20
90.2842800521
 30
0.0
 10
47.413616746
 20
90.2944377934
 30
0.0
 10
47.4531140514
 20
90.2971279761
 30
0.0
 10
47.4955269594
 20
90.2876473178
 30
0.0
 10
47.5565350072
 20
90.2588880363
 30
0.0
 10
47.6287016131
 20
90.1968569807
 30
0.0
 10
47.6737996351
 20
90.1327734247
 30
0.0
 10
47.6932996993
 20
90.0969425349
 30
0.0
  0
SPLINE
  5
2BD
100
AcDbEntity
  8
0
100
AcDbSpline
 62
7
  6
BYLAYER
 70
0
 71
3
 72
15
 73
11
 74
0
 42
0.0000001
 43
0.0000001
 44
0.0000000001
 40
0.0
 40
0.0
 40
0.0
 40
0.0
 40
0.1171010185
 40
0.2419607173
 40
0.3721150277
 40
0.504676478
 40
0.6365949544
 40
0.7648655368
 40
0.8867404735
 40
1.0
 40
1.0
 40
1.0
 40
1.0
 10
48.4207860632
 20
88.7602041772
 30
0.0
 10
49.1499955679
 20
88.2732198205
 30
0.0
 10
50.5802289946
 20
87.149686498
 30
0.0
 10
52.5391745479
 20
85.1594090542
 30
0.0
 10
54.3287020779
 20
82.8668267178
 30
0.0
 10
55.8876335055
 20
80.349797052
 30
0.0
 10
57.1634153083
 20
77.6936377812
 30
0.0
 10
58.112679522
 20
74.9879963912
 30
0.0
 10
58.7034377462
 20
72.3249336693
 30
0.0
 10
58.8506545091
 20
70.5626476051
 30
0.0
 10
58.8506545091
 20
69.7145436766
 30
0.0
  0
SPLINE
  5
2BE
100
AcDbEntity
  8
0
100
AcDbSpline
 62
7
  6
BYLAYER
 70
0
 71
3
 72
14
 73
10
 74
0
 42
0.0000001
 43
0.0000001
 44
0.0000000001
 40
0.0
 40
0.0
 40
0.0
 40
0.0
 40
0.2892814416
 40
0.4225431076
 40
0.5484936015
 40
0.6678941102
 40
0.7818683775
 40
0.8919523753
 40
1.0
 40
1.0
 40
1.0
 40
1.0
 10
58.8506545091
 20
69.7145436766
 30
0.0
 10
58.8506545091
 20
68.9035435456
 30
0.0
 10
58.7559683887
 20
67.713123328
 30
0.0
 10
58.3900118887
 20
66.2168957184
 30
0.0
 10
58.017626342
 20
65.2199091843
 30
0.0
 10
57.5431569022
 20
64.327664084
 30
0.0
 10
56.969938634
 20
63.5492729675
 30
0.0
 10
56.3035598239
 20
62.8933651207
 30
0.0
 10
55.7991645848
 20
62.5414717817
 30
0.0
 10
55.5368451446
 20
62.3899996413
 30
0.0
  0
SPLINE
  5
2BF
100
AcDbEntity
  8
0
100
AcDbSpline
 62
7
  6
BYLAYER
 70
0
 71
3
 72
9
 73
5
 74
0
 42
0.0000001
 43
0.0000001
 44
0.0000000001
 40
0.0
 40
0.0
 40
0.0
 40
0.0
 40
0.4824867307
 40
1.0
 40
1.0
 40
1.0
 40
1.0
 10
57.966529186
 20
70.3061982662
 30
0.0
 10
57.9621672175
 20
71.0525597035
 30
0.0
 10
57.8309061835
 20
72.5998704931
 30
0.0
 10
57.5019519383
 20
74.1155513048
 30
0.0
 10
57.2888591239
 20
74.8872276212
 30
0.0
  0
SPLINE
  5
2C0
100
AcDbEntity
  8
0
100
AcDbSpline
 62
7
  6
BYLAYER
 70
0
 71
3
 72
9
 73
5
 74
0
 42
0.0000001
 43
0.0000001
 44
0.0000000001
 40
0.0
 40
0.0
 40
0.0
 40
0.0
 40
0.4929342714
 40
1.0
 40
1.0
 40
1.0
 40
1.0
 10
57.2755313315
 20
74.9352735096
 30
0.0
 10
57.0575167483
 20
75.717666375
 30
0.0
 10
56.5252925439
 20
77.2807886534
 30
0.0
 10
55.8362892197
 20
78.7808609488
 30
0.0
 10
55.450733475
 20
79.5220631488
 30
0.0
  0
SPLINE
  5
2C1
100
AcDbEntity
  8
0
100
AcDbSpline
 62
7
  6
BYLAYER
 70
0
 71
3
 72
9
 73
5
 74
0
 42
0.0000001
 43
0.0000001
 44
0.0000000001
 40
0.0
 40
0.0
 40
0.0
 40
0.0
 40
0.2554974782
 40
1.0
 40
1.0
 40
1.0
 40
1.0
 10
52.6816357209
 20
83.7523625148
 30
0.0
 10
52.5051647755
 20
83.9697748053
 30
0.0
 10
51.7995578974
 20
84.8084257316
 30
0.0
 10
51.0337565666
 20
85.597011726
 30
0.0
 10
50.4305096182
 20
86.1464420492
 30
0.0
  0
SPLINE
  5
2C2
100
AcDbEntity
  8
0
100
AcDbSpline
 62
7
  6
BYLAYER
 70
0
 71
3
 72
11
 73
7
 74
0
 42
0.0000001
 43
0.0000001
 44
0.0000000001
 40
0.0
 40
0.0
 40
0.0
 40
0.0
 40
0.2624183299
 40
0.5146791852
 40
0.759485142
 40
1.0
 40
1.0
 40
1.0
 40
1.0
 10
43.2776555202
 20
89.6987901232
 30
0.0
 10
43.0101706847
 20
89.7150463165
 30
0.0
 10
42.4830038225
 20
89.7164398271
 30
0.0
 10
41.7114519113
 20
89.61743942
 30
0.0
 10
40.9825241146
 20
89.4181011164
 30
0.0
 10
40.5268501879
 20
89.2177777379
 30
0.0
 10
40.310043427
 20
89.102367619
 30
0.0
  0
SPLINE
  5
2C3
100
AcDbEntity
  8
0
100
AcDbSpline
 62
7
  6
BYLAYER
 70
0
 71
3
 72
11
 73
7
 74
0
 42
0.0000001
 43
0.0000001
 44
0.0000000001
 40
0.0
 40
0.0
 40
0.0
 40
0.0
 40
0.2388251879
 40
0.4819935608
 40
0.7343935597
 40
1.0
 40
1.0
 40
1.0
 40
1.0
 10
40.310043427
 20
89.102367619
 30
0.0
 10
40.0425919876
 20
88.9599984314
 30
0.0
 10
39.5283261293
 20
88.6216159515
 30
0.0
 10
38.8533694995
 20
87.9724565227
 30
0.0
 10
38.280323321
 20
87.1898410712
 30
0.0
 10
37.9788859416
 20
86.6027143648
 30
0.0
 10
37.8457372417
 20
86.2931771082
 30
0.0
  0
SPLINE
  5
2C4
100
AcDbEntity
  8
0
100
AcDbSpline
 62
7
  6
BYLAYER
 70
0
 71
3
 72
11
 73
7
 74
0
 42
0.0000001
 43
0.0000001
 44
0.0000000001
 40
0.0
 40
0.0
 40
0.0
 40
0.0
 40
0.2655541723
 40
0.5179491361
 40
0.7611443001
 40
1.0
 40
1.0
 40
1.0
 40
1.0
 10
51.3991235604
 20
62.8293603754
 30
0.0
 10
51.7327340433
 20
62.7903475504
 30
0.0
 10
52.3898856586
 20
62.7584671884
 30
0.0
 10
53.3511729556
 20
62.8635552335
 30
0.0
 10
54.2482008268
 20
63.1226669305
 30
0.0
 10
54.7969374391
 20
63.3977143389
 30
0.0
 10
55.0533667594
 20
63.557455329
 30
0.0
  0
SPLINE
  5
2C5
100
AcDbEntity
  8
0
100
AcDbSpline
 62
7
  6
BYLAYER
 70
0
 71
3
 72
10
 73
6
 74
0
 42
0.0000001
 43
0.0000001
 44
0.0000000001
 40
0.0
 40
0.0
 40
0.0
 40
0.0
 40
0.4694849326
 40
0.7271519051
 40
1.0
 40
1.0
 40
1.0
 40
1.0
 10
57.0405433784
 20
65.7981206969
 30
0.0
 10
57.3624376002
 20
66.4343707897
 30
0.0
 10
57.7088401616
 20
67.5003832146
 30
0.0
 10
57.9306342449
 20
69.0036911646
 30
0.0
 10
57.9667673527
 20
69.8104492622
 30
0.0
 10
57.9667673527
 20
70.2248446197
 30
0.0
  0
SPLINE
  5
2C6
100
AcDbEntity
  8
0
100
AcDbSpline
 62
7
  6
BYLAYER
 70
0
 71
3
 72
13
 73
9
 74
0
 42
0.0000001
 43
0.0000001
 44
0.0000000001
 40
0.0
 40
0.0
 40
0.0
 40
0.0
 40
0.1077872164
 40
0.2185460808
 40
0.4535766521
 40
0.5801281374
 40
0.7133212979
 40
1.0
 40
1.0
 40
1.0
 40
1.0
 10
20.5742677267
 20
83.7175489247
 30
0.0
 10
20.8950422184
 20
83.8496158211
 30
0.0
 10
21.5670932878
 20
84.0676624562
 30
0.0
 10
23.010424208
 20
84.3121432894
 30
0.0
 10
24.5484306479
 20
84.2488419377
 30
0.0
 10
26.1082098476
 20
83.9201173715
 30
0.0
 10
27.7856048319
 20
83.3830464512
 30
0.0
 10
29.0091695084
 20
82.7897731764
 30
0.0
 10
29.8081985177
 20
82.328463999
 30
0.0
  0
SPLINE
  5
2C7
100
AcDbEntity
  8
0
100
AcDbSpline
 62
7
  6
BYLAYER
 70
0
 71
3
 72
11
 73
7
 74
0
 42
0.0000001
 43
0.0000001
 44
0.0000000001
 40
0.0
 40
0.0
 40
0.0
 40
0.0
 40
0.2199286626
 40
0.457360918
 40
0.7168679482
 40
1.0
 40
1.0
 40
1.0
 40
1.0
 10
65.6139281184
 20
122.4697986008
 30
0.0
 10
65.743141649
 20
122.9259178726
 30
0.0
 10
66.1395565177
 20
123.8412435983
 30
0.0
 10
67.0633622866
 20
125.0928789625
 30
0.0
 10
68.3046686018
 20
126.2393746805
 30
0.0
 10
69.282039384
 20
126.8905096355
 30
0.0
 10
69.8105814601
 20
127.1956617239
 30
0.0
  0
SPLINE
  5
2C8
100
AcDbEntity
  8
0
100
AcDbSpline
 62
7
  6
BYLAYER
 70
0
 71
3
 72
14
 73
10
 74
0
 42
0.0000001
 43
0.0000001
 44
0.0000000001
 40
0.0
 40
0.0
 40
0.0
 40
0.0
 40
0.1074964556
 40
0.217095871
 40
0.3307261864
 40
0.4499713425
 40
0.5759827512
 40
0.7095347515
 40
1.0
 40
1.0
 40
1.0
 40
1.0
 10
65.4172670061
 20
122.6167997021
 30
0.0
 10
65.4172674178
 20
122.8979208878
 30
0.0
 10
65.4665583729
 20
123.4668336869
 30
0.0
 10
65.6868749732
 20
124.3070861762
 30
0.0
 10
66.0503506834
 20
125.1295399604
 30
0.0
 10
66.5524264025
 20
125.9260201401
 30
0.0
 10
67.1873819188
 20
126.6898222636
 30
0.0
 10
68.2313152426
 20
127.6829109087
 30
0.0
 10
69.152734471
 20
128.3154144535
 30
0.0
 10
69.81058146
 20
128.6952203226
 30
0.0
  0
SPLINE
  5
2C9
100
AcDbEntity
  8
0
100
AcDbSpline
 62
7
  6
BYLAYER
 70
0
 71
3
 72
11
 73
7
 74
0
 42
0.0000001
 43
0.0000001
 44
0.0000000001
 40
0.0
 40
0.0
 40
0.0
 40
0.0
 40
0.2622008321
 40
0.5142003151
 40
0.7589768519
 40
1.0
 40
1.0
 40
1.0
 40
1.0
 10
51.9599738177
 20
63.0536555138
 30
0.0
 10
52.2313360654
 20
63.0404048092
 30
0.0
 10
52.7658469611
 20
63.0466117408
 30
0.0
 10
53.5462441898
 20
63.162653668
 30
0.0
 10
54.2807608674
 20
63.3842931979
 30
0.0
 10
54.7369863024
 20
63.6025164973
 30
0.0
 10
54.953268081
 20
63.7273891011
 30
0.0
  0
SPLINE
  5
2CA
100
AcDbEntity
  8
0
100
AcDbSpline
 62
7
  6
BYLAYER
 70
0
 71
3
 72
9
 73
5
 74
0
 42
0.0000001
 43
0.0000001
 44
0.0000000001
 40
0.0
 40
0.0
 40
0.0
 40
0.0
 40
0.5127357077
 40
1.0
 40
1.0
 40
1.0
 40
1.0
 10
39.6530289081
 20
87.422113585
 30
0.0
 10
39.8265169697
 20
87.7633167955
 30
0.0
 10
40.2223352924
 20
88.4019268379
 30
0.0
 10
40.7380774629
 20
88.9502295527
 30
0.0
 10
41.0147069943
 20
89.1864458988
 30
0.0
  0
SPLINE
  5
2CB
100
AcDbEntity
  8
0
100
AcDbSpline
 62
7
  6
BYLAYER
 70
0
 71
3
 72
9
 73
5
 74
0
 42
0.0000001
 43
0.0000001
 44
0.0000000001
 40
0.0
 40
0.0
 40
0.0
 40
0.0
 40
0.5083629858
 40
1.0
 40
1.0
 40
1.0
 40
1.0
 10
44.2851417444
 20
89.4084217269
 30
0.0
 10
43.9275089039
 20
89.3788602156
 30
0.0
 10
43.2271945526
 20
89.2507907655
 30
0.0
 10
42.5724331447
 20
88.9685297233
 30
0.0
 10
42.2718660206
 20
88.7950358821
 30
0.0
  0
SPLINE
  5
2CC
100
AcDbEntity
  8
0
100
AcDbSpline
 62
7
  6
BYLAYER
 70
0
 71
3
 72
22
 73
18
 74
0
 42
0.0000001
 43
0.0000001
 44
0.0000000001
 40
0.0
 40
0.0
 40
0.0
 40
0.0
 40
0.0625750143
 40
0.1291725682
 40
0.1990341658
 40
0.2712940375
 40
0.4187385263
 40
0.4919117597
 40
0.5632646409
 40
0.6318391416
 40
0.6968056481
 40
0.7575403369
 40
0.8136960292
 40
0.865283881
 40
0.9127724569
 40
0.9571716958
 40
1.0
 40
1.0
 40
1.0
 40
1.0
 10
26.6802999008
 20
56.0637717073
 30
0.0
 10
26.322273912
 20
56.2704735187
 30
0.0
 10
25.6110057978
 20
56.7464656144
 30
0.0
 10
24.6043487935
 20
57.5958740903
 30
0.0
 10
23.6427079046
 20
58.5873089975
 30
0.0
 10
22.441292861
 20
60.0785372126
 30
0.0
 10
21.4279243683
 20
61.7403849877
 30
0.0
 10
20.6409500703
 20
63.5034449828
 30
0.0
 10
20.1829764334
 20
64.8369701659
 30
0.0
 10
19.8660060046
 20
66.1552355282
 30
0.0
 10
19.6968369437
 20
67.4301700468
 30
0.0
 10
19.679376181
 20
68.6346679711
 30
0.0
 10
19.8147004435
 20
69.7435375098
 30
0.0
 10
20.1015153536
 20
70.7335830317
 30
0.0
 10
20.5367746451
 20
71.5834305852
 30
0.0
 10
21.1141312738
 20
72.2714530511
 30
0.0
 10
21.5894425726
 20
72.6104897542
 30
0.0
 10
21.8392312638
 20
72.7434068386
 30
0.0
  0
SPLINE
  5
2CD
100
AcDbEntity
  8
0
100
AcDbSpline
 62
7
  6
BYLAYER
 70
0
 71
3
 72
12
 73
8
 74
0
 42
0.0000001
 43
0.0000001
 44
0.0000000001
 40
0.0
 40
0.0
 40
0.0
 40
0.0
 40
0.1079848837
 40
0.2182972826
 40
0.4518529521
 40
0.7110954336
 40
1.0
 40
1.0
 40
1.0
 40
1.0
 10
21.8392312638
 20
72.7434068386
 30
0.0
 10
22.0005103015
 20
72.8292263341
 30
0.0
 10
22.3417206922
 20
72.975710872
 30
0.0
 10
23.0864180021
 20
73.1605007881
 30
0.0
 10
24.1219479435
 20
73.1696313803
 30
0.0
 10
25.4148235758
 20
72.8459670948
 30
0.0
 10
26.2569137986
 20
72.4435414858
 30
0.0
 10
26.6802065846
 20
72.1991582596
 30
0.0
  0
SPLINE
  5
2CE
100
AcDbEntity
  8
0
100
AcDbSpline
 62
7
  6
BYLAYER
 70
0
 71
3
 72
21
 73
17
 74
0
 42
0.0000001
 43
0.0000001
 44
0.0000000001
 40
0.0
 40
0.0
 40
0.0
 40
0.0
 40
0.0619236265
 40
0.127736111
 40
0.196730649
 40
0.268113376
 40
0.4140835818
 40
0.5578300524
 40
0.6265305266
 40
0.6919574673
 40
0.7534665863
 40
0.8106455422
 40
0.8633822086
 40
0.9119471902
 40
0.9570767587
 40
1.0
 40
1.0
 40
1.0
 40
1.0
 10
26.6803322728
 20
72.1990857001
 30
0.0
 10
27.0274999307
 20
71.9986529606
 30
0.0
 10
27.7174923824
 20
71.5388491475
 30
0.0
 10
28.6963359697
 20
70.7209110853
 30
0.0
 10
29.6339358944
 20
69.7679904789
 30
0.0
 10
30.8114964581
 20
68.3337119777
 30
0.0
 10
32.0589482921
 20
66.3434317299
 30
0.0
 10
32.9603095595
 20
64.1921651704
 30
0.0
 10
33.4239613406
 20
62.4516220873
 30
0.0
 10
33.6285232283
 20
61.1994255352
 30
0.0
 10
33.6908722501
 20
60.0064558062
 30
0.0
 10
33.6092032001
 20
58.8963186574
 30
0.0
 10
33.3841824834
 20
57.8909416334
 30
0.0
 10
33.0181476888
 20
57.0103229773
 30
0.0
 10
32.5159430218
 20
56.2740862312
 30
0.0
 10
32.0887545443
 20
55.8866152227
 30
0.0
 10
31.8609917118
 20
55.727442225
 30
0.0
  0
SPLINE
  5
2CF
100
AcDbEntity
  8
0
100
AcDbSpline
 62
7
  6
BYLAYER
 70
0
 71
3
 72
14
 73
10
 74
0
 42
0.0000001
 43
0.0000001
 44
0.0000000001
 40
0.0
 40
0.0
 40
0.0
 40
0.0
 40
0.1085177718
 40
0.2187653661
 40
0.3326955048
 40
0.4519112045
 40
0.5776448002
 40
0.710750256
 40
1.0
 40
1.0
 40
1.0
 40
1.0
 10
31.7077437156
 20
55.6265564733
 30
0.0
 10
31.5473627776
 20
55.5272617187
 30
0.0
 10
31.2059864066
 20
55.3547611636
 30
0.0
 10
30.6506013965
 20
55.1845871376
 30
0.0
 10
30.0566757045
 20
55.1040271642
 30
0.0
 10
29.4308489144
 20
55.1128615691
 30
0.0
 10
28.7791756997
 20
55.2108454575
 30
0.0
 10
27.85922715
 20
55.4650379607
 30
0.0
 10
27.1875125731
 20
55.7764001707
 30
0.0
 10
26.7499094209
 20
56.023985384
 30
0.0
  0
SPLINE
  5
2D0
100
AcDbEntity
  8
0
100
AcDbSpline
 62
7
  6
BYLAYER
 70
0
 71
3
 72
21
 73
17
 74
0
 42
0.0000001
 43
0.0000001
 44
0.0000000001
 40
0.0
 40
0.0
 40
0.0
 40
0.0
 40
0.0621336323
 40
0.1281963183
 40
0.1974581643
 40
0.2691088775
 40
0.4155439272
 40
0.5595119848
 40
0.6281865094
 40
0.6934841999
 40
0.7547683199
 40
0.8116414929
 40
0.8640257344
 40
0.9122526913
 40
0.9571391454
 40
1.0
 40
1.0
 40
1.0
 40
1.0
 10
26.8547264153
 20
72.4706333417
 30
0.0
 10
27.2127103929
 20
72.2639558716
 30
0.0
 10
27.9241073013
 20
71.7892909549
 30
0.0
 10
28.9325439264
 20
70.9441101967
 30
0.0
 10
29.8975841191
 20
69.9589117163
 30
0.0
 10
31.1077242324
 20
68.4762949343
 30
0.0
 10
32.3852830385
 20
66.4204481683
 30
0.0
 10
33.3013779098
 20
64.2002795406
 30
0.0
 10
33.7646461854
 20
62.4075614584
 30
0.0
 10
33.9626167659
 20
61.1212453108
 30
0.0
 10
34.0123867644
 20
59.8988790224
 30
0.0
 10
33.9122943824
 20
58.7650582286
 30
0.0
 10
33.6631876267
 20
57.7425943238
 30
0.0
 10
33.267677759
 20
56.8523334256
 30
0.0
 10
32.7312172867
 20
56.1148402986
 30
0.0
 10
32.2794959053
 20
55.7339078546
 30
0.0
 10
32.0398134561
 20
55.579442473
 30
0.0
  0
SPLINE
  5
2D1
100
AcDbEntity
  8
0
100
AcDbSpline
 62
7
  6
BYLAYER
 70
0
 71
3
 72
23
 73
19
 74
0
 42
0.0000001
 43
0.0000001
 44
0.0000000001
 40
0.0
 40
0.0
 40
0.0
 40
0.0
 40
0.0616135938
 40
0.1270318321
 40
0.1956009781
 40
0.2665420507
 40
0.3389538374
 40
0.4118798398
 40
0.4843404027
 40
0.5553752358
 40
0.6240838015
 40
0.6896690015
 40
0.7514855791
 40
0.8090965579
 40
0.8623407435
 40
0.9114111471
 40
0.9569325635
 40
1.0
 40
1.0
 40
1.0
 40
1.0
 10
29.8081985177
 20
82.328463999
 30
0.0
 10
30.5036612294
 20
81.9269474987
 30
0.0
 10
31.8859923233
 20
81.0077499001
 30
0.0
 10
33.8489023854
 20
79.3747034416
 30
0.0
 10
35.7311032609
 20
77.4741629845
 30
0.0
 10
37.4951369741
 20
75.3443311214
 30
0.0
 10
39.1061156981
 20
73.0271941387
 30
0.0
 10
40.5320097923
 20
70.5689555978
 30
0.0
 10
41.7444219024
 20
68.0184955623
 30
0.0
 10
42.7192262248
 20
65.4265511016
 30
0.0
 10
43.4370516936
 20
62.8445442446
 30
0.0
 10
43.8836051939
 20
60.3234481537
 30
0.0
 10
44.0498111714
 20
57.9126485582
 30
0.0
 10
43.9316122649
 20
55.6588453383
 30
0.0
 10
43.5296336883
 20
53.6053860224
 30
0.0
 10
42.8478129929
 20
51.7918476121
 30
0.0
 10
41.8950925705
 20
50.2566404464
 30
0.0
 10
41.0723680397
 20
49.4283663323
 30
0.0
 10
40.6304423158
 20
49.082265549
 30
0.0
  0
SPLINE
  5
2D2
100
AcDbEntity
  8
0
100
AcDbSpline
 62
7
  6
BYLAYER
 70
0
 71
3
 72
20
 73
16
 74
0
 42
0.0000001
 43
0.0000001
 44
0.0000000001
 40
0.0
 40
0.0
 40
0.0
 40
0.0
 40
0.1474054043
 40
0.2157451431
 40
0.2805899804
 40
0.3422329548
 40
0.4011066421
 40
0.4578100693
 40
0.5130898551
 40
0.5677995729
 40
0.6228365104
 40
0.6790717291
 40
0.7372868261
 40
0.8618347142
 40
1.0
 40
1.0
 40
1.0
 40
1.0
 10
28.6175144034
 20
81.1208959809
 30
0.0
 10
27.8238790626
 20
81.5790911929
 30
0.0
 10
26.607678447
 20
82.1659848485
 30
0.0
 10
24.9406650772
 20
82.6879807329
 30
0.0
 10
23.750371232
 20
82.925903541
 30
0.0
 10
22.5987135217
 20
83.0175886441
 30
0.0
 10
21.4949669579
 20
82.9615240133
 30
0.0
 10
20.4486603563
 20
82.7573573987
 30
0.0
 10
19.4693191263
 20
82.4059761621
 30
0.0
 10
18.5660887061
 20
81.9103856262
 30
0.0
 10
17.7477443343
 20
81.2749145533
 30
0.0
 10
17.0214174627
 20
80.5060812228
 30
0.0
 10
16.1652018636
 20
79.2861704597
 30
0.0
 10
15.3658281671
 20
77.4345653883
 30
0.0
 10
15.056214656
 20
75.8194538845
 30
0.0
 10
14.9648573128
 20
74.9653649952
 30
0.0
  0
SPLINE
  5
2D3
100
AcDbEntity
  8
0
100
AcDbSpline
 62
7
  6
BYLAYER
 70
0
 71
3
 72
28
 73
24
 74
0
 42
0.0000001
 43
0.0000001
 44
0.0000000001
 40
0.0
 40
0.0
 40
0.0
 40
0.0
 40
0.0662617217
 40
0.1375420913
 40
0.2125584513
 40
0.2897332862
 40
0.3673333153
 40
0.4435971185
 40
0.5168582585
 40
0.5856763704
 40
0.6489785696
 40
0.7062527845
 40
0.7327217631
 40
0.7578656421
 40
0.7818818666
 40
0.8050336053
 40
0.8276472788
 40
0.8500891365
 40
0.8727454707
 40
0.8959731746
 40
0.9201022982
 40
0.9453805696
 40
1.0
 40
1.0
 40
1.0
 40
1.0
 10
28.1243180786
 20
79.9485798532
 30
0.0
 10
28.960182443
 20
79.4660044677
 30
0.0
 10
30.6135553918
 20
78.3193458999
 30
0.0
 10
32.9045916312
 20
76.2258060306
 30
0.0
 10
35.0357972495
 20
73.7559153781
 30
0.0
 10
36.9355267364
 20
70.9923856409
 30
0.0
 10
38.5406983661
 20
68.027357049
 30
0.0
 10
39.7976885424
 20
64.9599481474
 30
0.0
 10
40.6644879394
 20
61.8922628626
 30
0.0
 10
41.1124114298
 20
58.9251192284
 30
0.0
 10
41.1253844104
 20
56.1556593964
 30
0.0
 10
40.7591242981
 20
54.02958397
 30
0.0
 10
40.2335123647
 20
52.5296694756
 30
0.0
 10
39.743929351
 20
51.5394444794
 30
0.0
 10
39.1536816564
 20
50.6629273988
 30
0.0
 10
38.4661533793
 20
49.9089911171
 30
0.0
 10
37.6877631044
 20
49.2849499068
 30
0.0
 10
36.8257914357
 20
48.7967766892
 30
0.0
 10
35.888260317
 20
48.4506257714
 30
0.0
 10
34.8850480329
 20
48.247280075
 30
0.0
 10
33.8250374385
 20
48.1901107398
 30
0.0
 10
32.3110788637
 20
48.3086995666
 30
0.0
 10
31.1752118744
 20
48.6140367873
 30
0.0
 10
30.4287947305
 20
48.8893883995
 30
0.0
  0
SPLINE
  5
2D4
100
AcDbEntity
  8
0
100
AcDbSpline
 62
7
  6
BYLAYER
 70
0
 71
3
 72
9
 73
5
 74
0
 42
0.0000001
 43
0.0000001
 44
0.0000000001
 40
0.0
 40
0.0
 40
0.0
 40
0.0
 40
0.2450576184
 40
1.0
 40
1.0
 40
1.0
 40
1.0
 10
29.9587727296
 20
49.0730171065
 30
0.0
 10
29.8538735337
 20
49.1162716566
 30
0.0
 10
29.427999425
 20
49.2980518932
 30
0.0
 10
29.0109807488
 20
49.5004260155
 30
0.0
 10
28.7016071513
 20
49.6631430507
 30
0.0
  0
SPLINE
  5
2D5
100
AcDbEntity
  8
0
100
AcDbSpline
 62
7
  6
BYLAYER
 70
0
 71
3
 72
29
 73
25
 74
0
 42
0.0000001
 43
0.0000001
 44
0.0000000001
 40
0.0
 40
0.0
 40
0.0
 40
0.0
 40
0.0665367499
 40
0.1383263911
 40
0.2138942533
 40
0.291427248
 40
0.3689624178
 40
0.4445306123
 40
0.5163225226
 40
0.5828584074
 40
0.6431917321
 40
0.6709873987
 40
0.6972587671
 40
0.7221616006
 40
0.7459333689
 40
0.7688938861
 40
0.7914296093
 40
0.813964718
 40
0.8369246563
 40
0.8606970433
 40
0.8855993747
 40
0.911867938
 40
0.9396649335
 40
1.0
 40
1.0
 40
1.0
 40
1.0
 10
27.0128879118
 20
54.2059484617
 30
0.0
 10
26.4130572743
 20
54.5522592349
 30
0.0
 10
25.2282880113
 20
55.3827331232
 30
0.0
 10
23.5981391071
 20
56.9078920244
 30
0.0
 10
22.0958385426
 20
58.7106907334
 30
0.0
 10
20.7780193446
 20
60.7235840352
 30
0.0
 10
19.6936983942
 20
62.8713676901
 30
0.0
 10
18.8835357326
 20
65.0736125601
 30
0.0
 10
18.3778142005
 20
67.2487278918
 30
0.0
 10
18.1955963834
 20
69.3161160241
 30
0.0
 10
18.3243025554
 20
70.9317611328
 30
0.0
 10
18.607645782
 20
72.0907864002
 30
0.0
 10
18.8960337393
 20
72.8628747941
 30
0.0
 10
19.2635048379
 20
73.5538922103
 30
0.0
 10
19.7073680229
 20
74.1566980241
 30
0.0
 10
20.2235922845
 20
74.664736494
 30
0.0
 10
20.8071489937
 20
75.0720016179
 30
0.0
 10
21.4516123036
 20
75.3737524728
 30
0.0
 10
22.1496747721
 20
75.5668807495
 30
0.0
 10
22.8936581555
 20
75.6497763777
 30
0.0
 10
23.6757959075
 20
75.6226572565
 30
0.0
 10
24.4886556252
 20
75.4863060452
 30
0.0
 10
25.633880598
 20
75.1524205256
 30
0.0
 10
26.4689586833
 20
74.7549477263
 30
0.0
 10
27.0128879118
 20
74.4409275189
 30
0.0
  0
SPLINE
  5
2D6
100
AcDbEntity
  8
0
100
AcDbSpline
 62
7
  6
BYLAYER
 70
0
 71
3
 72
29
 73
25
 74
0
 42
0.0000001
 43
0.0000001
 44
0.0000000001
 40
0.0
 40
0.0
 40
0.0
 40
0.0
 40
0.06653675
 40
0.1383263914
 40
0.2138942537
 40
0.2914272486
 40
0.3689624186
 40
0.4445306132
 40
0.5163225237
 40
0.5828584087
 40
0.6431917335
 40
0.6709874001
 40
0.6972587686
 40
0.722161602
 40
0.7459333704
 40
0.7688938878
 40
0.7914296112
 40
0.8139647195
 40
0.8369246577
 40
0.8606970453
 40
0.8855993768
 40
0.9118679433
 40
0.939664936
 40
1.0
 40
1.0
 40
1.0
 40
1.0
 10
27.0128879118
 20
74.4409275189
 30
0.0
 10
27.6127185492
 20
74.0946167457
 30
0.0
 10
28.7974878122
 20
73.2641428574
 30
0.0
 10
30.4276367164
 20
71.7389839562
 30
0.0
 10
31.9299372809
 20
69.9361852473
 30
0.0
 10
33.2477564789
 20
67.9232919454
 30
0.0
 10
34.3320774293
 20
65.7755082905
 30
0.0
 10
35.1422400909
 20
63.5732634205
 30
0.0
 10
35.647961623
 20
61.3981480888
 30
0.0
 10
35.8301794401
 20
59.3307599565
 30
0.0
 10
35.7014732681
 20
57.7151148478
 30
0.0
 10
35.4181300414
 20
56.5560895802
 30
0.0
 10
35.1297420847
 20
55.7840011863
 30
0.0
 10
34.7622709861
 20
55.092983771
 30
0.0
 10
34.3184077977
 20
54.4901779586
 30
0.0
 10
33.8021835391
 20
53.9821394837
 30
0.0
 10
33.2186268403
 20
53.5748743466
 30
0.0
 10
32.5741635127
 20
53.2731235303
 30
0.0
 10
31.8761010382
 20
53.0799953071
 30
0.0
 10
31.1321176854
 20
52.9970994618
 30
0.0
 10
30.3499798594
 20
53.0242184627
 30
0.0
 10
29.5371202516
 20
53.1605706327
 30
0.0
 10
28.3918955628
 20
53.4944560105
 30
0.0
 10
27.5568150693
 20
53.8919247225
 30
0.0
 10
27.0128879118
 20
54.2059484617
 30
0.0
  0
SPLINE
  5
2D7
100
AcDbEntity
  8
0
100
AcDbSpline
 62
7
  6
BYLAYER
 70
0
 71
3
 72
9
 73
5
 74
0
 42
0.0000001
 43
0.0000001
 44
0.0000000001
 40
0.0
 40
0.0
 40
0.0
 40
0.0
 40
0.4748148351
 40
1.0
 40
1.0
 40
1.0
 40
1.0
 10
29.8081985177
 20
82.3284639991
 30
0.0
 10
29.5741252788
 20
82.1933225583
 30
0.0
 10
29.1279814074
 20
81.8271068328
 30
0.0
 10
28.7766204618
 20
81.3739977796
 30
0.0
 10
28.6175144034
 20
81.1208959809
 30
0.0
  0
SPLINE
  5
2D8
100
AcDbEntity
  8
0
100
AcDbSpline
 62
7
  6
BYLAYER
 70
0
 71
3
 72
13
 73
9
 74
0
 42
0.0000001
 43
0.0000001
 44
0.0000000001
 40
0.0
 40
0.0
 40
0.0
 40
0.0
 40
0.2894492435
 40
0.422814459
 40
0.5488367474
 40
0.7817361895
 40
0.8918872326
 40
1.0
 40
1.0
 40
1.0
 40
1.0
 10
27.0128879118
 20
72.5619473791
 30
0.0
 10
26.5699959959
 20
72.8176453613
 30
0.0
 10
25.8901380765
 20
73.1413089127
 30
0.0
 10
24.957282763
 20
73.4131379004
 30
0.0
 10
24.0983651668
 20
73.5576318755
 30
0.0
 10
23.2557937601
 20
73.5351476007
 30
0.0
 10
22.4846512353
 20
73.3215446339
 30
0.0
 10
22.1333384268
 20
73.1571493349
 30
0.0
 10
21.9679157996
 20
73.0616381835
 30
0.0
  0
SPLINE
  5
2D9
100
AcDbEntity
  8
0
100
AcDbSpline
 62
7
  6
BYLAYER
 70
0
 71
3
 72
29
 73
25
 74
0
 42
0.0000001
 43
0.0000001
 44
0.0000000001
 40
0.0
 40
0.0
 40
0.0
 40
0.0
 40
0.0665394089
 40
0.138335823
 40
0.213909393
 40
0.2914496898
 40
0.3689895257
 40
0.444561029
 40
0.5163576568
 40
0.5828973279
 40
0.6139036143
 40
0.6433005779
 40
0.6710958723
 40
0.6973705192
 40
0.7459194852
 40
0.7688785185
 40
0.7914165758
 40
0.8139529757
 40
0.8369151105
 40
0.8606881421
 40
0.8855929499
 40
0.9118658991
 40
0.9396636196
 40
1.0
 40
1.0
 40
1.0
 40
1.0
 10
28.1241824023
 20
49.9816919277
 30
0.0
 10
27.2358874985
 20
50.4945391438
 30
0.0
 10
25.4813674638
 20
51.7245101864
 30
0.0
 10
23.0671596733
 20
53.9831460571
 30
0.0
 10
20.8423356628
 20
56.6530826377
 30
0.0
 10
18.8906584788
 20
59.6340805324
 30
0.0
 10
17.2848296594
 20
62.8147541711
 30
0.0
 10
16.0850615382
 20
66.0763769323
 30
0.0
 10
15.3361861019
 20
69.2967319745
 30
0.0
 10
15.1059560375
 20
71.9087414251
 30
0.0
 10
15.1867203895
 20
73.8663241123
 30
0.0
 10
15.3700982555
 20
75.2156562645
 30
0.0
 10
15.6769417516
 20
76.4683161647
 30
0.0
 10
16.230155108
 20
77.9524932873
 30
0.0
 10
17.0315041013
 20
79.259352935
 30
0.0
 10
18.0697243952
 20
80.2795273335
 30
0.0
 10
18.9336441624
 20
80.8831827523
 30
0.0
 10
19.8881836648
 20
81.329851787
 30
0.0
 10
20.9219290918
 20
81.6159078096
 30
0.0
 10
22.023722941
 20
81.7389201093
 30
0.0
 10
23.1820551608
 20
81.6985270927
 30
0.0
 10
24.3859253262
 20
81.4968292424
 30
0.0
 10
26.0818531865
 20
81.0021114786
 30
0.0
 10
27.3186000878
 20
80.4137531315
 30
0.0
 10
28.1240847324
 20
79.9487145605
 30
0.0
  0
ELLIPSE
  5
2DA
100
AcDbEntity
  8
0
100
AcDbEllipse
 62
7
  6
BYLAYER
 10
91.7308887327
 20
34.0731580963
 30
0.0
 11
-58.7845705283
 21
101.8417502666
 31
0.0
 40
0.5773567911
 41
-0.5857823212
 42
-0.5653633929
  0
ELLIPSE
  5
2DB
100
AcDbEntity
  8
0
100
AcDbEllipse
 62
7
  6
BYLAYER
 10
91.7308887327
 20
34.0731580963
 30
0.0
 11
-58.7845705283
 21
101.8417502666
 31
0.0
 40
0.5773567911
 41
-1.0051870561
 42
-0.9847681277
  0
ELLIPSE
  5
2DC
100
AcDbEntity
  8
0
100
AcDbEllipse
 62
7
  6
BYLAYER
 10
53.9715438254
 20
147.6499148187
 30
0.0
 11
-58.7845705283
 21
101.8417502666
 31
0.0
 40
0.5773567911
 41
-3.7273749749
 42
-3.7069560464
  0
ELLIPSE
  5
2DD
100
AcDbEntity
  8
0
100
AcDbEllipse
 62
7
  6
BYLAYER
 10
53.9715438254
 20
12.2729202796
 30
0.0
 11
-58.7845705283
 21
101.8417502666
 31
0.0
 40
0.5773567911
 41
-0.5857823212
 42
-0.5653633929
  0
ELLIPSE
  5
2DE
100
AcDbEntity
  8
0
100
AcDbEllipse
 62
7
  6
BYLAYER
 10
53.9715438254
 20
12.2729202796
 30
0.0
 11
-58.7845705283
 21
101.8417502666
 31
0.0
 40
0.5773567911
 41
-1.0051870561
 42
-0.9847681277
  0
ENDSEC
  0
SECTION
  2
OBJECTS
  0
DICTIONARY
  5
C
100
AcDbDictionary
280
0
281
1
  3
ACAD_GROUP
350
D
  3
ACAD_MLINESTYLE
350
17
  3
ACAD_LAYOUT
350
1A
  3
ACAD_PLOTSETTINGS
350
19
  3
ACAD_PLOTSTYLENAME
350
E
  0
DICTIONARY
  5
D
102
{ACAD_REACTORS
330
C
102
}
100
AcDbDictionary
280
0
281
1
  0
ACDBDICTIONARYWDFLT
  5
E
102
{ACAD_REACTORS
330
C
102
}
100
AcDbDictionary
281
1
  3
Normal
350
F
100
AcDbDictionaryWithDefault
340
F
  0
DICTIONARY
  5
17
102
{ACAD_REACTORS
330
C
102
}
100
AcDbDictionary
280
0
281
1
  3
Standard
350
18
  0
DICTIONARY
  5
19
102
{ACAD_REACTORS
330
C
102
}
100
AcDbDictionary
281
1
  0
DICTIONARY
  5
1A
102
{ACAD_REACTORS
330
C
102
}
100
AcDbDictionary
281
1
  3
Model
350
2DF
  3
Layout1
350
2E0
  0
ACDBPLACEHOLDER
  5
F
102
{ACAD_REACTORS
330
E
102
}
  0
MLINESTYLE
  5
18
102
{ACAD_REACTORS
330
17
102
}
100
AcDbMlineStyle
  2
STANDARD
 70
0
  3

 62
256
 51
90.0
 52
90.0
 71
2
 49
0.5
 62
256
  6
BYLAYER
 49
-0.5
 62
256
  6
BYLAYER
  0
LAYOUT
  5
2DF
102
{ACAD_REACTORS
330
1A
102
}
100
AcDbPlotSettings
  1

  2
none_device
  4

  6

 40
0.0
 41
0.0
 42
0.0
 43
0.0
 44
210.0
 45
297.0
 46
0.0
 47
0.0
 48
0.0
 49
0.0
140
0.0
141
0.0
142
1.0
143
1.0
 70
1024
 72
1
 73
0
 74
0
  7

 75
0
147
1.0
148
0.0
149
0.0
100
AcDbLayout
  1
Model
 70
0
 71
0
 10
0.0
 20
0.0
 11
210.0
 21
297.0
 12
0.0
 22
0.0
 32
0.0
 14
0.0
 24
0.0
 34
0.0
 15
0.0
 25
0.0
 35
0.0
146
0.0
 13
0.0
 23
0.0
 33
0.0
 16
1.0
 26
0.0
 36
0.0
 17
0.0
 27
1.0
 37
0.0
 76
0
330
213
345
0
346
0
  0
LAYOUT
  5
2E0
102
{ACAD_REACTORS
330
1A
102
}
100
AcDbPlotSettings
  1

  2
none_device
  4

  6

 40
0.0
 41
0.0
 42
0.0
 43
0.0
 44
210.0
 45
297.0
 46
0.0
 47
0.0
 48
0.0
 49
0.0
140
0.0
141
0.0
142
1.0
143
1.0
 70
0
 72
1
 73
0
 74
0
  7

 75
0
147
1.0
148
0.0
149
0.0
100
AcDbLayout
  1
Layout1
 70
0
 71
1
 10
0.0
 20
0.0
 11
210.0
 21
297.0
 12
0.0
 22
0.0
 32
0.0
 14
0.0
 24
0.0
 34
0.0
 15
0.0
 25
0.0
 35
0.0
146
0.0
 13
0.0
 23
0.0
 33
0.0
 16
1.0
 26
0.0
 36
0.0
 17
0.0
 27
1.0
 37
0.0
 76
0
330
214
345
0
346
0
  0
ENDSEC
  0
EOF
