999
DXF file: C:\Users\sesa63760\Dev\_Creo\CAD\MCADUE0002138_3D-CAD\drw0001_4.dxf
999
Pro/ENGINEER 2019471 by Parametric Technology Corporation
  0
SECTION
  2
HEADER
  9
$ACADVER
  1
AC1024
  9
$DWGCODEPAGE
  3
ANSI_1252
  9
$EXTMAX
 10
1468.3704199856
 20
2076.6953082654
 30
0.0
  9
$EXTMIN
 10
0.0
 20
0.0
 30
0.0
  9
$LIMMIN
 10
0.0
 20
0.0
  9
$LIMMAX
 10
1468.3704199856
 20
2076.6953082654
  9
$VIEWCTR
 10
734.1852099928
 20
1038.3476541327
  9
$VIEWSIZE
 40
2076.6953082654
  9
$CLAYER
  8
0
  9
$LTSCALE
 40
135.3697682425
  9
$CELTYPE
  6
BYLAYER
  9
$DIMSCALE
 40
1.0
  9
$DIMASZ
 40
17.4806002379
  9
$DIMEXO
 40
1.0
  9
$DIMDLI
 40
93.528203513
  9
$DIMEXE
 40
1.0
  9
$DIMCEN
 40
22.1514166215
  9
$DIMLFAC
 40
1.0
  9
$DIMBLK
  1
_FILLED
  9
$DIMALT
 70
0
  9
$DIMALTF
 40
0.0393700787
  9
$DIMTXT
 40
24.4728403331
  9
$DIMTOL
 70
1
  9
$DIMLIM
 70
0
  9
$DIMTFAC
 40
1.0
  9
$DIMTP
 40
0.01
  9
$DIMTM
 40
0.01
  9
$DIMGAP
 40
0.625
  9
$DIMDSEP
 70
46
  9
$AUNITS
 70
0
  9
$PDMODE
 70
3
  9
$PDSIZE
 40
0.3125
  9
$HANDSEED
  5
2A6
  9
$TILEMODE
 70
1
  9
$MEASUREMENT
 70
1
  9
$INSUNITS
 70
4
  0
ENDSEC
  0
SECTION
  2
CLASSES
  0
CLASS
  1
ACDBDICTIONARYWDFLT
  2
AcDbDictionaryWithDefault
  3
AutoCAD 2000
 90
0
 91
1
280
0
281
0
  0
CLASS
  1
ACDBPLACEHOLDER
  2
AcDbPlaceHolder
  3
AutoCAD 2000
 90
0
 91
1
280
0
281
0
  0
CLASS
  1
LAYOUT
  2
AcDbLayout
  3
AutoCAD 2000
 90
0
 91
0
280
0
281
0
  0
ENDSEC
  0
SECTION
  2
TABLES
  0
TABLE
  2
VPORT
  5
8
100
AcDbSymbolTable
 70
2
  0
VPORT
  5
1F4
100
AcDbSymbolTableRecord
100
AcDbViewportTableRecord
  2
*ACTIVE
 70
0
 10
0.0
 20
0.0
 11
1.0
 21
1.0
 12
734.1852099928
 22
1038.3476541327
 13
0.0
 23
0.0
 14
1.0
 24
1.0
 15
0.0
 25
0.0
 16
0.0
 26
0.0
 36
1.0
 17
0.0
 27
0.0
 37
0.0
 40
2076.6953082654
 41
0.7070707071
 42
50.0
 43
0.0
 44
0.0
 50
0.0
 51
0.0
 71
0
 72
100
 73
1
 74
1
 75
0
 76
0
 77
0
 78
0
  0
ENDTAB
  0
TABLE
  2
LTYPE
  5
5
100
AcDbSymbolTable
 70
6
  0
LTYPE
  5
14
100
AcDbSymbolTableRecord
100
AcDbLinetypeTableRecord
  2
BYBLOCK
 70
0
  3

 72
65
 73
0
 40
0.0
  0
LTYPE
  5
15
100
AcDbSymbolTableRecord
100
AcDbLinetypeTableRecord
  2
BYLAYER
 70
0
  3

 72
65
 73
0
 40
0.0
  0
LTYPE
  5
16
100
AcDbSymbolTableRecord
100
AcDbLinetypeTableRecord
  2
CONTINUOUS
 70
64
  3
Solid line
 72
65
 73
0
 40
0.0
  0
LTYPE
  5
1F5
100
AcDbSymbolTableRecord
100
AcDbLinetypeTableRecord
  2
CENTER
 70
64
  3
____ _ ____ _ ____ _ ____ _ ____ _ ____ _ ____
 72
65
 73
4
 40
0.6
 49
0.375
 74
0
 49
-0.075
 74
0
 49
0.075
 74
0
 49
-0.075
 74
0
  0
LTYPE
  5
1F6
100
AcDbSymbolTableRecord
100
AcDbLinetypeTableRecord
  2
HIDDEN
 70
64
  3
- - - - - - - - - - - - - - - - - - - -
 72
65
 73
2
 40
0.2
 49
0.1
 74
0
 49
-0.1
 74
0
  0
LTYPE
  5
1F7
100
AcDbSymbolTableRecord
100
AcDbLinetypeTableRecord
  2
PHANTOM
 70
64
  3
_____ _ _ _____ _ _ _____ _ _ _____
 72
65
 73
6
 40
0.8
 49
0.45
 74
0
 49
-0.05
 74
0
 49
0.1
 74
0
 49
-0.05
 74
0
 49
0.1
 74
0
 49
-0.05
 74
0
  0
LTYPE
  5
1F8
100
AcDbSymbolTableRecord
100
AcDbLinetypeTableRecord
  2
DOT
 70
64
  3
. . . . . . . . . . . . . . . . . . . .
 72
65
 73
2
 40
0.2
 49
0.1
 74
0
 49
-0.1
 74
0
  0
LTYPE
  5
1F9
100
AcDbSymbolTableRecord
100
AcDbLinetypeTableRecord
  2
DASHED
 70
64
  3
- - - - - - - - - - - - - - - - - - - -
 72
65
 73
2
 40
0.2
 49
0.1
 74
0
 49
-0.1
 74
0
  0
ENDTAB
  0
TABLE
  2
LAYER
  5
2
100
AcDbSymbolTable
 70
36
  0
LAYER
  5
10
100
AcDbSymbolTableRecord
100
AcDbLayerTableRecord
  2
0
 70
0
 62
7
  6
CONTINUOUS
370
-3
390
F
  0
LAYER
  5
1FA
100
AcDbSymbolTableRecord
100
AcDbLayerTableRecord
  2
DEFAULT_1
 70
0
 62
7
  6
CENTER
370
-3
390
F
  0
LAYER
  5
1FB
100
AcDbSymbolTableRecord
100
AcDbLayerTableRecord
  2
DEFAULT_2
 70
0
 62
8
  6
HIDDEN
370
-3
390
F
  0
LAYER
  5
1FC
100
AcDbSymbolTableRecord
100
AcDbLayerTableRecord
  2
DEFAULT_3
 70
0
 62
7
  6
PHANTOM
370
-3
390
F
  0
LAYER
  5
1FD
100
AcDbSymbolTableRecord
100
AcDbLayerTableRecord
  2
00_COMPONENTS
 70
0
 62
7
  6
CONTINUOUS
370
-3
390
F
  0
LAYER
  5
1FE
100
AcDbSymbolTableRecord
100
AcDbLayerTableRecord
  2
01_1_DEFAULT_DATUMS
 70
0
 62
7
  6
CONTINUOUS
370
-3
390
F
  0
LAYER
  5
1FF
100
AcDbSymbolTableRecord
100
AcDbLayerTableRecord
  2
01_PLANES
 70
0
 62
7
  6
CONTINUOUS
370
-3
390
F
  0
LAYER
  5
200
100
AcDbSymbolTableRecord
100
AcDbLayerTableRecord
  2
02_COORD_SYS
 70
0
 62
7
  6
CONTINUOUS
370
-3
390
F
  0
LAYER
  5
201
100
AcDbSymbolTableRecord
100
AcDbLayerTableRecord
  2
03_AXES
 70
0
 62
7
  6
CONTINUOUS
370
-3
390
F
  0
LAYER
  5
202
100
AcDbSymbolTableRecord
100
AcDbLayerTableRecord
  2
04_POINTS
 70
0
 62
7
  6
CONTINUOUS
370
-3
390
F
  0
LAYER
  5
203
100
AcDbSymbolTableRecord
100
AcDbLayerTableRecord
  2
05_CURVES
 70
0
 62
7
  6
CONTINUOUS
370
-3
390
F
  0
LAYER
  5
204
100
AcDbSymbolTableRecord
100
AcDbLayerTableRecord
  2
06_SURFS
 70
0
 62
7
  6
CONTINUOUS
370
-3
390
F
  0
LAYER
  5
205
100
AcDbSymbolTableRecord
100
AcDbLayerTableRecord
  2
07_COSMETICS
 70
0
 62
7
  6
CONTINUOUS
370
-3
390
F
  0
LAYER
  5
206
100
AcDbSymbolTableRecord
100
AcDbLayerTableRecord
  2
10_NOTES
 70
0
 62
7
  6
CONTINUOUS
370
-3
390
F
  0
LAYER
  5
207
100
AcDbSymbolTableRecord
100
AcDbLayerTableRecord
  2
11_NOTES_PUB
 70
0
 62
7
  6
CONTINUOUS
370
-3
390
F
  0
LAYER
  5
208
100
AcDbSymbolTableRecord
100
AcDbLayerTableRecord
  2
13_REF_GTOL
 70
0
 62
7
  6
CONTINUOUS
370
-3
390
F
  0
LAYER
  5
209
100
AcDbSymbolTableRecord
100
AcDbLayerTableRecord
  2
16_MISC
 70
0
 62
7
  6
CONTINUOUS
370
-3
390
F
  0
LAYER
  5
20A
100
AcDbSymbolTableRecord
100
AcDbLayerTableRecord
  2
17_NO_PRINT
 70
0
 62
7
  6
CONTINUOUS
370
-3
390
F
  0
LAYER
  5
20B
100
AcDbSymbolTableRecord
100
AcDbLayerTableRecord
  2
18_DATUM_CAMS_JOINTS
 70
0
 62
7
  6
CONTINUOUS
370
-3
390
F
  0
LAYER
  5
20C
100
AcDbSymbolTableRecord
100
AcDbLayerTableRecord
  2
19_DATUM_FUNCTIONAL
 70
0
 62
7
  6
CONTINUOUS
370
-3
390
F
  0
LAYER
  5
20D
100
AcDbSymbolTableRecord
100
AcDbLayerTableRecord
  2
20_DATUM_KINEMATIC_SCHEME
 70
0
 62
7
  6
CONTINUOUS
370
-3
390
F
  0
ENDTAB
  0
TABLE
  2
STYLE
  5
3
100
AcDbSymbolTable
 70
1
  0
STYLE
  5
11
100
AcDbSymbolTableRecord
100
AcDbTextStyleTableRecord
  2
STANDARD
 70
0
 40
0.0
 41
0.8
 50
0.0
 71
0
 42
0.2
  3
txt
  4

  0
STYLE
  5
20E
100
AcDbSymbolTableRecord
100
AcDbTextStyleTableRecord
  2
TEXTSTYLE_1
 70
0
 40
0.0
 41
0.8
 50
0.0
 71
0
 42
0.2
  3
gdt
  4

  0
ENDTAB
  0
TABLE
  2
VIEW
  5
6
100
AcDbSymbolTable
 70
0
  0
ENDTAB
  0
TABLE
  2
UCS
  5
7
100
AcDbSymbolTable
 70
0
  0
ENDTAB
  0
TABLE
  2
APPID
  5
9
100
AcDbSymbolTable
 70
1
  0
APPID
  5
20F
100
AcDbSymbolTableRecord
100
AcDbRegAppTableRecord
  2
ACAD
 70
0
  0
ENDTAB
  0
TABLE
  2
BLOCK_RECORD
  5
1
100
AcDbSymbolTable
 70
0
  0
BLOCK_RECORD
  5
210
100
AcDbSymbolTableRecord
100
AcDbBlockTableRecord
  2
*Model_Space
  0
BLOCK_RECORD
  5
211
100
AcDbSymbolTableRecord
100
AcDbBlockTableRecord
  2
*Paper_Space
  0
BLOCK_RECORD
  5
212
100
AcDbSymbolTableRecord
100
AcDbBlockTableRecord
  2
_FILLED
  0
ENDTAB
  0
TABLE
  2
DIMSTYLE
  5
A
100
AcDbSymbolTable
 70
1
100
AcDbDimStyleTable
 71
0
  0
DIMSTYLE
105
213
100
AcDbSymbolTableRecord
100
AcDbDimStyleTableRecord
  2
STANDARD
 70
0
  3

  4

 40
1.0
 41
17.4806002379
 42
1.0
 43
0.38
 44
1.0
 45
0.0
 46
0.0
 47
0.01
 48
0.01
140
24.4728403331
141
0.09
142
0.0
143
25.4
144
1.0
145
0.0
146
1.0
147
0.625
 71
1
 72
0
 73
0
 74
0
 75
0
 76
0
 77
1
 78
8
 79
2
170
0
171
1
172
0
173
0
174
0
175
0
176
0
177
0
178
0
270
2
179
2
271
2
272
2
273
2
274
2
275
0
280
0
281
0
282
0
283
1
284
8
285
0
286
0
287
3
288
0
340
11
278
46
341
212
342
212
343
212
344
212
  0
ENDTAB
  0
ENDSEC
  0
SECTION
  2
BLOCKS
  0
BLOCK
  5
20
100
AcDbEntity
  8
0
100
AcDbBlockBegin
  2
*Model_Space
 70
0
 10
0.0
 20
0.0
 30
0.0
  3
*Model_Space
  1

  0
ENDBLK
  5
21
100
AcDbEntity
  8
0
100
AcDbBlockEnd
  0
BLOCK
  5
1C
100
AcDbEntity
  8
0
100
AcDbBlockBegin
  2
*Paper_Space
 70
0
 10
0.0
 20
0.0
 30
0.0
  3
*Paper_Space
  1

  0
ENDBLK
  5
1D
100
AcDbEntity
  8
0
100
AcDbBlockEnd
  0
BLOCK
  5
214
100
AcDbEntity
  8
0
100
AcDbBlockBegin
  2
_FILLED
 70
64
 10
0.0
 20
0.0
  3
_FILLED
  1

  0
SOLID
  5
215
100
AcDbEntity
  8
0
  6
BYBLOCK
 62
0
100
AcDbTrace
 10
0.0
 20
0.0
 11
-1.0
 21
0.25
 12
-1.0
 22
-0.25
 13
-1.0
 23
-0.25
  0
ENDBLK
  5
216
100
AcDbEntity
  8
0
  6
BYBLOCK
 62
0
100
AcDbBlockEnd
  0
ENDSEC
  0
SECTION
  2
ENTITIES
  0
LINE
  5
217
100
AcDbEntity
  8
0
100
AcDbLine
 62
7
  6
CONTINUOUS
 10
748.8491204114
 20
194.9695509295
 11
755.1491204114
 21
194.9695509295
  0
LINE
  5
218
100
AcDbEntity
  8
0
100
AcDbLine
 62
7
  6
CONTINUOUS
 10
747.6491204114
 20
214.1030285312
 11
748.8491204114
 21
214.1030285312
  0
LINE
  5
219
100
AcDbEntity
  8
0
100
AcDbLine
 62
7
  6
CONTINUOUS
 10
750.6491204114
 20
151.5469026923
 11
754.8287686194
 21
150.581954871
  0
LINE
  5
21A
100
AcDbEntity
  8
0
100
AcDbLine
 62
7
  6
CONTINUOUS
 10
755.0338164093
 20
150.5346158587
 11
762.9742672484
 21
148.7014183368
  0
LINE
  5
21B
100
AcDbEntity
  8
0
100
AcDbLine
 62
7
  6
CONTINUOUS
 10
762.9742672484
 20
150.162973434
 11
755.1491204114
 21
151.9695509295
  0
LINE
  5
21C
100
AcDbEntity
  8
0
100
AcDbLine
 62
7
  6
CONTINUOUS
 10
755.1661952009
 20
152.0435099682
 11
750.9865469929
 21
153.0084577895
  0
LWPOLYLINE
  5
21D
100
AcDbEntity
  8
0
100
AcDbPolyline
 62
7
  6
CONTINUOUS
 90
4
 70
0
 10
743.2271009619
 20
222.2166626706
 10
743.111240749
 20
222.2097198959
 10
742.9481762254
 20
222.1752530609
 10
742.8532370425
 20
222.1405019626
  0
LINE
  5
21E
100
AcDbEntity
  8
0
100
AcDbLine
 62
7
  6
CONTINUOUS
 10
747.6491204114
 20
216.4893905979
 11
743.2269471438
 21
216.4893905979
  0
LINE
  5
21F
100
AcDbEntity
  8
0
100
AcDbLine
 62
7
  6
CONTINUOUS
 10
743.5063289137
 20
219.1722117413
 11
747.6491204114
 21
219.1722117413
  0
LINE
  5
220
100
AcDbEntity
  8
0
100
AcDbLine
 62
7
  6
CONTINUOUS
 10
743.1981911203
 20
219.3530284873
 11
743.5133272176
 21
219.3530288671
  0
LINE
  5
221
100
AcDbEntity
  8
0
100
AcDbLine
 62
7
  6
CONTINUOUS
 10
743.5063285201
 20
219.533847022
 11
747.6491204114
 21
219.533847022
  0
LINE
  5
222
100
AcDbEntity
  8
0
100
AcDbLine
 62
7
  6
CONTINUOUS
 10
747.6491204114
 20
222.2166664644
 11
743.2269469366
 21
222.2166664644
  0
LINE
  5
223
100
AcDbEntity
  8
0
100
AcDbLine
 62
7
  6
CONTINUOUS
 10
747.6491204114
 20
224.6030285312
 11
748.8491204114
 21
224.6030285312
  0
LINE
  5
224
100
AcDbEntity
  8
0
100
AcDbLine
 62
7
  6
CONTINUOUS
 10
748.8491204114
 20
229.4695509295
 11
747.1491204114
 21
229.4695509295
  0
LINE
  5
225
100
AcDbEntity
  8
0
100
AcDbLine
 62
7
  6
CONTINUOUS
 10
747.1491204114
 20
229.7695509295
 11
763.8991204114
 21
229.7695509295
  0
LINE
  5
226
100
AcDbEntity
  8
0
100
AcDbLine
 62
7
  6
CONTINUOUS
 10
747.1491204114
 20
237.1695509295
 11
763.8991204114
 21
237.1695509295
  0
LINE
  5
227
100
AcDbEntity
  8
0
100
AcDbLine
 62
7
  6
CONTINUOUS
 10
748.8491204114
 20
237.4695509295
 11
747.1491204114
 21
237.4695509295
  0
LWPOLYLINE
  5
228
100
AcDbEntity
  8
0
100
AcDbPolyline
 62
7
  6
CONTINUOUS
 90
4
 70
0
 10
742.8532361059
 20
216.5655556948
 10
742.9481685138
 20
216.5308065749
 10
743.1112465269
 20
216.4963366036
 10
743.2271020663
 20
216.489394444
  0
LINE
  5
229
100
AcDbEntity
  8
0
100
AcDbLine
 62
7
  6
CONTINUOUS
 10
739.8491204114
 20
1845.8529947376
 11
742.8533521866
 21
1847.1405226412
  0
LINE
  5
22A
100
AcDbEntity
  8
0
100
AcDbLine
 62
7
  6
CONTINUOUS
 10
739.8491204114
 20
217.8530285311
 11
742.8533520632
 21
216.5655006804
  0
LINE
  5
22B
100
AcDbEntity
  8
0
100
AcDbLine
 62
7
  6
CONTINUOUS
 10
739.8491204114
 20
1295.8529947376
 11
742.8533521866
 21
1297.1405226412
  0
LWPOLYLINE
  5
22C
100
AcDbEntity
  8
0
100
AcDbPolyline
 62
7
  6
CONTINUOUS
 90
4
 70
0
 10
743.2271009619
 20
772.2166626706
 10
743.111240749
 20
772.2097198959
 10
742.9481762254
 20
772.1752530609
 10
742.8532370425
 20
772.1405019626
  0
LINE
  5
22D
100
AcDbEntity
  8
0
100
AcDbLine
 62
7
  6
CONTINUOUS
 10
747.6491204114
 20
764.1030285312
 11
748.8491204114
 21
764.1030285312
  0
LINE
  5
22E
100
AcDbEntity
  8
0
100
AcDbLine
 62
7
  6
CONTINUOUS
 10
747.6491204114
 20
766.4893905979
 11
743.2269471438
 21
766.4893905979
  0
LINE
  5
22F
100
AcDbEntity
  8
0
100
AcDbLine
 62
7
  6
CONTINUOUS
 10
743.5063289137
 20
769.1722117413
 11
747.6491204114
 21
769.1722117413
  0
LINE
  5
230
100
AcDbEntity
  8
0
100
AcDbLine
 62
7
  6
CONTINUOUS
 10
743.1981911203
 20
769.3530284873
 11
743.5133272176
 21
769.3530288671
  0
LINE
  5
231
100
AcDbEntity
  8
0
100
AcDbLine
 62
7
  6
CONTINUOUS
 10
743.5063285201
 20
769.533847022
 11
747.6491204114
 21
769.533847022
  0
LINE
  5
232
100
AcDbEntity
  8
0
100
AcDbLine
 62
7
  6
CONTINUOUS
 10
747.6491204114
 20
772.2166664644
 11
743.2269469366
 21
772.2166664644
  0
LINE
  5
233
100
AcDbEntity
  8
0
100
AcDbLine
 62
7
  6
CONTINUOUS
 10
747.6491204114
 20
774.6030285312
 11
748.8491204114
 21
774.6030285312
  0
LWPOLYLINE
  5
234
100
AcDbEntity
  8
0
100
AcDbPolyline
 62
7
  6
CONTINUOUS
 90
4
 70
0
 10
742.8532361059
 20
766.5655556948
 10
742.9481685138
 20
766.5308065749
 10
743.1112465269
 20
766.4963366036
 10
743.2271020663
 20
766.489394444
  0
LINE
  5
235
100
AcDbEntity
  8
0
100
AcDbLine
 62
7
  6
CONTINUOUS
 10
739.8491204114
 20
767.8530285311
 11
742.8533520632
 21
766.5655006804
  0
LINE
  5
236
100
AcDbEntity
  8
0
100
AcDbLine
 62
7
  6
CONTINUOUS
 10
739.8491204114
 20
1845.8529365503
 11
739.8491204114
 21
1842.8530529248
  0
LINE
  5
237
100
AcDbEntity
  8
0
100
AcDbLine
 62
7
  6
CONTINUOUS
 10
739.8491204114
 20
1295.8529365503
 11
739.8491204114
 21
1292.8530529248
  0
LINE
  5
238
100
AcDbEntity
  8
0
100
AcDbLine
 62
7
  6
CONTINUOUS
 10
739.8491204114
 20
770.8529703439
 11
739.8491204114
 21
767.8530867184
  0
LINE
  5
239
100
AcDbEntity
  8
0
100
AcDbLine
 62
7
  6
CONTINUOUS
 10
739.8491204114
 20
220.8529703439
 11
739.8491204114
 21
217.8530867184
  0
LINE
  5
23A
100
AcDbEntity
  8
0
100
AcDbLine
 62
7
  6
CONTINUOUS
 10
747.1491204114
 20
237.4695509295
 11
747.1491204114
 21
229.4695509295
  0
LINE
  5
23B
100
AcDbEntity
  8
0
100
AcDbLine
 62
7
  6
CONTINUOUS
 10
747.6491204114
 20
1849.6029947376
 11
747.6491204114
 21
1839.1029947376
  0
LINE
  5
23C
100
AcDbEntity
  8
0
100
AcDbLine
 62
7
  6
CONTINUOUS
 10
747.6491204114
 20
1299.6029947376
 11
747.6491204114
 21
1289.1029947376
  0
LINE
  5
23D
100
AcDbEntity
  8
0
100
AcDbLine
 62
7
  6
CONTINUOUS
 10
747.6491204114
 20
774.6030285312
 11
747.6491204114
 21
764.1030285312
  0
LINE
  5
23E
100
AcDbEntity
  8
0
100
AcDbLine
 62
7
  6
CONTINUOUS
 10
747.6491204114
 20
224.6030285312
 11
747.6491204114
 21
214.1030285312
  0
LINE
  5
23F
100
AcDbEntity
  8
0
100
AcDbLine
 62
7
  6
CONTINUOUS
 10
748.8491204114
 20
194.9695509295
 11
748.8491204114
 21
1868.7364723393
  0
LINE
  5
240
100
AcDbEntity
  8
0
100
AcDbLine
 62
7
  6
CONTINUOUS
 10
750.7867427756
 20
1868.7364723393
 11
750.7867427756
 21
194.9695509295
  0
LINE
  5
241
100
AcDbEntity
  8
0
100
AcDbLine
 62
7
  6
CONTINUOUS
 10
752.4481020901
 20
1891.7096527119
 11
752.4481020901
 21
1907.9560797373
  0
LINE
  5
242
100
AcDbEntity
  8
0
100
AcDbLine
 62
7
  6
CONTINUOUS
 10
755.1491204114
 20
151.9695509295
 11
755.1491204114
 21
194.9695509295
  0
LINE
  5
243
100
AcDbEntity
  8
0
100
AcDbLine
 62
7
  6
CONTINUOUS
 10
755.1491204114
 20
1868.7364723393
 11
755.1491204114
 21
1911.7364723392
  0
LINE
  5
244
100
AcDbEntity
  8
0
100
AcDbLine
 62
7
  6
CONTINUOUS
 10
762.9742672484
 20
150.162973434
 11
762.9742672484
 21
1913.5430498348
  0
LINE
  5
245
100
AcDbEntity
  8
0
100
AcDbLine
 62
7
  6
CONTINUOUS
 10
763.8991204114
 20
237.1695509295
 11
763.8991204114
 21
229.7695509295
  0
LINE
  5
246
100
AcDbEntity
  8
0
100
AcDbLine
 62
7
  6
CONTINUOUS
 10
766.6491204114
 20
1912.0814947376
 11
766.6491204114
 21
151.6245285312
  0
LINE
  5
247
100
AcDbEntity
  8
0
100
AcDbLine
 62
7
  6
CONTINUOUS
 10
750.6491204114
 20
151.5469026924
 11
750.9865469929
 21
153.0084577895
  0
LINE
  5
248
100
AcDbEntity
  8
0
100
AcDbLine
 62
7
  6
CONTINUOUS
 10
755.0337857029
 20
150.5346229478
 11
755.3712122845
 21
151.996178045
  0
LINE
  5
249
100
AcDbEntity
  8
0
100
AcDbLine
 62
7
  6
CONTINUOUS
 10
762.9742672484
 20
148.7014183367
 11
763.3116938299
 21
150.1629734339
  0
LINE
  5
24A
100
AcDbEntity
  8
0
100
AcDbLine
 62
7
  6
CONTINUOUS
 10
739.8491204114
 20
770.8530285312
 11
742.8533521866
 21
772.1405564348
  0
LWPOLYLINE
  5
24B
100
AcDbEntity
  8
0
100
AcDbPolyline
 62
7
  6
CONTINUOUS
 90
4
 70
0
 10
742.8532361059
 20
1291.5655219012
 10
742.9481685138
 20
1291.5307727813
 10
743.1112465269
 20
1291.49630281
 10
743.2271020663
 20
1291.4893606504
  0
LINE
  5
24C
100
AcDbEntity
  8
0
100
AcDbLine
 62
7
  6
CONTINUOUS
 10
739.8491204114
 20
1292.8529947375
 11
742.8533520632
 21
1291.5654668868
  0
LINE
  5
24D
100
AcDbEntity
  8
0
100
AcDbLine
 62
7
  6
CONTINUOUS
 10
750.6491204114
 20
1912.1591205764
 11
750.9865469929
 21
1910.6975654792
  0
LINE
  5
24E
100
AcDbEntity
  8
0
100
AcDbLine
 62
7
  6
CONTINUOUS
 10
755.3712122845
 20
1911.7098452237
 11
755.0337857029
 21
1913.1714003209
  0
LINE
  5
24F
100
AcDbEntity
  8
0
100
AcDbLine
 62
7
  6
CONTINUOUS
 10
763.3116938299
 20
1913.5430498348
 11
762.9742672484
 21
1915.004604932
  0
LWPOLYLINE
  5
250
100
AcDbEntity
  8
0
100
AcDbPolyline
 62
7
  6
CONTINUOUS
 90
4
 70
0
 10
743.2271009619
 20
1297.216628877
 10
743.111240749
 20
1297.2096861023
 10
742.9481762254
 20
1297.1752192673
 10
742.8532370425
 20
1297.140468169
  0
LINE
  5
251
100
AcDbEntity
  8
0
100
AcDbLine
 62
7
  6
CONTINUOUS
 10
747.6491204114
 20
1289.1029947376
 11
748.8491204114
 21
1289.1029947376
  0
LINE
  5
252
100
AcDbEntity
  8
0
100
AcDbLine
 62
7
  6
CONTINUOUS
 10
747.6491204114
 20
1291.4893568043
 11
743.2269471438
 21
1291.4893568043
  0
LINE
  5
253
100
AcDbEntity
  8
0
100
AcDbLine
 62
7
  6
CONTINUOUS
 10
743.5063289137
 20
1294.1721779477
 11
747.6491204114
 21
1294.1721779477
  0
LINE
  5
254
100
AcDbEntity
  8
0
100
AcDbLine
 62
7
  6
CONTINUOUS
 10
743.1981911203
 20
1294.3529946937
 11
743.5133272176
 21
1294.3529950735
  0
LINE
  5
255
100
AcDbEntity
  8
0
100
AcDbLine
 62
7
  6
CONTINUOUS
 10
743.5063285201
 20
1294.5338132284
 11
747.6491204114
 21
1294.5338132284
  0
LINE
  5
256
100
AcDbEntity
  8
0
100
AcDbLine
 62
7
  6
CONTINUOUS
 10
747.6491204114
 20
1297.2166326708
 11
743.2269469366
 21
1297.2166326708
  0
LINE
  5
257
100
AcDbEntity
  8
0
100
AcDbLine
 62
7
  6
CONTINUOUS
 10
747.6491204114
 20
1299.6029947376
 11
748.8491204114
 21
1299.6029947376
  0
LINE
  5
258
100
AcDbEntity
  8
0
100
AcDbLine
 62
7
  6
CONTINUOUS
 10
739.8491204114
 20
220.8530285312
 11
742.8533521866
 21
222.1405564348
  0
LWPOLYLINE
  5
259
100
AcDbEntity
  8
0
100
AcDbPolyline
 62
7
  6
CONTINUOUS
 90
4
 70
0
 10
742.8532361059
 20
1841.5655219012
 10
742.9481685138
 20
1841.5307727813
 10
743.1112465269
 20
1841.49630281
 10
743.2271020663
 20
1841.4893606504
  0
LINE
  5
25A
100
AcDbEntity
  8
0
100
AcDbLine
 62
7
  6
CONTINUOUS
 10
739.8491204114
 20
1842.8529947375
 11
742.8533520632
 21
1841.5654668868
  0
LINE
  5
25B
100
AcDbEntity
  8
0
100
AcDbLine
 62
7
  6
CONTINUOUS
 10
755.1491204114
 20
1908.5796589513
 11
752.4481020901
 21
1907.9560797373
  0
LINE
  5
25C
100
AcDbEntity
  8
0
100
AcDbLine
 62
7
  6
CONTINUOUS
 10
750.9865469929
 20
1910.6975654792
 11
755.1661952009
 21
1911.6625133005
  0
LINE
  5
25D
100
AcDbEntity
  8
0
100
AcDbLine
 62
7
  6
CONTINUOUS
 10
755.1491204114
 20
1911.7364723392
 11
762.9742672484
 21
1913.5430498348
  0
LINE
  5
25E
100
AcDbEntity
  8
0
100
AcDbLine
 62
7
  6
CONTINUOUS
 10
762.9742672484
 20
1915.004604932
 11
755.0337857029
 21
1913.1714003209
  0
LINE
  5
25F
100
AcDbEntity
  8
0
100
AcDbLine
 62
7
  6
CONTINUOUS
 10
754.8287686194
 20
1913.1240683977
 11
750.6491204114
 21
1912.1591205764
  0
LINE
  5
260
100
AcDbEntity
  8
0
100
AcDbLine
 62
7
  6
CONTINUOUS
 10
758.9139152552
 20
1915.257711577
 11
755.5036200285
 21
1914.4703828868
  0
LWPOLYLINE
  5
261
100
AcDbEntity
  8
0
100
AcDbPolyline
 62
7
  6
CONTINUOUS
 90
4
 70
0
 10
743.2271009619
 20
1847.216628877
 10
743.111240749
 20
1847.2096861023
 10
742.9481762254
 20
1847.1752192673
 10
742.8532370425
 20
1847.140468169
  0
LINE
  5
262
100
AcDbEntity
  8
0
100
AcDbLine
 62
7
  6
CONTINUOUS
 10
747.6491204114
 20
1839.1029947376
 11
748.8491204114
 21
1839.1029947376
  0
LINE
  5
263
100
AcDbEntity
  8
0
100
AcDbLine
 62
7
  6
CONTINUOUS
 10
747.6491204114
 20
1841.4893568043
 11
743.2269471438
 21
1841.4893568043
  0
LINE
  5
264
100
AcDbEntity
  8
0
100
AcDbLine
 62
7
  6
CONTINUOUS
 10
743.5063289137
 20
1844.1721779477
 11
747.6491204114
 21
1844.1721779477
  0
LINE
  5
265
100
AcDbEntity
  8
0
100
AcDbLine
 62
7
  6
CONTINUOUS
 10
743.1981911203
 20
1844.3529946937
 11
743.5133272176
 21
1844.3529950735
  0
LINE
  5
266
100
AcDbEntity
  8
0
100
AcDbLine
 62
7
  6
CONTINUOUS
 10
743.5063285201
 20
1844.5338132284
 11
747.6491204114
 21
1844.5338132284
  0
LINE
  5
267
100
AcDbEntity
  8
0
100
AcDbLine
 62
7
  6
CONTINUOUS
 10
747.6491204114
 20
1847.2166326708
 11
743.2269469366
 21
1847.2166326708
  0
LINE
  5
268
100
AcDbEntity
  8
0
100
AcDbLine
 62
7
  6
CONTINUOUS
 10
747.6491204114
 20
1849.6029947376
 11
748.8491204114
 21
1849.6029947376
  0
LINE
  5
269
100
AcDbEntity
  8
0
100
AcDbLine
 62
7
  6
CONTINUOUS
 10
755.1491204114
 20
1868.7364723393
 11
748.8491204114
 21
1868.7364723393
  0
LINE
  5
26A
100
AcDbEntity
  8
0
100
AcDbLine
 62
7
  6
CONTINUOUS
 10
755.1481020901
 20
1891.7096527119
 11
752.4481020901
 21
1891.7096527119
  0
ARC
  5
26B
100
AcDbEntity
  8
0
100
AcDbCircle
 62
7
  6
CONTINUOUS
 10
780.965332142
 20
85.4081384954
 40
67.2076414102
100
AcDbArc
 50
105.251448856
 51
105.5270769239
  0
ARC
  5
26C
100
AcDbEntity
  8
0
100
AcDbCircle
 62
7
  6
CONTINUOUS
 10
780.9653321091
 20
1978.2978846544
 40
67.2076412869
100
AcDbArc
 50
254.4729230761
 51
254.7485511444
  0
ARC
  5
26D
100
AcDbEntity
  8
0
100
AcDbCircle
 62
7
  6
CONTINUOUS
 10
745.085122787
 20
215.3393718107
 40
4.4817628199
100
AcDbArc
 50
110.6262689001
 51
114.9979501816
  0
ARC
  5
26E
100
AcDbEntity
  8
0
100
AcDbCircle
 62
7
  6
CONTINUOUS
 10
745.085122787
 20
765.3393718108
 40
4.4817628197
100
AcDbArc
 50
110.6262689001
 51
114.9979501817
  0
ARC
  5
26F
100
AcDbEntity
  8
0
100
AcDbCircle
 62
7
  6
CONTINUOUS
 10
745.085122787
 20
1290.3393380172
 40
4.4817628197
100
AcDbArc
 50
110.6262689001
 51
114.9979501817
  0
ARC
  5
270
100
AcDbEntity
  8
0
100
AcDbCircle
 62
7
  6
CONTINUOUS
 10
745.085122787
 20
1840.3393380172
 40
4.4817628197
100
AcDbArc
 50
110.6262689001
 51
114.9979501817
  0
ARC
  5
271
100
AcDbEntity
  8
0
100
AcDbCircle
 62
7
  6
CONTINUOUS
 10
745.0851229214
 20
223.3666321318
 40
4.4817146025
100
AcDbArc
 50
245.001767541
 51
249.373492954
  0
ARC
  5
272
100
AcDbEntity
  8
0
100
AcDbCircle
 62
7
  6
CONTINUOUS
 10
745.0851229215
 20
773.366632132
 40
4.4817146027
100
AcDbArc
 50
245.001767541
 51
249.3734929539
  0
ARC
  5
273
100
AcDbEntity
  8
0
100
AcDbCircle
 62
7
  6
CONTINUOUS
 10
745.0851229214
 20
1298.3665983382
 40
4.4817146025
100
AcDbArc
 50
245.0017675409
 51
249.373492954
  0
ARC
  5
274
100
AcDbEntity
  8
0
100
AcDbCircle
 62
7
  6
CONTINUOUS
 10
745.0851229214
 20
1848.3665983382
 40
4.4817146025
100
AcDbArc
 50
245.0017675409
 51
249.373492954
  0
ARC
  5
275
100
AcDbEntity
  8
0
100
AcDbCircle
 62
7
  6
CONTINUOUS
 10
763.6491204114
 20
151.6245285312
 40
3.0
100
AcDbArc
 50
257.0000000002
 51
360.0
  0
ARC
  5
276
100
AcDbEntity
  8
0
100
AcDbCircle
 62
7
  6
CONTINUOUS
 10
763.6491204114
 20
1912.0814947375
 40
3.0
100
AcDbArc
 50
0.0
 51
102.9999999998
  0
ARC
  5
277
100
AcDbEntity
  8
0
100
AcDbCircle
 62
7
  6
CONTINUOUS
 10
741.1839392292
 20
219.3526261759
 40
2.3293869628
100
AcDbArc
 50
355.5579091732
 51
0.0098967023
  0
ARC
  5
278
100
AcDbEntity
  8
0
100
AcDbCircle
 62
7
  6
CONTINUOUS
 10
741.1839392292
 20
769.3526261759
 40
2.3293869628
100
AcDbArc
 50
355.5579091732
 51
0.0098967023
  0
ARC
  5
279
100
AcDbEntity
  8
0
100
AcDbCircle
 62
7
  6
CONTINUOUS
 10
741.1839392292
 20
1294.3525923823
 40
2.3293869628
100
AcDbArc
 50
355.5579091732
 51
0.0098967023
  0
ARC
  5
27A
100
AcDbEntity
  8
0
100
AcDbCircle
 62
7
  6
CONTINUOUS
 10
741.1839392292
 20
1844.3525923823
 40
2.3293869628
100
AcDbArc
 50
355.5579091732
 51
0.0098967023
  0
ARC
  5
27B
100
AcDbEntity
  8
0
100
AcDbCircle
 62
7
  6
CONTINUOUS
 10
741.1966635745
 20
219.3539188303
 40
2.3166627538
100
AcDbArc
 50
359.9779810889
 51
4.4544759933
  0
ARC
  5
27C
100
AcDbEntity
  8
0
100
AcDbCircle
 62
7
  6
CONTINUOUS
 10
741.1966635745
 20
769.3539188303
 40
2.3166627538
100
AcDbArc
 50
359.9779810889
 51
4.4544759933
  0
ARC
  5
27D
100
AcDbEntity
  8
0
100
AcDbCircle
 62
7
  6
CONTINUOUS
 10
741.1966635745
 20
1294.3538850367
 40
2.3166627538
100
AcDbArc
 50
359.9779810889
 51
4.4544759933
  0
ARC
  5
27E
100
AcDbEntity
  8
0
100
AcDbCircle
 62
7
  6
CONTINUOUS
 10
741.1966635745
 20
1844.3538850367
 40
2.3166627538
100
AcDbArc
 50
359.9779810889
 51
4.4544759933
  0
ARC
  5
27F
100
AcDbEntity
  8
0
100
AcDbCircle
 62
7
  6
CONTINUOUS
 10
763.6491204114
 20
151.6245285312
 40
1.5
100
AcDbArc
 50
270.5687302328
 51
291.3333105731
  0
ARC
  5
280
100
AcDbEntity
  8
0
100
AcDbCircle
 62
7
  6
CONTINUOUS
 10
763.6491204114
 20
1912.0814947375
 40
1.5
100
AcDbArc
 50
34.3333105573
 51
102.9999999998
  0
ARC
  5
281
100
AcDbEntity
  8
0
100
AcDbCircle
 62
7
  6
CONTINUOUS
 10
759.1958894626
 20
1914.0363471005
 40
1.2534913793
100
AcDbArc
 50
17.2773651553
 51
103.0
  0
ARC
  5
282
100
AcDbEntity
  8
0
100
AcDbCircle
 62
7
  6
CONTINUOUS
 10
755.7855942359
 20
1913.2490184103
 40
1.2534913793
100
AcDbArc
 50
103.0
 51
182.6254945318
  0
SPLINE
  5
283
100
AcDbEntity
  8
0
100
AcDbSpline
 62
7
  6
CONTINUOUS
 70
0
 71
3
 72
14
 73
10
 74
0
 42
0.0000001
 43
0.0000001
 44
0.0000000001
 40
0.0
 40
0.0
 40
0.0
 40
0.0
 40
0.3722621238
 40
0.6892214108
 40
0.8120231611
 40
0.9051448023
 40
0.9398384287
 40
0.9666511607
 40
1.0
 40
1.0
 40
1.0
 40
1.0
 10
752.4481020901
 20
1907.9560797373
 30
0.0
 10
752.4168029549
 20
1908.3418234756
 30
0.0
 10
752.3592626732
 20
1909.0560227811
 30
0.0
 10
752.3072794082
 20
1909.8987919605
 30
0.0
 10
752.3046219816
 20
1910.4533229925
 30
0.0
 10
752.3187717455
 20
1910.7131327805
 30
0.0
 10
752.3473040325
 20
1910.8730430118
 30
0.0
 10
752.3738457062
 20
1910.9648645444
 30
0.0
 10
752.4143205359
 20
1911.0271929744
 30
0.0
 10
752.4481020901
 20
1911.0349920607
 30
0.0
  0
SPLINE
  5
284
100
AcDbEntity
  8
0
100
AcDbSpline
 62
7
  6
CONTINUOUS
 70
0
 71
3
 72
17
 73
13
 74
0
 42
0.0000001
 43
0.0000001
 44
0.0000000001
 40
0.0
 40
0.0
 40
0.0
 40
0.0
 40
0.0193509107
 40
0.0399413202
 40
0.0651850173
 40
0.0970541374
 40
0.1835071105
 40
0.3008526739
 40
0.446281464
 40
0.6150421509
 40
0.8015678274
 40
1.0
 40
1.0
 40
1.0
 40
1.0
 10
743.2269360042
 20
216.4894018856
 30
0.0
 10
743.2087934412
 20
216.4893995788
 30
0.0
 10
743.17051681
 20
216.4978684165
 30
0.0
 10
743.1233104073
 20
216.5396692823
 30
0.0
 10
743.0884663636
 20
216.6046660033
 30
0.0
 10
743.0521469635
 20
216.734943579
 30
0.0
 10
743.0408009796
 20
216.9574900664
 30
0.0
 10
743.0656661696
 20
217.2840533458
 30
0.0
 10
743.1292847336
 20
217.6840604933
 30
0.0
 10
743.2275154373
 20
218.1432101365
 30
0.0
 10
743.3552142712
 20
218.6465099152
 30
0.0
 10
743.4536705165
 20
218.9937786769
 30
0.0
 10
743.5063294994
 20
219.17221183
 30
0.0
  0
SPLINE
  5
285
100
AcDbEntity
  8
0
100
AcDbSpline
 62
7
  6
CONTINUOUS
 70
0
 71
3
 72
15
 73
11
 74
0
 42
0.0000001
 43
0.0000001
 44
0.0000000001
 40
0.0
 40
0.0
 40
0.0
 40
0.0
 40
0.0397659584
 40
0.0682949013
 40
0.1038673626
 40
0.1969248439
 40
0.318130395
 40
0.4640095572
 40
0.6298248191
 40
1.0
 40
1.0
 40
1.0
 40
1.0
 10
742.8532751168
 20
216.5655411418
 30
0.0
 10
742.8188915821
 20
216.5803045211
 30
0.0
 10
742.7782807531
 20
216.639772366
 30
0.0
 10
742.7514913078
 20
216.7324714355
 30
0.0
 10
742.7293483731
 20
216.8796738757
 30
0.0
 10
742.7304643231
 20
217.1153375025
 30
0.0
 10
742.7635762364
 20
217.4528969426
 30
0.0
 10
742.8297531435
 20
217.8550540399
 30
0.0
 10
742.9626546998
 20
218.4829039396
 30
0.0
 10
743.0934432023
 20
218.9704299303
 30
0.0
 10
743.1911933574
 20
219.3047611756
 30
0.0
  0
SPLINE
  5
286
100
AcDbEntity
  8
0
100
AcDbSpline
 62
7
  6
CONTINUOUS
 70
0
 71
3
 72
8
 73
4
 74
0
 42
0.0000001
 43
0.0000001
 44
0.0000000001
 40
0.0
 40
0.0
 40
0.0
 40
0.0
 40
1.0
 40
1.0
 40
1.0
 40
1.0
 10
743.1981911203
 20
219.3530285312
 30
0.0
 10
743.1981910202
 20
219.3367712065
 30
0.0
 10
743.1957558378
 20
219.3203651645
 30
0.0
 10
743.1911933181
 20
219.30476119
 30
0.0
  0
SPLINE
  5
287
100
AcDbEntity
  8
0
100
AcDbSpline
 62
7
  6
CONTINUOUS
 70
0
 71
3
 72
8
 73
4
 74
0
 42
0.0000001
 43
0.0000001
 44
0.0000000001
 40
0.0
 40
0.0
 40
0.0
 40
0.0
 40
1.0
 40
1.0
 40
1.0
 40
1.0
 10
743.1911932985
 20
219.4012958651
 30
0.0
 10
743.1957557736
 20
219.3856918801
 30
0.0
 10
743.1981911176
 20
219.3692858534
 30
0.0
 10
743.1981910999
 20
219.3530285312
 30
0.0
  0
SPLINE
  5
288
100
AcDbEntity
  8
0
100
AcDbSpline
 62
7
  6
CONTINUOUS
 70
0
 71
3
 72
17
 73
13
 74
0
 42
0.0000001
 43
0.0000001
 44
0.0000000001
 40
0.0
 40
0.0
 40
0.0
 40
0.0
 40
0.1984453049
 40
0.3849718105
 40
0.553726919
 40
0.6991537572
 40
0.8164964985
 40
0.9029474076
 40
0.9348158961
 40
0.9600591695
 40
0.9806492999
 40
1.0
 40
1.0
 40
1.0
 40
1.0
 10
743.506328928
 20
219.5338467487
 30
0.0
 10
743.453666578
 20
219.7122916426
 30
0.0
 10
743.3552071891
 20
220.059572917
 30
0.0
 10
743.2275070634
 20
220.5628802235
 30
0.0
 10
743.1292801781
 20
221.0220239788
 30
0.0
 10
743.0656633374
 20
221.4220213566
 30
0.0
 10
743.0408006433
 20
221.7485782723
 30
0.0
 10
743.0521479723
 20
221.9711193422
 30
0.0
 10
743.0884674572
 20
222.1013937687
 30
0.0
 10
743.1233113218
 20
222.1663891027
 30
0.0
 10
743.1705172855
 20
222.2081890666
 30
0.0
 10
743.2087934399
 20
222.2166576359
 30
0.0
 10
743.2269357959
 20
222.2166553015
 30
0.0
  0
SPLINE
  5
289
100
AcDbEntity
  8
0
100
AcDbSpline
 62
7
  6
CONTINUOUS
 70
0
 71
3
 72
15
 73
11
 74
0
 42
0.0000001
 43
0.0000001
 44
0.0000000001
 40
0.0
 40
0.0
 40
0.0
 40
0.0
 40
0.3701831002
 40
0.5359946476
 40
0.6818729425
 40
0.8030792826
 40
0.8961360465
 40
0.9317068562
 40
0.9602361446
 40
1.0
 40
1.0
 40
1.0
 40
1.0
 10
743.1911933574
 20
219.4012958867
 30
0.0
 10
743.0934418155
 20
219.7356345836
 30
0.0
 10
742.9626524714
 20
220.2231646537
 30
0.0
 10
742.8297506121
 20
220.8510176723
 30
0.0
 10
742.7635732922
 20
221.2531715994
 30
0.0
 10
742.7304667334
 20
221.5907300783
 30
0.0
 10
742.7293433685
 20
221.8263933492
 30
0.0
 10
742.7514956583
 20
221.9735923077
 30
0.0
 10
742.7782813592
 20
222.0662889506
 30
0.0
 10
742.8188919086
 20
222.1257552279
 30
0.0
 10
742.8532738023
 20
222.1405174378
 30
0.0
  0
SPLINE
  5
28A
100
AcDbEntity
  8
0
100
AcDbSpline
 62
7
  6
CONTINUOUS
 70
0
 71
3
 72
17
 73
13
 74
0
 42
0.0000001
 43
0.0000001
 44
0.0000000001
 40
0.0
 40
0.0
 40
0.0
 40
0.0
 40
0.0193509107
 40
0.0399413202
 40
0.0651850173
 40
0.0970541374
 40
0.1835071105
 40
0.3008526739
 40
0.446281464
 40
0.6150421509
 40
0.8015678274
 40
1.0
 40
1.0
 40
1.0
 40
1.0
 10
743.2269360042
 20
766.4894018856
 30
0.0
 10
743.2087934412
 20
766.4893995788
 30
0.0
 10
743.17051681
 20
766.4978684165
 30
0.0
 10
743.1233104073
 20
766.5396692823
 30
0.0
 10
743.0884663636
 20
766.6046660033
 30
0.0
 10
743.0521469635
 20
766.734943579
 30
0.0
 10
743.0408009796
 20
766.9574900664
 30
0.0
 10
743.0656661696
 20
767.2840533458
 30
0.0
 10
743.1292847336
 20
767.6840604933
 30
0.0
 10
743.2275154373
 20
768.1432101365
 30
0.0
 10
743.3552142712
 20
768.6465099152
 30
0.0
 10
743.4536705165
 20
768.9937786769
 30
0.0
 10
743.5063294994
 20
769.17221183
 30
0.0
  0
SPLINE
  5
28B
100
AcDbEntity
  8
0
100
AcDbSpline
 62
7
  6
CONTINUOUS
 70
0
 71
3
 72
15
 73
11
 74
0
 42
0.0000001
 43
0.0000001
 44
0.0000000001
 40
0.0
 40
0.0
 40
0.0
 40
0.0
 40
0.0397659584
 40
0.0682949013
 40
0.1038673626
 40
0.1969248439
 40
0.318130395
 40
0.4640095572
 40
0.6298248191
 40
1.0
 40
1.0
 40
1.0
 40
1.0
 10
742.8532751168
 20
766.5655411418
 30
0.0
 10
742.8188915821
 20
766.5803045211
 30
0.0
 10
742.7782807531
 20
766.639772366
 30
0.0
 10
742.7514913078
 20
766.7324714355
 30
0.0
 10
742.7293483731
 20
766.8796738757
 30
0.0
 10
742.7304643231
 20
767.1153375025
 30
0.0
 10
742.7635762364
 20
767.4528969426
 30
0.0
 10
742.8297531435
 20
767.8550540399
 30
0.0
 10
742.9626546998
 20
768.4829039396
 30
0.0
 10
743.0934432023
 20
768.9704299303
 30
0.0
 10
743.1911933574
 20
769.3047611756
 30
0.0
  0
SPLINE
  5
28C
100
AcDbEntity
  8
0
100
AcDbSpline
 62
7
  6
CONTINUOUS
 70
0
 71
3
 72
8
 73
4
 74
0
 42
0.0000001
 43
0.0000001
 44
0.0000000001
 40
0.0
 40
0.0
 40
0.0
 40
0.0
 40
1.0
 40
1.0
 40
1.0
 40
1.0
 10
743.1981911203
 20
769.3530285312
 30
0.0
 10
743.1981910202
 20
769.3367712065
 30
0.0
 10
743.1957558378
 20
769.3203651645
 30
0.0
 10
743.1911933181
 20
769.30476119
 30
0.0
  0
SPLINE
  5
28D
100
AcDbEntity
  8
0
100
AcDbSpline
 62
7
  6
CONTINUOUS
 70
0
 71
3
 72
8
 73
4
 74
0
 42
0.0000001
 43
0.0000001
 44
0.0000000001
 40
0.0
 40
0.0
 40
0.0
 40
0.0
 40
1.0
 40
1.0
 40
1.0
 40
1.0
 10
743.1911932985
 20
769.4012958651
 30
0.0
 10
743.1957557736
 20
769.3856918801
 30
0.0
 10
743.1981911176
 20
769.3692858534
 30
0.0
 10
743.1981910999
 20
769.3530285312
 30
0.0
  0
SPLINE
  5
28E
100
AcDbEntity
  8
0
100
AcDbSpline
 62
7
  6
CONTINUOUS
 70
0
 71
3
 72
17
 73
13
 74
0
 42
0.0000001
 43
0.0000001
 44
0.0000000001
 40
0.0
 40
0.0
 40
0.0
 40
0.0
 40
0.1984453049
 40
0.3849718105
 40
0.553726919
 40
0.6991537572
 40
0.8164964985
 40
0.9029474076
 40
0.9348158961
 40
0.9600591695
 40
0.9806492999
 40
1.0
 40
1.0
 40
1.0
 40
1.0
 10
743.506328928
 20
769.5338467487
 30
0.0
 10
743.453666578
 20
769.7122916426
 30
0.0
 10
743.3552071891
 20
770.059572917
 30
0.0
 10
743.2275070634
 20
770.5628802235
 30
0.0
 10
743.1292801781
 20
771.0220239788
 30
0.0
 10
743.0656633374
 20
771.4220213566
 30
0.0
 10
743.0408006433
 20
771.7485782723
 30
0.0
 10
743.0521479723
 20
771.9711193422
 30
0.0
 10
743.0884674572
 20
772.1013937687
 30
0.0
 10
743.1233113218
 20
772.1663891027
 30
0.0
 10
743.1705172855
 20
772.2081890666
 30
0.0
 10
743.2087934399
 20
772.2166576359
 30
0.0
 10
743.2269357959
 20
772.2166553015
 30
0.0
  0
SPLINE
  5
28F
100
AcDbEntity
  8
0
100
AcDbSpline
 62
7
  6
CONTINUOUS
 70
0
 71
3
 72
15
 73
11
 74
0
 42
0.0000001
 43
0.0000001
 44
0.0000000001
 40
0.0
 40
0.0
 40
0.0
 40
0.0
 40
0.3701831002
 40
0.5359946476
 40
0.6818729425
 40
0.8030792826
 40
0.8961360465
 40
0.9317068562
 40
0.9602361446
 40
1.0
 40
1.0
 40
1.0
 40
1.0
 10
743.1911933574
 20
769.4012958867
 30
0.0
 10
743.0934418155
 20
769.7356345836
 30
0.0
 10
742.9626524714
 20
770.2231646537
 30
0.0
 10
742.8297506121
 20
770.8510176723
 30
0.0
 10
742.7635732922
 20
771.2531715994
 30
0.0
 10
742.7304667334
 20
771.5907300783
 30
0.0
 10
742.7293433685
 20
771.8263933492
 30
0.0
 10
742.7514956583
 20
771.9735923077
 30
0.0
 10
742.7782813592
 20
772.0662889506
 30
0.0
 10
742.8188919086
 20
772.1257552279
 30
0.0
 10
742.8532738023
 20
772.1405174378
 30
0.0
  0
SPLINE
  5
290
100
AcDbEntity
  8
0
100
AcDbSpline
 62
7
  6
CONTINUOUS
 70
0
 71
3
 72
17
 73
13
 74
0
 42
0.0000001
 43
0.0000001
 44
0.0000000001
 40
0.0
 40
0.0
 40
0.0
 40
0.0
 40
0.0193509107
 40
0.0399413202
 40
0.0651850173
 40
0.0970541374
 40
0.1835071105
 40
0.3008526739
 40
0.446281464
 40
0.6150421509
 40
0.8015678274
 40
1.0
 40
1.0
 40
1.0
 40
1.0
 10
743.2269360042
 20
1291.489368092
 30
0.0
 10
743.2087934412
 20
1291.4893657852
 30
0.0
 10
743.17051681
 20
1291.4978346229
 30
0.0
 10
743.1233104073
 20
1291.5396354887
 30
0.0
 10
743.0884663636
 20
1291.6046322097
 30
0.0
 10
743.0521469635
 20
1291.7349097854
 30
0.0
 10
743.0408009796
 20
1291.9574562728
 30
0.0
 10
743.0656661696
 20
1292.2840195522
 30
0.0
 10
743.1292847336
 20
1292.6840266997
 30
0.0
 10
743.2275154373
 20
1293.1431763429
 30
0.0
 10
743.3552142712
 20
1293.6464761216
 30
0.0
 10
743.4536705165
 20
1293.9937448833
 30
0.0
 10
743.5063294994
 20
1294.1721780364
 30
0.0
  0
SPLINE
  5
291
100
AcDbEntity
  8
0
100
AcDbSpline
 62
7
  6
CONTINUOUS
 70
0
 71
3
 72
15
 73
11
 74
0
 42
0.0000001
 43
0.0000001
 44
0.0000000001
 40
0.0
 40
0.0
 40
0.0
 40
0.0
 40
0.0397659584
 40
0.0682949013
 40
0.1038673626
 40
0.1969248439
 40
0.318130395
 40
0.4640095572
 40
0.6298248191
 40
1.0
 40
1.0
 40
1.0
 40
1.0
 10
742.8532751168
 20
1291.5655073482
 30
0.0
 10
742.8188915821
 20
1291.5802707275
 30
0.0
 10
742.7782807531
 20
1291.6397385724
 30
0.0
 10
742.7514913078
 20
1291.7324376419
 30
0.0
 10
742.7293483731
 20
1291.8796400821
 30
0.0
 10
742.7304643231
 20
1292.1153037089
 30
0.0
 10
742.7635762364
 20
1292.452863149
 30
0.0
 10
742.8297531435
 20
1292.8550202463
 30
0.0
 10
742.9626546998
 20
1293.482870146
 30
0.0
 10
743.0934432023
 20
1293.9703961367
 30
0.0
 10
743.1911933574
 20
1294.304727382
 30
0.0
  0
SPLINE
  5
292
100
AcDbEntity
  8
0
100
AcDbSpline
 62
7
  6
CONTINUOUS
 70
0
 71
3
 72
8
 73
4
 74
0
 42
0.0000001
 43
0.0000001
 44
0.0000000001
 40
0.0
 40
0.0
 40
0.0
 40
0.0
 40
1.0
 40
1.0
 40
1.0
 40
1.0
 10
743.1981911203
 20
1294.3529947376
 30
0.0
 10
743.1981910202
 20
1294.3367374129
 30
0.0
 10
743.1957558378
 20
1294.3203313709
 30
0.0
 10
743.1911933181
 20
1294.3047273964
 30
0.0
  0
SPLINE
  5
293
100
AcDbEntity
  8
0
100
AcDbSpline
 62
7
  6
CONTINUOUS
 70
0
 71
3
 72
8
 73
4
 74
0
 42
0.0000001
 43
0.0000001
 44
0.0000000001
 40
0.0
 40
0.0
 40
0.0
 40
0.0
 40
1.0
 40
1.0
 40
1.0
 40
1.0
 10
743.1911932985
 20
1294.4012620715
 30
0.0
 10
743.1957557736
 20
1294.3856580865
 30
0.0
 10
743.1981911176
 20
1294.3692520598
 30
0.0
 10
743.1981910999
 20
1294.3529947376
 30
0.0
  0
SPLINE
  5
294
100
AcDbEntity
  8
0
100
AcDbSpline
 62
7
  6
CONTINUOUS
 70
0
 71
3
 72
17
 73
13
 74
0
 42
0.0000001
 43
0.0000001
 44
0.0000000001
 40
0.0
 40
0.0
 40
0.0
 40
0.0
 40
0.1984453049
 40
0.3849718105
 40
0.553726919
 40
0.6991537572
 40
0.8164964985
 40
0.9029474076
 40
0.9348158961
 40
0.9600591695
 40
0.9806492999
 40
1.0
 40
1.0
 40
1.0
 40
1.0
 10
743.506328928
 20
1294.5338129551
 30
0.0
 10
743.453666578
 20
1294.712257849
 30
0.0
 10
743.3552071891
 20
1295.0595391234
 30
0.0
 10
743.2275070634
 20
1295.5628464299
 30
0.0
 10
743.1292801781
 20
1296.0219901852
 30
0.0
 10
743.0656633374
 20
1296.421987563
 30
0.0
 10
743.0408006433
 20
1296.7485444787
 30
0.0
 10
743.0521479723
 20
1296.9710855486
 30
0.0
 10
743.0884674572
 20
1297.1013599751
 30
0.0
 10
743.1233113218
 20
1297.1663553091
 30
0.0
 10
743.1705172855
 20
1297.208155273
 30
0.0
 10
743.2087934399
 20
1297.2166238423
 30
0.0
 10
743.2269357959
 20
1297.2166215079
 30
0.0
  0
SPLINE
  5
295
100
AcDbEntity
  8
0
100
AcDbSpline
 62
7
  6
CONTINUOUS
 70
0
 71
3
 72
15
 73
11
 74
0
 42
0.0000001
 43
0.0000001
 44
0.0000000001
 40
0.0
 40
0.0
 40
0.0
 40
0.0
 40
0.3701831002
 40
0.5359946476
 40
0.6818729425
 40
0.8030792826
 40
0.8961360465
 40
0.9317068562
 40
0.9602361446
 40
1.0
 40
1.0
 40
1.0
 40
1.0
 10
743.1911933574
 20
1294.4012620931
 30
0.0
 10
743.0934418155
 20
1294.73560079
 30
0.0
 10
742.9626524714
 20
1295.2231308601
 30
0.0
 10
742.8297506121
 20
1295.8509838787
 30
0.0
 10
742.7635732922
 20
1296.2531378058
 30
0.0
 10
742.7304667334
 20
1296.5906962847
 30
0.0
 10
742.7293433685
 20
1296.8263595556
 30
0.0
 10
742.7514956583
 20
1296.9735585141
 30
0.0
 10
742.7782813592
 20
1297.066255157
 30
0.0
 10
742.8188919086
 20
1297.1257214343
 30
0.0
 10
742.8532738023
 20
1297.1404836442
 30
0.0
  0
SPLINE
  5
296
100
AcDbEntity
  8
0
100
AcDbSpline
 62
7
  6
CONTINUOUS
 70
0
 71
3
 72
17
 73
13
 74
0
 42
0.0000001
 43
0.0000001
 44
0.0000000001
 40
0.0
 40
0.0
 40
0.0
 40
0.0
 40
0.0193509107
 40
0.0399413202
 40
0.0651850173
 40
0.0970541374
 40
0.1835071105
 40
0.3008526739
 40
0.446281464
 40
0.6150421509
 40
0.8015678274
 40
1.0
 40
1.0
 40
1.0
 40
1.0
 10
743.2269360042
 20
1841.489368092
 30
0.0
 10
743.2087934412
 20
1841.4893657852
 30
0.0
 10
743.17051681
 20
1841.4978346229
 30
0.0
 10
743.1233104073
 20
1841.5396354887
 30
0.0
 10
743.0884663636
 20
1841.6046322097
 30
0.0
 10
743.0521469635
 20
1841.7349097854
 30
0.0
 10
743.0408009796
 20
1841.9574562728
 30
0.0
 10
743.0656661696
 20
1842.2840195522
 30
0.0
 10
743.1292847336
 20
1842.6840266997
 30
0.0
 10
743.2275154373
 20
1843.1431763429
 30
0.0
 10
743.3552142712
 20
1843.6464761216
 30
0.0
 10
743.4536705165
 20
1843.9937448833
 30
0.0
 10
743.5063294994
 20
1844.1721780364
 30
0.0
  0
SPLINE
  5
297
100
AcDbEntity
  8
0
100
AcDbSpline
 62
7
  6
CONTINUOUS
 70
0
 71
3
 72
15
 73
11
 74
0
 42
0.0000001
 43
0.0000001
 44
0.0000000001
 40
0.0
 40
0.0
 40
0.0
 40
0.0
 40
0.0397659584
 40
0.0682949013
 40
0.1038673626
 40
0.1969248439
 40
0.318130395
 40
0.4640095572
 40
0.6298248191
 40
1.0
 40
1.0
 40
1.0
 40
1.0
 10
742.8532751168
 20
1841.5655073482
 30
0.0
 10
742.8188915821
 20
1841.5802707275
 30
0.0
 10
742.7782807531
 20
1841.6397385724
 30
0.0
 10
742.7514913078
 20
1841.7324376419
 30
0.0
 10
742.7293483731
 20
1841.8796400821
 30
0.0
 10
742.7304643231
 20
1842.1153037089
 30
0.0
 10
742.7635762364
 20
1842.452863149
 30
0.0
 10
742.8297531435
 20
1842.8550202463
 30
0.0
 10
742.9626546998
 20
1843.482870146
 30
0.0
 10
743.0934432023
 20
1843.9703961367
 30
0.0
 10
743.1911933574
 20
1844.304727382
 30
0.0
  0
SPLINE
  5
298
100
AcDbEntity
  8
0
100
AcDbSpline
 62
7
  6
CONTINUOUS
 70
0
 71
3
 72
8
 73
4
 74
0
 42
0.0000001
 43
0.0000001
 44
0.0000000001
 40
0.0
 40
0.0
 40
0.0
 40
0.0
 40
1.0
 40
1.0
 40
1.0
 40
1.0
 10
743.1981911203
 20
1844.3529947376
 30
0.0
 10
743.1981910202
 20
1844.3367374129
 30
0.0
 10
743.1957558378
 20
1844.3203313709
 30
0.0
 10
743.1911933181
 20
1844.3047273964
 30
0.0
  0
SPLINE
  5
299
100
AcDbEntity
  8
0
100
AcDbSpline
 62
7
  6
CONTINUOUS
 70
0
 71
3
 72
8
 73
4
 74
0
 42
0.0000001
 43
0.0000001
 44
0.0000000001
 40
0.0
 40
0.0
 40
0.0
 40
0.0
 40
1.0
 40
1.0
 40
1.0
 40
1.0
 10
743.1911932985
 20
1844.4012620715
 30
0.0
 10
743.1957557736
 20
1844.3856580865
 30
0.0
 10
743.1981911176
 20
1844.3692520598
 30
0.0
 10
743.1981910999
 20
1844.3529947376
 30
0.0
  0
SPLINE
  5
29A
100
AcDbEntity
  8
0
100
AcDbSpline
 62
7
  6
CONTINUOUS
 70
0
 71
3
 72
17
 73
13
 74
0
 42
0.0000001
 43
0.0000001
 44
0.0000000001
 40
0.0
 40
0.0
 40
0.0
 40
0.0
 40
0.1984453049
 40
0.3849718105
 40
0.553726919
 40
0.6991537572
 40
0.8164964985
 40
0.9029474076
 40
0.9348158961
 40
0.9600591695
 40
0.9806492999
 40
1.0
 40
1.0
 40
1.0
 40
1.0
 10
743.506328928
 20
1844.5338129551
 30
0.0
 10
743.453666578
 20
1844.712257849
 30
0.0
 10
743.3552071891
 20
1845.0595391234
 30
0.0
 10
743.2275070634
 20
1845.5628464299
 30
0.0
 10
743.1292801781
 20
1846.0219901852
 30
0.0
 10
743.0656633374
 20
1846.421987563
 30
0.0
 10
743.0408006433
 20
1846.7485444787
 30
0.0
 10
743.0521479723
 20
1846.9710855486
 30
0.0
 10
743.0884674572
 20
1847.1013599751
 30
0.0
 10
743.1233113218
 20
1847.1663553091
 30
0.0
 10
743.1705172855
 20
1847.208155273
 30
0.0
 10
743.2087934399
 20
1847.2166238423
 30
0.0
 10
743.2269357959
 20
1847.2166215079
 30
0.0
  0
SPLINE
  5
29B
100
AcDbEntity
  8
0
100
AcDbSpline
 62
7
  6
CONTINUOUS
 70
0
 71
3
 72
15
 73
11
 74
0
 42
0.0000001
 43
0.0000001
 44
0.0000000001
 40
0.0
 40
0.0
 40
0.0
 40
0.0
 40
0.3701831002
 40
0.5359946476
 40
0.6818729425
 40
0.8030792826
 40
0.8961360465
 40
0.9317068562
 40
0.9602361446
 40
1.0
 40
1.0
 40
1.0
 40
1.0
 10
743.1911933574
 20
1844.4012620931
 30
0.0
 10
743.0934418155
 20
1844.73560079
 30
0.0
 10
742.9626524714
 20
1845.2231308601
 30
0.0
 10
742.8297506121
 20
1845.8509838787
 30
0.0
 10
742.7635732922
 20
1846.2531378058
 30
0.0
 10
742.7304667334
 20
1846.5906962847
 30
0.0
 10
742.7293433685
 20
1846.8263595556
 30
0.0
 10
742.7514956583
 20
1846.9735585141
 30
0.0
 10
742.7782813592
 20
1847.066255157
 30
0.0
 10
742.8188919086
 20
1847.1257214343
 30
0.0
 10
742.8532738023
 20
1847.1404836442
 30
0.0
  0
SPLINE
  5
29C
100
AcDbEntity
  8
0
100
AcDbSpline
 62
7
  6
CONTINUOUS
 70
0
 71
3
 72
8
 73
4
 74
0
 42
0.0000001
 43
0.0000001
 44
0.0000000001
 40
0.0
 40
0.0
 40
0.0
 40
0.0
 40
1.0
 40
1.0
 40
1.0
 40
1.0
 10
763.6491282488
 20
1913.3586109823
 30
0.0
 10
764.0380228386
 20
1913.2532227999
 30
0.0
 10
764.4270589454
 20
1913.1481129279
 30
0.0
 10
764.8136065186
 20
1913.0344175248
 30
0.0
  0
SPLINE
  5
29D
100
AcDbEntity
  8
0
100
AcDbSpline
 62
7
  6
CONTINUOUS
 70
0
 71
3
 72
8
 73
4
 74
0
 42
0.0000001
 43
0.0000001
 44
0.0000000001
 40
0.0
 40
0.0
 40
0.0
 40
0.0
 40
1.0
 40
1.0
 40
1.0
 40
1.0
 10
764.8136065186
 20
1913.0344175248
 30
0.0
 10
765.049391741
 20
1912.9650659165
 30
0.0
 10
765.2844166672
 20
1912.8926795043
 30
0.0
 10
765.5166643658
 20
1912.8122722707
 30
0.0
  0
SPLINE
  5
29E
100
AcDbEntity
  8
0
100
AcDbSpline
 62
7
  6
CONTINUOUS
 70
0
 71
3
 72
9
 73
5
 74
0
 42
0.0000001
 43
0.0000001
 44
0.0000000001
 40
0.0
 40
0.0
 40
0.0
 40
0.0
 40
0.6589878953
 40
1.0
 40
1.0
 40
1.0
 40
1.0
 10
765.5166643658
 20
1912.8122722707
 30
0.0
 10
765.8036307537
 20
1912.7129207013
 30
0.0
 10
766.2050536397
 20
1912.5792573307
 30
0.0
 10
766.6491204114
 20
1912.2386416881
 30
0.0
 10
766.6491204114
 20
1912.0814947376
 30
0.0
  0
SPLINE
  5
29F
100
AcDbEntity
  8
0
100
AcDbSpline
 62
7
  6
CONTINUOUS
 70
0
 71
3
 72
9
 73
5
 74
0
 42
0.0000001
 43
0.0000001
 44
0.0000000001
 40
0.0
 40
0.0
 40
0.0
 40
0.0
 40
0.337618899
 40
1.0
 40
1.0
 40
1.0
 40
1.0
 10
766.6491204114
 20
151.6245285312
 30
0.0
 10
766.6491204114
 20
151.455466318
 30
0.0
 10
766.14881094
 20
151.0989714679
 30
0.0
 10
765.7160199446
 20
150.9595792009
 30
0.0
 10
765.4013901671
 20
150.8545839351
 30
0.0
  0
SPLINE
  5
2A0
100
AcDbEntity
  8
0
100
AcDbSpline
 62
7
  6
CONTINUOUS
 70
0
 71
3
 72
8
 73
4
 74
0
 42
0.0000001
 43
0.0000001
 44
0.0000000001
 40
0.0
 40
0.0
 40
0.0
 40
0.0
 40
1.0
 40
1.0
 40
1.0
 40
1.0
 10
765.4013901671
 20
150.8545839351
 30
0.0
 10
765.206740524
 20
150.789627302
 30
0.0
 10
765.0104695313
 20
150.7295091461
 30
0.0
 10
764.8136065233
 20
150.6716057453
 30
0.0
  0
SPLINE
  5
2A1
100
AcDbEntity
  8
0
100
AcDbSpline
 62
7
  6
CONTINUOUS
 70
0
 71
3
 72
8
 73
4
 74
0
 42
0.0000001
 43
0.0000001
 44
0.0000000001
 40
0.0
 40
0.0
 40
0.0
 40
0.0
 40
1.0
 40
1.0
 40
1.0
 40
1.0
 10
764.8136065233
 20
150.6716057453
 30
0.0
 10
764.4270589486
 20
150.5579103417
 30
0.0
 10
764.0380228402
 20
150.4528004692
 30
0.0
 10
763.6491282488
 20
150.3474122864
 30
0.0
  0
LINE
  5
2A2
100
AcDbEntity
  8
0
100
AcDbLine
 62
7
  6
CONTINUOUS
 10
763.6491282488
 20
150.3474122864
 11
763.2859849503
 21
150.2487719501
  0
LINE
  5
2A3
100
AcDbEntity
  8
0
100
AcDbLine
 62
7
  6
CONTINUOUS
 10
763.2859849504
 20
1913.4572513186
 11
763.6491282488
 21
1913.3586109823
  0
ENDSEC
  0
SECTION
  2
OBJECTS
  0
DICTIONARY
  5
C
100
AcDbDictionary
280
0
281
1
  3
ACAD_GROUP
350
D
  3
ACAD_MLINESTYLE
350
17
  3
ACAD_LAYOUT
350
1A
  3
ACAD_PLOTSETTINGS
350
19
  3
ACAD_PLOTSTYLENAME
350
E
  0
DICTIONARY
  5
D
102
{ACAD_REACTORS
330
C
102
}
100
AcDbDictionary
280
0
281
1
  0
ACDBDICTIONARYWDFLT
  5
E
102
{ACAD_REACTORS
330
C
102
}
100
AcDbDictionary
281
1
  3
Normal
350
F
100
AcDbDictionaryWithDefault
340
F
  0
DICTIONARY
  5
17
102
{ACAD_REACTORS
330
C
102
}
100
AcDbDictionary
280
0
281
1
  3
Standard
350
18
  0
DICTIONARY
  5
19
102
{ACAD_REACTORS
330
C
102
}
100
AcDbDictionary
281
1
  0
DICTIONARY
  5
1A
102
{ACAD_REACTORS
330
C
102
}
100
AcDbDictionary
281
1
  3
Model
350
2A4
  3
Layout1
350
2A5
  0
ACDBPLACEHOLDER
  5
F
102
{ACAD_REACTORS
330
E
102
}
  0
MLINESTYLE
  5
18
102
{ACAD_REACTORS
330
17
102
}
100
AcDbMlineStyle
  2
STANDARD
 70
0
  3

 62
256
 51
90.0
 52
90.0
 71
2
 49
0.5
 62
256
  6
BYLAYER
 49
-0.5
 62
256
  6
BYLAYER
  0
LAYOUT
  5
2A4
102
{ACAD_REACTORS
330
1A
102
}
100
AcDbPlotSettings
  1

  2
none_device
  4

  6

 40
0.0
 41
0.0
 42
0.0
 43
0.0
 44
210.0
 45
297.0
 46
0.0
 47
0.0
 48
0.0
 49
0.0
140
0.0
141
0.0
142
1.0
143
1.0
 70
1024
 72
1
 73
0
 74
0
  7

 75
0
147
1.0
148
0.0
149
0.0
100
AcDbLayout
  1
Model
 70
0
 71
0
 10
0.0
 20
0.0
 11
210.0
 21
297.0
 12
0.0
 22
0.0
 32
0.0
 14
0.0
 24
0.0
 34
0.0
 15
0.0
 25
0.0
 35
0.0
146
0.0
 13
0.0
 23
0.0
 33
0.0
 16
1.0
 26
0.0
 36
0.0
 17
0.0
 27
1.0
 37
0.0
 76
0
330
210
345
0
346
0
  0
LAYOUT
  5
2A5
102
{ACAD_REACTORS
330
1A
102
}
100
AcDbPlotSettings
  1

  2
none_device
  4

  6

 40
0.0
 41
0.0
 42
0.0
 43
0.0
 44
210.0
 45
297.0
 46
0.0
 47
0.0
 48
0.0
 49
0.0
140
0.0
141
0.0
142
1.0
143
1.0
 70
0
 72
1
 73
0
 74
0
  7

 75
0
147
1.0
148
0.0
149
0.0
100
AcDbLayout
  1
Layout1
 70
0
 71
1
 10
0.0
 20
0.0
 11
210.0
 21
297.0
 12
0.0
 22
0.0
 32
0.0
 14
0.0
 24
0.0
 34
0.0
 15
0.0
 25
0.0
 35
0.0
146
0.0
 13
0.0
 23
0.0
 33
0.0
 16
1.0
 26
0.0
 36
0.0
 17
0.0
 27
1.0
 37
0.0
 76
0
330
211
345
0
346
0
  0
ENDSEC
  0
EOF
