  0
SECTION
  2
HEADER
  9
$ACADVER
  1
AC1009
  9
$DWGCODEPAGE
  3
ansi_1250
  9
$INSBASE
 10
0.0
 20
0.0
 30
0.0
  9
$EXTMIN
 10
-0.224195
 20
-3.110236
 30
0.0
  9
$EXTMAX
 10
4.027559
 20
3.116142
 30
0.0
  9
$LIMMIN
 10
0.0
 20
0.0
  9
$LIMMAX
 10
0.0
 20
0.0
  9
$ORTHOMODE
 70
     0
  9
$REGENMODE
 70
     1
  9
$FILLMODE
 70
     1
  9
$QTEXTMODE
 70
     0
  9
$MIRRTEXT
 70
     1
  9
$DRAGMODE
 70
     2
  9
$LTSCALE
 40
1.0
  9
$OSMODE
 70
     0
  9
$ATTMODE
 70
     1
  9
$TEXTSIZE
 40
0.2
  9
$TRACEWID
 40
0.05
  9
$TEXTSTYLE
  7
STANDARD
  9
$CLAYER
  8
0
  9
$CELTYPE
  6
CONTINUOUS
  9
$CECOLOR
 62
   256
  9
$DIMSCALE
 40
1.0
  9
$DIMASZ
 40
0.18
  9
$DIMEXO
 40
0.0625
  9
$DIMDLI
 40
0.38
  9
$DIMRND
 40
0.0
  9
$DIMDLE
 40
0.0
  9
$DIMEXE
 40
0.18
  9
$DIMTP
 40
0.0
  9
$DIMTM
 40
0.0
  9
$DIMTXT
 40
0.18
  9
$DIMCEN
 40
0.09
  9
$DIMTSZ
 40
0.0
  9
$DIMTOL
 70
     0
  9
$DIMLIM
 70
     0
  9
$DIMTIH
 70
     1
  9
$DIMTOH
 70
     1
  9
$DIMSE1
 70
     0
  9
$DIMSE2
 70
     0
  9
$DIMTAD
 70
     0
  9
$DIMZIN
 70
     0
  9
$DIMBLK
  1

  9
$DIMASO
 70
     1
  9
$DIMSHO
 70
     1
  9
$DIMPOST
  1

  9
$DIMAPOST
  1

  9
$DIMALT
 70
     0
  9
$DIMALTD
 70
     2
  9
$DIMALTF
 40
25.4
  9
$DIMLFAC
 40
1.0
  9
$DIMTOFL
 70
     0
  9
$DIMTVP
 40
0.0
  9
$DIMTIX
 70
     0
  9
$DIMSOXD
 70
     0
  9
$DIMSAH
 70
     0
  9
$DIMBLK1
  1

  9
$DIMBLK2
  1

  9
$DIMSTYLE
  2
STANDARD
  9
$DIMCLRD
 70
     0
  9
$DIMCLRE
 70
     0
  9
$DIMCLRT
 70
     0
  9
$DIMTFAC
 40
1.0
  9
$DIMGAP
 40
0.09
  9
$LUNITS
 70
     2
  9
$LUPREC
 70
     4
  9
$AXISMODE
 70
     0
  9
$AXISUNIT
 10
0.0
 20
0.0
  9
$SKETCHINC
 40
0.1
  9
$FILLETRAD
 40
0.0
  9
$AUNITS
 70
     0
  9
$AUPREC
 70
     0
  9
$MENU
  1
acad
  9
$ELEVATION
 40
0.0
  9
$PELEVATION
 40
0.0
  9
$THICKNESS
 40
0.0
  9
$LIMCHECK
 70
     0
  9
$BLIPMODE
 70
     1
  9
$CHAMFERA
 40
0.0
  9
$CHAMFERB
 40
0.0
  9
$SKPOLY
 70
     0
  9
$TDCREATE
 40
0.000000000
  9
$TDUPDATE
 40
0.000000000
  9
$TDINDWG
 40
0.0000000000
  9
$TDUSRTIMER
 40
0.0000000000
  9
$USRTIMER
 70
     1
  9
$ANGBASE
 50
0.0
  9
$ANGDIR
 70
     0
  9
$PDMODE
 70
     0
  9
$PDSIZE
 40
0.0
  9
$PLINEWID
 40
0.0
  9
$COORDS
 70
     0
  9
$SPLFRAME
 70
     0
  9
$SPLINETYPE
 70
     6
  9
$SPLINESEGS
 70
     8
  9
$ATTDIA
 70
     0
  9
$ATTREQ
 70
     1
  9
$HANDLING
 70
     1
  9
$HANDSEED
  5
1B7
  9
$SURFTAB1
 70
     6
  9
$SURFTAB2
 70
     6
  9
$SURFTYPE
 70
     6
  9
$SURFU
 70
     6
  9
$SURFV
 70
     6
  9
$UCSNAME
  2

  9
$UCSORG
 10
0.0
 20
0.0
 30
0.0
  9
$UCSXDIR
 10
1.0
 20
0.0
 30
0.0
  9
$UCSYDIR
 10
0.0
 20
1.0
 30
0.0
  9
$PUCSNAME
  2

  9
$PUCSORG
 10
0.0
 20
0.0
 30
0.0
  9
$PUCSXDIR
 10
1.0
 20
0.0
 30
0.0
  9
$PUCSYDIR
 10
0.0
 20
1.0
 30
0.0
  9
$USERI1
 70
     0
  9
$USERI2
 70
     0
  9
$USERI3
 70
     0
  9
$USERI4
 70
     0
  9
$USERI5
 70
     0
  9
$USERR1
 40
0.0
  9
$USERR2
 40
0.0
  9
$USERR3
 40
0.0
  9
$USERR4
 40
0.0
  9
$USERR5
 40
0.0
  9
$WORLDVIEW
 70
     1
  9
$SHADEDGE
 70
     3
  9
$SHADEDIF
 70
    70
  9
$TILEMODE
 70
     1
  9
$MAXACTVP
 70
    16
  9
$PINSBASE
 10
0.0
 20
0.0
 30
0.0
  9
$PLIMCHECK
 70
     0
  9
$PEXTMIN
 10
1.000000E+20
 20
1.000000E+20
 30
1.000000E+20
  9
$PEXTMAX
 10
-1.000000E+20
 20
-1.000000E+20
 30
-1.000000E+20
  9
$PLIMMIN
 10
0.0
 20
0.0
  9
$PLIMMAX
 10
12.0
 20
9.0
  9
$UNITMODE
 70
     0
  9
$VISRETAIN
 70
     0
  9
$PLINEGEN
 70
     1
  9
$PSLTSCALE
 70
     0
  9
$TREEDEPTH
 70
  3020
  0
ENDSEC
  0
SECTION
  2
TABLES
  0
TABLE
  2
VPORT
 70
     1
  0
VPORT
  2
*ACTIVE
 70
     0
 10
0.0
 20
0.0
 11
1.0
 21
1.0
 12
6.591288
 22
4.579184
 13
0.0
 23
0.0
 14
1.0
 24
1.0
 15
0.0
 25
0.0
 16
0.0
 26
0.0
 36
1.0
 17
0.0
 27
0.0
 37
0.0
 40
9.158369
 41
0.688564
 42
50.0
 43
0.0
 44
0.0
 50
0.0
 51
0.0
 71
     0
 72
   100
 73
     1
 74
     1
 75
     0
 76
     0
 77
     0
 78
     0
  0
ENDTAB
  0
TABLE
  2
LTYPE
 70
     5
  0
LTYPE
  2
CONTINUOUS
 70
    64
  3
Solid line
 72
    65
 73
     0
 40
0.0
  0
LTYPE
  2
CENTER
 70
    64
  3
Center ____ _ ____ _ ____ _ ____ _ ____ _ ____
 72
    65
 73
     4
 40
50.8
 49
31.75
 49
-6.35
 49
6.35
 49
-6.35
  0
LTYPE
  2
HIDDEN
 70
    64
  3
Hidden __ __ __ __ __ __ __ __ __ __ __ __ __ __
 72
    65
 73
     2
 40
9.525
 49
6.35
 49
-3.175
  0
LTYPE
  2
CENTER2
 70
    64
  3
Center (.5x) ___ _ ___ _ ___ _ ___ _ ___ _ ___
 72
    65
 73
     4
 40
28.575
 49
19.05
 49
-3.175
 49
3.175
 49
-3.175
  0
LTYPE
  2
HIDDEN2
 70
    64
  3
Hidden (.5x) _ _ _ _ _ _ _ _ _ _ _ _ _ _ _ _ _
 72
    65
 73
     2
 40
4.7625
 49
3.175
 49
-1.5875
  0
ENDTAB
  0
TABLE
  2
LAYER
 70
     1
  0
LAYER
  2
0
 70
     0
 62
     7
  6
CONTINUOUS
  0
ENDTAB
  0
TABLE
  2
STYLE
 70
     1
  0
STYLE
  2
STANDARD
 70
     0
 40
0.0
 41
1.0
 50
0.0
 71
     0
 42
0.0
  3
txt
  4

  0
ENDTAB
  0
TABLE
  2
VIEW
 70
     0
  0
ENDTAB
  0
TABLE
  2
UCS
 70
     0
  0
ENDTAB
  0
TABLE
  2
APPID
 70
     1
  0
APPID
  2
ACAD
 70
     0
  0
ENDTAB
  0
TABLE
  2
DIMSTYLE
 70
     1
  0
DIMSTYLE
  2
STANDARD
 70
     0
  3

  4

  5

  6

  7

 40
1.0
 41
0.18
 42
0.0625
 43
0.38
 44
0.18
 45
0.0
 46
0.0
 47
0.0
 48
0.0
 71
     0
 72
     0
 73
     1
 74
     1
 75
     0
 76
     0
 77
     0
 78
     0
140
0.18
141
0.09
142
0.0
143
25.4
144
1.0
145
0.0
146
1.0
147
0.09
170
     0
171
     2
172
     0
173
     0
174
     0
175
     0
176
     0
177
     0
178
     0
  0
ENDTAB
  0
ENDSEC
  0
SECTION
  2
BLOCKS
  0
BLOCK
  8
0
  5
104
  2
B14111211803042020_0000000
 70
     0
 10
0.0
 20
0.0
 30
0.0
  3
B14111211803042020_00000019
  0
CIRCLE
  8
0
  6
CONTINUOUS
 62
     2
  5
105
 10
2.767717
 20
2.244094
 30
0.0
 40
0.082677
  0
ENDBLK
  8
0
  5
106
  0
BLOCK
  8
0
  5
109
  2
B14111211803042020_0000001
 70
     0
 10
0.0
 20
0.0
 30
0.0
  3
B14111211803042020_0000001A
  0
CIRCLE
  8
0
  6
CONTINUOUS
 62
     2
  5
10A
 10
2.767717
 20
-2.244094
 30
0.0
 40
0.082677
  0
ENDBLK
  8
0
  5
10B
  0
ENDSEC
  0
SECTION
  2
ENTITIES
  0
LINE
  8
0
  6
CONTINUOUS
 62
     7
  5
115
 10
2.767717
 20
-1.086614
 30
0.0
 11
2.767717
 21
-2.094488
 31
0.0
  0
LINE
  8
0
  6
CONTINUOUS
 62
     7
  5
116
 10
0.519685
 20
-2.61811
 30
0.0
 11
0.496063
 21
-2.61811
 31
0.0
  0
LINE
  8
0
  6
CONTINUOUS
 62
     7
  5
117
 10
0.53937
 20
-2.61811
 30
0.0
 11
0.519685
 21
-2.61811
 31
0.0
  0
LINE
  8
0
  6
CONTINUOUS
 62
     7
  5
118
 10
2.299213
 20
-2.688976
 30
0.0
 11
2.311024
 21
-2.688976
 31
0.0
  0
LINE
  8
0
  6
CONTINUOUS
 62
     7
  5
119
 10
0.519685
 20
-2.688976
 30
0.0
 11
2.299213
 21
-2.688976
 31
0.0
  0
LINE
  8
0
  6
CONTINUOUS
 62
     7
  5
11A
 10
0.401575
 20
-2.688976
 30
0.0
 11
0.519685
 21
-2.688976
 31
0.0
  0
LINE
  8
0
  6
CONTINUOUS
 62
     7
  5
11B
 10
2.311024
 20
-2.53937
 30
0.0
 11
2.311024
 21
-2.61811
 31
0.0
  0
LINE
  8
0
  6
CONTINUOUS
 62
     7
  5
11C
 10
2.311024
 20
-2.61811
 30
0.0
 11
2.311024
 21
-2.688976
 31
0.0
  0
LINE
  8
0
  6
CONTINUOUS
 62
     7
  5
11D
 10
2.311024
 20
-2.760605
 30
0.0
 11
2.311024
 21
-2.688976
 31
0.0
  0
LINE
  8
0
  6
CONTINUOUS
 62
     7
  5
11E
 10
2.311024
 20
-2.61811
 30
0.0
 11
2.299213
 21
-2.61811
 31
0.0
  0
ARC
  8
0
  6
CONTINUOUS
 62
     7
  5
11F
 10
2.232283
 20
-2.53937
 30
0.0
 40
0.07874
 50
0.0
 51
90.0
  0
LINE
  8
0
  6
CONTINUOUS
 62
     7
  5
120
 10
0.61811
 20
-2.46063
 30
0.0
 11
2.232283
 21
-2.46063
 31
0.0
  0
ARC
  8
0
  6
CONTINUOUS
 62
     7
  5
121
 10
0.61811
 20
-2.53937
 30
0.0
 40
0.07874
 50
90.0
 51
180.0
  0
LINE
  8
0
  6
CONTINUOUS
 62
     7
  5
122
 10
0.53937
 20
-2.61811
 30
0.0
 11
0.53937
 21
-2.53937
 31
0.0
  0
LINE
  8
0
  6
CONTINUOUS
 62
     7
  5
123
 10
1.80748
 20
-3.110236
 30
0.0
 11
1.933465
 21
-3.110236
 31
0.0
  0
LINE
  8
0
  6
CONTINUOUS
 62
     7
  5
124
 10
1.80748
 20
-3.055118
 30
0.0
 11
1.99685
 21
-3.055118
 31
0.0
  0
LINE
  8
0
  6
CONTINUOUS
 62
     7
  5
125
 10
1.99685
 20
-3.055118
 30
0.0
 11
2.311024
 21
-2.760605
 31
0.0
  0
LINE
  8
0
  6
CONTINUOUS
 62
     7
  5
126
 10
1.301181
 20
-3.110236
 30
0.0
 11
1.80748
 21
-3.110236
 31
0.0
  0
LINE
  8
0
  6
CONTINUOUS
 62
     7
  5
127
 10
1.175197
 20
-2.688976
 30
0.0
 11
1.175197
 21
-3.110236
 31
0.0
  0
LINE
  8
0
  6
CONTINUOUS
 62
     7
  5
128
 10
1.175197
 20
-3.110236
 30
0.0
 11
1.301181
 21
-3.110236
 31
0.0
  0
LINE
  8
0
  6
CONTINUOUS
 62
     7
  5
129
 10
1.80748
 20
-3.110236
 30
0.0
 11
1.933465
 21
-3.110236
 31
0.0
  0
LINE
  8
0
  6
CONTINUOUS
 62
     7
  5
12A
 10
1.933465
 20
-3.055118
 30
0.0
 11
1.933465
 21
-3.110236
 31
0.0
  0
LINE
  8
0
  6
CONTINUOUS
 62
     7
  5
12B
 10
0.401575
 20
-2.61811
 30
0.0
 11
0.401575
 21
-2.688976
 31
0.0
  0
LINE
  8
0
  6
CONTINUOUS
 62
     7
  5
12C
 10
0.496063
 20
-2.61811
 30
0.0
 11
0.0
 21
-2.61811
 31
0.0
  0
LINE
  8
0
  6
CONTINUOUS
 62
     7
  5
12D
 10
2.767717
 20
-2.61811
 30
0.0
 11
2.372835
 21
-2.61811
 31
0.0
  0
LINE
  8
0
  6
CONTINUOUS
 62
     7
  5
12E
 10
2.372835
 20
-2.61811
 30
0.0
 11
2.311024
 21
-2.61811
 31
0.0
  0
LINE
  8
0
  6
CONTINUOUS
 62
     7
  5
12F
 10
0.248031
 20
-0.759843
 30
0.0
 11
0.248031
 21
-0.674803
 31
0.0
  0
ARC
  8
0
  6
CONTINUOUS
 62
     7
  5
130
 10
0.244094
 20
-0.674803
 30
0.0
 40
0.003937
 50
0.0
 51
90.0
  0
LINE
  8
0
  6
CONTINUOUS
 62
     7
  5
131
 10
0.244094
 20
-0.670866
 30
0.0
 11
0.188976
 21
-0.670866
 31
0.0
  0
ARC
  8
0
  6
CONTINUOUS
 62
     7
  5
132
 10
0.188976
 20
-0.666929
 30
0.0
 40
0.003937
 50
180.0
 51
270.0
  0
LINE
  8
0
  6
CONTINUOUS
 62
     7
  5
133
 10
0.185039
 20
-0.666929
 30
0.0
 11
0.185039
 21
-0.611811
 31
0.0
  0
ARC
  8
0
  6
CONTINUOUS
 62
     7
  5
134
 10
0.181102
 20
-0.611811
 30
0.0
 40
0.003937
 50
0.0
 51
90.0
  0
LINE
  8
0
  6
CONTINUOUS
 62
     7
  5
135
 10
0.156082
 20
-0.608795
 30
0.0
 11
0.0
 21
-0.739764
 31
0.0
  0
ARC
  8
0
  6
CONTINUOUS
 62
     7
  5
136
 10
0.158613
 20
-0.611811
 30
0.0
 40
0.003937
 50
90.0
 51
130.0
  0
LINE
  8
0
  6
CONTINUOUS
 62
     7
  5
137
 10
0.158613
 20
-0.607874
 30
0.0
 11
0.181102
 21
-0.607874
 31
0.0
  0
LINE
  8
0
  6
CONTINUOUS
 62
     7
  5
138
 10
0.0
 20
-0.739764
 30
0.0
 11
0.0
 21
-0.759843
 31
0.0
  0
LINE
  8
0
  6
CONTINUOUS
 62
     7
  5
139
 10
0.070866
 20
-2.722047
 30
0.0
 11
0.070866
 21
-2.781102
 31
0.0
  0
LINE
  8
0
  6
CONTINUOUS
 62
     7
  5
13A
 10
0.070866
 20
-2.61811
 30
0.0
 11
0.070866
 21
-2.722047
 31
0.0
  0
LINE
  8
0
  6
CONTINUOUS
 62
     7
  5
13B
 10
0.070866
 20
-2.781102
 30
0.0
 11
0.11811
 21
-2.781102
 31
0.0
  0
LINE
  8
0
  6
CONTINUOUS
 62
     7
  5
13C
 10
0.11811
 20
-2.722047
 30
0.0
 11
0.11811
 21
-2.61811
 31
0.0
  0
LINE
  8
0
  6
CONTINUOUS
 62
     7
  5
13D
 10
0.11811
 20
-2.781102
 30
0.0
 11
0.11811
 21
-2.722047
 31
0.0
  0
LINE
  8
0
  6
CONTINUOUS
 62
     7
  5
13E
 10
0.0
 20
-2.61811
 30
0.0
 11
0.0
 21
-0.759843
 31
0.0
  0
LINE
  8
0
  6
CONTINUOUS
 62
     7
  5
13F
 10
1.692913
 20
-1.086614
 30
0.0
 11
1.692913
 21
-0.759843
 31
0.0
  0
LINE
  8
0
  6
CONTINUOUS
 62
     7
  5
140
 10
0.275591
 20
-0.759843
 30
0.0
 11
0.275591
 21
-0.740158
 31
0.0
  0
LINE
  8
0
  6
CONTINUOUS
 62
     7
  5
141
 10
2.767717
 20
-1.086614
 30
0.0
 11
1.692913
 21
-1.086614
 31
0.0
  0
LINE
  8
0
  6
CONTINUOUS
 62
     7
  5
142
 10
0.496063
 20
-2.61811
 30
0.0
 11
0.496063
 21
-2.275591
 31
0.0
  0
LINE
  8
0
  6
CONTINUOUS
 62
     7
  5
143
 10
0.496063
 20
-2.275591
 30
0.0
 11
2.372835
 21
-2.275591
 31
0.0
  0
LINE
  8
0
  6
CONTINUOUS
 62
     7
  5
144
 10
2.372835
 20
-2.275591
 30
0.0
 11
2.372835
 21
-2.61811
 31
0.0
  0
LINE
  8
0
  6
CONTINUOUS
 62
     7
  5
145
 10
2.372835
 20
-2.275591
 30
0.0
 11
2.372835
 21
-2.094488
 31
0.0
  0
LINE
  8
0
  6
CONTINUOUS
 62
     7
  5
146
 10
2.372835
 20
-2.094488
 30
0.0
 11
2.767717
 21
-2.094488
 31
0.0
  0
LINE
  8
0
  6
CONTINUOUS
 62
     7
  5
147
 10
1.692913
 20
-0.759843
 30
0.0
 11
0.0
 21
-0.759843
 31
0.0
  0
LINE
  8
0
  6
CONTINUOUS
 62
     7
  5
148
 10
1.712598
 20
-0.740157
 30
0.0
 11
0.26106
 21
-0.740157
 31
0.0
  0
LINE
  8
0
  6
CONTINUOUS
 62
     7
  5
149
 10
1.712598
 20
-1.066929
 30
0.0
 11
1.712598
 21
-0.740157
 31
0.0
  0
LINE
  8
0
  6
CONTINUOUS
 62
     7
  5
14A
 10
2.767717
 20
-1.066929
 30
0.0
 11
1.712598
 21
-1.066929
 31
0.0
  0
LINE
  8
0
  6
CONTINUOUS
 62
     7
  5
14B
 10
2.767717
 20
-1.066929
 30
0.0
 11
2.767717
 21
-1.086614
 31
0.0
  0
LINE
  8
0
  6
CONTINUOUS
 62
     7
  5
14C
 10
2.767717
 20
-2.606299
 30
0.0
 11
2.767717
 21
-2.61711
 31
0.0
  0
LINE
  8
0
  6
CONTINUOUS
 62
     7
  5
14D
 10
2.767717
 20
-2.094488
 30
0.0
 11
2.767717
 21
-2.606299
 31
0.0
  0
LINE
  8
0
  6
CONTINUOUS
 62
     7
  5
14E
 10
2.311024
 20
2.688976
 30
0.0
 11
2.362205
 21
2.688976
 31
0.0
  0
LINE
  8
0
  6
CONTINUOUS
 62
     7
  5
14F
 10
2.407087
 20
3.031496
 30
0.0
 11
2.407087
 21
3.110236
 31
0.0
  0
LINE
  8
0
  6
CONTINUOUS
 62
     7
  5
150
 10
2.311024
 20
2.61811
 30
0.0
 11
2.688976
 21
2.61811
 31
0.0
  0
LINE
  8
0
  6
CONTINUOUS
 62
     7
  5
151
 10
2.767717
 20
2.61811
 30
0.0
 11
2.688976
 21
2.61811
 31
0.0
  0
LINE
  8
0
  6
CONTINUOUS
 62
     7
  5
152
 10
2.767717
 20
2.61811
 30
0.0
 11
2.767717
 21
-1.066929
 31
0.0
  0
LINE
  8
0
  6
CONTINUOUS
 62
     7
  5
153
 10
0.519685
 20
2.61811
 30
0.0
 11
0.53937
 21
2.61811
 31
0.0
  0
LINE
  8
0
  6
CONTINUOUS
 62
     7
  5
154
 10
0.496063
 20
2.61811
 30
0.0
 11
0.519685
 21
2.61811
 31
0.0
  0
LINE
  8
0
  6
CONTINUOUS
 62
     7
  5
155
 10
2.748031
 20
2.734252
 30
0.0
 11
2.748031
 21
3.009843
 31
0.0
  0
LINE
  8
0
  6
CONTINUOUS
 62
     7
  5
156
 10
2.412992
 20
2.718504
 30
0.0
 11
2.412992
 21
2.706693
 31
0.0
  0
LINE
  8
0
  6
CONTINUOUS
 62
     7
  5
157
 10
2.412992
 20
3.037402
 30
0.0
 11
2.412992
 21
2.718504
 31
0.0
  0
LINE
  8
0
  6
CONTINUOUS
 62
     7
  5
158
 10
2.412992
 20
3.116142
 30
0.0
 11
2.412992
 21
3.037402
 31
0.0
  0
LINE
  8
0
  6
CONTINUOUS
 62
     7
  5
159
 10
2.688976
 20
3.116142
 30
0.0
 11
2.412992
 21
3.116142
 31
0.0
  0
LINE
  8
0
  6
CONTINUOUS
 62
     7
  5
15A
 10
2.688976
 20
3.116142
 30
0.0
 11
2.688976
 21
3.037402
 31
0.0
  0
LINE
  8
0
  6
CONTINUOUS
 62
     7
  5
15B
 10
2.688976
 20
3.037402
 30
0.0
 11
2.688976
 21
2.718504
 31
0.0
  0
LINE
  8
0
  6
CONTINUOUS
 62
     7
  5
15C
 10
2.688976
 20
2.706693
 30
0.0
 11
2.412992
 21
2.706693
 31
0.0
  0
LINE
  8
0
  6
CONTINUOUS
 62
     7
  5
15D
 10
2.688976
 20
2.718504
 30
0.0
 11
2.688976
 21
2.706693
 31
0.0
  0
LINE
  8
0
  6
CONTINUOUS
 62
     7
  5
15E
 10
2.412992
 20
3.116142
 30
0.0
 11
2.412992
 21
3.037402
 31
0.0
  0
LINE
  8
0
  6
CONTINUOUS
 62
     7
  5
15F
 10
2.688976
 20
3.116142
 30
0.0
 11
2.688976
 21
3.037402
 31
0.0
  0
LINE
  8
0
  6
CONTINUOUS
 62
     7
  5
160
 10
2.407087
 20
2.722441
 30
0.0
 11
2.412992
 21
2.722441
 31
0.0
  0
LINE
  8
0
  6
CONTINUOUS
 62
     7
  5
161
 10
2.407087
 20
3.076772
 30
0.0
 11
2.412992
 21
3.076772
 31
0.0
  0
LINE
  8
0
  6
CONTINUOUS
 62
     7
  5
162
 10
2.407087
 20
2.69685
 30
0.0
 11
2.407087
 21
3.031496
 31
0.0
  0
LINE
  8
0
  6
CONTINUOUS
 62
     7
  5
163
 10
2.362205
 20
2.69685
 30
0.0
 11
2.362205
 21
2.688976
 31
0.0
  0
LINE
  8
0
  6
CONTINUOUS
 62
     7
  5
164
 10
2.407087
 20
3.031496
 30
0.0
 11
2.407087
 21
3.110236
 31
0.0
  0
LINE
  8
0
  6
CONTINUOUS
 62
     7
  5
165
 10
1.933465
 20
3.110236
 30
0.0
 11
2.407087
 21
3.110236
 31
0.0
  0
LINE
  8
0
  6
CONTINUOUS
 62
     7
  5
166
 10
2.311024
 20
2.688976
 30
0.0
 11
2.311024
 21
2.61811
 31
0.0
  0
LINE
  8
0
  6
CONTINUOUS
 62
     7
  5
167
 10
0.519685
 20
2.688976
 30
0.0
 11
0.401575
 21
2.688976
 31
0.0
  0
LINE
  8
0
  6
CONTINUOUS
 62
     7
  5
168
 10
2.299213
 20
2.688976
 30
0.0
 11
0.519685
 21
2.688976
 31
0.0
  0
LINE
  8
0
  6
CONTINUOUS
 62
     7
  5
169
 10
2.311024
 20
2.688976
 30
0.0
 11
2.299213
 21
2.688976
 31
0.0
  0
LINE
  8
0
  6
CONTINUOUS
 62
     7
  5
16A
 10
0.53937
 20
2.61811
 30
0.0
 11
0.53937
 21
2.53937
 31
0.0
  0
ARC
  8
0
  6
CONTINUOUS
 62
     7
  5
16B
 10
0.61811
 20
2.53937
 30
0.0
 40
0.07874
 50
180.0
 51
270.0
  0
LINE
  8
0
  6
CONTINUOUS
 62
     7
  5
16C
 10
0.61811
 20
2.46063
 30
0.0
 11
2.232283
 21
2.46063
 31
0.0
  0
ARC
  8
0
  6
CONTINUOUS
 62
     7
  5
16D
 10
2.232283
 20
2.53937
 30
0.0
 40
0.07874
 50
270.0
 51
360.0
  0
LINE
  8
0
  6
CONTINUOUS
 62
     7
  5
16E
 10
2.311024
 20
2.61811
 30
0.0
 11
2.299213
 21
2.61811
 31
0.0
  0
LINE
  8
0
  6
CONTINUOUS
 62
     7
  5
16F
 10
1.80748
 20
3.055118
 30
0.0
 11
1.99685
 21
3.055118
 31
0.0
  0
LINE
  8
0
  6
CONTINUOUS
 62
     7
  5
170
 10
1.99685
 20
3.055118
 30
0.0
 11
2.311024
 21
2.760605
 31
0.0
  0
LINE
  8
0
  6
CONTINUOUS
 62
     7
  5
171
 10
2.311024
 20
2.760605
 30
0.0
 11
2.311024
 21
2.688976
 31
0.0
  0
LINE
  8
0
  6
CONTINUOUS
 62
     7
  5
172
 10
1.80748
 20
3.110236
 30
0.0
 11
1.301181
 21
3.110236
 31
0.0
  0
LINE
  8
0
  6
CONTINUOUS
 62
     7
  5
173
 10
1.175197
 20
2.688976
 30
0.0
 11
1.175197
 21
3.110236
 31
0.0
  0
LINE
  8
0
  6
CONTINUOUS
 62
     7
  5
174
 10
1.933465
 20
3.055118
 30
0.0
 11
1.933465
 21
3.110236
 31
0.0
  0
LINE
  8
0
  6
CONTINUOUS
 62
     7
  5
175
 10
1.933465
 20
3.110236
 30
0.0
 11
1.80748
 21
3.110236
 31
0.0
  0
LINE
  8
0
  6
CONTINUOUS
 62
     7
  5
176
 10
1.301181
 20
3.110236
 30
0.0
 11
1.175197
 21
3.110236
 31
0.0
  0
LINE
  8
0
  6
CONTINUOUS
 62
     7
  5
177
 10
2.311024
 20
2.61811
 30
0.0
 11
2.311024
 21
2.688976
 31
0.0
  0
LINE
  8
0
  6
CONTINUOUS
 62
     7
  5
178
 10
2.311024
 20
2.53937
 30
0.0
 11
2.311024
 21
2.61811
 31
0.0
  0
LINE
  8
0
  6
CONTINUOUS
 62
     7
  5
179
 10
0.401575
 20
2.61811
 30
0.0
 11
0.401575
 21
2.688976
 31
0.0
  0
LINE
  8
0
  6
CONTINUOUS
 62
     7
  5
17A
 10
0.496063
 20
2.61811
 30
0.0
 11
0.0
 21
2.61811
 31
0.0
  0
LINE
  8
0
  6
CONTINUOUS
 62
     7
  5
17B
 10
0.105244
 20
0.586614
 30
0.0
 11
0.146583
 21
0.586614
 31
0.0
  0
ARC
  8
0
  6
CONTINUOUS
 62
     7
  5
17C
 10
0.146586
 20
0.598425
 30
0.0
 40
0.011811
 50
269.983018
 51
325.135103
  0
LINE
  8
0
  6
CONTINUOUS
 62
     7
  5
17D
 10
0.156277
 20
0.591673
 30
0.0
 11
0.22441
 21
0.688976
 31
0.0
  0
LINE
  8
0
  6
CONTINUOUS
 62
     7
  5
17E
 10
0.22441
 20
0.688976
 30
0.0
 11
0.26106
 21
0.688976
 31
0.0
  0
LINE
  8
0
  6
CONTINUOUS
 62
     7
  5
17F
 10
0.26106
 20
0.688976
 30
0.0
 11
0.26106
 21
-0.740158
 31
0.0
  0
ARC
  8
0
  6
CONTINUOUS
 62
     7
  5
180
 10
0.19685
 20
0.809838
 30
0.0
 40
0.19685
 50
180.000602
 51
210.000023
  0
LINE
  8
0
  6
CONTINUOUS
 62
     7
  5
181
 10
0.026373
 20
0.711412
 30
0.0
 11
0.095016
 21
0.59252
 31
0.0
  0
ARC
  8
0
  6
CONTINUOUS
 62
     7
  5
182
 10
0.105244
 20
0.598425
 30
0.0
 40
0.011811
 50
210.000023
 51
270.0
  0
LINE
  8
0
  6
CONTINUOUS
 62
     7
  5
183
 10
0.0
 20
2.30315
 30
0.0
 11
0.0
 21
2.61811
 31
0.0
  0
LINE
  8
0
  6
CONTINUOUS
 62
     7
  5
184
 10
0.0
 20
2.045276
 30
0.0
 11
0.0
 21
2.30315
 31
0.0
  0
LINE
  8
0
  6
CONTINUOUS
 62
     7
  5
185
 10
2.688976
 20
2.61811
 30
0.0
 11
2.688976
 21
2.275591
 31
0.0
  0
LINE
  8
0
  6
CONTINUOUS
 62
     7
  5
186
 10
0.496063
 20
2.275591
 30
0.0
 11
0.496063
 21
2.61811
 31
0.0
  0
LINE
  8
0
  6
CONTINUOUS
 62
     7
  5
187
 10
2.688976
 20
2.275591
 30
0.0
 11
0.496063
 21
2.275591
 31
0.0
  0
LINE
  8
0
  6
CONTINUOUS
 62
     7
  5
188
 10
0.0
 20
0.809835
 30
0.0
 11
0.0
 21
2.61811
 31
0.0
  0
LINE
  8
0
  6
CONTINUOUS
 62
     7
  5
189
 10
2.354331
 20
2.61811
 30
0.0
 11
2.354331
 21
2.688976
 31
0.0
  0
LINE
  8
0
  6
CONTINUOUS
 62
     7
  5
18A
 10
2.393701
 20
2.69685
 30
0.0
 11
2.362205
 21
2.69685
 31
0.0
  0
LINE
  8
0
  6
CONTINUOUS
 62
     7
  5
18B
 10
3.149606
 20
2.69685
 30
0.0
 11
2.393701
 21
2.69685
 31
0.0
  0
LINE
  8
0
  6
CONTINUOUS
 62
     7
  5
18C
 10
3.640776
 20
-0.563302
 30
0.0
 11
3.484252
 21
-0.51458
 31
0.0
  0
ARC
  8
0
  6
CONTINUOUS
 62
     7
  5
18D
 10
3.664178
 20
-0.48812
 30
0.0
 40
0.07874
 50
252.71
 51
269.71
  0
LINE
  8
0
  6
CONTINUOUS
 62
     7
  5
18E
 10
3.909193
 20
-0.568101
 30
0.0
 11
3.66378
 21
-0.566859
 31
0.0
  0
ARC
  8
0
  6
CONTINUOUS
 62
     7
  5
18F
 10
3.909353
 20
-0.536605
 30
0.0
 40
0.031496
 50
269.71
 51
343.475616
  0
ARC
  8
0
  6
CONTINUOUS
 62
     7
  5
190
 10
1.901575
 20
0.059055
 30
0.0
 40
2.12577
 50
343.475616
 51
344.758905
  0
ARC
  8
0
  6
CONTINUOUS
 62
     7
  5
191
 10
3.92219
 20
-0.49149
 30
0.0
 40
0.031496
 50
344.758905
 51
67.9
  0
LINE
  8
0
  6
CONTINUOUS
 62
     7
  5
192
 10
3.484252
 20
-0.279669
 30
0.0
 11
3.934039
 21
-0.462308
 31
0.0
  0
LINE
  8
0
  6
CONTINUOUS
 62
     7
  5
193
 10
3.65726
 20
0.633265
 30
0.0
 11
3.484252
 21
0.568546
 31
0.0
  0
ARC
  8
0
  6
CONTINUOUS
 62
     7
  5
194
 10
3.629672
 20
0.707014
 30
0.0
 40
0.07874
 50
290.51
 51
307.51
  0
LINE
  8
0
  6
CONTINUOUS
 62
     7
  5
195
 10
3.872293
 20
0.793988
 30
0.0
 11
3.677617
 21
0.644554
 31
0.0
  0
ARC
  8
0
  6
CONTINUOUS
 62
     7
  5
196
 10
3.853115
 20
0.818972
 30
0.0
 40
0.031496
 50
307.51
 51
21.275616
  0
ARC
  8
0
  6
CONTINUOUS
 62
     7
  5
197
 10
1.901575
 20
0.059055
 30
0.0
 40
2.12577
 50
21.275616
 51
22.558905
  0
ARC
  8
0
  6
CONTINUOUS
 62
     7
  5
198
 10
3.835607
 20
0.862488
 30
0.0
 40
0.031496
 50
22.558905
 51
105.7
  0
LINE
  8
0
  6
CONTINUOUS
 62
     7
  5
199
 10
3.484252
 20
0.796443
 30
0.0
 11
3.827084
 21
0.892809
 31
0.0
  0
LINE
  8
0
  6
CONTINUOUS
 62
     7
  5
19A
 10
2.393701
 20
-2.69685
 30
0.0
 11
3.149606
 21
-2.69685
 31
0.0
  0
LINE
  8
0
  6
CONTINUOUS
 62
     7
  5
19B
 10
2.354331
 20
-2.69685
 30
0.0
 11
2.393701
 21
-2.69685
 31
0.0
  0
LINE
  8
0
  6
CONTINUOUS
 62
     7
  5
19C
 10
2.354331
 20
-2.61811
 30
0.0
 11
2.354331
 21
-2.69685
 31
0.0
  0
LINE
  8
0
  6
CONTINUOUS
 62
     7
  5
19D
 10
3.149606
 20
-2.69685
 30
0.0
 11
3.149606
 21
-2.606299
 31
0.0
  0
LINE
  8
0
  6
CONTINUOUS
 62
     7
  5
19E
 10
2.768717
 20
-2.61811
 30
0.0
 11
3.149606
 21
-2.61811
 31
0.0
  0
LINE
  8
0
  6
CONTINUOUS
 62
     7
  5
19F
 10
3.149606
 20
2.61811
 30
0.0
 11
3.149606
 21
2.69685
 31
0.0
  0
LINE
  8
0
  6
CONTINUOUS
 62
     7
  5
1A0
 10
2.768717
 20
2.61811
 30
0.0
 11
3.149606
 21
2.61811
 31
0.0
  0
LINE
  8
0
  6
CONTINUOUS
 62
     7
  5
1A1
 10
3.149606
 20
-0.885827
 30
0.0
 11
3.484252
 21
-0.885827
 31
0.0
  0
LINE
  8
0
  6
CONTINUOUS
 62
     7
  5
1A2
 10
3.484252
 20
-0.885827
 30
0.0
 11
3.484252
 21
-0.722441
 31
0.0
  0
LINE
  8
0
  6
CONTINUOUS
 62
     7
  5
1A3
 10
3.484252
 20
-0.722441
 30
0.0
 11
3.484252
 21
0.722441
 31
0.0
  0
LINE
  8
0
  6
CONTINUOUS
 62
     7
  5
1A4
 10
3.484252
 20
0.722441
 30
0.0
 11
3.484252
 21
0.885827
 31
0.0
  0
LINE
  8
0
  6
CONTINUOUS
 62
     7
  5
1A5
 10
3.149606
 20
0.885827
 30
0.0
 11
3.484252
 21
0.885827
 31
0.0
  0
LINE
  8
0
  6
CONTINUOUS
 62
     7
  5
1A6
 10
3.149606
 20
2.606299
 30
0.0
 11
3.149606
 21
2.61811
 31
0.0
  0
LINE
  8
0
  6
CONTINUOUS
 62
     7
  5
1A7
 10
3.149606
 20
-2.606299
 30
0.0
 11
3.149606
 21
2.606299
 31
0.0
  0
LINE
  8
0
  6
CONTINUOUS
 62
     7
  5
1A8
 10
3.149606
 20
-2.61811
 30
0.0
 11
3.149606
 21
-2.606299
 31
0.0
  0
LINE
  8
0
  6
CONTINUOUS
 62
     7
  5
1A9
 10
3.149606
 20
2.61811
 30
0.0
 11
3.149606
 21
2.606299
 31
0.0
  0
LINE
  8
0
  6
CONTINUOUS
 62
     7
  5
1AA
 10
2.768717
 20
-2.606299
 30
0.0
 11
2.768717
 21
-2.61811
 31
0.0
  0
LINE
  8
0
  6
CONTINUOUS
 62
     7
  5
1AB
 10
2.768717
 20
2.606299
 30
0.0
 11
2.768717
 21
-2.606299
 31
0.0
  0
LINE
  8
0
  6
CONTINUOUS
 62
     7
  5
1AC
 10
2.768717
 20
2.61811
 30
0.0
 11
2.768717
 21
2.606299
 31
0.0
  0
LINE
  8
0
  6
CONTINUOUS
 62
     7
  5
1AD
 10
2.688976
 20
2.734252
 30
0.0
 11
2.748031
 21
2.734252
 31
0.0
  0
LINE
  8
0
  6
CONTINUOUS
 62
     7
  5
1AE
 10
2.748031
 20
3.009843
 30
0.0
 11
2.688976
 21
3.009843
 31
0.0
  0
LINE
  8
0
  6
CONTINUOUS
 62
     3
  5
1AF
 10
0.0
 20
-2.244094
 30
0.0
 11
3.106299
 21
-2.244094
 31
0.0
  0
LINE
  8
0
  6
CONTINUOUS
 62
     3
  5
1B0
 10
0.0
 20
2.244094
 30
0.0
 11
3.106299
 21
2.244094
 31
0.0
  0
LINE
  8
0
  6
CONTINUOUS
 62
     3
  5
1B1
 10
1.901575
 20
0.15748
 30
0.0
 11
1.901575
 21
-0.03937
 31
0.0
  0
LINE
  8
0
  6
CONTINUOUS
 62
     3
  5
1B2
 10
1.80315
 20
0.059055
 30
0.0
 11
4.027559
 21
0.059055
 31
0.0
  0
INSERT
  8
0
  5
1B3
  2
B14111211803042020_0000000
 10
0.0
 20
0.0
 30
0.0
  0
INSERT
  8
0
  5
1B4
  2
B14111211803042020_0000001
 10
0.0
 20
0.0
 30
0.0
  0
ENDSEC
  0
EOF
