999
DXF file: C:\Users\sesa63760\Dev\_Creo\CAD\MCADID0003856_3D-CAD\drw0001_7.dxf
999
Pro/ENGINEER 2019471 by Parametric Technology Corporation
  0
SECTION
  2
HEADER
  9
$ACADVER
  1
AC1024
  9
$DWGCODEPAGE
  3
ANSI_1252
  9
$EXTMAX
 10
52.8161616162
 20
74.6971428571
 30
0.0
  9
$EXTMIN
 10
0.0
 20
0.0
 30
0.0
  9
$LIMMIN
 10
0.0
 20
0.0
  9
$LIMMAX
 10
52.8161616162
 20
74.6971428571
  9
$VIEWCTR
 10
26.4080808081
 20
37.3485714286
  9
$VIEWSIZE
 40
74.6971428571
  9
$CLAYER
  8
0
  9
$LTSCALE
 40
4.8691470899
  9
$CELTYPE
  6
BYLAYER
  9
$DIMSCALE
 40
1.0
  9
$DIMASZ
 40
0.6287638288
  9
$DIMEXO
 40
1.0
  9
$DIMDLI
 40
3.3641379894
  9
$DIMEXE
 40
1.0
  9
$DIMCEN
 40
0.7967695238
  9
$DIMLFAC
 40
1.0
  9
$DIMBLK
  1
_FILLED
  9
$DIMALT
 70
0
  9
$DIMALTF
 40
0.0393700787
  9
$DIMTXT
 40
0.8802693603
  9
$DIMTOL
 70
1
  9
$DIMLIM
 70
0
  9
$DIMTFAC
 40
1.0
  9
$DIMTP
 40
0.01
  9
$DIMTM
 40
0.01
  9
$DIMGAP
 40
0.625
  9
$DIMDSEP
 70
46
  9
$AUNITS
 70
0
  9
$PDMODE
 70
3
  9
$PDSIZE
 40
0.3125
  9
$HANDSEED
  5
30E
  9
$TILEMODE
 70
1
  9
$MEASUREMENT
 70
1
  9
$INSUNITS
 70
4
  0
ENDSEC
  0
SECTION
  2
CLASSES
  0
CLASS
  1
ACDBDICTIONARYWDFLT
  2
AcDbDictionaryWithDefault
  3
AutoCAD 2000
 90
0
 91
1
280
0
281
0
  0
CLASS
  1
ACDBPLACEHOLDER
  2
AcDbPlaceHolder
  3
AutoCAD 2000
 90
0
 91
1
280
0
281
0
  0
CLASS
  1
LAYOUT
  2
AcDbLayout
  3
AutoCAD 2000
 90
0
 91
0
280
0
281
0
  0
ENDSEC
  0
SECTION
  2
TABLES
  0
TABLE
  2
VPORT
  5
8
100
AcDbSymbolTable
 70
2
  0
VPORT
  5
1F4
100
AcDbSymbolTableRecord
100
AcDbViewportTableRecord
  2
*ACTIVE
 70
0
 10
0.0
 20
0.0
 11
1.0
 21
1.0
 12
26.4080808081
 22
37.3485714286
 13
0.0
 23
0.0
 14
1.0
 24
1.0
 15
0.0
 25
0.0
 16
0.0
 26
0.0
 36
1.0
 17
0.0
 27
0.0
 37
0.0
 40
74.6971428571
 41
0.7070707071
 42
50.0
 43
0.0
 44
0.0
 50
0.0
 51
0.0
 71
0
 72
100
 73
1
 74
1
 75
0
 76
0
 77
0
 78
0
  0
ENDTAB
  0
TABLE
  2
LTYPE
  5
5
100
AcDbSymbolTable
 70
6
  0
LTYPE
  5
14
100
AcDbSymbolTableRecord
100
AcDbLinetypeTableRecord
  2
BYBLOCK
 70
0
  3

 72
65
 73
0
 40
0.0
  0
LTYPE
  5
15
100
AcDbSymbolTableRecord
100
AcDbLinetypeTableRecord
  2
BYLAYER
 70
0
  3

 72
65
 73
0
 40
0.0
  0
LTYPE
  5
16
100
AcDbSymbolTableRecord
100
AcDbLinetypeTableRecord
  2
CONTINUOUS
 70
64
  3
Solid line
 72
65
 73
0
 40
0.0
  0
LTYPE
  5
1F5
100
AcDbSymbolTableRecord
100
AcDbLinetypeTableRecord
  2
CENTER
 70
64
  3
____ _ ____ _ ____ _ ____ _ ____ _ ____ _ ____
 72
65
 73
4
 40
0.6
 49
0.375
 74
0
 49
-0.075
 74
0
 49
0.075
 74
0
 49
-0.075
 74
0
  0
LTYPE
  5
1F6
100
AcDbSymbolTableRecord
100
AcDbLinetypeTableRecord
  2
HIDDEN
 70
64
  3
- - - - - - - - - - - - - - - - - - - -
 72
65
 73
2
 40
0.2
 49
0.1
 74
0
 49
-0.1
 74
0
  0
LTYPE
  5
1F7
100
AcDbSymbolTableRecord
100
AcDbLinetypeTableRecord
  2
PHANTOM
 70
64
  3
_____ _ _ _____ _ _ _____ _ _ _____
 72
65
 73
6
 40
0.8
 49
0.45
 74
0
 49
-0.05
 74
0
 49
0.1
 74
0
 49
-0.05
 74
0
 49
0.1
 74
0
 49
-0.05
 74
0
  0
LTYPE
  5
1F8
100
AcDbSymbolTableRecord
100
AcDbLinetypeTableRecord
  2
DOT
 70
64
  3
. . . . . . . . . . . . . . . . . . . .
 72
65
 73
2
 40
0.2
 49
0.1
 74
0
 49
-0.1
 74
0
  0
LTYPE
  5
1F9
100
AcDbSymbolTableRecord
100
AcDbLinetypeTableRecord
  2
DASHED
 70
64
  3
- - - - - - - - - - - - - - - - - - - -
 72
65
 73
2
 40
0.2
 49
0.1
 74
0
 49
-0.1
 74
0
  0
ENDTAB
  0
TABLE
  2
LAYER
  5
2
100
AcDbSymbolTable
 70
36
  0
LAYER
  5
10
100
AcDbSymbolTableRecord
100
AcDbLayerTableRecord
  2
0
 70
0
 62
7
  6
CONTINUOUS
370
-3
390
F
  0
LAYER
  5
1FA
100
AcDbSymbolTableRecord
100
AcDbLayerTableRecord
  2
DEFAULT_1
 70
0
 62
7
  6
CENTER
370
-3
390
F
  0
LAYER
  5
1FB
100
AcDbSymbolTableRecord
100
AcDbLayerTableRecord
  2
DEFAULT_2
 70
0
 62
7
  6
HIDDEN
370
-3
390
F
  0
LAYER
  5
1FC
100
AcDbSymbolTableRecord
100
AcDbLayerTableRecord
  2
DEFAULT_3
 70
0
 62
7
  6
PHANTOM
370
-3
390
F
  0
LAYER
  5
1FD
100
AcDbSymbolTableRecord
100
AcDbLayerTableRecord
  2
00_COMPONENTS
 70
0
 62
7
  6
CONTINUOUS
370
-3
390
F
  0
LAYER
  5
1FE
100
AcDbSymbolTableRecord
100
AcDbLayerTableRecord
  2
01_1_DEFAULT_DATUMS
 70
0
 62
7
  6
CONTINUOUS
370
-3
390
F
  0
LAYER
  5
1FF
100
AcDbSymbolTableRecord
100
AcDbLayerTableRecord
  2
01_PLANES
 70
0
 62
7
  6
CONTINUOUS
370
-3
390
F
  0
LAYER
  5
200
100
AcDbSymbolTableRecord
100
AcDbLayerTableRecord
  2
02_COORD_SYS
 70
0
 62
7
  6
CONTINUOUS
370
-3
390
F
  0
LAYER
  5
201
100
AcDbSymbolTableRecord
100
AcDbLayerTableRecord
  2
03_AXES
 70
0
 62
7
  6
CONTINUOUS
370
-3
390
F
  0
LAYER
  5
202
100
AcDbSymbolTableRecord
100
AcDbLayerTableRecord
  2
04_POINTS
 70
0
 62
7
  6
CONTINUOUS
370
-3
390
F
  0
LAYER
  5
203
100
AcDbSymbolTableRecord
100
AcDbLayerTableRecord
  2
05_CURVES
 70
0
 62
7
  6
CONTINUOUS
370
-3
390
F
  0
LAYER
  5
204
100
AcDbSymbolTableRecord
100
AcDbLayerTableRecord
  2
06_SURFS
 70
0
 62
7
  6
CONTINUOUS
370
-3
390
F
  0
LAYER
  5
205
100
AcDbSymbolTableRecord
100
AcDbLayerTableRecord
  2
07_COSMETICS
 70
0
 62
7
  6
CONTINUOUS
370
-3
390
F
  0
LAYER
  5
206
100
AcDbSymbolTableRecord
100
AcDbLayerTableRecord
  2
10_NOTES
 70
0
 62
7
  6
CONTINUOUS
370
-3
390
F
  0
LAYER
  5
207
100
AcDbSymbolTableRecord
100
AcDbLayerTableRecord
  2
11_NOTES_PUB
 70
0
 62
7
  6
CONTINUOUS
370
-3
390
F
  0
LAYER
  5
208
100
AcDbSymbolTableRecord
100
AcDbLayerTableRecord
  2
13_REF_GTOL
 70
0
 62
7
  6
CONTINUOUS
370
-3
390
F
  0
LAYER
  5
209
100
AcDbSymbolTableRecord
100
AcDbLayerTableRecord
  2
16_MISC
 70
0
 62
7
  6
CONTINUOUS
370
-3
390
F
  0
LAYER
  5
20A
100
AcDbSymbolTableRecord
100
AcDbLayerTableRecord
  2
17_NO_PRINT
 70
0
 62
7
  6
CONTINUOUS
370
-3
390
F
  0
LAYER
  5
20B
100
AcDbSymbolTableRecord
100
AcDbLayerTableRecord
  2
18_DATUM_CAMS_JOINTS
 70
0
 62
7
  6
CONTINUOUS
370
-3
390
F
  0
LAYER
  5
20C
100
AcDbSymbolTableRecord
100
AcDbLayerTableRecord
  2
19_DATUM_FUNCTIONAL
 70
0
 62
7
  6
CONTINUOUS
370
-3
390
F
  0
LAYER
  5
20D
100
AcDbSymbolTableRecord
100
AcDbLayerTableRecord
  2
20_DATUM_KINEMATIC_SCHEME
 70
0
 62
7
  6
CONTINUOUS
370
-3
390
F
  0
ENDTAB
  0
TABLE
  2
STYLE
  5
3
100
AcDbSymbolTable
 70
1
  0
STYLE
  5
11
100
AcDbSymbolTableRecord
100
AcDbTextStyleTableRecord
  2
STANDARD
 70
0
 40
0.0
 41
1.0
 50
0.0
 71
0
 42
0.2
  3
ARIAL.TTF
  4

  0
STYLE
  5
20E
100
AcDbSymbolTableRecord
100
AcDbTextStyleTableRecord
  2
TEXTSTYLE_1
 70
0
 40
0.0
 41
0.8
 50
0.0
 71
0
 42
0.2
  3
gdt
  4

  0
ENDTAB
  0
TABLE
  2
VIEW
  5
6
100
AcDbSymbolTable
 70
0
  0
ENDTAB
  0
TABLE
  2
UCS
  5
7
100
AcDbSymbolTable
 70
0
  0
ENDTAB
  0
TABLE
  2
APPID
  5
9
100
AcDbSymbolTable
 70
1
  0
APPID
  5
20F
100
AcDbSymbolTableRecord
100
AcDbRegAppTableRecord
  2
ACAD
 70
0
  0
ENDTAB
  0
TABLE
  2
BLOCK_RECORD
  5
1
100
AcDbSymbolTable
 70
0
  0
BLOCK_RECORD
  5
210
100
AcDbSymbolTableRecord
100
AcDbBlockTableRecord
  2
*Model_Space
  0
BLOCK_RECORD
  5
211
100
AcDbSymbolTableRecord
100
AcDbBlockTableRecord
  2
*Paper_Space
  0
BLOCK_RECORD
  5
212
100
AcDbSymbolTableRecord
100
AcDbBlockTableRecord
  2
_FILLED
  0
ENDTAB
  0
TABLE
  2
DIMSTYLE
  5
A
100
AcDbSymbolTable
 70
1
100
AcDbDimStyleTable
 71
0
  0
DIMSTYLE
105
213
100
AcDbSymbolTableRecord
100
AcDbDimStyleTableRecord
  2
STANDARD
 70
0
  3

  4

 40
1.0
 41
0.6287638288
 42
1.0
 43
0.38
 44
1.0
 45
0.0
 46
0.0
 47
0.01
 48
0.01
140
0.8802693603
141
0.09
142
0.0
143
25.4
144
1.0
145
0.0
146
1.0
147
0.625
 71
1
 72
0
 73
0
 74
0
 75
0
 76
0
 77
1
 78
8
 79
2
170
0
171
1
172
0
173
0
174
0
175
0
176
0
177
0
178
0
270
2
179
2
271
2
272
2
273
2
274
2
275
0
280
0
281
0
282
0
283
1
284
8
285
0
286
0
287
3
288
0
340
11
278
46
341
212
342
212
343
212
344
212
  0
ENDTAB
  0
ENDSEC
  0
SECTION
  2
BLOCKS
  0
BLOCK
  5
20
100
AcDbEntity
  8
0
100
AcDbBlockBegin
  2
*Model_Space
 70
0
 10
0.0
 20
0.0
 30
0.0
  3
*Model_Space
  1

  0
ENDBLK
  5
21
100
AcDbEntity
  8
0
100
AcDbBlockEnd
  0
BLOCK
  5
1C
100
AcDbEntity
  8
0
100
AcDbBlockBegin
  2
*Paper_Space
 70
0
 10
0.0
 20
0.0
 30
0.0
  3
*Paper_Space
  1

  0
ENDBLK
  5
1D
100
AcDbEntity
  8
0
100
AcDbBlockEnd
  0
BLOCK
  5
214
100
AcDbEntity
  8
0
100
AcDbBlockBegin
  2
_FILLED
 70
64
 10
0.0
 20
0.0
  3
_FILLED
  1

  0
SOLID
  5
215
100
AcDbEntity
  8
0
  6
BYBLOCK
 62
0
100
AcDbTrace
 10
0.0
 20
0.0
 11
-1.0
 21
0.25
 12
-1.0
 22
-0.25
 13
-1.0
 23
-0.25
  0
ENDBLK
  5
216
100
AcDbEntity
  8
0
  6
BYBLOCK
 62
0
100
AcDbBlockEnd
  0
ENDSEC
  0
SECTION
  2
ENTITIES
  0
LINE
  5
217
100
AcDbEntity
  8
0
100
AcDbLine
 62
7
  6
BYLAYER
 10
25.7317345873
 20
5.5314285714
 11
23.7317345873
 21
5.5314285714
  0
LINE
  5
218
100
AcDbEntity
  8
0
100
AcDbLine
 62
7
  6
BYLAYER
 10
20.6995015403
 20
69.1314285714
 11
20.4995015403
 21
68.9314285714
  0
LINE
  5
219
100
AcDbEntity
  8
0
100
AcDbLine
 62
7
  6
BYLAYER
 10
25.9371260984
 20
15.5314285714
 11
23.5263430592
 21
15.5314285714
  0
LINE
  5
21A
100
AcDbEntity
  8
0
100
AcDbLine
 62
7
  6
BYLAYER
 10
26.1368520224
 20
15.7209613802
 11
23.3266171523
 21
15.7209613802
  0
LINE
  5
21B
100
AcDbEntity
  8
0
100
AcDbLine
 62
7
  6
BYLAYER
 10
31.2993273112
 20
17.5314285714
 11
21.6995015403
 21
17.5314285714
  0
LINE
  5
21C
100
AcDbEntity
  8
0
100
AcDbLine
 62
7
  6
BYLAYER
 10
31.4995015403
 20
17.7314285714
 11
21.4995015403
 21
17.7314285714
  0
LINE
  5
21D
100
AcDbEntity
  8
0
100
AcDbLine
 62
7
  6
BYLAYER
 10
21.4995015403
 20
19.7314285714
 11
31.4992747766
 21
19.7314285714
  0
LINE
  5
21E
100
AcDbEntity
  8
0
100
AcDbLine
 62
7
  6
BYLAYER
 10
31.499326673
 20
19.8314285714
 11
21.4996764076
 21
19.8314285714
  0
LINE
  5
21F
100
AcDbEntity
  8
0
100
AcDbLine
 62
7
  6
BYLAYER
 10
19.2485804991
 20
59.7332539933
 11
19.1945015403
 21
59.5314285714
  0
LINE
  5
220
100
AcDbEntity
  8
0
100
AcDbLine
 62
7
  6
BYLAYER
 10
21.4995015403
 20
27.5314285714
 11
31.4995015403
 21
27.5314285714
  0
LINE
  5
221
100
AcDbEntity
  8
0
100
AcDbLine
 62
7
  6
BYLAYER
 10
32.4995015403
 20
28.5314285714
 11
20.4995015403
 21
28.5314285714
  0
LINE
  5
222
100
AcDbEntity
  8
0
100
AcDbLine
 62
7
  6
BYLAYER
 10
21.4995015403
 20
27.5314285714
 11
20.4995015403
 21
28.5314285714
  0
LINE
  5
223
100
AcDbEntity
  8
0
100
AcDbLine
 62
7
  6
BYLAYER
 10
17.9995015403
 20
59.5314285714
 11
17.9995015403
 21
56.5314285714
  0
LINE
  5
224
100
AcDbEntity
  8
0
100
AcDbLine
 62
7
  6
BYLAYER
 10
17.9995015403
 20
63.5314285714
 11
17.9995015403
 21
66.5314285714
  0
LINE
  5
225
100
AcDbEntity
  8
0
100
AcDbLine
 62
7
  6
BYLAYER
 10
18.4325142422
 20
58.9109209594
 11
18.4325142422
 21
57.1519361834
  0
LINE
  5
226
100
AcDbEntity
  8
0
100
AcDbLine
 62
7
  6
BYLAYER
 10
18.4325142422
 20
64.1519361834
 11
18.4325142422
 21
65.9109209401
  0
LINE
  5
227
100
AcDbEntity
  8
0
100
AcDbLine
 62
7
  6
BYLAYER
 10
23.3266171523
 20
15.7209613802
 11
23.2317345873
 21
17.5314285714
  0
LINE
  5
228
100
AcDbEntity
  8
0
100
AcDbLine
 62
7
  6
BYLAYER
 10
20.4995015403
 20
68.9314285714
 11
20.4995015403
 21
66.5314285714
  0
LINE
  5
229
100
AcDbEntity
  8
0
100
AcDbLine
 62
7
  6
BYLAYER
 10
20.4995015403
 20
62.906608035
 11
20.4995015403
 21
60.1562390472
  0
LINE
  5
22A
100
AcDbEntity
  8
0
100
AcDbLine
 62
7
  6
BYLAYER
 10
20.4995015403
 20
56.5314285714
 11
20.4995015403
 21
28.5314285714
  0
LINE
  5
22B
100
AcDbEntity
  8
0
100
AcDbLine
 62
7
  6
BYLAYER
 10
21.2495015403
 20
69.3314285714
 11
21.2495015403
 21
69.1314285714
  0
LINE
  5
22C
100
AcDbEntity
  8
0
100
AcDbLine
 62
7
  6
BYLAYER
 10
21.4995015403
 20
27.5314285714
 11
21.4995015403
 21
19.8314285714
  0
LINE
  5
22D
100
AcDbEntity
  8
0
100
AcDbLine
 62
7
  6
BYLAYER
 10
21.4995015403
 20
19.7314285714
 11
21.4995015403
 21
17.7314285714
  0
LINE
  5
22E
100
AcDbEntity
  8
0
100
AcDbLine
 62
7
  6
BYLAYER
 10
21.5495015403
 20
19.8314285714
 11
21.5495015403
 21
19.7314285714
  0
LINE
  5
22F
100
AcDbEntity
  8
0
100
AcDbLine
 62
7
  6
BYLAYER
 10
23.7317345873
 20
5.5314285714
 11
23.7317345873
 21
15.5314285714
  0
LINE
  5
230
100
AcDbEntity
  8
0
100
AcDbLine
 62
7
  6
BYLAYER
 10
25.7317345873
 20
5.5314285714
 11
25.7317345873
 21
15.5314285714
  0
LINE
  5
231
100
AcDbEntity
  8
0
100
AcDbLine
 62
7
  6
BYLAYER
 10
25.7766599256
 20
69.1314285714
 11
25.7766599256
 21
69.3314285714
  0
LINE
  5
232
100
AcDbEntity
  8
0
100
AcDbLine
 62
7
  6
BYLAYER
 10
26.0664888384
 20
58.9109209559
 11
26.0664888384
 21
57.1519362061
  0
LINE
  5
233
100
AcDbEntity
  8
0
100
AcDbLine
 62
7
  6
BYLAYER
 10
26.0664888384
 20
64.151936187
 11
26.0664888384
 21
65.9109209559
  0
LINE
  5
234
100
AcDbEntity
  8
0
100
AcDbLine
 62
7
  6
BYLAYER
 10
26.7593091614
 20
58.8568260373
 11
26.7593091614
 21
57.2060311372
  0
LINE
  5
235
100
AcDbEntity
  8
0
100
AcDbLine
 62
7
  6
BYLAYER
 10
26.7593091614
 20
64.2060311055
 11
26.7593091614
 21
65.8568260456
  0
LINE
  5
236
100
AcDbEntity
  8
0
100
AcDbLine
 62
7
  6
BYLAYER
 10
19.2485804991
 20
63.3296031495
 11
19.1945015403
 21
63.5314285714
  0
LINE
  5
237
100
AcDbEntity
  8
0
100
AcDbLine
 62
7
  6
BYLAYER
 10
27.2223431551
 20
69.3314285714
 11
27.2223431551
 21
69.1314285714
  0
LINE
  5
238
100
AcDbEntity
  8
0
100
AcDbLine
 62
7
  6
BYLAYER
 10
26.1368520224
 20
15.7209613802
 11
26.2317345873
 21
17.5314285714
  0
LINE
  5
239
100
AcDbEntity
  8
0
100
AcDbLine
 62
7
  6
BYLAYER
 10
33.7504225815
 20
63.3296031495
 11
33.8045015403
 21
63.5314285714
  0
LINE
  5
23A
100
AcDbEntity
  8
0
100
AcDbLine
 62
7
  6
BYLAYER
 10
31.4495015403
 20
19.8314285714
 11
31.4495015403
 21
19.7314285714
  0
LINE
  5
23B
100
AcDbEntity
  8
0
100
AcDbLine
 62
7
  6
BYLAYER
 10
31.4995015403
 20
27.5314285714
 11
31.4995015403
 21
19.8314285714
  0
LINE
  5
23C
100
AcDbEntity
  8
0
100
AcDbLine
 62
7
  6
BYLAYER
 10
31.4995015403
 20
19.7314285714
 11
31.4995015403
 21
17.7314285714
  0
LINE
  5
23D
100
AcDbEntity
  8
0
100
AcDbLine
 62
7
  6
BYLAYER
 10
31.7495015403
 20
69.3314285714
 11
31.7495015403
 21
69.1314285714
  0
LINE
  5
23E
100
AcDbEntity
  8
0
100
AcDbLine
 62
7
  6
BYLAYER
 10
32.4995015403
 20
68.9314285714
 11
32.4995015403
 21
66.5314285714
  0
LINE
  5
23F
100
AcDbEntity
  8
0
100
AcDbLine
 62
7
  6
BYLAYER
 10
32.4995015403
 20
62.9066180957
 11
32.4995015403
 21
60.1562491079
  0
LINE
  5
240
100
AcDbEntity
  8
0
100
AcDbLine
 62
7
  6
BYLAYER
 10
32.4995015403
 20
56.5314285714
 11
32.4995015403
 21
28.5314285714
  0
LINE
  5
241
100
AcDbEntity
  8
0
100
AcDbLine
 62
7
  6
BYLAYER
 10
34.7396939192
 20
58.8568260362
 11
34.7396939192
 21
57.2060310984
  0
LINE
  5
242
100
AcDbEntity
  8
0
100
AcDbLine
 62
7
  6
BYLAYER
 10
34.7396939192
 20
64.2060311066
 11
34.7396939192
 21
65.8568260051
  0
LINE
  5
243
100
AcDbEntity
  8
0
100
AcDbLine
 62
7
  6
BYLAYER
 10
34.9995015403
 20
56.5314285714
 11
34.9995015403
 21
59.5314285714
  0
LINE
  5
244
100
AcDbEntity
  8
0
100
AcDbLine
 62
7
  6
BYLAYER
 10
34.9995015403
 20
63.5314285714
 11
34.9995015403
 21
66.5314285714
  0
LINE
  5
245
100
AcDbEntity
  8
0
100
AcDbLine
 62
7
  6
BYLAYER
 10
31.4995015403
 20
27.5314285714
 11
32.4995015403
 21
28.5314285714
  0
LINE
  5
246
100
AcDbEntity
  8
0
100
AcDbLine
 62
7
  6
BYLAYER
 10
33.7504225815
 20
59.7332539933
 11
33.8045015403
 21
59.5314285714
  0
LINE
  5
247
100
AcDbEntity
  8
0
100
AcDbLine
 62
7
  6
BYLAYER
 10
34.9995015403
 20
56.5314285714
 11
17.9995015403
 21
56.5314285714
  0
LINE
  5
248
100
AcDbEntity
  8
0
100
AcDbLine
 62
7
  6
BYLAYER
 10
17.9995015403
 20
59.5314285714
 11
34.9995015403
 21
59.5314285714
  0
LINE
  5
249
100
AcDbEntity
  8
0
100
AcDbLine
 62
7
  6
BYLAYER
 10
19.3843668647
 20
60.2314285714
 11
20.1584818308
 21
60.2314285714
  0
LINE
  5
24A
100
AcDbEntity
  8
0
100
AcDbLine
 62
7
  6
BYLAYER
 10
20.1675035696
 20
60.2314285714
 11
20.4389831701
 21
60.2314285714
  0
LINE
  5
24B
100
AcDbEntity
  8
0
100
AcDbLine
 62
7
  6
BYLAYER
 10
20.8496039987
 20
60.2314285714
 11
21.1437227183
 21
60.2314285714
  0
LINE
  5
24C
100
AcDbEntity
  8
0
100
AcDbLine
 62
7
  6
BYLAYER
 10
21.7132967835
 20
60.2314285714
 11
22.0206010728
 21
60.2314285714
  0
LINE
  5
24D
100
AcDbEntity
  8
0
100
AcDbLine
 62
7
  6
BYLAYER
 10
22.7308221274
 20
60.2314285714
 11
23.0414349736
 21
60.2314285714
  0
LINE
  5
24E
100
AcDbEntity
  8
0
100
AcDbLine
 62
7
  6
BYLAYER
 10
23.8694759284
 20
60.2314285714
 11
24.1734139791
 21
60.2314285714
  0
LINE
  5
24F
100
AcDbEntity
  8
0
100
AcDbLine
 62
7
  6
BYLAYER
 10
25.0926609166
 20
60.2314285714
 11
25.3801553528
 21
60.2314285714
  0
LINE
  5
250
100
AcDbEntity
  8
0
100
AcDbLine
 62
7
  6
BYLAYER
 10
26.36106292
 20
60.2314285714
 11
26.6379401606
 21
60.2314285714
  0
LINE
  5
251
100
AcDbEntity
  8
0
100
AcDbLine
 62
7
  6
BYLAYER
 10
27.6188477279
 20
60.2314285714
 11
27.906342164
 21
60.2314285714
  0
LINE
  5
252
100
AcDbEntity
  8
0
100
AcDbLine
 62
7
  6
BYLAYER
 10
28.8255891015
 20
60.2314285714
 11
29.1295271522
 21
60.2314285714
  0
LINE
  5
253
100
AcDbEntity
  8
0
100
AcDbLine
 62
7
  6
BYLAYER
 10
29.9575681071
 20
60.2314285714
 11
30.2681809533
 21
60.2314285714
  0
LINE
  5
254
100
AcDbEntity
  8
0
100
AcDbLine
 62
7
  6
BYLAYER
 10
30.9784020078
 20
60.2314285714
 11
31.2857062971
 21
60.2314285714
  0
LINE
  5
255
100
AcDbEntity
  8
0
100
AcDbLine
 62
7
  6
BYLAYER
 10
31.8552803623
 20
60.2314285714
 11
32.1493990819
 21
60.2314285714
  0
LINE
  5
256
100
AcDbEntity
  8
0
100
AcDbLine
 62
7
  6
BYLAYER
 10
32.4995015403
 20
60.2314285714
 11
32.5146645744
 21
60.2314285714
  0
LINE
  5
257
100
AcDbEntity
  8
0
100
AcDbLine
 62
7
  6
BYLAYER
 10
32.5600195787
 20
60.2314285714
 11
32.8314995111
 21
60.2314285714
  0
LINE
  5
258
100
AcDbEntity
  8
0
100
AcDbLine
 62
7
  6
BYLAYER
 10
32.8405212499
 20
60.2314285714
 11
33.6146362159
 21
60.2314285714
  0
LINE
  5
259
100
AcDbEntity
  8
0
100
AcDbLine
 62
7
  6
BYLAYER
 10
33.6146362159
 20
62.8314285714
 11
32.8405212499
 21
62.8314285714
  0
LINE
  5
25A
100
AcDbEntity
  8
0
100
AcDbLine
 62
7
  6
BYLAYER
 10
32.8314995111
 20
62.8314285714
 11
32.5600195787
 21
62.8314285714
  0
LINE
  5
25B
100
AcDbEntity
  8
0
100
AcDbLine
 62
7
  6
BYLAYER
 10
32.1493990819
 20
62.8314285714
 11
31.8552803623
 21
62.8314285714
  0
LINE
  5
25C
100
AcDbEntity
  8
0
100
AcDbLine
 62
7
  6
BYLAYER
 10
31.2857062971
 20
62.8314285714
 11
30.9784020078
 21
62.8314285714
  0
LINE
  5
25D
100
AcDbEntity
  8
0
100
AcDbLine
 62
7
  6
BYLAYER
 10
30.2681809533
 20
62.8314285714
 11
29.9575681071
 21
62.8314285714
  0
LINE
  5
25E
100
AcDbEntity
  8
0
100
AcDbLine
 62
7
  6
BYLAYER
 10
29.1295271522
 20
62.8314285714
 11
28.8255891015
 21
62.8314285714
  0
LINE
  5
25F
100
AcDbEntity
  8
0
100
AcDbLine
 62
7
  6
BYLAYER
 10
27.906342164
 20
62.8314285714
 11
27.6188477279
 21
62.8314285714
  0
LINE
  5
260
100
AcDbEntity
  8
0
100
AcDbLine
 62
7
  6
BYLAYER
 10
25.3801553528
 20
62.8314285714
 11
25.0926609166
 21
62.8314285714
  0
LINE
  5
261
100
AcDbEntity
  8
0
100
AcDbLine
 62
7
  6
BYLAYER
 10
24.1734139791
 20
62.8314285714
 11
23.8694759284
 21
62.8314285714
  0
LINE
  5
262
100
AcDbEntity
  8
0
100
AcDbLine
 62
7
  6
BYLAYER
 10
23.0414349736
 20
62.8314285714
 11
22.7308221274
 21
62.8314285714
  0
LINE
  5
263
100
AcDbEntity
  8
0
100
AcDbLine
 62
7
  6
BYLAYER
 10
22.0206010728
 20
62.8314285714
 11
21.7132967835
 21
62.8314285714
  0
LINE
  5
264
100
AcDbEntity
  8
0
100
AcDbLine
 62
7
  6
BYLAYER
 10
21.1437227183
 20
62.8314285714
 11
20.8496039987
 21
62.8314285714
  0
LINE
  5
265
100
AcDbEntity
  8
0
100
AcDbLine
 62
7
  6
BYLAYER
 10
20.4995015403
 20
62.8314285714
 11
20.4843430115
 21
62.8314285714
  0
LINE
  5
266
100
AcDbEntity
  8
0
100
AcDbLine
 62
7
  6
BYLAYER
 10
20.4389831701
 20
62.8314285714
 11
20.1675035696
 21
62.8314285714
  0
LINE
  5
267
100
AcDbEntity
  8
0
100
AcDbLine
 62
7
  6
BYLAYER
 10
20.1584818308
 20
62.8314285714
 11
19.3843668647
 21
62.8314285714
  0
LINE
  5
268
100
AcDbEntity
  8
0
100
AcDbLine
 62
7
  6
BYLAYER
 10
26.36106292
 20
62.8314285714
 11
26.6379401606
 21
62.8314285714
  0
LINE
  5
269
100
AcDbEntity
  8
0
100
AcDbLine
 62
7
  6
BYLAYER
 10
34.9995015403
 20
63.5314285714
 11
17.9995015403
 21
63.5314285714
  0
LINE
  5
26A
100
AcDbEntity
  8
0
100
AcDbLine
 62
7
  6
BYLAYER
 10
32.2995015403
 20
69.1314285714
 11
32.4995015403
 21
68.9314285714
  0
LINE
  5
26B
100
AcDbEntity
  8
0
100
AcDbLine
 62
7
  6
BYLAYER
 10
17.9995015403
 20
66.5314285714
 11
34.9995015403
 21
66.5314285714
  0
LINE
  5
26C
100
AcDbEntity
  8
0
100
AcDbLine
 62
7
  6
BYLAYER
 10
20.4995015403
 20
68.9314285714
 11
32.4995015403
 21
68.9314285714
  0
LINE
  5
26D
100
AcDbEntity
  8
0
100
AcDbLine
 62
7
  6
BYLAYER
 10
20.6995015403
 20
69.1314285714
 11
32.2993984829
 21
69.1314285714
  0
LINE
  5
26E
100
AcDbEntity
  8
0
100
AcDbLine
 62
7
  6
BYLAYER
 10
21.2495015403
 20
69.3314285714
 11
25.7766599256
 21
69.3314285714
  0
LINE
  5
26F
100
AcDbEntity
  8
0
100
AcDbLine
 62
7
  6
BYLAYER
 10
27.2223431551
 20
69.3314285714
 11
31.7495015403
 21
69.3314285714
  0
LINE
  5
270
100
AcDbEntity
  8
0
100
AcDbLine
 62
7
  6
BYLAYER
 10
21.4495015403
 20
69.5314285714
 11
31.5494918433
 21
69.5314285714
  0
ARC
  5
271
100
AcDbEntity
  8
0
100
AcDbCircle
 62
7
  6
BYLAYER
 10
25.1070046408
 20
80.9042172884
 40
16.7797357555
100
AcDbArc
 50
273.2780252399
 51
275.6510866013
  0
ARC
  5
272
100
AcDbEntity
  8
0
100
AcDbCircle
 62
7
  6
BYLAYER
 10
25.1070046398
 20
42.1586398545
 40
16.7797357556
100
AcDbArc
 50
84.3489133954
 51
86.7219747568
  0
ARC
  5
273
100
AcDbEntity
  8
0
100
AcDbCircle
 62
7
  6
BYLAYER
 10
25.1070063503
 20
49.1586532693
 40
16.7797222459
100
AcDbArc
 50
84.3489146999
 51
86.7219779648
  0
ARC
  5
274
100
AcDbEntity
  8
0
100
AcDbCircle
 62
7
  6
BYLAYER
 10
25.1070063888
 20
73.9042033679
 40
16.7797217389
100
AcDbArc
 50
273.2780220026
 51
275.6510853393
  0
ARC
  5
275
100
AcDbEntity
  8
0
100
AcDbCircle
 62
7
  6
BYLAYER
 10
26.1486611029
 20
65.023579717
 40
7.78117115
100
AcDbArc
 50
345.0022520936
 51
347.4396747245
  0
ARC
  5
276
100
AcDbEntity
  8
0
100
AcDbCircle
 62
7
  6
BYLAYER
 10
26.8503419777
 20
58.0392774259
 40
7.78117115
100
AcDbArc
 50
165.0022520936
 51
167.4396747245
  0
ARC
  5
277
100
AcDbEntity
  8
0
100
AcDbCircle
 62
7
  6
BYLAYER
 10
26.8414396718
 20
65.0213965543
 40
7.7720071335
100
AcDbArc
 50
192.5588880692
 51
194.9991851128
  0
ARC
  5
278
100
AcDbEntity
  8
0
100
AcDbCircle
 62
7
  6
BYLAYER
 10
26.1575634089
 20
58.0414605886
 40
7.7720071334
100
AcDbArc
 50
12.5588880692
 51
14.9991851128
  0
ARC
  5
279
100
AcDbEntity
  8
0
100
AcDbCircle
 62
7
  6
BYLAYER
 10
26.1945201888
 20
65.0115785925
 40
7.733768549
100
AcDbArc
 50
343.6263594208
 51
345.0002136725
  0
ARC
  5
27A
100
AcDbEntity
  8
0
100
AcDbCircle
 62
7
  6
BYLAYER
 10
26.8044828916
 20
58.0512785504
 40
7.7337685488
100
AcDbArc
 50
163.6263594207
 51
165.0002136725
  0
ARC
  5
27B
100
AcDbEntity
  8
0
100
AcDbCircle
 62
7
  6
BYLAYER
 10
26.7990063605
 20
65.0100405792
 40
7.7280805595
100
AcDbArc
 50
194.999280714
 51
196.3741461927
  0
ARC
  5
27C
100
AcDbEntity
  8
0
100
AcDbCircle
 62
7
  6
BYLAYER
 10
26.1999967202
 20
58.0528165637
 40
7.7280805594
100
AcDbArc
 50
14.999280714
 51
16.3741461927
  0
ARC
  5
27D
100
AcDbEntity
  8
0
100
AcDbCircle
 62
7
  6
BYLAYER
 10
19.0427733411
 20
59.2658747919
 40
6.673009402
100
AcDbArc
 50
95.2471368394
 51
98.9946375784
  0
ARC
  5
27E
100
AcDbEntity
  8
0
100
AcDbCircle
 62
7
  6
BYLAYER
 10
19.0414821922
 20
63.7866471099
 40
6.6625994015
100
AcDbArc
 50
261.0024337302
 51
264.7557918573
  0
ARC
  5
27F
100
AcDbEntity
  8
0
100
AcDbCircle
 62
7
  6
BYLAYER
 10
19.0379891082
 20
52.3041744468
 40
6.6344328541
100
AcDbArc
 50
95.2362414037
 51
99.0055402152
  0
ARC
  5
280
100
AcDbEntity
  8
0
100
AcDbCircle
 62
7
  6
BYLAYER
 10
19.036350377
 20
70.7455651701
 40
6.6212205288
100
AcDbArc
 50
260.9906976945
 51
264.7675206814
  0
ARC
  5
281
100
AcDbEntity
  8
0
100
AcDbCircle
 62
7
  6
BYLAYER
 10
35.38080828
 20
63.4286252562
 40
2.5114112948
100
AcDbArc
 50
98.7329733303
 51
104.7902074274
  0
ARC
  5
282
100
AcDbEntity
  8
0
100
AcDbCircle
 62
7
  6
BYLAYER
 10
35.3800121519
 20
59.6304082322
 40
2.5075111018
100
AcDbArc
 50
255.2050774446
 51
261.2717417935
  0
ARC
  5
283
100
AcDbEntity
  8
0
100
AcDbCircle
 62
7
  6
BYLAYER
 10
35.3743097177
 20
56.4598378733
 40
2.4795744524
100
AcDbArc
 50
98.6940557893
 51
104.8291366408
  0
ARC
  5
284
100
AcDbEntity
  8
0
100
AcDbCircle
 62
7
  6
BYLAYER
 10
35.3732992376
 20
66.5981661266
 40
2.4746243459
100
AcDbArc
 50
255.1647213299
 51
261.3120862443
  0
ARC
  5
285
100
AcDbEntity
  8
0
100
AcDbCircle
 62
7
  6
BYLAYER
 10
31.5495015403
 20
69.3314285714
 40
0.2
100
AcDbArc
 50
0.0
 51
90.0
  0
ARC
  5
286
100
AcDbEntity
  8
0
100
AcDbCircle
 62
7
  6
BYLAYER
 10
21.4495015403
 20
69.3314285714
 40
0.2
100
AcDbArc
 50
90.0
 51
180.0
  0
ARC
  5
287
100
AcDbEntity
  8
0
100
AcDbCircle
 62
7
  6
BYLAYER
 10
25.9371261154
 20
15.7314285714
 40
0.2
100
AcDbArc
 50
269.9999999998
 51
357.0000000139
  0
ARC
  5
288
100
AcDbEntity
  8
0
100
AcDbCircle
 62
7
  6
BYLAYER
 10
23.5263430593
 20
15.7314285714
 40
0.2
100
AcDbArc
 50
182.9999999861
 51
270.0
  0
ARC
  5
289
100
AcDbEntity
  8
0
100
AcDbCircle
 62
7
  6
BYLAYER
 10
21.6995015403
 20
17.7314285714
 40
0.2
100
AcDbArc
 50
180.0
 51
270.0
  0
ARC
  5
28A
100
AcDbEntity
  8
0
100
AcDbCircle
 62
7
  6
BYLAYER
 10
31.2995015403
 20
17.7314285714
 40
0.2
100
AcDbArc
 50
270.0
 51
360.0
  0
SPLINE
  5
28B
100
AcDbEntity
  8
0
100
AcDbSpline
 62
7
  6
BYLAYER
 70
0
 71
3
 72
42
 73
38
 74
0
 42
0.0000001
 43
0.0000001
 44
0.0000000001
 40
0.0
 40
0.0
 40
0.0
 40
0.0
 40
0.0078308663
 40
0.0156957327
 40
0.0235253168
 40
0.031344184
 40
0.0391593469
 40
0.0469729328
 40
0.0625958372
 40
0.0938311717
 40
0.1250725786
 40
0.1563155759
 40
0.1875592519
 40
0.2188031535
 40
0.2500472046
 40
0.3125334043
 40
0.3750204298
 40
0.437507953
 40
0.4999955697
 40
0.5624832199
 40
0.6249706639
 40
0.68745778
 40
0.7499439941
 40
0.781188048
 40
0.8124319797
 40
0.8436755792
 40
0.8749186193
 40
0.9061599688
 40
0.9217822853
 40
0.9374059856
 40
0.953027398
 40
0.9608415113
 40
0.9686576979
 40
0.976475427
 40
0.9843043782
 40
0.9921692339
 40
1.0
 40
1.0
 40
1.0
 40
1.0
 10
27.2223431551
 20
69.3314285714
 30
0.0
 10
27.2223431551
 20
69.3353765533
 30
0.0
 10
27.2204432278
 20
69.3433159537
 30
0.0
 10
27.214084161
 20
69.353478213
 30
0.0
 10
27.2056081773
 20
69.3618573754
 30
0.0
 10
27.1962176492
 20
69.3690778826
 30
0.0
 10
27.1861994388
 20
69.3753791954
 30
0.0
 10
27.1723250861
 20
69.3828626891
 30
0.0
 10
27.1470733276
 20
69.39400257
 30
0.0
 10
27.1096161382
 20
69.4063598424
 30
0.0
 10
27.0637780436
 20
69.4179032445
 30
0.0
 10
27.0174347371
 20
69.4272080047
 30
0.0
 10
26.9707954512
 20
69.4348541344
 30
0.0
 10
26.9239646576
 20
69.441212616
 30
0.0
 10
26.8613493147
 20
69.4482575318
 30
0.0
 10
26.7828568236
 20
69.4549130957
 30
0.0
 10
26.6884790273
 20
69.4600881841
 30
0.0
 10
26.5940082749
 20
69.4630710594
 30
0.0
 10
26.499495914
 20
69.4640352147
 30
0.0
 10
26.4049835672
 20
69.4630832605
 30
0.0
 10
26.3105122811
 20
69.4600963152
 30
0.0
 10
26.216138609
 20
69.4548605946
 30
0.0
 10
26.1376405632
 20
69.4482703062
 30
0.0
 10
26.0750271827
 20
69.4412059105
 30
0.0
 10
26.0281953692
 20
69.4348562724
 30
0.0
 10
25.9815580543
 20
69.4271945735
 30
0.0
 10
25.9352119808
 20
69.4179189326
 30
0.0
 10
25.8970089308
 20
69.4082587913
 30
0.0
 10
25.8669176964
 20
69.3989054795
 30
0.0
 10
25.8446751314
 20
69.3909071913
 30
0.0
 10
25.8266244533
 20
69.3829549018
 30
0.0
 10
25.8127946075
 20
69.3753894011
 30
0.0
 10
25.8027889541
 20
69.3690705169
 30
0.0
 10
25.7933935796
 20
69.3618572116
 30
0.0
 10
25.7849189103
 20
69.3534775091
 30
0.0
 10
25.7785598195
 20
69.3433159158
 30
0.0
 10
25.7766599256
 20
69.3353765028
 30
0.0
 10
25.7766599256
 20
69.3314285714
 30
0.0
  0
SPLINE
  5
28C
100
AcDbEntity
  8
0
100
AcDbSpline
 62
7
  6
BYLAYER
 70
0
 71
3
 72
11
 73
7
 74
0
 42
0.0000001
 43
0.0000001
 44
0.0000000001
 40
0.0
 40
0.0
 40
0.0
 40
0.0
 40
0.2512966373
 40
0.501588327
 40
0.7510379633
 40
1.0
 40
1.0
 40
1.0
 40
1.0
 10
34.7396939192
 20
64.2060311066
 30
0.0
 10
34.4153950587
 20
64.1030018199
 30
0.0
 10
33.7622943137
 20
63.914891033
 30
0.0
 10
32.7676237835
 20
63.698921903
 30
0.0
 10
31.7618789832
 20
63.5626160649
 30
0.0
 10
31.0866119767
 20
63.5314285714
 30
0.0
 10
30.7495015406
 20
63.5314285714
 30
0.0
  0
SPLINE
  5
28D
100
AcDbEntity
  8
0
100
AcDbSpline
 62
7
  6
BYLAYER
 70
0
 71
3
 72
11
 73
7
 74
0
 42
0.0000001
 43
0.0000001
 44
0.0000000001
 40
0.0
 40
0.0
 40
0.0
 40
0.0
 40
0.248962233
 40
0.4984116828
 40
0.7487035809
 40
1.0
 40
1.0
 40
1.0
 40
1.0
 10
30.7495015522
 20
66.5314285714
 30
0.0
 10
31.0866120423
 20
66.5314285711
 30
0.0
 10
31.761876621
 20
66.5002124118
 30
0.0
 10
32.7676259803
 20
66.3639437152
 30
0.0
 10
33.7622884958
 20
66.1479400901
 30
0.0
 10
34.4153955435
 20
65.9598551358
 30
0.0
 10
34.7396939192
 20
65.8568260051
 30
0.0
  0
SPLINE
  5
28E
100
AcDbEntity
  8
0
100
AcDbSpline
 62
7
  6
BYLAYER
 70
0
 71
3
 72
11
 73
7
 74
0
 42
0.0000001
 43
0.0000001
 44
0.0000000001
 40
0.0
 40
0.0
 40
0.0
 40
0.0
 40
0.2489622325
 40
0.4984116811
 40
0.74870358
 40
1.0
 40
1.0
 40
1.0
 40
1.0
 10
30.7495015406
 20
63.5314285714
 30
0.0
 10
30.4123910484
 20
63.5314285714
 30
0.0
 10
29.7371264683
 20
63.5626446525
 30
0.0
 10
28.7313770688
 20
63.6989131582
 30
0.0
 10
27.7367145809
 20
63.9149169767
 30
0.0
 10
27.0836075404
 20
64.1030019718
 30
0.0
 10
26.7593091614
 20
64.2060311055
 30
0.0
  0
SPLINE
  5
28F
100
AcDbEntity
  8
0
100
AcDbSpline
 62
7
  6
BYLAYER
 70
0
 71
3
 72
11
 73
7
 74
0
 42
0.0000001
 43
0.0000001
 44
0.0000000001
 40
0.0
 40
0.0
 40
0.0
 40
0.0
 40
0.2512101947
 40
0.5014743658
 40
0.7509613101
 40
1.0
 40
1.0
 40
1.0
 40
1.0
 10
26.0664888384
 20
64.151936187
 30
0.0
 10
25.7558192734
 20
64.0565973068
 30
0.0
 10
25.1303287539
 20
63.8829274755
 30
0.0
 10
24.1785071764
 20
63.6846063952
 30
0.0
 10
23.2169025831
 20
63.55986644
 30
0.0
 10
22.5716618511
 20
63.5314285729
 30
0.0
 10
22.2495015894
 20
63.5314285714
 30
0.0
  0
SPLINE
  5
290
100
AcDbEntity
  8
0
100
AcDbSpline
 62
7
  6
BYLAYER
 70
0
 71
3
 72
11
 73
7
 74
0
 42
0.0000001
 43
0.0000001
 44
0.0000000001
 40
0.0
 40
0.0
 40
0.0
 40
0.0
 40
0.2490354585
 40
0.4985183698
 40
0.7487843769
 40
1.0
 40
1.0
 40
1.0
 40
1.0
 10
22.2495015894
 20
63.5314285714
 30
0.0
 10
21.9273457731
 20
63.53142857
 30
0.0
 10
21.2821184375
 20
63.559908422
 30
0.0
 10
20.3205110161
 20
63.6845717289
 30
0.0
 10
19.3687040399
 20
63.8829816552
 30
0.0
 10
18.7431902648
 20
64.0565953215
 30
0.0
 10
18.4325142422
 20
64.1519361834
 30
0.0
  0
SPLINE
  5
291
100
AcDbEntity
  8
0
100
AcDbSpline
 62
7
  6
BYLAYER
 70
0
 71
3
 72
11
 73
7
 74
0
 42
0.0000001
 43
0.0000001
 44
0.0000000001
 40
0.0
 40
0.0
 40
0.0
 40
0.0
 40
0.2512964424
 40
0.501588353
 40
0.7510378001
 40
1.0
 40
1.0
 40
1.0
 40
1.0
 10
26.7593091614
 20
65.8568260057
 30
0.0
 10
27.0836075692
 20
65.9598551466
 30
0.0
 10
27.7367146565
 20
66.1479401562
 30
0.0
 10
28.7313772351
 20
66.3639437395
 30
0.0
 10
29.7371265704
 20
66.5002124146
 30
0.0
 10
30.4123911048
 20
66.5314285718
 30
0.0
 10
30.7495015522
 20
66.5314285714
 30
0.0
  0
SPLINE
  5
292
100
AcDbEntity
  8
0
100
AcDbSpline
 62
7
  6
BYLAYER
 70
0
 71
3
 72
11
 73
7
 74
0
 42
0.0000001
 43
0.0000001
 44
0.0000000001
 40
0.0
 40
0.0
 40
0.0
 40
0.0
 40
0.2490354585
 40
0.4985183698
 40
0.7487843768
 40
1.0
 40
1.0
 40
1.0
 40
1.0
 10
22.2495015385
 20
66.5314285714
 30
0.0
 10
22.5716573509
 20
66.5314285715
 30
0.0
 10
23.2168846784
 20
66.5029487105
 30
0.0
 10
24.1784920873
 20
66.3782854048
 30
0.0
 10
25.1302990546
 20
66.1798754899
 30
0.0
 10
25.7558128171
 20
66.0062618087
 30
0.0
 10
26.0664888384
 20
65.9109209559
 30
0.0
  0
SPLINE
  5
293
100
AcDbEntity
  8
0
100
AcDbSpline
 62
7
  6
BYLAYER
 70
0
 71
3
 72
11
 73
7
 74
0
 42
0.0000001
 43
0.0000001
 44
0.0000000001
 40
0.0
 40
0.0
 40
0.0
 40
0.0
 40
0.2512101947
 40
0.5014743657
 40
0.7509613101
 40
1.0
 40
1.0
 40
1.0
 40
1.0
 10
18.4325142422
 20
65.9109209594
 30
0.0
 10
18.7431838136
 20
66.0062598322
 30
0.0
 10
19.3686743381
 20
66.1799296738
 30
0.0
 10
20.3204959283
 20
66.3782507511
 30
0.0
 10
21.282100532
 20
66.5029907215
 30
0.0
 10
21.927341273
 20
66.5314285714
 30
0.0
 10
22.2495015385
 20
66.5314285714
 30
0.0
  0
SPLINE
  5
294
100
AcDbEntity
  8
0
100
AcDbSpline
 62
7
  6
BYLAYER
 70
0
 71
3
 72
11
 73
7
 74
0
 42
0.0000001
 43
0.0000001
 44
0.0000000001
 40
0.0
 40
0.0
 40
0.0
 40
0.0
 40
0.2512964423
 40
0.501588353
 40
0.7510378001
 40
1.0
 40
1.0
 40
1.0
 40
1.0
 10
34.7396939192
 20
57.2060311378
 30
0.0
 10
34.4153955135
 20
57.1030019975
 30
0.0
 10
33.7622884292
 20
56.9149169926
 30
0.0
 10
32.7676258569
 20
56.6989134093
 30
0.0
 10
31.7618765274
 20
56.562644739
 30
0.0
 10
31.0866119976
 20
56.5314285718
 30
0.0
 10
30.7495015522
 20
56.5314285714
 30
0.0
  0
SPLINE
  5
295
100
AcDbEntity
  8
0
100
AcDbSpline
 62
7
  6
BYLAYER
 70
0
 71
3
 72
11
 73
7
 74
0
 42
0.0000001
 43
0.0000001
 44
0.0000000001
 40
0.0
 40
0.0
 40
0.0
 40
0.0
 40
0.2512099322
 40
0.501474398
 40
0.7509612109
 40
1.0
 40
1.0
 40
1.0
 40
1.0
 10
26.0664888384
 20
57.1519361869
 30
0.0
 10
25.7558197853
 20
57.0565974729
 30
0.0
 10
25.1303215205
 20
56.8829601761
 30
0.0
 10
24.1785104671
 20
56.6845897842
 30
0.0
 10
23.216899659
 20
56.5598987554
 30
0.0
 10
22.5716617316
 20
56.5314285714
 30
0.0
 10
22.2495015385
 20
56.5314285714
 30
0.0
  0
SPLINE
  5
296
100
AcDbEntity
  8
0
100
AcDbSpline
 62
7
  6
BYLAYER
 70
0
 71
3
 72
11
 73
7
 74
0
 42
0.0000001
 43
0.0000001
 44
0.0000000001
 40
0.0
 40
0.0
 40
0.0
 40
0.0
 40
0.2490353298
 40
0.4985183921
 40
0.7487841884
 40
1.0
 40
1.0
 40
1.0
 40
1.0
 10
22.2495015894
 20
59.5314285714
 30
0.0
 10
22.571657398
 20
59.53142857
 30
0.0
 10
23.2168867601
 20
59.5029721609
 30
0.0
 10
24.1784899891
 20
59.3782754605
 30
0.0
 10
25.1303047616
 20
59.1799010085
 30
0.0
 10
25.7558124296
 20
59.0062619363
 30
0.0
 10
26.0664888384
 20
58.9109209559
 30
0.0
  0
SPLINE
  5
297
100
AcDbEntity
  8
0
100
AcDbSpline
 62
7
  6
BYLAYER
 70
0
 71
3
 72
11
 73
7
 74
0
 42
0.0000001
 43
0.0000001
 44
0.0000000001
 40
0.0
 40
0.0
 40
0.0
 40
0.0
 40
0.2512964433
 40
0.5015883548
 40
0.7510378005
 40
1.0
 40
1.0
 40
1.0
 40
1.0
 10
26.7593091614
 20
58.8568260373
 30
0.0
 10
27.0836075705
 20
58.9598551806
 30
0.0
 10
27.7367146476
 20
59.1479402263
 30
0.0
 10
28.7313771922
 20
59.3639440029
 30
0.0
 10
29.7371265619
 20
59.5002124825
 30
0.0
 10
30.412391093
 20
59.5314285714
 30
0.0
 10
30.7495015406
 20
59.5314285714
 30
0.0
  0
SPLINE
  5
298
100
AcDbEntity
  8
0
100
AcDbSpline
 62
7
  6
BYLAYER
 70
0
 71
3
 72
11
 73
7
 74
0
 42
0.0000001
 43
0.0000001
 44
0.0000000001
 40
0.0
 40
0.0
 40
0.0
 40
0.0
 40
0.248962233
 40
0.4984116828
 40
0.7487035809
 40
1.0
 40
1.0
 40
1.0
 40
1.0
 10
30.7495015522
 20
56.5314285714
 30
0.0
 10
30.4123910601
 20
56.5314285711
 30
0.0
 10
29.7371264768
 20
56.5626447203
 30
0.0
 10
28.7313771117
 20
56.6989134216
 30
0.0
 10
27.7367145899
 20
56.9149170468
 30
0.0
 10
27.0836075391
 20
57.1030020058
 30
0.0
 10
26.7593091614
 20
57.2060311372
 30
0.0
  0
SPLINE
  5
299
100
AcDbEntity
  8
0
100
AcDbSpline
 62
7
  6
BYLAYER
 70
0
 71
3
 72
11
 73
7
 74
0
 42
0.0000001
 43
0.0000001
 44
0.0000000001
 40
0.0
 40
0.0
 40
0.0
 40
0.0
 40
0.2490353297
 40
0.4985183921
 40
0.7487841885
 40
1.0
 40
1.0
 40
1.0
 40
1.0
 10
22.2495015385
 20
56.5314285714
 30
0.0
 10
21.9273457261
 20
56.5314285715
 30
0.0
 10
21.282116355
 20
56.5598849633
 30
0.0
 10
20.3205131156
 20
56.6845816788
 30
0.0
 10
19.3686983301
 20
56.8829561264
 30
0.0
 10
18.7431906573
 20
57.05659521
 30
0.0
 10
18.4325142422
 20
57.1519361834
 30
0.0
  0
SPLINE
  5
29A
100
AcDbEntity
  8
0
100
AcDbSpline
 62
7
  6
BYLAYER
 70
0
 71
3
 72
11
 73
7
 74
0
 42
0.0000001
 43
0.0000001
 44
0.0000000001
 40
0.0
 40
0.0
 40
0.0
 40
0.0
 40
0.2489620696
 40
0.498411709
 40
0.7487033859
 40
1.0
 40
1.0
 40
1.0
 40
1.0
 10
30.7495015406
 20
59.5314285714
 30
0.0
 10
31.0866120213
 20
59.5314285714
 30
0.0
 10
31.7618790785
 20
59.5002411041
 30
0.0
 10
32.7676239054
 20
59.3639352131
 30
0.0
 10
33.7622943803
 20
59.14796605
 30
0.0
 10
34.4153950887
 20
58.9598553134
 30
0.0
 10
34.7396939192
 20
58.8568260362
 30
0.0
  0
SPLINE
  5
29B
100
AcDbEntity
  8
0
100
AcDbSpline
 62
7
  6
BYLAYER
 70
0
 71
3
 72
11
 73
7
 74
0
 42
0.0000001
 43
0.0000001
 44
0.0000000001
 40
0.0
 40
0.0
 40
0.0
 40
0.0
 40
0.2512099322
 40
0.501474398
 40
0.7509612109
 40
1.0
 40
1.0
 40
1.0
 40
1.0
 10
18.4325142422
 20
58.9109209594
 30
0.0
 10
18.7431832965
 20
59.0062596828
 30
0.0
 10
19.3686815735
 20
59.1798969666
 30
0.0
 10
20.3204926365
 20
59.3782673671
 30
0.0
 10
21.2821034568
 20
59.5029583975
 30
0.0
 10
21.9273413924
 20
59.5314285729
 30
0.0
 10
22.2495015894
 20
59.5314285714
 30
0.0
  0
ELLIPSE
  5
29C
100
AcDbEntity
  8
0
100
AcDbEllipse
 62
7
  6
BYLAYER
 10
27.8450168938
 20
60.4920018271
 30
0.0
 11
-6.2207204371
 21
6.9314322382
 31
0.0
 40
0.5754627739
 41
-1.7429586143
 42
-1.7423775439
  0
ELLIPSE
  5
29D
100
AcDbEntity
  8
0
100
AcDbEllipse
 62
7
  6
BYLAYER
 10
27.4914516665
 20
65.4247303758
 30
0.0
 11
6.4469290971
 21
6.8367675082
 31
0.0
 40
0.5863744367
 41
4.8791148637
 42
4.8830345478
  0
ELLIPSE
  5
29E
100
AcDbEntity
  8
0
100
AcDbEllipse
 62
7
  6
BYLAYER
 10
25.5075514141
 20
65.4247303758
 30
0.0
 11
-6.4469290971
 21
6.8367675082
 31
0.0
 40
0.5863744367
 41
1.4001512048
 42
1.4040704434
  0
ELLIPSE
  5
29F
100
AcDbEntity
  8
0
100
AcDbEllipse
 62
7
  6
BYLAYER
 10
27.1313334314
 20
60.4920018271
 30
0.0
 11
-5.0865149455
 21
6.7252967502
 31
0.0
 40
0.7772485561
 41
-1.7976715889
 42
-1.7902232144
  0
ELLIPSE
  5
2A0
100
AcDbEntity
  8
0
100
AcDbEllipse
 62
7
  6
BYLAYER
 10
27.6154673264
 20
60.4920018271
 30
0.0
 11
-5.9202559579
 21
6.8236913888
 31
0.0
 40
0.6386759476
 41
-1.772230277
 42
-1.7486870591
  0
ELLIPSE
  5
2A1
100
AcDbEntity
  8
0
100
AcDbEllipse
 62
7
  6
BYLAYER
 10
28.0637331628
 20
60.4920018271
 30
0.0
 11
-6.4824495915
 21
7.0480159323
 31
0.0
 40
0.5159191069
 41
-1.7092875862
 42
-1.6752065722
  0
ELLIPSE
  5
2A2
100
AcDbEntity
  8
0
100
AcDbEllipse
 62
7
  6
BYLAYER
 10
28.4617233078
 20
60.4920018271
 30
0.0
 11
-6.9216984394
 21
7.2769696888
 31
0.0
 40
0.4062082967
 41
-1.6349387742
 42
-1.5930114798
  0
ELLIPSE
  5
2A3
100
AcDbEntity
  8
0
100
AcDbEllipse
 62
7
  6
BYLAYER
 10
28.7966460307
 20
60.4920018271
 30
0.0
 11
-7.268044928
 21
7.4765406722
 31
0.0
 40
0.3064555396
 41
-1.5557693485
 42
-1.5073953105
  0
ELLIPSE
  5
2A4
100
AcDbEntity
  8
0
100
AcDbEllipse
 62
7
  6
BYLAYER
 10
25.1539861868
 20
60.4920018271
 30
0.0
 11
6.2207204371
 21
6.9314322382
 31
0.0
 40
0.5754627739
 41
-4.540807727
 42
-4.5402266929
  0
ELLIPSE
  5
2A5
100
AcDbEntity
  8
0
100
AcDbEllipse
 62
7
  6
BYLAYER
 10
29.0577366396
 20
60.4920018271
 30
0.0
 11
-7.5282167115
 21
7.6331288306
 31
0.0
 40
0.2139823
 41
-1.4742207939
 42
-1.4201217952
  0
ELLIPSE
  5
2A6
100
AcDbEntity
  8
0
100
AcDbEllipse
 62
7
  6
BYLAYER
 10
29.2366034675
 20
60.4920018271
 30
0.0
 11
-7.7026497539
 21
7.7402006165
 31
0.0
 40
0.1264692835
 41
-1.391428999
 42
-1.3322802269
  0
ELLIPSE
  5
2A7
100
AcDbEntity
  8
0
100
AcDbEllipse
 62
7
  6
BYLAYER
 10
29.3274975873
 20
60.4920018271
 30
0.0
 11
-7.7902843385
 21
7.794448427
 31
0.0
 40
0.0418408513
 41
-1.3080256756
 42
-1.2430383942
  0
ELLIPSE
  5
2A8
100
AcDbEntity
  8
0
100
AcDbEllipse
 62
7
  6
BYLAYER
 10
26.5934171706
 20
65.4247303758
 30
0.0
 11
3.4237190403
 21
7.1153262798
 31
0.0
 40
0.9421244918
 41
-1.483549955
 42
-1.4164428607
  0
ELLIPSE
  5
2A9
100
AcDbEntity
  8
0
100
AcDbEllipse
 62
7
  6
BYLAYER
 10
26.9653050129
 20
65.4247303758
 30
0.0
 11
5.5530222093
 21
6.469413374
 31
0.0
 40
0.7886457323
 41
-1.3140899128
 42
-1.2469828185
  0
ELLIPSE
  5
2AA
100
AcDbEntity
  8
0
100
AcDbEllipse
 62
7
  6
BYLAYER
 10
27.3222215482
 20
65.4247303758
 30
0.0
 11
6.197937693
 21
6.695058716
 31
0.0
 40
0.6495644904
 41
-1.3677680495
 42
-1.3006609551
  0
ELLIPSE
  5
2AB
100
AcDbEntity
  8
0
100
AcDbEllipse
 62
7
  6
BYLAYER
 10
27.6526951856
 20
65.4247303758
 30
0.0
 11
6.6685500783
 21
6.9780819968
 31
0.0
 40
0.5267450305
 41
-1.4428193721
 42
-1.3757122777
  0
ELLIPSE
  5
2AC
100
AcDbEntity
  8
0
100
AcDbEllipse
 62
7
  6
BYLAYER
 10
27.9461042304
 20
65.4247303758
 30
0.0
 11
7.0466597578
 21
7.2404907802
 31
0.0
 40
0.4163458233
 41
-1.524186034
 42
-1.4570789397
  0
ELLIPSE
  5
2AD
100
AcDbEntity
  8
0
100
AcDbEllipse
 62
7
  6
BYLAYER
 10
28.1930182744
 20
65.4247303758
 30
0.0
 11
7.3476587713
 21
7.4611649987
 31
0.0
 40
0.315182696
 41
-1.6082077057
 42
-1.5411006114
  0
ELLIPSE
  5
2AE
100
AcDbEntity
  8
0
100
AcDbEllipse
 62
7
  6
BYLAYER
 10
28.3855012972
 20
65.4247303758
 30
0.0
 11
7.5743709651
 21
7.6313984435
 31
0.0
 40
0.2206788892
 41
-1.6935424562
 42
-1.6264353618
  0
ELLIPSE
  5
2AF
100
AcDbEntity
  8
0
100
AcDbEllipse
 62
7
  6
BYLAYER
 10
28.517366736
 20
65.4247303758
 30
0.0
 11
7.7264004309
 21
7.7467918457
 31
0.0
 40
0.130674701
 41
-1.7795669473
 42
-1.712459853
  0
ELLIPSE
  5
2B0
100
AcDbEntity
  8
0
100
AcDbEllipse
 62
7
  6
BYLAYER
 10
28.584376327
 20
65.4247303758
 30
0.0
 11
7.8027481921
 21
7.8050083264
 31
0.0
 40
0.0432740808
 41
-1.8659325838
 42
-1.7988254894
  0
ELLIPSE
  5
2B1
100
AcDbEntity
  8
0
100
AcDbEllipse
 62
7
  6
BYLAYER
 10
24.4146267536
 20
65.4247303758
 30
0.0
 11
-7.8027481921
 21
7.8050083264
 31
0.0
 40
0.0432740808
 41
-4.4843598178
 42
-4.4172527234
  0
ELLIPSE
  5
2B2
100
AcDbEntity
  8
0
100
AcDbEllipse
 62
7
  6
BYLAYER
 10
24.4816363447
 20
65.4247303758
 30
0.0
 11
-7.7264004309
 21
7.7467918457
 31
0.0
 40
0.130674701
 41
-4.5707254542
 42
-4.5036183599
  0
ELLIPSE
  5
2B3
100
AcDbEntity
  8
0
100
AcDbEllipse
 62
7
  6
BYLAYER
 10
24.6135017834
 20
65.4247303758
 30
0.0
 11
-7.5743709651
 21
7.6313984435
 31
0.0
 40
0.2206788892
 41
-4.6567499453
 42
-4.589642851
  0
ELLIPSE
  5
2B4
100
AcDbEntity
  8
0
100
AcDbEllipse
 62
7
  6
BYLAYER
 10
24.8059848062
 20
65.4247303758
 30
0.0
 11
-7.3476587713
 21
7.4611649987
 31
0.0
 40
0.315182696
 41
1.5411006114
 42
1.6082077057
  0
ELLIPSE
  5
2B5
100
AcDbEntity
  8
0
100
AcDbEllipse
 62
7
  6
BYLAYER
 10
25.0528988503
 20
65.4247303758
 30
0.0
 11
-7.0466597578
 21
7.2404907802
 31
0.0
 40
0.4163458233
 41
1.4570789397
 42
1.524186034
  0
ELLIPSE
  5
2B6
100
AcDbEntity
  8
0
100
AcDbEllipse
 62
7
  6
BYLAYER
 10
25.346307895
 20
65.4247303758
 30
0.0
 11
-6.6685500783
 21
6.9780819968
 31
0.0
 40
0.5267450305
 41
1.3757122777
 42
1.4428193721
  0
ELLIPSE
  5
2B7
100
AcDbEntity
  8
0
100
AcDbEllipse
 62
7
  6
BYLAYER
 10
25.6767815324
 20
65.4247303758
 30
0.0
 11
-6.197937693
 21
6.695058716
 31
0.0
 40
0.6495644904
 41
1.3006609551
 42
1.3677680495
  0
ELLIPSE
  5
2B8
100
AcDbEntity
  8
0
100
AcDbEllipse
 62
7
  6
BYLAYER
 10
26.0336980678
 20
65.4247303758
 30
0.0
 11
-5.5530222093
 21
6.469413374
 31
0.0
 40
0.7886457323
 41
1.2469828185
 42
1.3140899128
  0
ELLIPSE
  5
2B9
100
AcDbEntity
  8
0
100
AcDbEllipse
 62
7
  6
BYLAYER
 10
26.40558591
 20
65.4247303758
 30
0.0
 11
-3.4237190403
 21
7.1153262798
 31
0.0
 40
0.9421244918
 41
1.4164428607
 42
1.483549955
  0
ELLIPSE
  5
2BA
100
AcDbEntity
  8
0
100
AcDbEllipse
 62
7
  6
BYLAYER
 10
23.6715054933
 20
60.4920018271
 30
0.0
 11
7.7902843385
 21
7.794448427
 31
0.0
 40
0.0418408513
 41
1.2430384603
 42
1.3080256756
  0
ELLIPSE
  5
2BB
100
AcDbEntity
  8
0
100
AcDbEllipse
 62
7
  6
BYLAYER
 10
23.7623996131
 20
60.4920018271
 30
0.0
 11
7.7026497539
 21
7.7402006165
 31
0.0
 40
0.1264692835
 41
1.3322804057
 42
1.391428999
  0
ELLIPSE
  5
2BC
100
AcDbEntity
  8
0
100
AcDbEllipse
 62
7
  6
BYLAYER
 10
23.941266441
 20
60.4920018271
 30
0.0
 11
7.5282167115
 21
7.6331288306
 31
0.0
 40
0.2139823
 41
1.4201220283
 42
1.4742207939
  0
ELLIPSE
  5
2BD
100
AcDbEntity
  8
0
100
AcDbEllipse
 62
7
  6
BYLAYER
 10
24.2023570499
 20
60.4920018271
 30
0.0
 11
7.268044928
 21
7.4765406722
 31
0.0
 40
0.3064555396
 41
1.5073955921
 42
1.5557693485
  0
ELLIPSE
  5
2BE
100
AcDbEntity
  8
0
100
AcDbEllipse
 62
7
  6
BYLAYER
 10
24.5372797728
 20
60.4920018271
 30
0.0
 11
6.9216984394
 21
7.2769696888
 31
0.0
 40
0.4062082967
 41
-4.6901738679
 42
-4.6482465329
  0
ELLIPSE
  5
2BF
100
AcDbEntity
  8
0
100
AcDbEllipse
 62
7
  6
BYLAYER
 10
24.9352699178
 20
60.4920018271
 30
0.0
 11
6.4824495915
 21
7.0480159323
 31
0.0
 40
0.5159191069
 41
-4.6079787463
 42
-4.573897721
  0
ELLIPSE
  5
2C0
100
AcDbEntity
  8
0
100
AcDbEllipse
 62
7
  6
BYLAYER
 10
25.3835357543
 20
60.4920018271
 30
0.0
 11
5.9202559579
 21
6.8236913888
 31
0.0
 40
0.6386759476
 41
-4.5344982847
 42
-4.5109550302
  0
ELLIPSE
  5
2C1
100
AcDbEntity
  8
0
100
AcDbEllipse
 62
7
  6
BYLAYER
 10
25.8676696493
 20
60.4920018271
 30
0.0
 11
5.0865149455
 21
6.7252967502
 31
0.0
 40
0.7772485561
 41
1.7902231974
 42
1.7976715889
  0
ELLIPSE
  5
2C2
100
AcDbEntity
  8
0
100
AcDbEllipse
 62
7
  6
BYLAYER
 10
25.6767815324
 20
65.4247303758
 30
0.0
 11
-6.197937693
 21
6.695058716
 31
0.0
 40
0.6495644904
 41
-2.4505663003
 42
-2.3834592059
  0
ELLIPSE
  5
2C3
100
AcDbEntity
  8
0
100
AcDbEllipse
 62
7
  6
BYLAYER
 10
25.622070422
 20
60.4920018271
 30
0.0
 11
5.5603216015
 21
6.7418945421
 31
0.0
 40
0.7059151333
 41
-0.7390048479
 42
-0.7178024436
  0
ELLIPSE
  5
2C4
100
AcDbEntity
  8
0
100
AcDbEllipse
 62
7
  6
BYLAYER
 10
24.4816363447
 20
65.4247303758
 30
0.0
 11
-7.7264004309
 21
7.7467918457
 31
0.0
 40
0.130674701
 41
-2.0387674024
 42
-1.9716603081
  0
ELLIPSE
  5
2C5
100
AcDbEntity
  8
0
100
AcDbEllipse
 62
7
  6
BYLAYER
 10
27.3769326586
 20
60.4920018271
 30
0.0
 11
-5.5603216015
 21
6.7418945421
 31
0.0
 40
0.7059151333
 41
0.7178026724
 42
0.7390048479
  0
ELLIPSE
  5
2C6
100
AcDbEntity
  8
0
100
AcDbEllipse
 62
7
  6
BYLAYER
 10
25.346307895
 20
65.4247303758
 30
0.0
 11
-6.6685500783
 21
6.9780819968
 31
0.0
 40
0.5267450305
 41
-2.3755149777
 42
-2.3084078833
  0
ELLIPSE
  5
2C7
100
AcDbEntity
  8
0
100
AcDbEllipse
 62
7
  6
BYLAYER
 10
24.4146267536
 20
65.4247303758
 30
0.0
 11
-7.8027481921
 21
7.8050083264
 31
0.0
 40
0.0432740808
 41
-1.952401766
 42
-1.8852946716
  0
ELLIPSE
  5
2C8
100
AcDbEntity
  8
0
100
AcDbEllipse
 62
7
  6
BYLAYER
 10
25.0528988503
 20
65.4247303758
 30
0.0
 11
-7.0466597578
 21
7.2404907802
 31
0.0
 40
0.4163458233
 41
-2.2941483157
 42
-2.2270412214
  0
ELLIPSE
  5
2C9
100
AcDbEntity
  8
0
100
AcDbEllipse
 62
7
  6
BYLAYER
 10
24.8059848062
 20
65.4247303758
 30
0.0
 11
-7.3476587713
 21
7.4611649987
 31
0.0
 40
0.315182696
 41
-2.210126644
 42
-2.1430195497
  0
ELLIPSE
  5
2CA
100
AcDbEntity
  8
0
100
AcDbEllipse
 62
7
  6
BYLAYER
 10
26.0336980678
 20
65.4247303758
 30
0.0
 11
-5.5530222093
 21
6.469413374
 31
0.0
 40
0.7886457323
 41
-2.5042444369
 42
-2.4371373426
  0
ELLIPSE
  5
2CB
100
AcDbEntity
  8
0
100
AcDbEllipse
 62
7
  6
BYLAYER
 10
28.584376327
 20
65.4247303758
 30
0.0
 11
7.8027481921
 21
7.8050083264
 31
0.0
 40
0.0432740808
 41
-4.3978906356
 42
-4.3307835412
  0
ELLIPSE
  5
2CC
100
AcDbEntity
  8
0
100
AcDbEllipse
 62
7
  6
BYLAYER
 10
28.517366736
 20
65.4247303758
 30
0.0
 11
7.7264004309
 21
7.7467918457
 31
0.0
 40
0.130674701
 41
-4.3115249991
 42
-4.2444179047
  0
ELLIPSE
  5
2CD
100
AcDbEntity
  8
0
100
AcDbEllipse
 62
7
  6
BYLAYER
 10
28.3855012972
 20
65.4247303758
 30
0.0
 11
7.5743709651
 21
7.6313984435
 31
0.0
 40
0.2206788892
 41
-4.225500508
 42
-4.1583934136
  0
ELLIPSE
  5
2CE
100
AcDbEntity
  8
0
100
AcDbEllipse
 62
7
  6
BYLAYER
 10
28.1930182744
 20
65.4247303758
 30
0.0
 11
7.3476587713
 21
7.4611649987
 31
0.0
 40
0.315182696
 41
-4.1401657575
 42
-4.0730586632
  0
ELLIPSE
  5
2CF
100
AcDbEntity
  8
0
100
AcDbEllipse
 62
7
  6
BYLAYER
 10
27.9461042304
 20
65.4247303758
 30
0.0
 11
7.0466597578
 21
7.2404907802
 31
0.0
 40
0.4163458233
 41
-4.0561440858
 42
-3.9890369915
  0
ELLIPSE
  5
2D0
100
AcDbEntity
  8
0
100
AcDbEllipse
 62
7
  6
BYLAYER
 10
27.6526951856
 20
65.4247303758
 30
0.0
 11
6.6685500783
 21
6.9780819968
 31
0.0
 40
0.5267450305
 41
-3.9747774239
 42
-3.9076703295
  0
ELLIPSE
  5
2D1
100
AcDbEntity
  8
0
100
AcDbEllipse
 62
7
  6
BYLAYER
 10
27.3222215482
 20
65.4247303758
 30
0.0
 11
6.197937693
 21
6.695058716
 31
0.0
 40
0.6495644904
 41
-3.8997261013
 42
-3.8326190069
  0
ELLIPSE
  5
2D2
100
AcDbEntity
  8
0
100
AcDbEllipse
 62
7
  6
BYLAYER
 10
26.9653050129
 20
65.4247303758
 30
0.0
 11
5.5530222093
 21
6.469413374
 31
0.0
 40
0.7886457323
 41
-3.8460479646
 42
-3.7789408702
  0
ELLIPSE
  5
2D3
100
AcDbEntity
  8
0
100
AcDbEllipse
 62
7
  6
BYLAYER
 10
24.6135017834
 20
65.4247303758
 30
0.0
 11
-7.5743709651
 21
7.6313984435
 31
0.0
 40
0.2206788892
 41
-2.1247918936
 42
-2.0576847992
  0
ELLIPSE
  5
2D4
100
AcDbEntity
  8
0
100
AcDbEllipse
 62
7
  6
BYLAYER
 10
27.1313334314
 20
62.5708553157
 30
0.0
 11
5.0865149455
 21
6.7252967502
 31
0.0
 40
0.7772485561
 41
4.931815851
 42
4.9392642425
  0
ELLIPSE
  5
2D5
100
AcDbEntity
  8
0
100
AcDbEllipse
 62
7
  6
BYLAYER
 10
27.6154673264
 20
62.5708553157
 30
0.0
 11
5.9202559579
 21
6.8236913888
 31
0.0
 40
0.6386759476
 41
-1.3929056311
 42
-1.3693623766
  0
ELLIPSE
  5
2D6
100
AcDbEntity
  8
0
100
AcDbEllipse
 62
7
  6
BYLAYER
 10
28.0637331628
 20
62.5708553157
 30
0.0
 11
6.4824495915
 21
7.0480159323
 31
0.0
 40
0.5159191069
 41
-1.4663860927
 42
-1.4323050674
  0
ELLIPSE
  5
2D7
100
AcDbEntity
  8
0
100
AcDbEllipse
 62
7
  6
BYLAYER
 10
28.4617233078
 20
62.5708553157
 30
0.0
 11
6.9216984394
 21
7.2769696888
 31
0.0
 40
0.4062082967
 41
-1.5485812143
 42
-1.5066538794
  0
ELLIPSE
  5
2D8
100
AcDbEntity
  8
0
100
AcDbEllipse
 62
7
  6
BYLAYER
 10
28.7966460307
 20
62.5708553157
 30
0.0
 11
7.268044928
 21
7.4765406722
 31
0.0
 40
0.3064555396
 41
-1.6341970615
 42
-1.5858233051
  0
ELLIPSE
  5
2D9
100
AcDbEntity
  8
0
100
AcDbEllipse
 62
7
  6
BYLAYER
 10
29.0577366396
 20
62.5708553157
 30
0.0
 11
7.5282167115
 21
7.6331288306
 31
0.0
 40
0.2139823
 41
-1.7214706253
 42
-1.6673718597
  0
ELLIPSE
  5
2DA
100
AcDbEntity
  8
0
100
AcDbEllipse
 62
7
  6
BYLAYER
 10
29.2366034675
 20
62.5708553157
 30
0.0
 11
7.7026497539
 21
7.7402006165
 31
0.0
 40
0.1264692835
 41
-1.8093122479
 42
-1.7501636546
  0
ELLIPSE
  5
2DB
100
AcDbEntity
  8
0
100
AcDbEllipse
 62
7
  6
BYLAYER
 10
29.3274975873
 20
62.5708553157
 30
0.0
 11
7.7902843385
 21
7.794448427
 31
0.0
 40
0.0418408513
 41
-1.8985541933
 42
-1.833566978
  0
ELLIPSE
  5
2DC
100
AcDbEntity
  8
0
100
AcDbEllipse
 62
7
  6
BYLAYER
 10
25.1539861868
 20
62.5708553157
 30
0.0
 11
-6.2207204371
 21
6.9314322382
 31
0.0
 40
0.5754627739
 41
1.3986340393
 42
1.3992151097
  0
ELLIPSE
  5
2DD
100
AcDbEntity
  8
0
100
AcDbEllipse
 62
7
  6
BYLAYER
 10
27.4914516665
 20
57.6381267671
 30
0.0
 11
-6.4469290971
 21
6.8367675082
 31
0.0
 40
0.5863744367
 41
-1.7414414488
 42
-1.7375222101
  0
ELLIPSE
  5
2DE
100
AcDbEntity
  8
0
100
AcDbEllipse
 62
7
  6
BYLAYER
 10
27.8450168938
 20
62.5708553157
 30
0.0
 11
6.2207204371
 21
6.9314322382
 31
0.0
 40
0.5754627739
 41
-1.3992150734
 42
-1.3986340393
  0
ELLIPSE
  5
2DF
100
AcDbEntity
  8
0
100
AcDbEllipse
 62
7
  6
BYLAYER
 10
25.5075514141
 20
57.6381267671
 30
0.0
 11
6.4469290971
 21
6.8367675082
 31
0.0
 40
0.5863744367
 41
1.7375222101
 42
1.7414418942
  0
ELLIPSE
  5
2E0
100
AcDbEntity
  8
0
100
AcDbEllipse
 62
7
  6
BYLAYER
 10
26.5934171706
 20
57.6381267671
 30
0.0
 11
-3.4237190403
 21
7.1153262798
 31
0.0
 40
0.9421244918
 41
-1.7251497929
 42
-1.6580426986
  0
ELLIPSE
  5
2E1
100
AcDbEntity
  8
0
100
AcDbEllipse
 62
7
  6
BYLAYER
 10
26.9653050129
 20
57.6381267671
 30
0.0
 11
-5.5530222093
 21
6.469413374
 31
0.0
 40
0.7886457323
 41
-1.8946098351
 42
-1.8275027408
  0
ELLIPSE
  5
2E2
100
AcDbEntity
  8
0
100
AcDbEllipse
 62
7
  6
BYLAYER
 10
27.3222215482
 20
57.6381267671
 30
0.0
 11
-6.197937693
 21
6.695058716
 31
0.0
 40
0.6495644904
 41
-1.8409316985
 42
-1.7738246041
  0
ELLIPSE
  5
2E3
100
AcDbEntity
  8
0
100
AcDbEllipse
 62
7
  6
BYLAYER
 10
27.6526951856
 20
57.6381267671
 30
0.0
 11
-6.6685500783
 21
6.9780819968
 31
0.0
 40
0.5267450305
 41
-1.7658803759
 42
-1.6987732815
  0
ELLIPSE
  5
2E4
100
AcDbEntity
  8
0
100
AcDbEllipse
 62
7
  6
BYLAYER
 10
25.8676696493
 20
62.5708553157
 30
0.0
 11
-5.0865149455
 21
6.7252967502
 31
0.0
 40
0.7772485561
 41
1.3439210647
 42
1.3513694391
  0
ELLIPSE
  5
2E5
100
AcDbEntity
  8
0
100
AcDbEllipse
 62
7
  6
BYLAYER
 10
27.9461042304
 20
57.6381267671
 30
0.0
 11
-7.0466597578
 21
7.2404907802
 31
0.0
 40
0.4163458233
 41
-1.6845137139
 42
-1.6174066196
  0
ELLIPSE
  5
2E6
100
AcDbEntity
  8
0
100
AcDbEllipse
 62
7
  6
BYLAYER
 10
25.3835357543
 20
62.5708553157
 30
0.0
 11
-5.9202559579
 21
6.8236913888
 31
0.0
 40
0.6386759476
 41
1.3693623766
 42
1.3929055945
  0
ELLIPSE
  5
2E7
100
AcDbEntity
  8
0
100
AcDbEllipse
 62
7
  6
BYLAYER
 10
28.1930182744
 20
57.6381267671
 30
0.0
 11
-7.3476587713
 21
7.4611649987
 31
0.0
 40
0.315182696
 41
-1.6004920422
 42
-1.5333849479
  0
ELLIPSE
  5
2E8
100
AcDbEntity
  8
0
100
AcDbEllipse
 62
7
  6
BYLAYER
 10
24.9352699178
 20
62.5708553157
 30
0.0
 11
-6.4824495915
 21
7.0480159323
 31
0.0
 40
0.5159191069
 41
1.4323050674
 42
1.4663860814
  0
ELLIPSE
  5
2E9
100
AcDbEntity
  8
0
100
AcDbEllipse
 62
7
  6
BYLAYER
 10
28.3855012972
 20
57.6381267671
 30
0.0
 11
-7.5743709651
 21
7.6313984435
 31
0.0
 40
0.2206788892
 41
-1.5151572918
 42
-1.4480501974
  0
ELLIPSE
  5
2EA
100
AcDbEntity
  8
0
100
AcDbEllipse
 62
7
  6
BYLAYER
 10
24.5372797728
 20
62.5708553157
 30
0.0
 11
-6.9216984394
 21
7.2769696888
 31
0.0
 40
0.4062082967
 41
1.5066538794
 42
1.5485811738
  0
ELLIPSE
  5
2EB
100
AcDbEntity
  8
0
100
AcDbEllipse
 62
7
  6
BYLAYER
 10
28.517366736
 20
57.6381267671
 30
0.0
 11
-7.7264004309
 21
7.7467918457
 31
0.0
 40
0.130674701
 41
-1.4291328006
 42
-1.3620257063
  0
ELLIPSE
  5
2EC
100
AcDbEntity
  8
0
100
AcDbEllipse
 62
7
  6
BYLAYER
 10
24.2023570499
 20
62.5708553157
 30
0.0
 11
-7.268044928
 21
7.4765406722
 31
0.0
 40
0.3064555396
 41
-4.6973620021
 42
-4.6489879641
  0
ELLIPSE
  5
2ED
100
AcDbEntity
  8
0
100
AcDbEllipse
 62
7
  6
BYLAYER
 10
28.584376327
 20
57.6381267671
 30
0.0
 11
-7.8027481921
 21
7.8050083264
 31
0.0
 40
0.0432740808
 41
-1.3427671642
 42
-1.2756600698
  0
ELLIPSE
  5
2EE
100
AcDbEntity
  8
0
100
AcDbEllipse
 62
7
  6
BYLAYER
 10
23.941266441
 20
62.5708553157
 30
0.0
 11
-7.5282167115
 21
7.6331288306
 31
0.0
 40
0.2139823
 41
-4.6158134475
 42
-4.5617144488
  0
ELLIPSE
  5
2EF
100
AcDbEntity
  8
0
100
AcDbEllipse
 62
7
  6
BYLAYER
 10
23.6715054933
 20
62.5708553157
 30
0.0
 11
-7.7902843385
 21
7.794448427
 31
0.0
 40
0.0418408513
 41
-4.4496183291
 42
-4.3846310478
  0
ELLIPSE
  5
2F0
100
AcDbEntity
  8
0
100
AcDbEllipse
 62
7
  6
BYLAYER
 10
26.40558591
 20
57.6381267671
 30
0.0
 11
3.4237190403
 21
7.1153262798
 31
0.0
 40
0.9421244918
 41
-4.6251426086
 42
-4.5580355142
  0
ELLIPSE
  5
2F1
100
AcDbEntity
  8
0
100
AcDbEllipse
 62
7
  6
BYLAYER
 10
26.0336980678
 20
57.6381267671
 30
0.0
 11
5.5530222093
 21
6.469413374
 31
0.0
 40
0.7886457323
 41
-4.4556825664
 42
-4.388575472
  0
ELLIPSE
  5
2F2
100
AcDbEntity
  8
0
100
AcDbEllipse
 62
7
  6
BYLAYER
 10
25.6767815324
 20
57.6381267671
 30
0.0
 11
6.197937693
 21
6.695058716
 31
0.0
 40
0.6495644904
 41
-4.5093607031
 42
-4.4422536087
  0
ELLIPSE
  5
2F3
100
AcDbEntity
  8
0
100
AcDbEllipse
 62
7
  6
BYLAYER
 10
25.346307895
 20
57.6381267671
 30
0.0
 11
6.6685500783
 21
6.9780819968
 31
0.0
 40
0.5267450305
 41
-4.5844120257
 42
-4.5173049313
  0
ELLIPSE
  5
2F4
100
AcDbEntity
  8
0
100
AcDbEllipse
 62
7
  6
BYLAYER
 10
25.0528988503
 20
57.6381267671
 30
0.0
 11
7.0466597578
 21
7.2404907802
 31
0.0
 40
0.4163458233
 41
-4.6657786876
 42
-4.5986715933
  0
ELLIPSE
  5
2F5
100
AcDbEntity
  8
0
100
AcDbEllipse
 62
7
  6
BYLAYER
 10
24.8059848062
 20
57.6381267671
 30
0.0
 11
7.3476587713
 21
7.4611649987
 31
0.0
 40
0.315182696
 41
1.5333849479
 42
1.6004920422
  0
ELLIPSE
  5
2F6
100
AcDbEntity
  8
0
100
AcDbEllipse
 62
7
  6
BYLAYER
 10
24.6135017834
 20
57.6381267671
 30
0.0
 11
7.5743709651
 21
7.6313984435
 31
0.0
 40
0.2206788892
 41
1.4480501974
 42
1.5151572918
  0
ELLIPSE
  5
2F7
100
AcDbEntity
  8
0
100
AcDbEllipse
 62
7
  6
BYLAYER
 10
24.4816363447
 20
57.6381267671
 30
0.0
 11
7.7264004309
 21
7.7467918457
 31
0.0
 40
0.130674701
 41
1.3620257063
 42
1.4291328006
  0
ELLIPSE
  5
2F8
100
AcDbEntity
  8
0
100
AcDbEllipse
 62
7
  6
BYLAYER
 10
24.4146267536
 20
57.6381267671
 30
0.0
 11
7.8027481921
 21
7.8050083264
 31
0.0
 40
0.0432740808
 41
1.2756600698
 42
1.3427671642
  0
ELLIPSE
  5
2F9
100
AcDbEntity
  8
0
100
AcDbEllipse
 62
7
  6
BYLAYER
 10
23.7623996131
 20
62.5708553157
 30
0.0
 11
-7.7026497539
 21
7.7402006165
 31
0.0
 40
0.1264692835
 41
-4.5330216526
 42
-4.4738728805
  0
ELLIPSE
  5
2FA
100
AcDbEntity
  8
0
100
AcDbEllipse
 62
7
  6
BYLAYER
 10
26.9653050129
 20
57.6381267671
 30
0.0
 11
-5.5530222093
 21
6.469413374
 31
0.0
 40
0.7886457323
 41
0.6373482167
 42
0.704455311
  0
ELLIPSE
  5
2FB
100
AcDbEntity
  8
0
100
AcDbEllipse
 62
7
  6
BYLAYER
 10
27.3222215482
 20
57.6381267671
 30
0.0
 11
-6.197937693
 21
6.695058716
 31
0.0
 40
0.6495644904
 41
0.6910263533
 42
0.7581334477
  0
ELLIPSE
  5
2FC
100
AcDbEntity
  8
0
100
AcDbEllipse
 62
7
  6
BYLAYER
 10
25.622070422
 20
62.5708553157
 30
0.0
 11
-5.5603216015
 21
6.7418945421
 31
0.0
 40
0.7059151333
 41
-2.4237899812
 42
-2.4025878057
  0
ELLIPSE
  5
2FD
100
AcDbEntity
  8
0
100
AcDbEllipse
 62
7
  6
BYLAYER
 10
27.6526951856
 20
57.6381267671
 30
0.0
 11
-6.6685500783
 21
6.9780819968
 31
0.0
 40
0.5267450305
 41
0.7660776759
 42
0.8331847703
  0
ELLIPSE
  5
2FE
100
AcDbEntity
  8
0
100
AcDbEllipse
 62
7
  6
BYLAYER
 10
27.9461042304
 20
57.6381267671
 30
0.0
 11
-7.0466597578
 21
7.2404907802
 31
0.0
 40
0.4163458233
 41
0.8474443379
 42
0.9145514322
  0
ELLIPSE
  5
2FF
100
AcDbEntity
  8
0
100
AcDbEllipse
 62
7
  6
BYLAYER
 10
28.1930182744
 20
57.6381267671
 30
0.0
 11
-7.3476587713
 21
7.4611649987
 31
0.0
 40
0.315182696
 41
0.9314660096
 42
0.9985731039
  0
ELLIPSE
  5
300
100
AcDbEntity
  8
0
100
AcDbEllipse
 62
7
  6
BYLAYER
 10
27.3769326586
 20
62.5708553157
 30
0.0
 11
5.5603216015
 21
6.7418945421
 31
0.0
 40
0.7059151333
 41
-3.8805975015
 42
-3.8593950972
  0
ELLIPSE
  5
301
100
AcDbEntity
  8
0
100
AcDbEllipse
 62
7
  6
BYLAYER
 10
28.584376327
 20
57.6381267671
 30
0.0
 11
-7.8027481921
 21
7.8050083264
 31
0.0
 40
0.0432740808
 41
1.1891908876
 42
1.256297982
  0
ELLIPSE
  5
302
100
AcDbEntity
  8
0
100
AcDbEllipse
 62
7
  6
BYLAYER
 10
28.3855012972
 20
57.6381267671
 30
0.0
 11
-7.5743709651
 21
7.6313984435
 31
0.0
 40
0.2206788892
 41
1.01680076
 42
1.0839078544
  0
ELLIPSE
  5
303
100
AcDbEntity
  8
0
100
AcDbEllipse
 62
7
  6
BYLAYER
 10
24.4146267536
 20
57.6381267671
 30
0.0
 11
7.8027481921
 21
7.8050083264
 31
0.0
 40
0.0432740808
 41
-1.256297982
 42
-1.1891908876
  0
ELLIPSE
  5
304
100
AcDbEntity
  8
0
100
AcDbEllipse
 62
7
  6
BYLAYER
 10
24.4816363447
 20
57.6381267671
 30
0.0
 11
7.7264004309
 21
7.7467918457
 31
0.0
 40
0.130674701
 41
-1.1699323455
 42
-1.1028252511
  0
ELLIPSE
  5
305
100
AcDbEntity
  8
0
100
AcDbEllipse
 62
7
  6
BYLAYER
 10
24.6135017834
 20
57.6381267671
 30
0.0
 11
7.5743709651
 21
7.6313984435
 31
0.0
 40
0.2206788892
 41
-1.0839078544
 42
-1.01680076
  0
ELLIPSE
  5
306
100
AcDbEntity
  8
0
100
AcDbEllipse
 62
7
  6
BYLAYER
 10
24.8059848062
 20
57.6381267671
 30
0.0
 11
7.3476587713
 21
7.4611649987
 31
0.0
 40
0.315182696
 41
-0.9985731039
 42
-0.9314660096
  0
ELLIPSE
  5
307
100
AcDbEntity
  8
0
100
AcDbEllipse
 62
7
  6
BYLAYER
 10
25.0528988503
 20
57.6381267671
 30
0.0
 11
7.0466597578
 21
7.2404907802
 31
0.0
 40
0.4163458233
 41
-0.9145514322
 42
-0.8474443379
  0
ELLIPSE
  5
308
100
AcDbEntity
  8
0
100
AcDbEllipse
 62
7
  6
BYLAYER
 10
25.346307895
 20
57.6381267671
 30
0.0
 11
6.6685500783
 21
6.9780819968
 31
0.0
 40
0.5267450305
 41
-0.8331847703
 42
-0.7660776759
  0
ELLIPSE
  5
309
100
AcDbEntity
  8
0
100
AcDbEllipse
 62
7
  6
BYLAYER
 10
25.6767815324
 20
57.6381267671
 30
0.0
 11
6.197937693
 21
6.695058716
 31
0.0
 40
0.6495644904
 41
-0.7581334477
 42
-0.6910263533
  0
ELLIPSE
  5
30A
100
AcDbEntity
  8
0
100
AcDbEllipse
 62
7
  6
BYLAYER
 10
26.0336980678
 20
57.6381267671
 30
0.0
 11
5.5530222093
 21
6.469413374
 31
0.0
 40
0.7886457323
 41
-0.704455311
 42
-0.6373482167
  0
ELLIPSE
  5
30B
100
AcDbEntity
  8
0
100
AcDbEllipse
 62
7
  6
BYLAYER
 10
28.517366736
 20
57.6381267671
 30
0.0
 11
-7.7264004309
 21
7.7467918457
 31
0.0
 40
0.130674701
 41
1.1028252511
 42
1.1699323455
  0
ENDSEC
  0
SECTION
  2
OBJECTS
  0
DICTIONARY
  5
C
100
AcDbDictionary
280
0
281
1
  3
ACAD_GROUP
350
D
  3
ACAD_MLINESTYLE
350
17
  3
ACAD_LAYOUT
350
1A
  3
ACAD_PLOTSETTINGS
350
19
  3
ACAD_PLOTSTYLENAME
350
E
  0
DICTIONARY
  5
D
102
{ACAD_REACTORS
330
C
102
}
100
AcDbDictionary
280
0
281
1
  0
ACDBDICTIONARYWDFLT
  5
E
102
{ACAD_REACTORS
330
C
102
}
100
AcDbDictionary
281
1
  3
Normal
350
F
100
AcDbDictionaryWithDefault
340
F
  0
DICTIONARY
  5
17
102
{ACAD_REACTORS
330
C
102
}
100
AcDbDictionary
280
0
281
1
  3
Standard
350
18
  0
DICTIONARY
  5
19
102
{ACAD_REACTORS
330
C
102
}
100
AcDbDictionary
281
1
  0
DICTIONARY
  5
1A
102
{ACAD_REACTORS
330
C
102
}
100
AcDbDictionary
281
1
  3
Model
350
30C
  3
Layout1
350
30D
  0
ACDBPLACEHOLDER
  5
F
102
{ACAD_REACTORS
330
E
102
}
  0
MLINESTYLE
  5
18
102
{ACAD_REACTORS
330
17
102
}
100
AcDbMlineStyle
  2
STANDARD
 70
0
  3

 62
256
 51
90.0
 52
90.0
 71
2
 49
0.5
 62
256
  6
BYLAYER
 49
-0.5
 62
256
  6
BYLAYER
  0
LAYOUT
  5
30C
102
{ACAD_REACTORS
330
1A
102
}
100
AcDbPlotSettings
  1

  2
none_device
  4

  6

 40
0.0
 41
0.0
 42
0.0
 43
0.0
 44
210.0
 45
297.0
 46
0.0
 47
0.0
 48
0.0
 49
0.0
140
0.0
141
0.0
142
1.0
143
1.0
 70
1024
 72
1
 73
0
 74
0
  7

 75
0
147
1.0
148
0.0
149
0.0
100
AcDbLayout
  1
Model
 70
0
 71
0
 10
0.0
 20
0.0
 11
210.0
 21
297.0
 12
0.0
 22
0.0
 32
0.0
 14
0.0
 24
0.0
 34
0.0
 15
0.0
 25
0.0
 35
0.0
146
0.0
 13
0.0
 23
0.0
 33
0.0
 16
1.0
 26
0.0
 36
0.0
 17
0.0
 27
1.0
 37
0.0
 76
0
330
210
345
0
346
0
  0
LAYOUT
  5
30D
102
{ACAD_REACTORS
330
1A
102
}
100
AcDbPlotSettings
  1

  2
none_device
  4

  6

 40
0.0
 41
0.0
 42
0.0
 43
0.0
 44
210.0
 45
297.0
 46
0.0
 47
0.0
 48
0.0
 49
0.0
140
0.0
141
0.0
142
1.0
143
1.0
 70
0
 72
1
 73
0
 74
0
  7

 75
0
147
1.0
148
0.0
149
0.0
100
AcDbLayout
  1
Layout1
 70
0
 71
1
 10
0.0
 20
0.0
 11
210.0
 21
297.0
 12
0.0
 22
0.0
 32
0.0
 14
0.0
 24
0.0
 34
0.0
 15
0.0
 25
0.0
 35
0.0
146
0.0
 13
0.0
 23
0.0
 33
0.0
 16
1.0
 26
0.0
 36
0.0
 17
0.0
 27
1.0
 37
0.0
 76
0
330
211
345
0
346
0
  0
ENDSEC
  0
EOF
