  0
SECTION
  2
HEADER
  9
$ACADVER
  1
AC1009
  9
$DWGCODEPAGE
  3
ansi_1250
  9
$INSBASE
 10
0.0
 20
0.0
 30
0.0
  9
$EXTMIN
 10
-4.135
 20
-8.13
 30
0.0
  9
$EXTMAX
 10
4.135
 20
8.13
 30
0.0
  9
$LIMMIN
 10
0.0
 20
0.0
  9
$LIMMAX
 10
0.0
 20
0.0
  9
$ORTHOMODE
 70
     0
  9
$REGENMODE
 70
     1
  9
$FILLMODE
 70
     1
  9
$QTEXTMODE
 70
     0
  9
$MIRRTEXT
 70
     1
  9
$DRAGMODE
 70
     2
  9
$LTSCALE
 40
1.0
  9
$OSMODE
 70
     0
  9
$ATTMODE
 70
     1
  9
$TEXTSIZE
 40
0.2
  9
$TRACEWID
 40
0.05
  9
$TEXTSTYLE
  7
STANDARD
  9
$CLAYER
  8
0
  9
$CELTYPE
  6
CONTINUOUS
  9
$CECOLOR
 62
   256
  9
$DIMSCALE
 40
1.0
  9
$DIMASZ
 40
0.18
  9
$DIMEXO
 40
0.0625
  9
$DIMDLI
 40
0.38
  9
$DIMRND
 40
0.0
  9
$DIMDLE
 40
0.0
  9
$DIMEXE
 40
0.18
  9
$DIMTP
 40
0.0
  9
$DIMTM
 40
0.0
  9
$DIMTXT
 40
0.18
  9
$DIMCEN
 40
0.09
  9
$DIMTSZ
 40
0.0
  9
$DIMTOL
 70
     0
  9
$DIMLIM
 70
     0
  9
$DIMTIH
 70
     1
  9
$DIMTOH
 70
     1
  9
$DIMSE1
 70
     0
  9
$DIMSE2
 70
     0
  9
$DIMTAD
 70
     0
  9
$DIMZIN
 70
     0
  9
$DIMBLK
  1

  9
$DIMASO
 70
     1
  9
$DIMSHO
 70
     1
  9
$DIMPOST
  1

  9
$DIMAPOST
  1

  9
$DIMALT
 70
     0
  9
$DIMALTD
 70
     2
  9
$DIMALTF
 40
25.4
  9
$DIMLFAC
 40
1.0
  9
$DIMTOFL
 70
     0
  9
$DIMTVP
 40
0.0
  9
$DIMTIX
 70
     0
  9
$DIMSOXD
 70
     0
  9
$DIMSAH
 70
     0
  9
$DIMBLK1
  1

  9
$DIMBLK2
  1

  9
$DIMSTYLE
  2
STANDARD
  9
$DIMCLRD
 70
     0
  9
$DIMCLRE
 70
     0
  9
$DIMCLRT
 70
     0
  9
$DIMTFAC
 40
1.0
  9
$DIMGAP
 40
0.09
  9
$LUNITS
 70
     2
  9
$LUPREC
 70
     4
  9
$AXISMODE
 70
     0
  9
$AXISUNIT
 10
0.0
 20
0.0
  9
$SKETCHINC
 40
0.1
  9
$FILLETRAD
 40
0.0
  9
$AUNITS
 70
     0
  9
$AUPREC
 70
     0
  9
$MENU
  1
acad
  9
$ELEVATION
 40
0.0
  9
$PELEVATION
 40
0.0
  9
$THICKNESS
 40
0.0
  9
$LIMCHECK
 70
     0
  9
$BLIPMODE
 70
     1
  9
$CHAMFERA
 40
0.0
  9
$CHAMFERB
 40
0.0
  9
$SKPOLY
 70
     0
  9
$TDCREATE
 40
0.000000000
  9
$TDUPDATE
 40
0.000000000
  9
$TDINDWG
 40
0.0000000000
  9
$TDUSRTIMER
 40
0.0000000000
  9
$USRTIMER
 70
     1
  9
$ANGBASE
 50
0.0
  9
$ANGDIR
 70
     0
  9
$PDMODE
 70
     0
  9
$PDSIZE
 40
0.0
  9
$PLINEWID
 40
0.0
  9
$COORDS
 70
     0
  9
$SPLFRAME
 70
     0
  9
$SPLINETYPE
 70
     6
  9
$SPLINESEGS
 70
     8
  9
$ATTDIA
 70
     0
  9
$ATTREQ
 70
     1
  9
$HANDLING
 70
     1
  9
$HANDSEED
  5
916
  9
$SURFTAB1
 70
     6
  9
$SURFTAB2
 70
     6
  9
$SURFTYPE
 70
     6
  9
$SURFU
 70
     6
  9
$SURFV
 70
     6
  9
$UCSNAME
  2

  9
$UCSORG
 10
0.0
 20
0.0
 30
0.0
  9
$UCSXDIR
 10
1.0
 20
0.0
 30
0.0
  9
$UCSYDIR
 10
0.0
 20
1.0
 30
0.0
  9
$PUCSNAME
  2

  9
$PUCSORG
 10
0.0
 20
0.0
 30
0.0
  9
$PUCSXDIR
 10
1.0
 20
0.0
 30
0.0
  9
$PUCSYDIR
 10
0.0
 20
1.0
 30
0.0
  9
$USERI1
 70
     0
  9
$USERI2
 70
     0
  9
$USERI3
 70
     0
  9
$USERI4
 70
     0
  9
$USERI5
 70
     0
  9
$USERR1
 40
0.0
  9
$USERR2
 40
0.0
  9
$USERR3
 40
0.0
  9
$USERR4
 40
0.0
  9
$USERR5
 40
0.0
  9
$WORLDVIEW
 70
     1
  9
$SHADEDGE
 70
     3
  9
$SHADEDIF
 70
    70
  9
$TILEMODE
 70
     1
  9
$MAXACTVP
 70
    16
  9
$PINSBASE
 10
0.0
 20
0.0
 30
0.0
  9
$PLIMCHECK
 70
     0
  9
$PEXTMIN
 10
1.000000E+20
 20
1.000000E+20
 30
1.000000E+20
  9
$PEXTMAX
 10
-1.000000E+20
 20
-1.000000E+20
 30
-1.000000E+20
  9
$PLIMMIN
 10
0.0
 20
0.0
  9
$PLIMMAX
 10
12.0
 20
9.0
  9
$UNITMODE
 70
     0
  9
$VISRETAIN
 70
     0
  9
$PLINEGEN
 70
     1
  9
$PSLTSCALE
 70
     0
  9
$TREEDEPTH
 70
  3020
  0
ENDSEC
  0
SECTION
  2
TABLES
  0
TABLE
  2
VPORT
 70
     1
  0
VPORT
  2
*ACTIVE
 70
     0
 10
0.0
 20
0.0
 11
1.0
 21
1.0
 12
6.591288
 22
4.579184
 13
0.0
 23
0.0
 14
1.0
 24
1.0
 15
0.0
 25
0.0
 16
0.0
 26
0.0
 36
1.0
 17
0.0
 27
0.0
 37
0.0
 40
9.158369
 41
0.688564
 42
50.0
 43
0.0
 44
0.0
 50
0.0
 51
0.0
 71
     0
 72
   100
 73
     1
 74
     1
 75
     0
 76
     0
 77
     0
 78
     0
  0
ENDTAB
  0
TABLE
  2
LTYPE
 70
     5
  0
LTYPE
  2
CONTINUOUS
 70
    64
  3
Solid line
 72
    65
 73
     0
 40
0.0
  0
LTYPE
  2
CENTER
 70
    64
  3
Center ____ _ ____ _ ____ _ ____ _ ____ _ ____
 72
    65
 73
     4
 40
50.8
 49
31.75
 49
-6.35
 49
6.35
 49
-6.35
  0
LTYPE
  2
HIDDEN
 70
    64
  3
Hidden __ __ __ __ __ __ __ __ __ __ __ __ __ __
 72
    65
 73
     2
 40
9.525
 49
6.35
 49
-3.175
  0
LTYPE
  2
CENTER2
 70
    64
  3
Center (.5x) ___ _ ___ _ ___ _ ___ _ ___ _ ___
 72
    65
 73
     4
 40
28.575
 49
19.05
 49
-3.175
 49
3.175
 49
-3.175
  0
LTYPE
  2
HIDDEN2
 70
    64
  3
Hidden (.5x) _ _ _ _ _ _ _ _ _ _ _ _ _ _ _ _ _
 72
    65
 73
     2
 40
4.7625
 49
3.175
 49
-1.5875
  0
ENDTAB
  0
TABLE
  2
LAYER
 70
     1
  0
LAYER
  2
0
 70
     0
 62
     7
  6
CONTINUOUS
  0
ENDTAB
  0
TABLE
  2
STYLE
 70
     1
  0
STYLE
  2
STANDARD
 70
     0
 40
0.0
 41
1.0
 50
0.0
 71
     0
 42
0.0
  3
txt
  4

  0
ENDTAB
  0
TABLE
  2
VIEW
 70
     0
  0
ENDTAB
  0
TABLE
  2
UCS
 70
     0
  0
ENDTAB
  0
TABLE
  2
APPID
 70
     1
  0
APPID
  2
ACAD
 70
     0
  0
ENDTAB
  0
TABLE
  2
DIMSTYLE
 70
     1
  0
DIMSTYLE
  2
STANDARD
 70
     0
  3

  4

  5

  6

  7

 40
1.0
 41
0.18
 42
0.0625
 43
0.38
 44
0.18
 45
0.0
 46
0.0
 47
0.0
 48
0.0
 71
     0
 72
     0
 73
     1
 74
     1
 75
     0
 76
     0
 77
     0
 78
     0
140
0.18
141
0.09
142
0.0
143
25.4
144
1.0
145
0.0
146
1.0
147
0.09
170
     0
171
     2
172
     0
173
     0
174
     0
175
     0
176
     0
177
     0
178
     0
  0
ENDTAB
  0
ENDSEC
  0
SECTION
  2
BLOCKS
  0
ENDSEC
  0
SECTION
  2
ENTITIES
  0
LINE
  8
0
  6
CONTINUOUS
 62
     7
  5
4B0
 10
-1.575238
 20
-5.924162
 30
0.0
 11
-1.575238
 21
-4.23
 31
0.0
  0
LINE
  8
0
  6
CONTINUOUS
 62
     7
  5
4B1
 10
-1.575238
 20
-8.13
 30
0.0
 11
-1.575238
 21
-7.496231
 31
0.0
  0
LINE
  8
0
  6
CONTINUOUS
 62
     7
  5
4B2
 10
-1.575238
 20
-7.098572
 30
0.0
 11
-1.575238
 21
-6.321822
 31
0.0
  0
LINE
  8
0
  6
CONTINUOUS
 62
     7
  5
4B3
 10
-1.575238
 20
-7.496231
 30
0.0
 11
-1.565005
 21
-7.487998
 31
0.0
  0
LINE
  8
0
  6
CONTINUOUS
 62
     7
  5
4B4
 10
-1.565005
 20
-7.487998
 30
0.0
 11
-1.555218
 21
-7.479238
 31
0.0
  0
LINE
  8
0
  6
CONTINUOUS
 62
     7
  5
4B5
 10
-1.555218
 20
-7.479238
 30
0.0
 11
-1.545904
 21
-7.469976
 31
0.0
  0
LINE
  8
0
  6
CONTINUOUS
 62
     7
  5
4B6
 10
-1.545904
 20
-7.469976
 30
0.0
 11
-1.53709
 21
-7.460238
 31
0.0
  0
LINE
  8
0
  6
CONTINUOUS
 62
     7
  5
4B7
 10
-1.53709
 20
-7.460238
 30
0.0
 11
-1.5288
 21
-7.45005
 31
0.0
  0
LINE
  8
0
  6
CONTINUOUS
 62
     7
  5
4B8
 10
-1.5288
 20
-7.45005
 30
0.0
 11
-1.521056
 21
-7.439441
 31
0.0
  0
LINE
  8
0
  6
CONTINUOUS
 62
     7
  5
4B9
 10
-1.521056
 20
-7.439441
 30
0.0
 11
-1.51388
 21
-7.42844
 31
0.0
  0
LINE
  8
0
  6
CONTINUOUS
 62
     7
  5
4BA
 10
-1.51388
 20
-7.42844
 30
0.0
 11
-1.507291
 21
-7.417077
 31
0.0
  0
LINE
  8
0
  6
CONTINUOUS
 62
     7
  5
4BB
 10
-1.507291
 20
-7.417077
 30
0.0
 11
-1.501309
 21
-7.405384
 31
0.0
  0
LINE
  8
0
  6
CONTINUOUS
 62
     7
  5
4BC
 10
-1.501309
 20
-7.405384
 30
0.0
 11
-1.495949
 21
-7.393393
 31
0.0
  0
LINE
  8
0
  6
CONTINUOUS
 62
     7
  5
4BD
 10
-1.495949
 20
-7.393393
 30
0.0
 11
-1.491226
 21
-7.381137
 31
0.0
  0
LINE
  8
0
  6
CONTINUOUS
 62
     7
  5
4BE
 10
-1.491226
 20
-7.381137
 30
0.0
 11
-1.487153
 21
-7.368649
 31
0.0
  0
LINE
  8
0
  6
CONTINUOUS
 62
     7
  5
4BF
 10
-1.487153
 20
-7.368649
 30
0.0
 11
-1.483742
 21
-7.355965
 31
0.0
  0
LINE
  8
0
  6
CONTINUOUS
 62
     7
  5
4C0
 10
-1.483742
 20
-7.355965
 30
0.0
 11
-1.481002
 21
-7.34312
 31
0.0
  0
LINE
  8
0
  6
CONTINUOUS
 62
     7
  5
4C1
 10
-1.481002
 20
-7.34312
 30
0.0
 11
-1.47894
 21
-7.330148
 31
0.0
  0
LINE
  8
0
  6
CONTINUOUS
 62
     7
  5
4C2
 10
-1.47894
 20
-7.330148
 30
0.0
 11
-1.477562
 21
-7.317085
 31
0.0
  0
LINE
  8
0
  6
CONTINUOUS
 62
     7
  5
4C3
 10
-1.477562
 20
-7.317085
 30
0.0
 11
-1.476872
 21
-7.303969
 31
0.0
  0
LINE
  8
0
  6
CONTINUOUS
 62
     7
  5
4C4
 10
-1.476872
 20
-7.303969
 30
0.0
 11
-1.476872
 21
-7.290834
 31
0.0
  0
LINE
  8
0
  6
CONTINUOUS
 62
     7
  5
4C5
 10
-1.476872
 20
-7.290834
 30
0.0
 11
-1.477562
 21
-7.277718
 31
0.0
  0
LINE
  8
0
  6
CONTINUOUS
 62
     7
  5
4C6
 10
-1.477562
 20
-7.277718
 30
0.0
 11
-1.47894
 21
-7.264655
 31
0.0
  0
LINE
  8
0
  6
CONTINUOUS
 62
     7
  5
4C7
 10
-1.47894
 20
-7.264655
 30
0.0
 11
-1.481002
 21
-7.251684
 31
0.0
  0
LINE
  8
0
  6
CONTINUOUS
 62
     7
  5
4C8
 10
-1.481002
 20
-7.251684
 30
0.0
 11
-1.483742
 21
-7.238838
 31
0.0
  0
LINE
  8
0
  6
CONTINUOUS
 62
     7
  5
4C9
 10
-1.483742
 20
-7.238838
 30
0.0
 11
-1.487153
 21
-7.226154
 31
0.0
  0
LINE
  8
0
  6
CONTINUOUS
 62
     7
  5
4CA
 10
-1.487153
 20
-7.226154
 30
0.0
 11
-1.491226
 21
-7.213667
 31
0.0
  0
LINE
  8
0
  6
CONTINUOUS
 62
     7
  5
4CB
 10
-1.491226
 20
-7.213667
 30
0.0
 11
-1.495949
 21
-7.20141
 31
0.0
  0
LINE
  8
0
  6
CONTINUOUS
 62
     7
  5
4CC
 10
-1.495949
 20
-7.20141
 30
0.0
 11
-1.501309
 21
-7.189419
 31
0.0
  0
LINE
  8
0
  6
CONTINUOUS
 62
     7
  5
4CD
 10
-1.501309
 20
-7.189419
 30
0.0
 11
-1.507291
 21
-7.177726
 31
0.0
  0
LINE
  8
0
  6
CONTINUOUS
 62
     7
  5
4CE
 10
-1.507291
 20
-7.177726
 30
0.0
 11
-1.51388
 21
-7.166363
 31
0.0
  0
LINE
  8
0
  6
CONTINUOUS
 62
     7
  5
4CF
 10
-1.51388
 20
-7.166363
 30
0.0
 11
-1.521056
 21
-7.155362
 31
0.0
  0
LINE
  8
0
  6
CONTINUOUS
 62
     7
  5
4D0
 10
-1.521056
 20
-7.155362
 30
0.0
 11
-1.5288
 21
-7.144753
 31
0.0
  0
LINE
  8
0
  6
CONTINUOUS
 62
     7
  5
4D1
 10
-1.5288
 20
-7.144753
 30
0.0
 11
-1.53709
 21
-7.134565
 31
0.0
  0
LINE
  8
0
  6
CONTINUOUS
 62
     7
  5
4D2
 10
-1.53709
 20
-7.134565
 30
0.0
 11
-1.545904
 21
-7.124827
 31
0.0
  0
LINE
  8
0
  6
CONTINUOUS
 62
     7
  5
4D3
 10
-1.545904
 20
-7.124827
 30
0.0
 11
-1.555218
 21
-7.115565
 31
0.0
  0
LINE
  8
0
  6
CONTINUOUS
 62
     7
  5
4D4
 10
-1.555218
 20
-7.115565
 30
0.0
 11
-1.565005
 21
-7.106805
 31
0.0
  0
LINE
  8
0
  6
CONTINUOUS
 62
     7
  5
4D5
 10
-1.565005
 20
-7.106805
 30
0.0
 11
-1.575238
 21
-7.098572
 31
0.0
  0
LINE
  8
0
  6
CONTINUOUS
 62
     7
  5
4D6
 10
-1.378333
 20
-8.13
 30
0.0
 11
-1.575238
 21
-8.13
 31
0.0
  0
LINE
  8
0
  6
CONTINUOUS
 62
     7
  5
4D7
 10
-1.378333
 20
-8.13
 30
0.0
 11
-1.378333
 21
-4.23
 31
0.0
  0
LINE
  8
0
  6
CONTINUOUS
 62
     7
  5
4D8
 10
-1.575238
 20
-6.321822
 30
0.0
 11
-1.565005
 21
-6.313588
 31
0.0
  0
LINE
  8
0
  6
CONTINUOUS
 62
     7
  5
4D9
 10
-1.565005
 20
-6.313588
 30
0.0
 11
-1.555218
 21
-6.304828
 31
0.0
  0
LINE
  8
0
  6
CONTINUOUS
 62
     7
  5
4DA
 10
-1.555218
 20
-6.304828
 30
0.0
 11
-1.545904
 21
-6.295566
 31
0.0
  0
LINE
  8
0
  6
CONTINUOUS
 62
     7
  5
4DB
 10
-1.545904
 20
-6.295566
 30
0.0
 11
-1.53709
 21
-6.285828
 31
0.0
  0
LINE
  8
0
  6
CONTINUOUS
 62
     7
  5
4DC
 10
-1.53709
 20
-6.285828
 30
0.0
 11
-1.5288
 21
-6.275641
 31
0.0
  0
LINE
  8
0
  6
CONTINUOUS
 62
     7
  5
4DD
 10
-1.5288
 20
-6.275641
 30
0.0
 11
-1.521056
 21
-6.265032
 31
0.0
  0
LINE
  8
0
  6
CONTINUOUS
 62
     7
  5
4DE
 10
-1.521056
 20
-6.265032
 30
0.0
 11
-1.51388
 21
-6.25403
 31
0.0
  0
LINE
  8
0
  6
CONTINUOUS
 62
     7
  5
4DF
 10
-1.51388
 20
-6.25403
 30
0.0
 11
-1.507291
 21
-6.242668
 31
0.0
  0
LINE
  8
0
  6
CONTINUOUS
 62
     7
  5
4E0
 10
-1.507291
 20
-6.242668
 30
0.0
 11
-1.501309
 21
-6.230974
 31
0.0
  0
LINE
  8
0
  6
CONTINUOUS
 62
     7
  5
4E1
 10
-1.501309
 20
-6.230974
 30
0.0
 11
-1.495949
 21
-6.218983
 31
0.0
  0
LINE
  8
0
  6
CONTINUOUS
 62
     7
  5
4E2
 10
-1.495949
 20
-6.218983
 30
0.0
 11
-1.491226
 21
-6.206727
 31
0.0
  0
LINE
  8
0
  6
CONTINUOUS
 62
     7
  5
4E3
 10
-1.491226
 20
-6.206727
 30
0.0
 11
-1.487153
 21
-6.19424
 31
0.0
  0
LINE
  8
0
  6
CONTINUOUS
 62
     7
  5
4E4
 10
-1.487153
 20
-6.19424
 30
0.0
 11
-1.483742
 21
-6.181556
 31
0.0
  0
LINE
  8
0
  6
CONTINUOUS
 62
     7
  5
4E5
 10
-1.483742
 20
-6.181556
 30
0.0
 11
-1.481002
 21
-6.16871
 31
0.0
  0
LINE
  8
0
  6
CONTINUOUS
 62
     7
  5
4E6
 10
-1.481002
 20
-6.16871
 30
0.0
 11
-1.47894
 21
-6.155738
 31
0.0
  0
LINE
  8
0
  6
CONTINUOUS
 62
     7
  5
4E7
 10
-1.47894
 20
-6.155738
 30
0.0
 11
-1.477562
 21
-6.142676
 31
0.0
  0
LINE
  8
0
  6
CONTINUOUS
 62
     7
  5
4E8
 10
-1.477562
 20
-6.142676
 30
0.0
 11
-1.476872
 21
-6.129559
 31
0.0
  0
LINE
  8
0
  6
CONTINUOUS
 62
     7
  5
4E9
 10
-1.476872
 20
-6.129559
 30
0.0
 11
-1.476872
 21
-6.116425
 31
0.0
  0
LINE
  8
0
  6
CONTINUOUS
 62
     7
  5
4EA
 10
-1.476872
 20
-6.116425
 30
0.0
 11
-1.477562
 21
-6.103308
 31
0.0
  0
LINE
  8
0
  6
CONTINUOUS
 62
     7
  5
4EB
 10
-1.477562
 20
-6.103308
 30
0.0
 11
-1.47894
 21
-6.090246
 31
0.0
  0
LINE
  8
0
  6
CONTINUOUS
 62
     7
  5
4EC
 10
-1.47894
 20
-6.090246
 30
0.0
 11
-1.481002
 21
-6.077274
 31
0.0
  0
LINE
  8
0
  6
CONTINUOUS
 62
     7
  5
4ED
 10
-1.481002
 20
-6.077274
 30
0.0
 11
-1.483742
 21
-6.064428
 31
0.0
  0
LINE
  8
0
  6
CONTINUOUS
 62
     7
  5
4EE
 10
-1.483742
 20
-6.064428
 30
0.0
 11
-1.487153
 21
-6.051744
 31
0.0
  0
LINE
  8
0
  6
CONTINUOUS
 62
     7
  5
4EF
 10
-1.487153
 20
-6.051744
 30
0.0
 11
-1.491226
 21
-6.039257
 31
0.0
  0
LINE
  8
0
  6
CONTINUOUS
 62
     7
  5
4F0
 10
-1.491226
 20
-6.039257
 30
0.0
 11
-1.495949
 21
-6.027001
 31
0.0
  0
LINE
  8
0
  6
CONTINUOUS
 62
     7
  5
4F1
 10
-1.495949
 20
-6.027001
 30
0.0
 11
-1.501309
 21
-6.01501
 31
0.0
  0
LINE
  8
0
  6
CONTINUOUS
 62
     7
  5
4F2
 10
-1.501309
 20
-6.01501
 30
0.0
 11
-1.507291
 21
-6.003317
 31
0.0
  0
LINE
  8
0
  6
CONTINUOUS
 62
     7
  5
4F3
 10
-1.507291
 20
-6.003317
 30
0.0
 11
-1.51388
 21
-5.991954
 31
0.0
  0
LINE
  8
0
  6
CONTINUOUS
 62
     7
  5
4F4
 10
-1.51388
 20
-5.991954
 30
0.0
 11
-1.521056
 21
-5.980953
 31
0.0
  0
LINE
  8
0
  6
CONTINUOUS
 62
     7
  5
4F5
 10
-1.521056
 20
-5.980953
 30
0.0
 11
-1.5288
 21
-5.970344
 31
0.0
  0
LINE
  8
0
  6
CONTINUOUS
 62
     7
  5
4F6
 10
-1.5288
 20
-5.970344
 30
0.0
 11
-1.53709
 21
-5.960156
 31
0.0
  0
LINE
  8
0
  6
CONTINUOUS
 62
     7
  5
4F7
 10
-1.53709
 20
-5.960156
 30
0.0
 11
-1.545904
 21
-5.950418
 31
0.0
  0
LINE
  8
0
  6
CONTINUOUS
 62
     7
  5
4F8
 10
-1.545904
 20
-5.950418
 30
0.0
 11
-1.555218
 21
-5.941156
 31
0.0
  0
LINE
  8
0
  6
CONTINUOUS
 62
     7
  5
4F9
 10
-1.555218
 20
-5.941156
 30
0.0
 11
-1.565005
 21
-5.932396
 31
0.0
  0
LINE
  8
0
  6
CONTINUOUS
 62
     7
  5
4FA
 10
-1.565005
 20
-5.932396
 30
0.0
 11
-1.575238
 21
-5.924162
 31
0.0
  0
ARC
  8
0
  6
CONTINUOUS
 62
     7
  5
4FB
 10
-1.726786
 20
-6.122992
 30
0.0
 40
0.25
 50
52.685444
 51
90.0
  0
ARC
  8
0
  6
CONTINUOUS
 62
     7
  5
4FC
 10
-1.726786
 20
-6.122992
 30
0.0
 40
0.25
 50
270.0
 51
307.314556
  0
LINE
  8
0
  6
CONTINUOUS
 62
     7
  5
4FD
 10
-1.726786
 20
-6.372992
 30
0.0
 11
-3.786548
 21
-6.372992
 31
0.0
  0
ARC
  8
0
  6
CONTINUOUS
 62
     7
  5
4FE
 10
-3.786548
 20
-6.122992
 30
0.0
 40
0.25
 50
90.0
 51
270.0
  0
LINE
  8
0
  6
CONTINUOUS
 62
     7
  5
4FF
 10
-3.786548
 20
-5.872992
 30
0.0
 11
-1.726786
 21
-5.872992
 31
0.0
  0
LINE
  8
0
  6
CONTINUOUS
 62
     7
  5
500
 10
-1.575238
 20
-4.23
 30
0.0
 11
-4.135
 21
-4.23
 31
0.0
  0
LINE
  8
0
  6
CONTINUOUS
 62
     7
  5
501
 10
-4.135
 20
-4.23
 30
0.0
 11
-4.135
 21
-4.51
 31
0.0
  0
LINE
  8
0
  6
CONTINUOUS
 62
     7
  5
502
 10
-4.135
 20
-4.51
 30
0.0
 11
-4.085
 21
-4.51
 31
0.0
  0
LINE
  8
0
  6
CONTINUOUS
 62
     7
  5
503
 10
-4.085
 20
-4.51
 30
0.0
 11
-4.085
 21
-6.41
 31
0.0
  0
LINE
  8
0
  6
CONTINUOUS
 62
     7
  5
504
 10
-4.085
 20
-6.41
 30
0.0
 11
-4.135
 21
-6.41
 31
0.0
  0
LINE
  8
0
  6
CONTINUOUS
 62
     7
  5
505
 10
-4.135
 20
-6.41
 30
0.0
 11
-4.135
 21
-8.13
 31
0.0
  0
LINE
  8
0
  6
CONTINUOUS
 62
     7
  5
506
 10
-1.575238
 20
-8.13
 30
0.0
 11
-4.135
 21
-8.13
 31
0.0
  0
ARC
  8
0
  6
CONTINUOUS
 62
     7
  5
507
 10
-1.726786
 20
-7.297402
 30
0.0
 40
0.25
 50
270.0
 51
307.314556
  0
LINE
  8
0
  6
CONTINUOUS
 62
     7
  5
508
 10
-1.726786
 20
-7.547402
 30
0.0
 11
-3.786548
 21
-7.547402
 31
0.0
  0
ARC
  8
0
  6
CONTINUOUS
 62
     7
  5
509
 10
-3.786548
 20
-7.297402
 30
0.0
 40
0.25
 50
90.0
 51
270.0
  0
LINE
  8
0
  6
CONTINUOUS
 62
     7
  5
50A
 10
-3.786548
 20
-7.047402
 30
0.0
 11
-1.726786
 21
-7.047402
 31
0.0
  0
ARC
  8
0
  6
CONTINUOUS
 62
     7
  5
50B
 10
-1.726786
 20
-7.297402
 30
0.0
 40
0.25
 50
52.685444
 51
90.0
  0
LINE
  8
0
  6
CONTINUOUS
 62
     7
  5
50C
 10
-1.575238
 20
5.924162
 30
0.0
 11
-1.565005
 21
5.932396
 31
0.0
  0
LINE
  8
0
  6
CONTINUOUS
 62
     7
  5
50D
 10
-1.565005
 20
5.932396
 30
0.0
 11
-1.555218
 21
5.941156
 31
0.0
  0
LINE
  8
0
  6
CONTINUOUS
 62
     7
  5
50E
 10
-1.555218
 20
5.941156
 30
0.0
 11
-1.545904
 21
5.950418
 31
0.0
  0
LINE
  8
0
  6
CONTINUOUS
 62
     7
  5
50F
 10
-1.545904
 20
5.950418
 30
0.0
 11
-1.53709
 21
5.960156
 31
0.0
  0
LINE
  8
0
  6
CONTINUOUS
 62
     7
  5
510
 10
-1.53709
 20
5.960156
 30
0.0
 11
-1.5288
 21
5.970344
 31
0.0
  0
LINE
  8
0
  6
CONTINUOUS
 62
     7
  5
511
 10
-1.5288
 20
5.970344
 30
0.0
 11
-1.521056
 21
5.980953
 31
0.0
  0
LINE
  8
0
  6
CONTINUOUS
 62
     7
  5
512
 10
-1.521056
 20
5.980953
 30
0.0
 11
-1.51388
 21
5.991954
 31
0.0
  0
LINE
  8
0
  6
CONTINUOUS
 62
     7
  5
513
 10
-1.51388
 20
5.991954
 30
0.0
 11
-1.507291
 21
6.003317
 31
0.0
  0
LINE
  8
0
  6
CONTINUOUS
 62
     7
  5
514
 10
-1.507291
 20
6.003317
 30
0.0
 11
-1.501309
 21
6.01501
 31
0.0
  0
LINE
  8
0
  6
CONTINUOUS
 62
     7
  5
515
 10
-1.501309
 20
6.01501
 30
0.0
 11
-1.495949
 21
6.027001
 31
0.0
  0
LINE
  8
0
  6
CONTINUOUS
 62
     7
  5
516
 10
-1.495949
 20
6.027001
 30
0.0
 11
-1.491226
 21
6.039257
 31
0.0
  0
LINE
  8
0
  6
CONTINUOUS
 62
     7
  5
517
 10
-1.491226
 20
6.039257
 30
0.0
 11
-1.487153
 21
6.051744
 31
0.0
  0
LINE
  8
0
  6
CONTINUOUS
 62
     7
  5
518
 10
-1.487153
 20
6.051744
 30
0.0
 11
-1.483742
 21
6.064428
 31
0.0
  0
LINE
  8
0
  6
CONTINUOUS
 62
     7
  5
519
 10
-1.483742
 20
6.064428
 30
0.0
 11
-1.481002
 21
6.077274
 31
0.0
  0
LINE
  8
0
  6
CONTINUOUS
 62
     7
  5
51A
 10
-1.481002
 20
6.077274
 30
0.0
 11
-1.47894
 21
6.090246
 31
0.0
  0
LINE
  8
0
  6
CONTINUOUS
 62
     7
  5
51B
 10
-1.47894
 20
6.090246
 30
0.0
 11
-1.477562
 21
6.103308
 31
0.0
  0
LINE
  8
0
  6
CONTINUOUS
 62
     7
  5
51C
 10
-1.477562
 20
6.103308
 30
0.0
 11
-1.476872
 21
6.116425
 31
0.0
  0
LINE
  8
0
  6
CONTINUOUS
 62
     7
  5
51D
 10
-1.476872
 20
6.116425
 30
0.0
 11
-1.476872
 21
6.129559
 31
0.0
  0
LINE
  8
0
  6
CONTINUOUS
 62
     7
  5
51E
 10
-1.476872
 20
6.129559
 30
0.0
 11
-1.477562
 21
6.142676
 31
0.0
  0
LINE
  8
0
  6
CONTINUOUS
 62
     7
  5
51F
 10
-1.477562
 20
6.142676
 30
0.0
 11
-1.47894
 21
6.155738
 31
0.0
  0
LINE
  8
0
  6
CONTINUOUS
 62
     7
  5
520
 10
-1.47894
 20
6.155738
 30
0.0
 11
-1.481002
 21
6.16871
 31
0.0
  0
LINE
  8
0
  6
CONTINUOUS
 62
     7
  5
521
 10
-1.481002
 20
6.16871
 30
0.0
 11
-1.483742
 21
6.181556
 31
0.0
  0
LINE
  8
0
  6
CONTINUOUS
 62
     7
  5
522
 10
-1.483742
 20
6.181556
 30
0.0
 11
-1.487153
 21
6.19424
 31
0.0
  0
LINE
  8
0
  6
CONTINUOUS
 62
     7
  5
523
 10
-1.487153
 20
6.19424
 30
0.0
 11
-1.491226
 21
6.206727
 31
0.0
  0
LINE
  8
0
  6
CONTINUOUS
 62
     7
  5
524
 10
-1.491226
 20
6.206727
 30
0.0
 11
-1.495949
 21
6.218983
 31
0.0
  0
LINE
  8
0
  6
CONTINUOUS
 62
     7
  5
525
 10
-1.495949
 20
6.218983
 30
0.0
 11
-1.501309
 21
6.230974
 31
0.0
  0
LINE
  8
0
  6
CONTINUOUS
 62
     7
  5
526
 10
-1.501309
 20
6.230974
 30
0.0
 11
-1.507291
 21
6.242668
 31
0.0
  0
LINE
  8
0
  6
CONTINUOUS
 62
     7
  5
527
 10
-1.507291
 20
6.242668
 30
0.0
 11
-1.51388
 21
6.25403
 31
0.0
  0
LINE
  8
0
  6
CONTINUOUS
 62
     7
  5
528
 10
-1.51388
 20
6.25403
 30
0.0
 11
-1.521056
 21
6.265032
 31
0.0
  0
LINE
  8
0
  6
CONTINUOUS
 62
     7
  5
529
 10
-1.521056
 20
6.265032
 30
0.0
 11
-1.5288
 21
6.275641
 31
0.0
  0
LINE
  8
0
  6
CONTINUOUS
 62
     7
  5
52A
 10
-1.5288
 20
6.275641
 30
0.0
 11
-1.53709
 21
6.285828
 31
0.0
  0
LINE
  8
0
  6
CONTINUOUS
 62
     7
  5
52B
 10
-1.53709
 20
6.285828
 30
0.0
 11
-1.545904
 21
6.295566
 31
0.0
  0
LINE
  8
0
  6
CONTINUOUS
 62
     7
  5
52C
 10
-1.545904
 20
6.295566
 30
0.0
 11
-1.555218
 21
6.304828
 31
0.0
  0
LINE
  8
0
  6
CONTINUOUS
 62
     7
  5
52D
 10
-1.555218
 20
6.304828
 30
0.0
 11
-1.565005
 21
6.313588
 31
0.0
  0
LINE
  8
0
  6
CONTINUOUS
 62
     7
  5
52E
 10
-1.565005
 20
6.313588
 30
0.0
 11
-1.575238
 21
6.321822
 31
0.0
  0
LINE
  8
0
  6
CONTINUOUS
 62
     7
  5
52F
 10
-1.378333
 20
4.23
 30
0.0
 11
-1.378333
 21
8.13
 31
0.0
  0
LINE
  8
0
  6
CONTINUOUS
 62
     7
  5
530
 10
-1.575238
 20
8.13
 30
0.0
 11
-1.378333
 21
8.13
 31
0.0
  0
LINE
  8
0
  6
CONTINUOUS
 62
     7
  5
531
 10
-1.575238
 20
7.098572
 30
0.0
 11
-1.565005
 21
7.106805
 31
0.0
  0
LINE
  8
0
  6
CONTINUOUS
 62
     7
  5
532
 10
-1.565005
 20
7.106805
 30
0.0
 11
-1.555218
 21
7.115565
 31
0.0
  0
LINE
  8
0
  6
CONTINUOUS
 62
     7
  5
533
 10
-1.555218
 20
7.115565
 30
0.0
 11
-1.545904
 21
7.124827
 31
0.0
  0
LINE
  8
0
  6
CONTINUOUS
 62
     7
  5
534
 10
-1.545904
 20
7.124827
 30
0.0
 11
-1.53709
 21
7.134565
 31
0.0
  0
LINE
  8
0
  6
CONTINUOUS
 62
     7
  5
535
 10
-1.53709
 20
7.134565
 30
0.0
 11
-1.5288
 21
7.144753
 31
0.0
  0
LINE
  8
0
  6
CONTINUOUS
 62
     7
  5
536
 10
-1.5288
 20
7.144753
 30
0.0
 11
-1.521056
 21
7.155362
 31
0.0
  0
LINE
  8
0
  6
CONTINUOUS
 62
     7
  5
537
 10
-1.521056
 20
7.155362
 30
0.0
 11
-1.51388
 21
7.166363
 31
0.0
  0
LINE
  8
0
  6
CONTINUOUS
 62
     7
  5
538
 10
-1.51388
 20
7.166363
 30
0.0
 11
-1.507291
 21
7.177726
 31
0.0
  0
LINE
  8
0
  6
CONTINUOUS
 62
     7
  5
539
 10
-1.507291
 20
7.177726
 30
0.0
 11
-1.501309
 21
7.189419
 31
0.0
  0
LINE
  8
0
  6
CONTINUOUS
 62
     7
  5
53A
 10
-1.501309
 20
7.189419
 30
0.0
 11
-1.495949
 21
7.20141
 31
0.0
  0
LINE
  8
0
  6
CONTINUOUS
 62
     7
  5
53B
 10
-1.495949
 20
7.20141
 30
0.0
 11
-1.491226
 21
7.213667
 31
0.0
  0
LINE
  8
0
  6
CONTINUOUS
 62
     7
  5
53C
 10
-1.491226
 20
7.213667
 30
0.0
 11
-1.487153
 21
7.226154
 31
0.0
  0
LINE
  8
0
  6
CONTINUOUS
 62
     7
  5
53D
 10
-1.487153
 20
7.226154
 30
0.0
 11
-1.483742
 21
7.238838
 31
0.0
  0
LINE
  8
0
  6
CONTINUOUS
 62
     7
  5
53E
 10
-1.483742
 20
7.238838
 30
0.0
 11
-1.481002
 21
7.251684
 31
0.0
  0
LINE
  8
0
  6
CONTINUOUS
 62
     7
  5
53F
 10
-1.481002
 20
7.251684
 30
0.0
 11
-1.47894
 21
7.264655
 31
0.0
  0
LINE
  8
0
  6
CONTINUOUS
 62
     7
  5
540
 10
-1.47894
 20
7.264655
 30
0.0
 11
-1.477562
 21
7.277718
 31
0.0
  0
LINE
  8
0
  6
CONTINUOUS
 62
     7
  5
541
 10
-1.477562
 20
7.277718
 30
0.0
 11
-1.476872
 21
7.290834
 31
0.0
  0
LINE
  8
0
  6
CONTINUOUS
 62
     7
  5
542
 10
-1.476872
 20
7.290834
 30
0.0
 11
-1.476872
 21
7.303969
 31
0.0
  0
LINE
  8
0
  6
CONTINUOUS
 62
     7
  5
543
 10
-1.476872
 20
7.303969
 30
0.0
 11
-1.477562
 21
7.317085
 31
0.0
  0
LINE
  8
0
  6
CONTINUOUS
 62
     7
  5
544
 10
-1.477562
 20
7.317085
 30
0.0
 11
-1.47894
 21
7.330148
 31
0.0
  0
LINE
  8
0
  6
CONTINUOUS
 62
     7
  5
545
 10
-1.47894
 20
7.330148
 30
0.0
 11
-1.481002
 21
7.34312
 31
0.0
  0
LINE
  8
0
  6
CONTINUOUS
 62
     7
  5
546
 10
-1.481002
 20
7.34312
 30
0.0
 11
-1.483742
 21
7.355965
 31
0.0
  0
LINE
  8
0
  6
CONTINUOUS
 62
     7
  5
547
 10
-1.483742
 20
7.355965
 30
0.0
 11
-1.487153
 21
7.368649
 31
0.0
  0
LINE
  8
0
  6
CONTINUOUS
 62
     7
  5
548
 10
-1.487153
 20
7.368649
 30
0.0
 11
-1.491226
 21
7.381137
 31
0.0
  0
LINE
  8
0
  6
CONTINUOUS
 62
     7
  5
549
 10
-1.491226
 20
7.381137
 30
0.0
 11
-1.495949
 21
7.393393
 31
0.0
  0
LINE
  8
0
  6
CONTINUOUS
 62
     7
  5
54A
 10
-1.495949
 20
7.393393
 30
0.0
 11
-1.501309
 21
7.405384
 31
0.0
  0
LINE
  8
0
  6
CONTINUOUS
 62
     7
  5
54B
 10
-1.501309
 20
7.405384
 30
0.0
 11
-1.507291
 21
7.417077
 31
0.0
  0
LINE
  8
0
  6
CONTINUOUS
 62
     7
  5
54C
 10
-1.507291
 20
7.417077
 30
0.0
 11
-1.51388
 21
7.42844
 31
0.0
  0
LINE
  8
0
  6
CONTINUOUS
 62
     7
  5
54D
 10
-1.51388
 20
7.42844
 30
0.0
 11
-1.521056
 21
7.439441
 31
0.0
  0
LINE
  8
0
  6
CONTINUOUS
 62
     7
  5
54E
 10
-1.521056
 20
7.439441
 30
0.0
 11
-1.5288
 21
7.45005
 31
0.0
  0
LINE
  8
0
  6
CONTINUOUS
 62
     7
  5
54F
 10
-1.5288
 20
7.45005
 30
0.0
 11
-1.53709
 21
7.460238
 31
0.0
  0
LINE
  8
0
  6
CONTINUOUS
 62
     7
  5
550
 10
-1.53709
 20
7.460238
 30
0.0
 11
-1.545904
 21
7.469976
 31
0.0
  0
LINE
  8
0
  6
CONTINUOUS
 62
     7
  5
551
 10
-1.545904
 20
7.469976
 30
0.0
 11
-1.555218
 21
7.479238
 31
0.0
  0
LINE
  8
0
  6
CONTINUOUS
 62
     7
  5
552
 10
-1.555218
 20
7.479238
 30
0.0
 11
-1.565005
 21
7.487998
 31
0.0
  0
LINE
  8
0
  6
CONTINUOUS
 62
     7
  5
553
 10
-1.565005
 20
7.487998
 30
0.0
 11
-1.575238
 21
7.496231
 31
0.0
  0
LINE
  8
0
  6
CONTINUOUS
 62
     7
  5
554
 10
-1.575238
 20
6.321822
 30
0.0
 11
-1.575238
 21
7.098572
 31
0.0
  0
LINE
  8
0
  6
CONTINUOUS
 62
     7
  5
555
 10
-1.575238
 20
7.496231
 30
0.0
 11
-1.575238
 21
8.13
 31
0.0
  0
LINE
  8
0
  6
CONTINUOUS
 62
     7
  5
556
 10
-1.575238
 20
4.23
 30
0.0
 11
-1.575238
 21
5.924162
 31
0.0
  0
ARC
  8
0
  6
CONTINUOUS
 62
     7
  5
557
 10
-1.726786
 20
6.122992
 30
0.0
 40
0.25
 50
52.685444
 51
90.0
  0
ARC
  8
0
  6
CONTINUOUS
 62
     7
  5
558
 10
-1.726786
 20
6.122992
 30
0.0
 40
0.25
 50
270.0
 51
307.314556
  0
ARC
  8
0
  6
CONTINUOUS
 62
     7
  5
559
 10
-1.726786
 20
7.297402
 30
0.0
 40
0.25
 50
52.685444
 51
90.0
  0
ARC
  8
0
  6
CONTINUOUS
 62
     7
  5
55A
 10
-1.726786
 20
7.297402
 30
0.0
 40
0.25
 50
270.0
 51
307.314556
  0
LINE
  8
0
  6
CONTINUOUS
 62
     7
  5
55B
 10
-4.135
 20
6.41
 30
0.0
 11
-4.085
 21
6.41
 31
0.0
  0
LINE
  8
0
  6
CONTINUOUS
 62
     7
  5
55C
 10
-4.135
 20
4.51
 30
0.0
 11
-4.135
 21
6.41
 31
0.0
  0
LINE
  8
0
  6
CONTINUOUS
 62
     7
  5
55D
 10
-4.085
 20
4.51
 30
0.0
 11
-4.135
 21
4.51
 31
0.0
  0
LINE
  8
0
  6
CONTINUOUS
 62
     7
  5
55E
 10
-4.085
 20
6.41
 30
0.0
 11
-4.085
 21
4.51
 31
0.0
  0
LINE
  8
0
  6
CONTINUOUS
 62
     7
  5
55F
 10
-4.135
 20
8.13
 30
0.0
 11
-4.135
 21
6.41
 31
0.0
  0
LINE
  8
0
  6
CONTINUOUS
 62
     7
  5
560
 10
-4.135
 20
-6.41
 30
0.0
 11
-4.135
 21
-4.51
 31
0.0
  0
LINE
  8
0
  6
CONTINUOUS
 62
     7
  5
561
 10
-4.135
 20
-4.23
 30
0.0
 11
-4.135
 21
4.23
 31
0.0
  0
LINE
  8
0
  6
CONTINUOUS
 62
     7
  5
562
 10
-4.135
 20
4.51
 30
0.0
 11
-4.135
 21
4.23
 31
0.0
  0
CIRCLE
  8
0
  6
CONTINUOUS
 62
     7
  5
563
 10
-3.915
 20
3.935
 30
0.0
 40
0.11
  0
CIRCLE
  8
0
  6
CONTINUOUS
 62
     7
  5
564
 10
-3.915
 20
-3.94
 30
0.0
 40
0.11
  0
LINE
  8
0
  6
CONTINUOUS
 62
     7
  5
565
 10
-4.135
 20
4.23
 30
0.0
 11
-1.575238
 21
4.23
 31
0.0
  0
LINE
  8
0
  6
CONTINUOUS
 62
     7
  5
566
 10
-1.726786
 20
5.872992
 30
0.0
 11
-3.786548
 21
5.872992
 31
0.0
  0
ARC
  8
0
  6
CONTINUOUS
 62
     7
  5
567
 10
-3.786548
 20
6.122992
 30
0.0
 40
0.25
 50
90.0
 51
270.0
  0
LINE
  8
0
  6
CONTINUOUS
 62
     7
  5
568
 10
-3.786548
 20
6.372992
 30
0.0
 11
-1.726786
 21
6.372992
 31
0.0
  0
LINE
  8
0
  6
CONTINUOUS
 62
     7
  5
569
 10
-1.726786
 20
7.047402
 30
0.0
 11
-3.786548
 21
7.047402
 31
0.0
  0
ARC
  8
0
  6
CONTINUOUS
 62
     7
  5
56A
 10
-3.786548
 20
7.297402
 30
0.0
 40
0.25
 50
90.0
 51
270.0
  0
LINE
  8
0
  6
CONTINUOUS
 62
     7
  5
56B
 10
-3.786548
 20
7.547402
 30
0.0
 11
-1.726786
 21
7.547402
 31
0.0
  0
LINE
  8
0
  6
CONTINUOUS
 62
     7
  5
56C
 10
-4.135
 20
8.13
 30
0.0
 11
-1.575238
 21
8.13
 31
0.0
  0
CIRCLE
  8
0
  6
CONTINUOUS
 62
     7
  5
56D
 10
-3.248793
 20
6.122992
 30
0.0
 40
0.164882
  0
LINE
  8
0
  6
CONTINUOUS
 62
     7
  5
56E
 10
-2.429423
 20
6.122992
 30
0.0
 11
-2.428782
 21
6.137512
 31
0.0
  0
LINE
  8
0
  6
CONTINUOUS
 62
     7
  5
56F
 10
-2.428782
 20
6.137512
 30
0.0
 11
-2.426816
 21
6.152195
 31
0.0
  0
LINE
  8
0
  6
CONTINUOUS
 62
     7
  5
570
 10
-2.426816
 20
6.152195
 30
0.0
 11
-2.423494
 21
6.166807
 31
0.0
  0
LINE
  8
0
  6
CONTINUOUS
 62
     7
  5
571
 10
-2.423494
 20
6.166807
 30
0.0
 11
-2.418836
 21
6.18112
 31
0.0
  0
LINE
  8
0
  6
CONTINUOUS
 62
     7
  5
572
 10
-2.418836
 20
6.18112
 30
0.0
 11
-2.412898
 21
6.194938
 31
0.0
  0
LINE
  8
0
  6
CONTINUOUS
 62
     7
  5
573
 10
-2.412898
 20
6.194938
 30
0.0
 11
-2.405765
 21
6.20809
 31
0.0
  0
LINE
  8
0
  6
CONTINUOUS
 62
     7
  5
574
 10
-2.405765
 20
6.20809
 30
0.0
 11
-2.397566
 21
6.220411
 31
0.0
  0
LINE
  8
0
  6
CONTINUOUS
 62
     7
  5
575
 10
-2.397566
 20
6.220411
 30
0.0
 11
-2.388466
 21
6.231751
 31
0.0
  0
LINE
  8
0
  6
CONTINUOUS
 62
     7
  5
576
 10
-2.388466
 20
6.231751
 30
0.0
 11
-2.378645
 21
6.242014
 31
0.0
  0
LINE
  8
0
  6
CONTINUOUS
 62
     7
  5
577
 10
-2.378645
 20
6.242014
 30
0.0
 11
-2.367845
 21
6.2515
 31
0.0
  0
LINE
  8
0
  6
CONTINUOUS
 62
     7
  5
578
 10
-2.367845
 20
6.2515
 30
0.0
 11
-2.355994
 21
6.260187
 31
0.0
  0
LINE
  8
0
  6
CONTINUOUS
 62
     7
  5
579
 10
-2.355994
 20
6.260187
 30
0.0
 11
-2.343227
 21
6.267887
 31
0.0
  0
LINE
  8
0
  6
CONTINUOUS
 62
     7
  5
57A
 10
-2.343227
 20
6.267887
 30
0.0
 11
-2.329706
 21
6.27445
 31
0.0
  0
LINE
  8
0
  6
CONTINUOUS
 62
     7
  5
57B
 10
-2.329706
 20
6.27445
 30
0.0
 11
-2.315601
 21
6.279769
 31
0.0
  0
LINE
  8
0
  6
CONTINUOUS
 62
     7
  5
57C
 10
-2.315601
 20
6.279769
 30
0.0
 11
-2.301095
 21
6.283771
 31
0.0
  0
LINE
  8
0
  6
CONTINUOUS
 62
     7
  5
57D
 10
-2.301095
 20
6.283771
 30
0.0
 11
-2.286405
 21
6.286418
 31
0.0
  0
LINE
  8
0
  6
CONTINUOUS
 62
     7
  5
57E
 10
-2.286405
 20
6.286418
 30
0.0
 11
-2.271767
 21
6.287716
 31
0.0
  0
LINE
  8
0
  6
CONTINUOUS
 62
     7
  5
57F
 10
-2.271767
 20
6.287716
 30
0.0
 11
-2.257315
 21
6.287716
 31
0.0
  0
LINE
  8
0
  6
CONTINUOUS
 62
     7
  5
580
 10
-2.257315
 20
6.287716
 30
0.0
 11
-2.242677
 21
6.286418
 31
0.0
  0
LINE
  8
0
  6
CONTINUOUS
 62
     7
  5
581
 10
-2.242677
 20
6.286418
 30
0.0
 11
-2.227987
 21
6.283771
 31
0.0
  0
LINE
  8
0
  6
CONTINUOUS
 62
     7
  5
582
 10
-2.227987
 20
6.283771
 30
0.0
 11
-2.21348
 21
6.279769
 31
0.0
  0
LINE
  8
0
  6
CONTINUOUS
 62
     7
  5
583
 10
-2.21348
 20
6.279769
 30
0.0
 11
-2.199375
 21
6.27445
 31
0.0
  0
LINE
  8
0
  6
CONTINUOUS
 62
     7
  5
584
 10
-2.199375
 20
6.27445
 30
0.0
 11
-2.185855
 21
6.267887
 31
0.0
  0
LINE
  8
0
  6
CONTINUOUS
 62
     7
  5
585
 10
-2.185855
 20
6.267887
 30
0.0
 11
-2.173088
 21
6.260187
 31
0.0
  0
LINE
  8
0
  6
CONTINUOUS
 62
     7
  5
586
 10
-2.173088
 20
6.260187
 30
0.0
 11
-2.161236
 21
6.2515
 31
0.0
  0
LINE
  8
0
  6
CONTINUOUS
 62
     7
  5
587
 10
-2.161236
 20
6.2515
 30
0.0
 11
-2.150436
 21
6.242014
 31
0.0
  0
LINE
  8
0
  6
CONTINUOUS
 62
     7
  5
588
 10
-2.150436
 20
6.242014
 30
0.0
 11
-2.140616
 21
6.231751
 31
0.0
  0
LINE
  8
0
  6
CONTINUOUS
 62
     7
  5
589
 10
-2.140616
 20
6.231751
 30
0.0
 11
-2.131516
 21
6.220411
 31
0.0
  0
LINE
  8
0
  6
CONTINUOUS
 62
     7
  5
58A
 10
-2.131516
 20
6.220411
 30
0.0
 11
-2.123316
 21
6.20809
 31
0.0
  0
LINE
  8
0
  6
CONTINUOUS
 62
     7
  5
58B
 10
-2.123316
 20
6.20809
 30
0.0
 11
-2.116184
 21
6.194938
 31
0.0
  0
LINE
  8
0
  6
CONTINUOUS
 62
     7
  5
58C
 10
-2.116184
 20
6.194938
 30
0.0
 11
-2.110245
 21
6.18112
 31
0.0
  0
LINE
  8
0
  6
CONTINUOUS
 62
     7
  5
58D
 10
-2.110245
 20
6.18112
 30
0.0
 11
-2.105587
 21
6.166807
 31
0.0
  0
LINE
  8
0
  6
CONTINUOUS
 62
     7
  5
58E
 10
-2.105587
 20
6.166807
 30
0.0
 11
-2.102266
 21
6.152195
 31
0.0
  0
LINE
  8
0
  6
CONTINUOUS
 62
     7
  5
58F
 10
-2.102266
 20
6.152195
 30
0.0
 11
-2.100299
 21
6.137512
 31
0.0
  0
LINE
  8
0
  6
CONTINUOUS
 62
     7
  5
590
 10
-2.100299
 20
6.137512
 30
0.0
 11
-2.099659
 21
6.122992
 31
0.0
  0
CIRCLE
  8
0
  6
CONTINUOUS
 62
     7
  5
591
 10
-2.264541
 20
6.122992
 30
0.0
 40
0.164882
  0
CIRCLE
  8
0
  6
CONTINUOUS
 62
     7
  5
592
 10
-3.248793
 20
-6.122992
 30
0.0
 40
0.164882
  0
CIRCLE
  8
0
  6
CONTINUOUS
 62
     7
  5
593
 10
-2.264541
 20
-6.122992
 30
0.0
 40
0.164882
  0
CIRCLE
  8
0
  6
CONTINUOUS
 62
     7
  5
594
 10
-3.248793
 20
7.297402
 30
0.0
 40
0.164882
  0
LINE
  8
0
  6
CONTINUOUS
 62
     7
  5
595
 10
-2.429423
 20
7.297402
 30
0.0
 11
-2.428782
 21
7.311921
 31
0.0
  0
LINE
  8
0
  6
CONTINUOUS
 62
     7
  5
596
 10
-2.428782
 20
7.311921
 30
0.0
 11
-2.426816
 21
7.326604
 31
0.0
  0
LINE
  8
0
  6
CONTINUOUS
 62
     7
  5
597
 10
-2.426816
 20
7.326604
 30
0.0
 11
-2.423494
 21
7.341217
 31
0.0
  0
LINE
  8
0
  6
CONTINUOUS
 62
     7
  5
598
 10
-2.423494
 20
7.341217
 30
0.0
 11
-2.418836
 21
7.35553
 31
0.0
  0
LINE
  8
0
  6
CONTINUOUS
 62
     7
  5
599
 10
-2.418836
 20
7.35553
 30
0.0
 11
-2.412898
 21
7.369347
 31
0.0
  0
LINE
  8
0
  6
CONTINUOUS
 62
     7
  5
59A
 10
-2.412898
 20
7.369347
 30
0.0
 11
-2.405765
 21
7.382499
 31
0.0
  0
LINE
  8
0
  6
CONTINUOUS
 62
     7
  5
59B
 10
-2.405765
 20
7.382499
 30
0.0
 11
-2.397566
 21
7.39482
 31
0.0
  0
LINE
  8
0
  6
CONTINUOUS
 62
     7
  5
59C
 10
-2.397566
 20
7.39482
 30
0.0
 11
-2.388466
 21
7.406161
 31
0.0
  0
LINE
  8
0
  6
CONTINUOUS
 62
     7
  5
59D
 10
-2.388466
 20
7.406161
 30
0.0
 11
-2.378645
 21
7.416423
 31
0.0
  0
LINE
  8
0
  6
CONTINUOUS
 62
     7
  5
59E
 10
-2.378645
 20
7.416423
 30
0.0
 11
-2.367845
 21
7.425909
 31
0.0
  0
LINE
  8
0
  6
CONTINUOUS
 62
     7
  5
59F
 10
-2.367845
 20
7.425909
 30
0.0
 11
-2.355994
 21
7.434596
 31
0.0
  0
LINE
  8
0
  6
CONTINUOUS
 62
     7
  5
5A0
 10
-2.355994
 20
7.434596
 30
0.0
 11
-2.343227
 21
7.442297
 31
0.0
  0
LINE
  8
0
  6
CONTINUOUS
 62
     7
  5
5A1
 10
-2.343227
 20
7.442297
 30
0.0
 11
-2.329706
 21
7.44886
 31
0.0
  0
LINE
  8
0
  6
CONTINUOUS
 62
     7
  5
5A2
 10
-2.329706
 20
7.44886
 30
0.0
 11
-2.315601
 21
7.454178
 31
0.0
  0
LINE
  8
0
  6
CONTINUOUS
 62
     7
  5
5A3
 10
-2.315601
 20
7.454178
 30
0.0
 11
-2.301095
 21
7.45818
 31
0.0
  0
LINE
  8
0
  6
CONTINUOUS
 62
     7
  5
5A4
 10
-2.301095
 20
7.45818
 30
0.0
 11
-2.286405
 21
7.460827
 31
0.0
  0
LINE
  8
0
  6
CONTINUOUS
 62
     7
  5
5A5
 10
-2.286405
 20
7.460827
 30
0.0
 11
-2.271767
 21
7.462125
 31
0.0
  0
LINE
  8
0
  6
CONTINUOUS
 62
     7
  5
5A6
 10
-2.271767
 20
7.462125
 30
0.0
 11
-2.257315
 21
7.462125
 31
0.0
  0
LINE
  8
0
  6
CONTINUOUS
 62
     7
  5
5A7
 10
-2.257315
 20
7.462125
 30
0.0
 11
-2.242677
 21
7.460827
 31
0.0
  0
LINE
  8
0
  6
CONTINUOUS
 62
     7
  5
5A8
 10
-2.242677
 20
7.460827
 30
0.0
 11
-2.227987
 21
7.45818
 31
0.0
  0
LINE
  8
0
  6
CONTINUOUS
 62
     7
  5
5A9
 10
-2.227987
 20
7.45818
 30
0.0
 11
-2.21348
 21
7.454178
 31
0.0
  0
LINE
  8
0
  6
CONTINUOUS
 62
     7
  5
5AA
 10
-2.21348
 20
7.454178
 30
0.0
 11
-2.199375
 21
7.44886
 31
0.0
  0
LINE
  8
0
  6
CONTINUOUS
 62
     7
  5
5AB
 10
-2.199375
 20
7.44886
 30
0.0
 11
-2.185855
 21
7.442297
 31
0.0
  0
LINE
  8
0
  6
CONTINUOUS
 62
     7
  5
5AC
 10
-2.185855
 20
7.442297
 30
0.0
 11
-2.173088
 21
7.434596
 31
0.0
  0
LINE
  8
0
  6
CONTINUOUS
 62
     7
  5
5AD
 10
-2.173088
 20
7.434596
 30
0.0
 11
-2.161236
 21
7.425909
 31
0.0
  0
LINE
  8
0
  6
CONTINUOUS
 62
     7
  5
5AE
 10
-2.161236
 20
7.425909
 30
0.0
 11
-2.150436
 21
7.416423
 31
0.0
  0
LINE
  8
0
  6
CONTINUOUS
 62
     7
  5
5AF
 10
-2.150436
 20
7.416423
 30
0.0
 11
-2.140616
 21
7.406161
 31
0.0
  0
LINE
  8
0
  6
CONTINUOUS
 62
     7
  5
5B0
 10
-2.140616
 20
7.406161
 30
0.0
 11
-2.131516
 21
7.39482
 31
0.0
  0
LINE
  8
0
  6
CONTINUOUS
 62
     7
  5
5B1
 10
-2.131516
 20
7.39482
 30
0.0
 11
-2.123316
 21
7.382499
 31
0.0
  0
LINE
  8
0
  6
CONTINUOUS
 62
     7
  5
5B2
 10
-2.123316
 20
7.382499
 30
0.0
 11
-2.116184
 21
7.369347
 31
0.0
  0
LINE
  8
0
  6
CONTINUOUS
 62
     7
  5
5B3
 10
-2.116184
 20
7.369347
 30
0.0
 11
-2.110245
 21
7.35553
 31
0.0
  0
LINE
  8
0
  6
CONTINUOUS
 62
     7
  5
5B4
 10
-2.110245
 20
7.35553
 30
0.0
 11
-2.105587
 21
7.341217
 31
0.0
  0
LINE
  8
0
  6
CONTINUOUS
 62
     7
  5
5B5
 10
-2.105587
 20
7.341217
 30
0.0
 11
-2.102266
 21
7.326604
 31
0.0
  0
LINE
  8
0
  6
CONTINUOUS
 62
     7
  5
5B6
 10
-2.102266
 20
7.326604
 30
0.0
 11
-2.100299
 21
7.311921
 31
0.0
  0
LINE
  8
0
  6
CONTINUOUS
 62
     7
  5
5B7
 10
-2.100299
 20
7.311921
 30
0.0
 11
-2.099659
 21
7.297402
 31
0.0
  0
CIRCLE
  8
0
  6
CONTINUOUS
 62
     7
  5
5B8
 10
-2.264541
 20
7.297402
 30
0.0
 40
0.164882
  0
CIRCLE
  8
0
  6
CONTINUOUS
 62
     7
  5
5B9
 10
-3.248793
 20
-7.297402
 30
0.0
 40
0.164882
  0
CIRCLE
  8
0
  6
CONTINUOUS
 62
     7
  5
5BA
 10
-2.264541
 20
-7.297402
 30
0.0
 40
0.164882
  0
LINE
  8
0
  6
CONTINUOUS
 62
     7
  5
5BB
 10
-1.181429
 20
-7.496231
 30
0.0
 11
-1.181429
 21
-8.13
 31
0.0
  0
LINE
  8
0
  6
CONTINUOUS
 62
     7
  5
5BC
 10
-1.181429
 20
-4.23
 30
0.0
 11
-1.181429
 21
-5.924162
 31
0.0
  0
LINE
  8
0
  6
CONTINUOUS
 62
     7
  5
5BD
 10
-1.181429
 20
-7.098572
 30
0.0
 11
-1.191662
 21
-7.106805
 31
0.0
  0
LINE
  8
0
  6
CONTINUOUS
 62
     7
  5
5BE
 10
-1.191662
 20
-7.106805
 30
0.0
 11
-1.201449
 21
-7.115565
 31
0.0
  0
LINE
  8
0
  6
CONTINUOUS
 62
     7
  5
5BF
 10
-1.201449
 20
-7.115565
 30
0.0
 11
-1.210762
 21
-7.124827
 31
0.0
  0
LINE
  8
0
  6
CONTINUOUS
 62
     7
  5
5C0
 10
-1.210762
 20
-7.124827
 30
0.0
 11
-1.219576
 21
-7.134565
 31
0.0
  0
LINE
  8
0
  6
CONTINUOUS
 62
     7
  5
5C1
 10
-1.219576
 20
-7.134565
 30
0.0
 11
-1.227867
 21
-7.144753
 31
0.0
  0
LINE
  8
0
  6
CONTINUOUS
 62
     7
  5
5C2
 10
-1.227867
 20
-7.144753
 30
0.0
 11
-1.235611
 21
-7.155362
 31
0.0
  0
LINE
  8
0
  6
CONTINUOUS
 62
     7
  5
5C3
 10
-1.235611
 20
-7.155362
 30
0.0
 11
-1.242787
 21
-7.166363
 31
0.0
  0
LINE
  8
0
  6
CONTINUOUS
 62
     7
  5
5C4
 10
-1.242787
 20
-7.166363
 30
0.0
 11
-1.249375
 21
-7.177726
 31
0.0
  0
LINE
  8
0
  6
CONTINUOUS
 62
     7
  5
5C5
 10
-1.249375
 20
-7.177726
 30
0.0
 11
-1.255358
 21
-7.189419
 31
0.0
  0
LINE
  8
0
  6
CONTINUOUS
 62
     7
  5
5C6
 10
-1.255358
 20
-7.189419
 30
0.0
 11
-1.260718
 21
-7.20141
 31
0.0
  0
LINE
  8
0
  6
CONTINUOUS
 62
     7
  5
5C7
 10
-1.260718
 20
-7.20141
 30
0.0
 11
-1.265441
 21
-7.213667
 31
0.0
  0
LINE
  8
0
  6
CONTINUOUS
 62
     7
  5
5C8
 10
-1.265441
 20
-7.213667
 30
0.0
 11
-1.269514
 21
-7.226154
 31
0.0
  0
LINE
  8
0
  6
CONTINUOUS
 62
     7
  5
5C9
 10
-1.269514
 20
-7.226154
 30
0.0
 11
-1.272925
 21
-7.238838
 31
0.0
  0
LINE
  8
0
  6
CONTINUOUS
 62
     7
  5
5CA
 10
-1.272925
 20
-7.238838
 30
0.0
 11
-1.275665
 21
-7.251684
 31
0.0
  0
LINE
  8
0
  6
CONTINUOUS
 62
     7
  5
5CB
 10
-1.275665
 20
-7.251684
 30
0.0
 11
-1.277727
 21
-7.264655
 31
0.0
  0
LINE
  8
0
  6
CONTINUOUS
 62
     7
  5
5CC
 10
-1.277727
 20
-7.264655
 30
0.0
 11
-1.279105
 21
-7.277718
 31
0.0
  0
LINE
  8
0
  6
CONTINUOUS
 62
     7
  5
5CD
 10
-1.279105
 20
-7.277718
 30
0.0
 11
-1.279795
 21
-7.290834
 31
0.0
  0
LINE
  8
0
  6
CONTINUOUS
 62
     7
  5
5CE
 10
-1.279795
 20
-7.290834
 30
0.0
 11
-1.279795
 21
-7.303969
 31
0.0
  0
LINE
  8
0
  6
CONTINUOUS
 62
     7
  5
5CF
 10
-1.279795
 20
-7.303969
 30
0.0
 11
-1.279105
 21
-7.317085
 31
0.0
  0
LINE
  8
0
  6
CONTINUOUS
 62
     7
  5
5D0
 10
-1.279105
 20
-7.317085
 30
0.0
 11
-1.277727
 21
-7.330148
 31
0.0
  0
LINE
  8
0
  6
CONTINUOUS
 62
     7
  5
5D1
 10
-1.277727
 20
-7.330148
 30
0.0
 11
-1.275665
 21
-7.34312
 31
0.0
  0
LINE
  8
0
  6
CONTINUOUS
 62
     7
  5
5D2
 10
-1.275665
 20
-7.34312
 30
0.0
 11
-1.272925
 21
-7.355965
 31
0.0
  0
LINE
  8
0
  6
CONTINUOUS
 62
     7
  5
5D3
 10
-1.272925
 20
-7.355965
 30
0.0
 11
-1.269514
 21
-7.368649
 31
0.0
  0
LINE
  8
0
  6
CONTINUOUS
 62
     7
  5
5D4
 10
-1.269514
 20
-7.368649
 30
0.0
 11
-1.265441
 21
-7.381137
 31
0.0
  0
LINE
  8
0
  6
CONTINUOUS
 62
     7
  5
5D5
 10
-1.265441
 20
-7.381137
 30
0.0
 11
-1.260718
 21
-7.393393
 31
0.0
  0
LINE
  8
0
  6
CONTINUOUS
 62
     7
  5
5D6
 10
-1.260718
 20
-7.393393
 30
0.0
 11
-1.255358
 21
-7.405384
 31
0.0
  0
LINE
  8
0
  6
CONTINUOUS
 62
     7
  5
5D7
 10
-1.255358
 20
-7.405384
 30
0.0
 11
-1.249375
 21
-7.417077
 31
0.0
  0
LINE
  8
0
  6
CONTINUOUS
 62
     7
  5
5D8
 10
-1.249375
 20
-7.417077
 30
0.0
 11
-1.242787
 21
-7.42844
 31
0.0
  0
LINE
  8
0
  6
CONTINUOUS
 62
     7
  5
5D9
 10
-1.242787
 20
-7.42844
 30
0.0
 11
-1.235611
 21
-7.439441
 31
0.0
  0
LINE
  8
0
  6
CONTINUOUS
 62
     7
  5
5DA
 10
-1.235611
 20
-7.439441
 30
0.0
 11
-1.227867
 21
-7.45005
 31
0.0
  0
LINE
  8
0
  6
CONTINUOUS
 62
     7
  5
5DB
 10
-1.227867
 20
-7.45005
 30
0.0
 11
-1.219576
 21
-7.460238
 31
0.0
  0
LINE
  8
0
  6
CONTINUOUS
 62
     7
  5
5DC
 10
-1.219576
 20
-7.460238
 30
0.0
 11
-1.210762
 21
-7.469976
 31
0.0
  0
LINE
  8
0
  6
CONTINUOUS
 62
     7
  5
5DD
 10
-1.210762
 20
-7.469976
 30
0.0
 11
-1.201449
 21
-7.479238
 31
0.0
  0
LINE
  8
0
  6
CONTINUOUS
 62
     7
  5
5DE
 10
-1.201449
 20
-7.479238
 30
0.0
 11
-1.191662
 21
-7.487998
 31
0.0
  0
LINE
  8
0
  6
CONTINUOUS
 62
     7
  5
5DF
 10
-1.191662
 20
-7.487998
 30
0.0
 11
-1.181429
 21
-7.496231
 31
0.0
  0
LINE
  8
0
  6
CONTINUOUS
 62
     7
  5
5E0
 10
-1.181429
 20
-5.924162
 30
0.0
 11
-1.191662
 21
-5.932396
 31
0.0
  0
LINE
  8
0
  6
CONTINUOUS
 62
     7
  5
5E1
 10
-1.191662
 20
-5.932396
 30
0.0
 11
-1.201449
 21
-5.941156
 31
0.0
  0
LINE
  8
0
  6
CONTINUOUS
 62
     7
  5
5E2
 10
-1.201449
 20
-5.941156
 30
0.0
 11
-1.210762
 21
-5.950418
 31
0.0
  0
LINE
  8
0
  6
CONTINUOUS
 62
     7
  5
5E3
 10
-1.210762
 20
-5.950418
 30
0.0
 11
-1.219576
 21
-5.960156
 31
0.0
  0
LINE
  8
0
  6
CONTINUOUS
 62
     7
  5
5E4
 10
-1.219576
 20
-5.960156
 30
0.0
 11
-1.227867
 21
-5.970344
 31
0.0
  0
LINE
  8
0
  6
CONTINUOUS
 62
     7
  5
5E5
 10
-1.227867
 20
-5.970344
 30
0.0
 11
-1.235611
 21
-5.980953
 31
0.0
  0
LINE
  8
0
  6
CONTINUOUS
 62
     7
  5
5E6
 10
-1.235611
 20
-5.980953
 30
0.0
 11
-1.242787
 21
-5.991954
 31
0.0
  0
LINE
  8
0
  6
CONTINUOUS
 62
     7
  5
5E7
 10
-1.242787
 20
-5.991954
 30
0.0
 11
-1.249375
 21
-6.003317
 31
0.0
  0
LINE
  8
0
  6
CONTINUOUS
 62
     7
  5
5E8
 10
-1.249375
 20
-6.003317
 30
0.0
 11
-1.255358
 21
-6.01501
 31
0.0
  0
LINE
  8
0
  6
CONTINUOUS
 62
     7
  5
5E9
 10
-1.255358
 20
-6.01501
 30
0.0
 11
-1.260718
 21
-6.027001
 31
0.0
  0
LINE
  8
0
  6
CONTINUOUS
 62
     7
  5
5EA
 10
-1.260718
 20
-6.027001
 30
0.0
 11
-1.265441
 21
-6.039257
 31
0.0
  0
LINE
  8
0
  6
CONTINUOUS
 62
     7
  5
5EB
 10
-1.265441
 20
-6.039257
 30
0.0
 11
-1.269514
 21
-6.051744
 31
0.0
  0
LINE
  8
0
  6
CONTINUOUS
 62
     7
  5
5EC
 10
-1.269514
 20
-6.051744
 30
0.0
 11
-1.272925
 21
-6.064428
 31
0.0
  0
LINE
  8
0
  6
CONTINUOUS
 62
     7
  5
5ED
 10
-1.272925
 20
-6.064428
 30
0.0
 11
-1.275665
 21
-6.077274
 31
0.0
  0
LINE
  8
0
  6
CONTINUOUS
 62
     7
  5
5EE
 10
-1.275665
 20
-6.077274
 30
0.0
 11
-1.277727
 21
-6.090246
 31
0.0
  0
LINE
  8
0
  6
CONTINUOUS
 62
     7
  5
5EF
 10
-1.277727
 20
-6.090246
 30
0.0
 11
-1.279105
 21
-6.103308
 31
0.0
  0
LINE
  8
0
  6
CONTINUOUS
 62
     7
  5
5F0
 10
-1.279105
 20
-6.103308
 30
0.0
 11
-1.279795
 21
-6.116425
 31
0.0
  0
LINE
  8
0
  6
CONTINUOUS
 62
     7
  5
5F1
 10
-1.279795
 20
-6.116425
 30
0.0
 11
-1.279795
 21
-6.129559
 31
0.0
  0
LINE
  8
0
  6
CONTINUOUS
 62
     7
  5
5F2
 10
-1.279795
 20
-6.129559
 30
0.0
 11
-1.279105
 21
-6.142676
 31
0.0
  0
LINE
  8
0
  6
CONTINUOUS
 62
     7
  5
5F3
 10
-1.279105
 20
-6.142676
 30
0.0
 11
-1.277727
 21
-6.155738
 31
0.0
  0
LINE
  8
0
  6
CONTINUOUS
 62
     7
  5
5F4
 10
-1.277727
 20
-6.155738
 30
0.0
 11
-1.275665
 21
-6.16871
 31
0.0
  0
LINE
  8
0
  6
CONTINUOUS
 62
     7
  5
5F5
 10
-1.275665
 20
-6.16871
 30
0.0
 11
-1.272925
 21
-6.181556
 31
0.0
  0
LINE
  8
0
  6
CONTINUOUS
 62
     7
  5
5F6
 10
-1.272925
 20
-6.181556
 30
0.0
 11
-1.269514
 21
-6.19424
 31
0.0
  0
LINE
  8
0
  6
CONTINUOUS
 62
     7
  5
5F7
 10
-1.269514
 20
-6.19424
 30
0.0
 11
-1.265441
 21
-6.206727
 31
0.0
  0
LINE
  8
0
  6
CONTINUOUS
 62
     7
  5
5F8
 10
-1.265441
 20
-6.206727
 30
0.0
 11
-1.260718
 21
-6.218983
 31
0.0
  0
LINE
  8
0
  6
CONTINUOUS
 62
     7
  5
5F9
 10
-1.260718
 20
-6.218983
 30
0.0
 11
-1.255358
 21
-6.230974
 31
0.0
  0
LINE
  8
0
  6
CONTINUOUS
 62
     7
  5
5FA
 10
-1.255358
 20
-6.230974
 30
0.0
 11
-1.249375
 21
-6.242668
 31
0.0
  0
LINE
  8
0
  6
CONTINUOUS
 62
     7
  5
5FB
 10
-1.249375
 20
-6.242668
 30
0.0
 11
-1.242787
 21
-6.25403
 31
0.0
  0
LINE
  8
0
  6
CONTINUOUS
 62
     7
  5
5FC
 10
-1.242787
 20
-6.25403
 30
0.0
 11
-1.235611
 21
-6.265032
 31
0.0
  0
LINE
  8
0
  6
CONTINUOUS
 62
     7
  5
5FD
 10
-1.235611
 20
-6.265032
 30
0.0
 11
-1.227867
 21
-6.275641
 31
0.0
  0
LINE
  8
0
  6
CONTINUOUS
 62
     7
  5
5FE
 10
-1.227867
 20
-6.275641
 30
0.0
 11
-1.219576
 21
-6.285828
 31
0.0
  0
LINE
  8
0
  6
CONTINUOUS
 62
     7
  5
5FF
 10
-1.219576
 20
-6.285828
 30
0.0
 11
-1.210762
 21
-6.295566
 31
0.0
  0
LINE
  8
0
  6
CONTINUOUS
 62
     7
  5
600
 10
-1.210762
 20
-6.295566
 30
0.0
 11
-1.201449
 21
-6.304828
 31
0.0
  0
LINE
  8
0
  6
CONTINUOUS
 62
     7
  5
601
 10
-1.201449
 20
-6.304828
 30
0.0
 11
-1.191662
 21
-6.313588
 31
0.0
  0
LINE
  8
0
  6
CONTINUOUS
 62
     7
  5
602
 10
-1.191662
 20
-6.313588
 30
0.0
 11
-1.181429
 21
-6.321822
 31
0.0
  0
LINE
  8
0
  6
CONTINUOUS
 62
     7
  5
603
 10
-1.181429
 20
-8.13
 30
0.0
 11
-1.378333
 21
-8.13
 31
0.0
  0
LINE
  8
0
  6
CONTINUOUS
 62
     7
  5
604
 10
-1.181429
 20
-6.321822
 30
0.0
 11
-1.181429
 21
-7.098572
 31
0.0
  0
LINE
  8
0
  6
CONTINUOUS
 62
     7
  5
605
 10
-1.575238
 20
-4.23
 30
0.0
 11
-1.181429
 21
-4.23
 31
0.0
  0
ARC
  8
0
  6
CONTINUOUS
 62
     7
  5
606
 10
-1.029881
 20
-7.297402
 30
0.0
 40
0.25
 50
232.685444
 51
270.0
  0
ARC
  8
0
  6
CONTINUOUS
 62
     7
  5
607
 10
-1.029881
 20
-7.297402
 30
0.0
 40
0.25
 50
90.0
 51
127.314556
  0
LINE
  8
0
  6
CONTINUOUS
 62
     7
  5
608
 10
1.181429
 20
-4.23
 30
0.0
 11
-1.181429
 21
-4.23
 31
0.0
  0
LINE
  8
0
  6
CONTINUOUS
 62
     7
  5
609
 10
1.181429
 20
-8.13
 30
0.0
 11
-1.181429
 21
-8.13
 31
0.0
  0
LINE
  8
0
  6
CONTINUOUS
 62
     7
  5
60A
 10
1.181429
 20
-8.13
 30
0.0
 11
1.181429
 21
-7.496231
 31
0.0
  0
ARC
  8
0
  6
CONTINUOUS
 62
     7
  5
60B
 10
1.029881
 20
-7.297402
 30
0.0
 40
0.25
 50
270.0
 51
307.314556
  0
LINE
  8
0
  6
CONTINUOUS
 62
     7
  5
60C
 10
1.029881
 20
-7.547402
 30
0.0
 11
-1.029881
 21
-7.547402
 31
0.0
  0
ARC
  8
0
  6
CONTINUOUS
 62
     7
  5
60D
 10
-1.029881
 20
-6.122992
 30
0.0
 40
0.25
 50
90.0
 51
127.314556
  0
LINE
  8
0
  6
CONTINUOUS
 62
     7
  5
60E
 10
-1.029881
 20
-5.872992
 30
0.0
 11
1.029881
 21
-5.872992
 31
0.0
  0
ARC
  8
0
  6
CONTINUOUS
 62
     7
  5
60F
 10
1.029881
 20
-6.122992
 30
0.0
 40
0.25
 50
52.685444
 51
90.0
  0
LINE
  8
0
  6
CONTINUOUS
 62
     7
  5
610
 10
1.181429
 20
-5.924162
 30
0.0
 11
1.181429
 21
-4.23
 31
0.0
  0
LINE
  8
0
  6
CONTINUOUS
 62
     7
  5
611
 10
-1.378333
 20
8.13
 30
0.0
 11
-1.181429
 21
8.13
 31
0.0
  0
LINE
  8
0
  6
CONTINUOUS
 62
     7
  5
612
 10
-1.181429
 20
6.321822
 30
0.0
 11
-1.191662
 21
6.313588
 31
0.0
  0
LINE
  8
0
  6
CONTINUOUS
 62
     7
  5
613
 10
-1.191662
 20
6.313588
 30
0.0
 11
-1.201449
 21
6.304828
 31
0.0
  0
LINE
  8
0
  6
CONTINUOUS
 62
     7
  5
614
 10
-1.201449
 20
6.304828
 30
0.0
 11
-1.210762
 21
6.295566
 31
0.0
  0
LINE
  8
0
  6
CONTINUOUS
 62
     7
  5
615
 10
-1.210762
 20
6.295566
 30
0.0
 11
-1.219576
 21
6.285828
 31
0.0
  0
LINE
  8
0
  6
CONTINUOUS
 62
     7
  5
616
 10
-1.219576
 20
6.285828
 30
0.0
 11
-1.227867
 21
6.275641
 31
0.0
  0
LINE
  8
0
  6
CONTINUOUS
 62
     7
  5
617
 10
-1.227867
 20
6.275641
 30
0.0
 11
-1.235611
 21
6.265032
 31
0.0
  0
LINE
  8
0
  6
CONTINUOUS
 62
     7
  5
618
 10
-1.235611
 20
6.265032
 30
0.0
 11
-1.242787
 21
6.25403
 31
0.0
  0
LINE
  8
0
  6
CONTINUOUS
 62
     7
  5
619
 10
-1.242787
 20
6.25403
 30
0.0
 11
-1.249375
 21
6.242668
 31
0.0
  0
LINE
  8
0
  6
CONTINUOUS
 62
     7
  5
61A
 10
-1.249375
 20
6.242668
 30
0.0
 11
-1.255358
 21
6.230974
 31
0.0
  0
LINE
  8
0
  6
CONTINUOUS
 62
     7
  5
61B
 10
-1.255358
 20
6.230974
 30
0.0
 11
-1.260718
 21
6.218983
 31
0.0
  0
LINE
  8
0
  6
CONTINUOUS
 62
     7
  5
61C
 10
-1.260718
 20
6.218983
 30
0.0
 11
-1.265441
 21
6.206727
 31
0.0
  0
LINE
  8
0
  6
CONTINUOUS
 62
     7
  5
61D
 10
-1.265441
 20
6.206727
 30
0.0
 11
-1.269514
 21
6.19424
 31
0.0
  0
LINE
  8
0
  6
CONTINUOUS
 62
     7
  5
61E
 10
-1.269514
 20
6.19424
 30
0.0
 11
-1.272925
 21
6.181556
 31
0.0
  0
LINE
  8
0
  6
CONTINUOUS
 62
     7
  5
61F
 10
-1.272925
 20
6.181556
 30
0.0
 11
-1.275665
 21
6.16871
 31
0.0
  0
LINE
  8
0
  6
CONTINUOUS
 62
     7
  5
620
 10
-1.275665
 20
6.16871
 30
0.0
 11
-1.277727
 21
6.155738
 31
0.0
  0
LINE
  8
0
  6
CONTINUOUS
 62
     7
  5
621
 10
-1.277727
 20
6.155738
 30
0.0
 11
-1.279105
 21
6.142676
 31
0.0
  0
LINE
  8
0
  6
CONTINUOUS
 62
     7
  5
622
 10
-1.279105
 20
6.142676
 30
0.0
 11
-1.279795
 21
6.129559
 31
0.0
  0
LINE
  8
0
  6
CONTINUOUS
 62
     7
  5
623
 10
-1.279795
 20
6.129559
 30
0.0
 11
-1.279795
 21
6.116425
 31
0.0
  0
LINE
  8
0
  6
CONTINUOUS
 62
     7
  5
624
 10
-1.279795
 20
6.116425
 30
0.0
 11
-1.279105
 21
6.103308
 31
0.0
  0
LINE
  8
0
  6
CONTINUOUS
 62
     7
  5
625
 10
-1.279105
 20
6.103308
 30
0.0
 11
-1.277727
 21
6.090246
 31
0.0
  0
LINE
  8
0
  6
CONTINUOUS
 62
     7
  5
626
 10
-1.277727
 20
6.090246
 30
0.0
 11
-1.275665
 21
6.077274
 31
0.0
  0
LINE
  8
0
  6
CONTINUOUS
 62
     7
  5
627
 10
-1.275665
 20
6.077274
 30
0.0
 11
-1.272925
 21
6.064428
 31
0.0
  0
LINE
  8
0
  6
CONTINUOUS
 62
     7
  5
628
 10
-1.272925
 20
6.064428
 30
0.0
 11
-1.269514
 21
6.051744
 31
0.0
  0
LINE
  8
0
  6
CONTINUOUS
 62
     7
  5
629
 10
-1.269514
 20
6.051744
 30
0.0
 11
-1.265441
 21
6.039257
 31
0.0
  0
LINE
  8
0
  6
CONTINUOUS
 62
     7
  5
62A
 10
-1.265441
 20
6.039257
 30
0.0
 11
-1.260718
 21
6.027001
 31
0.0
  0
LINE
  8
0
  6
CONTINUOUS
 62
     7
  5
62B
 10
-1.260718
 20
6.027001
 30
0.0
 11
-1.255358
 21
6.01501
 31
0.0
  0
LINE
  8
0
  6
CONTINUOUS
 62
     7
  5
62C
 10
-1.255358
 20
6.01501
 30
0.0
 11
-1.249375
 21
6.003317
 31
0.0
  0
LINE
  8
0
  6
CONTINUOUS
 62
     7
  5
62D
 10
-1.249375
 20
6.003317
 30
0.0
 11
-1.242787
 21
5.991954
 31
0.0
  0
LINE
  8
0
  6
CONTINUOUS
 62
     7
  5
62E
 10
-1.242787
 20
5.991954
 30
0.0
 11
-1.235611
 21
5.980953
 31
0.0
  0
LINE
  8
0
  6
CONTINUOUS
 62
     7
  5
62F
 10
-1.235611
 20
5.980953
 30
0.0
 11
-1.227867
 21
5.970344
 31
0.0
  0
LINE
  8
0
  6
CONTINUOUS
 62
     7
  5
630
 10
-1.227867
 20
5.970344
 30
0.0
 11
-1.219576
 21
5.960156
 31
0.0
  0
LINE
  8
0
  6
CONTINUOUS
 62
     7
  5
631
 10
-1.219576
 20
5.960156
 30
0.0
 11
-1.210762
 21
5.950418
 31
0.0
  0
LINE
  8
0
  6
CONTINUOUS
 62
     7
  5
632
 10
-1.210762
 20
5.950418
 30
0.0
 11
-1.201449
 21
5.941156
 31
0.0
  0
LINE
  8
0
  6
CONTINUOUS
 62
     7
  5
633
 10
-1.201449
 20
5.941156
 30
0.0
 11
-1.191662
 21
5.932396
 31
0.0
  0
LINE
  8
0
  6
CONTINUOUS
 62
     7
  5
634
 10
-1.191662
 20
5.932396
 30
0.0
 11
-1.181429
 21
5.924162
 31
0.0
  0
LINE
  8
0
  6
CONTINUOUS
 62
     7
  5
635
 10
-1.181429
 20
7.496231
 30
0.0
 11
-1.191662
 21
7.487998
 31
0.0
  0
LINE
  8
0
  6
CONTINUOUS
 62
     7
  5
636
 10
-1.191662
 20
7.487998
 30
0.0
 11
-1.201449
 21
7.479238
 31
0.0
  0
LINE
  8
0
  6
CONTINUOUS
 62
     7
  5
637
 10
-1.201449
 20
7.479238
 30
0.0
 11
-1.210762
 21
7.469976
 31
0.0
  0
LINE
  8
0
  6
CONTINUOUS
 62
     7
  5
638
 10
-1.210762
 20
7.469976
 30
0.0
 11
-1.219576
 21
7.460238
 31
0.0
  0
LINE
  8
0
  6
CONTINUOUS
 62
     7
  5
639
 10
-1.219576
 20
7.460238
 30
0.0
 11
-1.227867
 21
7.45005
 31
0.0
  0
LINE
  8
0
  6
CONTINUOUS
 62
     7
  5
63A
 10
-1.227867
 20
7.45005
 30
0.0
 11
-1.235611
 21
7.439441
 31
0.0
  0
LINE
  8
0
  6
CONTINUOUS
 62
     7
  5
63B
 10
-1.235611
 20
7.439441
 30
0.0
 11
-1.242787
 21
7.42844
 31
0.0
  0
LINE
  8
0
  6
CONTINUOUS
 62
     7
  5
63C
 10
-1.242787
 20
7.42844
 30
0.0
 11
-1.249375
 21
7.417077
 31
0.0
  0
LINE
  8
0
  6
CONTINUOUS
 62
     7
  5
63D
 10
-1.249375
 20
7.417077
 30
0.0
 11
-1.255358
 21
7.405384
 31
0.0
  0
LINE
  8
0
  6
CONTINUOUS
 62
     7
  5
63E
 10
-1.255358
 20
7.405384
 30
0.0
 11
-1.260718
 21
7.393393
 31
0.0
  0
LINE
  8
0
  6
CONTINUOUS
 62
     7
  5
63F
 10
-1.260718
 20
7.393393
 30
0.0
 11
-1.265441
 21
7.381137
 31
0.0
  0
LINE
  8
0
  6
CONTINUOUS
 62
     7
  5
640
 10
-1.265441
 20
7.381137
 30
0.0
 11
-1.269514
 21
7.368649
 31
0.0
  0
LINE
  8
0
  6
CONTINUOUS
 62
     7
  5
641
 10
-1.269514
 20
7.368649
 30
0.0
 11
-1.272925
 21
7.355965
 31
0.0
  0
LINE
  8
0
  6
CONTINUOUS
 62
     7
  5
642
 10
-1.272925
 20
7.355965
 30
0.0
 11
-1.275665
 21
7.34312
 31
0.0
  0
LINE
  8
0
  6
CONTINUOUS
 62
     7
  5
643
 10
-1.275665
 20
7.34312
 30
0.0
 11
-1.277727
 21
7.330148
 31
0.0
  0
LINE
  8
0
  6
CONTINUOUS
 62
     7
  5
644
 10
-1.277727
 20
7.330148
 30
0.0
 11
-1.279105
 21
7.317085
 31
0.0
  0
LINE
  8
0
  6
CONTINUOUS
 62
     7
  5
645
 10
-1.279105
 20
7.317085
 30
0.0
 11
-1.279795
 21
7.303969
 31
0.0
  0
LINE
  8
0
  6
CONTINUOUS
 62
     7
  5
646
 10
-1.279795
 20
7.303969
 30
0.0
 11
-1.279795
 21
7.290834
 31
0.0
  0
LINE
  8
0
  6
CONTINUOUS
 62
     7
  5
647
 10
-1.279795
 20
7.290834
 30
0.0
 11
-1.279105
 21
7.277718
 31
0.0
  0
LINE
  8
0
  6
CONTINUOUS
 62
     7
  5
648
 10
-1.279105
 20
7.277718
 30
0.0
 11
-1.277727
 21
7.264655
 31
0.0
  0
LINE
  8
0
  6
CONTINUOUS
 62
     7
  5
649
 10
-1.277727
 20
7.264655
 30
0.0
 11
-1.275665
 21
7.251684
 31
0.0
  0
LINE
  8
0
  6
CONTINUOUS
 62
     7
  5
64A
 10
-1.275665
 20
7.251684
 30
0.0
 11
-1.272925
 21
7.238838
 31
0.0
  0
LINE
  8
0
  6
CONTINUOUS
 62
     7
  5
64B
 10
-1.272925
 20
7.238838
 30
0.0
 11
-1.269514
 21
7.226154
 31
0.0
  0
LINE
  8
0
  6
CONTINUOUS
 62
     7
  5
64C
 10
-1.269514
 20
7.226154
 30
0.0
 11
-1.265441
 21
7.213667
 31
0.0
  0
LINE
  8
0
  6
CONTINUOUS
 62
     7
  5
64D
 10
-1.265441
 20
7.213667
 30
0.0
 11
-1.260718
 21
7.20141
 31
0.0
  0
LINE
  8
0
  6
CONTINUOUS
 62
     7
  5
64E
 10
-1.260718
 20
7.20141
 30
0.0
 11
-1.255358
 21
7.189419
 31
0.0
  0
LINE
  8
0
  6
CONTINUOUS
 62
     7
  5
64F
 10
-1.255358
 20
7.189419
 30
0.0
 11
-1.249375
 21
7.177726
 31
0.0
  0
LINE
  8
0
  6
CONTINUOUS
 62
     7
  5
650
 10
-1.249375
 20
7.177726
 30
0.0
 11
-1.242787
 21
7.166363
 31
0.0
  0
LINE
  8
0
  6
CONTINUOUS
 62
     7
  5
651
 10
-1.242787
 20
7.166363
 30
0.0
 11
-1.235611
 21
7.155362
 31
0.0
  0
LINE
  8
0
  6
CONTINUOUS
 62
     7
  5
652
 10
-1.235611
 20
7.155362
 30
0.0
 11
-1.227867
 21
7.144753
 31
0.0
  0
LINE
  8
0
  6
CONTINUOUS
 62
     7
  5
653
 10
-1.227867
 20
7.144753
 30
0.0
 11
-1.219576
 21
7.134565
 31
0.0
  0
LINE
  8
0
  6
CONTINUOUS
 62
     7
  5
654
 10
-1.219576
 20
7.134565
 30
0.0
 11
-1.210762
 21
7.124827
 31
0.0
  0
LINE
  8
0
  6
CONTINUOUS
 62
     7
  5
655
 10
-1.210762
 20
7.124827
 30
0.0
 11
-1.201449
 21
7.115565
 31
0.0
  0
LINE
  8
0
  6
CONTINUOUS
 62
     7
  5
656
 10
-1.201449
 20
7.115565
 30
0.0
 11
-1.191662
 21
7.106805
 31
0.0
  0
LINE
  8
0
  6
CONTINUOUS
 62
     7
  5
657
 10
-1.191662
 20
7.106805
 30
0.0
 11
-1.181429
 21
7.098572
 31
0.0
  0
LINE
  8
0
  6
CONTINUOUS
 62
     7
  5
658
 10
-1.181429
 20
7.098572
 30
0.0
 11
-1.181429
 21
6.321822
 31
0.0
  0
LINE
  8
0
  6
CONTINUOUS
 62
     7
  5
659
 10
-1.181429
 20
5.924162
 30
0.0
 11
-1.181429
 21
4.23
 31
0.0
  0
LINE
  8
0
  6
CONTINUOUS
 62
     7
  5
65A
 10
-1.181429
 20
8.13
 30
0.0
 11
-1.181429
 21
7.496231
 31
0.0
  0
LINE
  8
0
  6
CONTINUOUS
 62
     7
  5
65B
 10
-1.181429
 20
4.23
 30
0.0
 11
-1.575238
 21
4.23
 31
0.0
  0
ARC
  8
0
  6
CONTINUOUS
 62
     7
  5
65C
 10
-1.029881
 20
7.297402
 30
0.0
 40
0.25
 50
232.685444
 51
270.0
  0
ARC
  8
0
  6
CONTINUOUS
 62
     7
  5
65D
 10
-1.029881
 20
7.297402
 30
0.0
 40
0.25
 50
90.0
 51
127.314556
  0
LINE
  8
0
  6
CONTINUOUS
 62
     7
  5
65E
 10
-1.029881
 20
7.547402
 30
0.0
 11
1.029881
 21
7.547402
 31
0.0
  0
ARC
  8
0
  6
CONTINUOUS
 62
     7
  5
65F
 10
1.029881
 20
7.297402
 30
0.0
 40
0.25
 50
52.685444
 51
90.0
  0
LINE
  8
0
  6
CONTINUOUS
 62
     7
  5
660
 10
1.181429
 20
7.496231
 30
0.0
 11
1.181429
 21
8.13
 31
0.0
  0
LINE
  8
0
  6
CONTINUOUS
 62
     7
  5
661
 10
-1.181429
 20
8.13
 30
0.0
 11
1.181429
 21
8.13
 31
0.0
  0
ARC
  8
0
  6
CONTINUOUS
 62
     7
  5
662
 10
-1.029881
 20
6.122992
 30
0.0
 40
0.25
 50
90.0
 51
127.314556
  0
LINE
  8
0
  6
CONTINUOUS
 62
     7
  5
663
 10
-1.029881
 20
6.372992
 30
0.0
 11
1.029881
 21
6.372992
 31
0.0
  0
ARC
  8
0
  6
CONTINUOUS
 62
     7
  5
664
 10
1.029881
 20
6.122992
 30
0.0
 40
0.25
 50
52.685444
 51
90.0
  0
LINE
  8
0
  6
CONTINUOUS
 62
     7
  5
665
 10
1.181429
 20
6.321822
 30
0.0
 11
1.181429
 21
7.098572
 31
0.0
  0
ARC
  8
0
  6
CONTINUOUS
 62
     7
  5
666
 10
1.029881
 20
7.297402
 30
0.0
 40
0.25
 50
270.0
 51
307.314556
  0
LINE
  8
0
  6
CONTINUOUS
 62
     7
  5
667
 10
1.029881
 20
7.047402
 30
0.0
 11
-1.029881
 21
7.047402
 31
0.0
  0
LINE
  8
0
  6
CONTINUOUS
 62
     7
  5
668
 10
1.181429
 20
-7.098572
 30
0.0
 11
1.181429
 21
-6.321822
 31
0.0
  0
LINE
  8
0
  6
CONTINUOUS
 62
     7
  5
669
 10
1.181429
 20
-7.496231
 30
0.0
 11
1.191662
 21
-7.487998
 31
0.0
  0
LINE
  8
0
  6
CONTINUOUS
 62
     7
  5
66A
 10
1.191662
 20
-7.487998
 30
0.0
 11
1.201449
 21
-7.479238
 31
0.0
  0
LINE
  8
0
  6
CONTINUOUS
 62
     7
  5
66B
 10
1.201449
 20
-7.479238
 30
0.0
 11
1.210762
 21
-7.469976
 31
0.0
  0
LINE
  8
0
  6
CONTINUOUS
 62
     7
  5
66C
 10
1.210762
 20
-7.469976
 30
0.0
 11
1.219576
 21
-7.460238
 31
0.0
  0
LINE
  8
0
  6
CONTINUOUS
 62
     7
  5
66D
 10
1.219576
 20
-7.460238
 30
0.0
 11
1.227867
 21
-7.45005
 31
0.0
  0
LINE
  8
0
  6
CONTINUOUS
 62
     7
  5
66E
 10
1.227867
 20
-7.45005
 30
0.0
 11
1.235611
 21
-7.439441
 31
0.0
  0
LINE
  8
0
  6
CONTINUOUS
 62
     7
  5
66F
 10
1.235611
 20
-7.439441
 30
0.0
 11
1.242787
 21
-7.42844
 31
0.0
  0
LINE
  8
0
  6
CONTINUOUS
 62
     7
  5
670
 10
1.242787
 20
-7.42844
 30
0.0
 11
1.249375
 21
-7.417077
 31
0.0
  0
LINE
  8
0
  6
CONTINUOUS
 62
     7
  5
671
 10
1.249375
 20
-7.417077
 30
0.0
 11
1.255358
 21
-7.405384
 31
0.0
  0
LINE
  8
0
  6
CONTINUOUS
 62
     7
  5
672
 10
1.255358
 20
-7.405384
 30
0.0
 11
1.260718
 21
-7.393393
 31
0.0
  0
LINE
  8
0
  6
CONTINUOUS
 62
     7
  5
673
 10
1.260718
 20
-7.393393
 30
0.0
 11
1.265441
 21
-7.381137
 31
0.0
  0
LINE
  8
0
  6
CONTINUOUS
 62
     7
  5
674
 10
1.265441
 20
-7.381137
 30
0.0
 11
1.269514
 21
-7.368649
 31
0.0
  0
LINE
  8
0
  6
CONTINUOUS
 62
     7
  5
675
 10
1.269514
 20
-7.368649
 30
0.0
 11
1.272925
 21
-7.355965
 31
0.0
  0
LINE
  8
0
  6
CONTINUOUS
 62
     7
  5
676
 10
1.272925
 20
-7.355965
 30
0.0
 11
1.275665
 21
-7.34312
 31
0.0
  0
LINE
  8
0
  6
CONTINUOUS
 62
     7
  5
677
 10
1.275665
 20
-7.34312
 30
0.0
 11
1.277727
 21
-7.330148
 31
0.0
  0
LINE
  8
0
  6
CONTINUOUS
 62
     7
  5
678
 10
1.277727
 20
-7.330148
 30
0.0
 11
1.279105
 21
-7.317085
 31
0.0
  0
LINE
  8
0
  6
CONTINUOUS
 62
     7
  5
679
 10
1.279105
 20
-7.317085
 30
0.0
 11
1.279795
 21
-7.303969
 31
0.0
  0
LINE
  8
0
  6
CONTINUOUS
 62
     7
  5
67A
 10
1.279795
 20
-7.303969
 30
0.0
 11
1.279795
 21
-7.290834
 31
0.0
  0
LINE
  8
0
  6
CONTINUOUS
 62
     7
  5
67B
 10
1.279795
 20
-7.290834
 30
0.0
 11
1.279105
 21
-7.277718
 31
0.0
  0
LINE
  8
0
  6
CONTINUOUS
 62
     7
  5
67C
 10
1.279105
 20
-7.277718
 30
0.0
 11
1.277727
 21
-7.264655
 31
0.0
  0
LINE
  8
0
  6
CONTINUOUS
 62
     7
  5
67D
 10
1.277727
 20
-7.264655
 30
0.0
 11
1.275665
 21
-7.251684
 31
0.0
  0
LINE
  8
0
  6
CONTINUOUS
 62
     7
  5
67E
 10
1.275665
 20
-7.251684
 30
0.0
 11
1.272925
 21
-7.238838
 31
0.0
  0
LINE
  8
0
  6
CONTINUOUS
 62
     7
  5
67F
 10
1.272925
 20
-7.238838
 30
0.0
 11
1.269514
 21
-7.226154
 31
0.0
  0
LINE
  8
0
  6
CONTINUOUS
 62
     7
  5
680
 10
1.269514
 20
-7.226154
 30
0.0
 11
1.265441
 21
-7.213667
 31
0.0
  0
LINE
  8
0
  6
CONTINUOUS
 62
     7
  5
681
 10
1.265441
 20
-7.213667
 30
0.0
 11
1.260718
 21
-7.20141
 31
0.0
  0
LINE
  8
0
  6
CONTINUOUS
 62
     7
  5
682
 10
1.260718
 20
-7.20141
 30
0.0
 11
1.255358
 21
-7.189419
 31
0.0
  0
LINE
  8
0
  6
CONTINUOUS
 62
     7
  5
683
 10
1.255358
 20
-7.189419
 30
0.0
 11
1.249375
 21
-7.177726
 31
0.0
  0
LINE
  8
0
  6
CONTINUOUS
 62
     7
  5
684
 10
1.249375
 20
-7.177726
 30
0.0
 11
1.242787
 21
-7.166363
 31
0.0
  0
LINE
  8
0
  6
CONTINUOUS
 62
     7
  5
685
 10
1.242787
 20
-7.166363
 30
0.0
 11
1.235611
 21
-7.155362
 31
0.0
  0
LINE
  8
0
  6
CONTINUOUS
 62
     7
  5
686
 10
1.235611
 20
-7.155362
 30
0.0
 11
1.227867
 21
-7.144753
 31
0.0
  0
LINE
  8
0
  6
CONTINUOUS
 62
     7
  5
687
 10
1.227867
 20
-7.144753
 30
0.0
 11
1.219576
 21
-7.134565
 31
0.0
  0
LINE
  8
0
  6
CONTINUOUS
 62
     7
  5
688
 10
1.219576
 20
-7.134565
 30
0.0
 11
1.210762
 21
-7.124827
 31
0.0
  0
LINE
  8
0
  6
CONTINUOUS
 62
     7
  5
689
 10
1.210762
 20
-7.124827
 30
0.0
 11
1.201449
 21
-7.115565
 31
0.0
  0
LINE
  8
0
  6
CONTINUOUS
 62
     7
  5
68A
 10
1.201449
 20
-7.115565
 30
0.0
 11
1.191662
 21
-7.106805
 31
0.0
  0
LINE
  8
0
  6
CONTINUOUS
 62
     7
  5
68B
 10
1.191662
 20
-7.106805
 30
0.0
 11
1.181429
 21
-7.098572
 31
0.0
  0
LINE
  8
0
  6
CONTINUOUS
 62
     7
  5
68C
 10
1.378333
 20
-8.13
 30
0.0
 11
1.181429
 21
-8.13
 31
0.0
  0
LINE
  8
0
  6
CONTINUOUS
 62
     7
  5
68D
 10
1.378333
 20
-8.13
 30
0.0
 11
1.378333
 21
-4.23
 31
0.0
  0
LINE
  8
0
  6
CONTINUOUS
 62
     7
  5
68E
 10
1.181429
 20
-6.321822
 30
0.0
 11
1.191662
 21
-6.313588
 31
0.0
  0
LINE
  8
0
  6
CONTINUOUS
 62
     7
  5
68F
 10
1.191662
 20
-6.313588
 30
0.0
 11
1.201449
 21
-6.304828
 31
0.0
  0
LINE
  8
0
  6
CONTINUOUS
 62
     7
  5
690
 10
1.201449
 20
-6.304828
 30
0.0
 11
1.210762
 21
-6.295566
 31
0.0
  0
LINE
  8
0
  6
CONTINUOUS
 62
     7
  5
691
 10
1.210762
 20
-6.295566
 30
0.0
 11
1.219576
 21
-6.285828
 31
0.0
  0
LINE
  8
0
  6
CONTINUOUS
 62
     7
  5
692
 10
1.219576
 20
-6.285828
 30
0.0
 11
1.227867
 21
-6.275641
 31
0.0
  0
LINE
  8
0
  6
CONTINUOUS
 62
     7
  5
693
 10
1.227867
 20
-6.275641
 30
0.0
 11
1.235611
 21
-6.265032
 31
0.0
  0
LINE
  8
0
  6
CONTINUOUS
 62
     7
  5
694
 10
1.235611
 20
-6.265032
 30
0.0
 11
1.242787
 21
-6.25403
 31
0.0
  0
LINE
  8
0
  6
CONTINUOUS
 62
     7
  5
695
 10
1.242787
 20
-6.25403
 30
0.0
 11
1.249375
 21
-6.242668
 31
0.0
  0
LINE
  8
0
  6
CONTINUOUS
 62
     7
  5
696
 10
1.249375
 20
-6.242668
 30
0.0
 11
1.255358
 21
-6.230974
 31
0.0
  0
LINE
  8
0
  6
CONTINUOUS
 62
     7
  5
697
 10
1.255358
 20
-6.230974
 30
0.0
 11
1.260718
 21
-6.218983
 31
0.0
  0
LINE
  8
0
  6
CONTINUOUS
 62
     7
  5
698
 10
1.260718
 20
-6.218983
 30
0.0
 11
1.265441
 21
-6.206727
 31
0.0
  0
LINE
  8
0
  6
CONTINUOUS
 62
     7
  5
699
 10
1.265441
 20
-6.206727
 30
0.0
 11
1.269514
 21
-6.19424
 31
0.0
  0
LINE
  8
0
  6
CONTINUOUS
 62
     7
  5
69A
 10
1.269514
 20
-6.19424
 30
0.0
 11
1.272925
 21
-6.181556
 31
0.0
  0
LINE
  8
0
  6
CONTINUOUS
 62
     7
  5
69B
 10
1.272925
 20
-6.181556
 30
0.0
 11
1.275665
 21
-6.16871
 31
0.0
  0
LINE
  8
0
  6
CONTINUOUS
 62
     7
  5
69C
 10
1.275665
 20
-6.16871
 30
0.0
 11
1.277727
 21
-6.155738
 31
0.0
  0
LINE
  8
0
  6
CONTINUOUS
 62
     7
  5
69D
 10
1.277727
 20
-6.155738
 30
0.0
 11
1.279105
 21
-6.142676
 31
0.0
  0
LINE
  8
0
  6
CONTINUOUS
 62
     7
  5
69E
 10
1.279105
 20
-6.142676
 30
0.0
 11
1.279795
 21
-6.129559
 31
0.0
  0
LINE
  8
0
  6
CONTINUOUS
 62
     7
  5
69F
 10
1.279795
 20
-6.129559
 30
0.0
 11
1.279795
 21
-6.116425
 31
0.0
  0
LINE
  8
0
  6
CONTINUOUS
 62
     7
  5
6A0
 10
1.279795
 20
-6.116425
 30
0.0
 11
1.279105
 21
-6.103308
 31
0.0
  0
LINE
  8
0
  6
CONTINUOUS
 62
     7
  5
6A1
 10
1.279105
 20
-6.103308
 30
0.0
 11
1.277727
 21
-6.090246
 31
0.0
  0
LINE
  8
0
  6
CONTINUOUS
 62
     7
  5
6A2
 10
1.277727
 20
-6.090246
 30
0.0
 11
1.275665
 21
-6.077274
 31
0.0
  0
LINE
  8
0
  6
CONTINUOUS
 62
     7
  5
6A3
 10
1.275665
 20
-6.077274
 30
0.0
 11
1.272925
 21
-6.064428
 31
0.0
  0
LINE
  8
0
  6
CONTINUOUS
 62
     7
  5
6A4
 10
1.272925
 20
-6.064428
 30
0.0
 11
1.269514
 21
-6.051744
 31
0.0
  0
LINE
  8
0
  6
CONTINUOUS
 62
     7
  5
6A5
 10
1.269514
 20
-6.051744
 30
0.0
 11
1.265441
 21
-6.039257
 31
0.0
  0
LINE
  8
0
  6
CONTINUOUS
 62
     7
  5
6A6
 10
1.265441
 20
-6.039257
 30
0.0
 11
1.260718
 21
-6.027001
 31
0.0
  0
LINE
  8
0
  6
CONTINUOUS
 62
     7
  5
6A7
 10
1.260718
 20
-6.027001
 30
0.0
 11
1.255358
 21
-6.01501
 31
0.0
  0
LINE
  8
0
  6
CONTINUOUS
 62
     7
  5
6A8
 10
1.255358
 20
-6.01501
 30
0.0
 11
1.249375
 21
-6.003317
 31
0.0
  0
LINE
  8
0
  6
CONTINUOUS
 62
     7
  5
6A9
 10
1.249375
 20
-6.003317
 30
0.0
 11
1.242787
 21
-5.991954
 31
0.0
  0
LINE
  8
0
  6
CONTINUOUS
 62
     7
  5
6AA
 10
1.242787
 20
-5.991954
 30
0.0
 11
1.235611
 21
-5.980953
 31
0.0
  0
LINE
  8
0
  6
CONTINUOUS
 62
     7
  5
6AB
 10
1.235611
 20
-5.980953
 30
0.0
 11
1.227867
 21
-5.970344
 31
0.0
  0
LINE
  8
0
  6
CONTINUOUS
 62
     7
  5
6AC
 10
1.227867
 20
-5.970344
 30
0.0
 11
1.219576
 21
-5.960156
 31
0.0
  0
LINE
  8
0
  6
CONTINUOUS
 62
     7
  5
6AD
 10
1.219576
 20
-5.960156
 30
0.0
 11
1.210762
 21
-5.950418
 31
0.0
  0
LINE
  8
0
  6
CONTINUOUS
 62
     7
  5
6AE
 10
1.210762
 20
-5.950418
 30
0.0
 11
1.201449
 21
-5.941156
 31
0.0
  0
LINE
  8
0
  6
CONTINUOUS
 62
     7
  5
6AF
 10
1.201449
 20
-5.941156
 30
0.0
 11
1.191662
 21
-5.932396
 31
0.0
  0
LINE
  8
0
  6
CONTINUOUS
 62
     7
  5
6B0
 10
1.191662
 20
-5.932396
 30
0.0
 11
1.181429
 21
-5.924162
 31
0.0
  0
ARC
  8
0
  6
CONTINUOUS
 62
     7
  5
6B1
 10
1.029881
 20
-6.122992
 30
0.0
 40
0.25
 50
270.0
 51
307.314556
  0
LINE
  8
0
  6
CONTINUOUS
 62
     7
  5
6B2
 10
-1.029881
 20
-7.047402
 30
0.0
 11
1.029881
 21
-7.047402
 31
0.0
  0
ARC
  8
0
  6
CONTINUOUS
 62
     7
  5
6B3
 10
1.029881
 20
-7.297402
 30
0.0
 40
0.25
 50
52.685444
 51
90.0
  0
LINE
  8
0
  6
CONTINUOUS
 62
     7
  5
6B4
 10
1.029881
 20
-6.372992
 30
0.0
 11
-1.029881
 21
-6.372992
 31
0.0
  0
ARC
  8
0
  6
CONTINUOUS
 62
     7
  5
6B5
 10
-1.029881
 20
-6.122992
 30
0.0
 40
0.25
 50
232.685444
 51
270.0
  0
LINE
  8
0
  6
CONTINUOUS
 62
     7
  5
6B6
 10
1.181429
 20
5.924162
 30
0.0
 11
1.191662
 21
5.932396
 31
0.0
  0
LINE
  8
0
  6
CONTINUOUS
 62
     7
  5
6B7
 10
1.191662
 20
5.932396
 30
0.0
 11
1.201449
 21
5.941156
 31
0.0
  0
LINE
  8
0
  6
CONTINUOUS
 62
     7
  5
6B8
 10
1.201449
 20
5.941156
 30
0.0
 11
1.210762
 21
5.950418
 31
0.0
  0
LINE
  8
0
  6
CONTINUOUS
 62
     7
  5
6B9
 10
1.210762
 20
5.950418
 30
0.0
 11
1.219576
 21
5.960156
 31
0.0
  0
LINE
  8
0
  6
CONTINUOUS
 62
     7
  5
6BA
 10
1.219576
 20
5.960156
 30
0.0
 11
1.227867
 21
5.970344
 31
0.0
  0
LINE
  8
0
  6
CONTINUOUS
 62
     7
  5
6BB
 10
1.227867
 20
5.970344
 30
0.0
 11
1.235611
 21
5.980953
 31
0.0
  0
LINE
  8
0
  6
CONTINUOUS
 62
     7
  5
6BC
 10
1.235611
 20
5.980953
 30
0.0
 11
1.242787
 21
5.991954
 31
0.0
  0
LINE
  8
0
  6
CONTINUOUS
 62
     7
  5
6BD
 10
1.242787
 20
5.991954
 30
0.0
 11
1.249375
 21
6.003317
 31
0.0
  0
LINE
  8
0
  6
CONTINUOUS
 62
     7
  5
6BE
 10
1.249375
 20
6.003317
 30
0.0
 11
1.255358
 21
6.01501
 31
0.0
  0
LINE
  8
0
  6
CONTINUOUS
 62
     7
  5
6BF
 10
1.255358
 20
6.01501
 30
0.0
 11
1.260718
 21
6.027001
 31
0.0
  0
LINE
  8
0
  6
CONTINUOUS
 62
     7
  5
6C0
 10
1.260718
 20
6.027001
 30
0.0
 11
1.265441
 21
6.039257
 31
0.0
  0
LINE
  8
0
  6
CONTINUOUS
 62
     7
  5
6C1
 10
1.265441
 20
6.039257
 30
0.0
 11
1.269514
 21
6.051744
 31
0.0
  0
LINE
  8
0
  6
CONTINUOUS
 62
     7
  5
6C2
 10
1.269514
 20
6.051744
 30
0.0
 11
1.272925
 21
6.064428
 31
0.0
  0
LINE
  8
0
  6
CONTINUOUS
 62
     7
  5
6C3
 10
1.272925
 20
6.064428
 30
0.0
 11
1.275665
 21
6.077274
 31
0.0
  0
LINE
  8
0
  6
CONTINUOUS
 62
     7
  5
6C4
 10
1.275665
 20
6.077274
 30
0.0
 11
1.277727
 21
6.090246
 31
0.0
  0
LINE
  8
0
  6
CONTINUOUS
 62
     7
  5
6C5
 10
1.277727
 20
6.090246
 30
0.0
 11
1.279105
 21
6.103308
 31
0.0
  0
LINE
  8
0
  6
CONTINUOUS
 62
     7
  5
6C6
 10
1.279105
 20
6.103308
 30
0.0
 11
1.279795
 21
6.116425
 31
0.0
  0
LINE
  8
0
  6
CONTINUOUS
 62
     7
  5
6C7
 10
1.279795
 20
6.116425
 30
0.0
 11
1.279795
 21
6.129559
 31
0.0
  0
LINE
  8
0
  6
CONTINUOUS
 62
     7
  5
6C8
 10
1.279795
 20
6.129559
 30
0.0
 11
1.279105
 21
6.142676
 31
0.0
  0
LINE
  8
0
  6
CONTINUOUS
 62
     7
  5
6C9
 10
1.279105
 20
6.142676
 30
0.0
 11
1.277727
 21
6.155738
 31
0.0
  0
LINE
  8
0
  6
CONTINUOUS
 62
     7
  5
6CA
 10
1.277727
 20
6.155738
 30
0.0
 11
1.275665
 21
6.16871
 31
0.0
  0
LINE
  8
0
  6
CONTINUOUS
 62
     7
  5
6CB
 10
1.275665
 20
6.16871
 30
0.0
 11
1.272925
 21
6.181556
 31
0.0
  0
LINE
  8
0
  6
CONTINUOUS
 62
     7
  5
6CC
 10
1.272925
 20
6.181556
 30
0.0
 11
1.269514
 21
6.19424
 31
0.0
  0
LINE
  8
0
  6
CONTINUOUS
 62
     7
  5
6CD
 10
1.269514
 20
6.19424
 30
0.0
 11
1.265441
 21
6.206727
 31
0.0
  0
LINE
  8
0
  6
CONTINUOUS
 62
     7
  5
6CE
 10
1.265441
 20
6.206727
 30
0.0
 11
1.260718
 21
6.218983
 31
0.0
  0
LINE
  8
0
  6
CONTINUOUS
 62
     7
  5
6CF
 10
1.260718
 20
6.218983
 30
0.0
 11
1.255358
 21
6.230974
 31
0.0
  0
LINE
  8
0
  6
CONTINUOUS
 62
     7
  5
6D0
 10
1.255358
 20
6.230974
 30
0.0
 11
1.249375
 21
6.242668
 31
0.0
  0
LINE
  8
0
  6
CONTINUOUS
 62
     7
  5
6D1
 10
1.249375
 20
6.242668
 30
0.0
 11
1.242787
 21
6.25403
 31
0.0
  0
LINE
  8
0
  6
CONTINUOUS
 62
     7
  5
6D2
 10
1.242787
 20
6.25403
 30
0.0
 11
1.235611
 21
6.265032
 31
0.0
  0
LINE
  8
0
  6
CONTINUOUS
 62
     7
  5
6D3
 10
1.235611
 20
6.265032
 30
0.0
 11
1.227867
 21
6.275641
 31
0.0
  0
LINE
  8
0
  6
CONTINUOUS
 62
     7
  5
6D4
 10
1.227867
 20
6.275641
 30
0.0
 11
1.219576
 21
6.285828
 31
0.0
  0
LINE
  8
0
  6
CONTINUOUS
 62
     7
  5
6D5
 10
1.219576
 20
6.285828
 30
0.0
 11
1.210762
 21
6.295566
 31
0.0
  0
LINE
  8
0
  6
CONTINUOUS
 62
     7
  5
6D6
 10
1.210762
 20
6.295566
 30
0.0
 11
1.201449
 21
6.304828
 31
0.0
  0
LINE
  8
0
  6
CONTINUOUS
 62
     7
  5
6D7
 10
1.201449
 20
6.304828
 30
0.0
 11
1.191662
 21
6.313588
 31
0.0
  0
LINE
  8
0
  6
CONTINUOUS
 62
     7
  5
6D8
 10
1.191662
 20
6.313588
 30
0.0
 11
1.181429
 21
6.321822
 31
0.0
  0
LINE
  8
0
  6
CONTINUOUS
 62
     7
  5
6D9
 10
1.378333
 20
4.23
 30
0.0
 11
1.378333
 21
8.13
 31
0.0
  0
LINE
  8
0
  6
CONTINUOUS
 62
     7
  5
6DA
 10
1.181429
 20
8.13
 30
0.0
 11
1.378333
 21
8.13
 31
0.0
  0
LINE
  8
0
  6
CONTINUOUS
 62
     7
  5
6DB
 10
1.181429
 20
7.098572
 30
0.0
 11
1.191662
 21
7.106805
 31
0.0
  0
LINE
  8
0
  6
CONTINUOUS
 62
     7
  5
6DC
 10
1.191662
 20
7.106805
 30
0.0
 11
1.201449
 21
7.115565
 31
0.0
  0
LINE
  8
0
  6
CONTINUOUS
 62
     7
  5
6DD
 10
1.201449
 20
7.115565
 30
0.0
 11
1.210762
 21
7.124827
 31
0.0
  0
LINE
  8
0
  6
CONTINUOUS
 62
     7
  5
6DE
 10
1.210762
 20
7.124827
 30
0.0
 11
1.219576
 21
7.134565
 31
0.0
  0
LINE
  8
0
  6
CONTINUOUS
 62
     7
  5
6DF
 10
1.219576
 20
7.134565
 30
0.0
 11
1.227867
 21
7.144753
 31
0.0
  0
LINE
  8
0
  6
CONTINUOUS
 62
     7
  5
6E0
 10
1.227867
 20
7.144753
 30
0.0
 11
1.235611
 21
7.155362
 31
0.0
  0
LINE
  8
0
  6
CONTINUOUS
 62
     7
  5
6E1
 10
1.235611
 20
7.155362
 30
0.0
 11
1.242787
 21
7.166363
 31
0.0
  0
LINE
  8
0
  6
CONTINUOUS
 62
     7
  5
6E2
 10
1.242787
 20
7.166363
 30
0.0
 11
1.249375
 21
7.177726
 31
0.0
  0
LINE
  8
0
  6
CONTINUOUS
 62
     7
  5
6E3
 10
1.249375
 20
7.177726
 30
0.0
 11
1.255358
 21
7.189419
 31
0.0
  0
LINE
  8
0
  6
CONTINUOUS
 62
     7
  5
6E4
 10
1.255358
 20
7.189419
 30
0.0
 11
1.260718
 21
7.20141
 31
0.0
  0
LINE
  8
0
  6
CONTINUOUS
 62
     7
  5
6E5
 10
1.260718
 20
7.20141
 30
0.0
 11
1.265441
 21
7.213667
 31
0.0
  0
LINE
  8
0
  6
CONTINUOUS
 62
     7
  5
6E6
 10
1.265441
 20
7.213667
 30
0.0
 11
1.269514
 21
7.226154
 31
0.0
  0
LINE
  8
0
  6
CONTINUOUS
 62
     7
  5
6E7
 10
1.269514
 20
7.226154
 30
0.0
 11
1.272925
 21
7.238838
 31
0.0
  0
LINE
  8
0
  6
CONTINUOUS
 62
     7
  5
6E8
 10
1.272925
 20
7.238838
 30
0.0
 11
1.275665
 21
7.251684
 31
0.0
  0
LINE
  8
0
  6
CONTINUOUS
 62
     7
  5
6E9
 10
1.275665
 20
7.251684
 30
0.0
 11
1.277727
 21
7.264655
 31
0.0
  0
LINE
  8
0
  6
CONTINUOUS
 62
     7
  5
6EA
 10
1.277727
 20
7.264655
 30
0.0
 11
1.279105
 21
7.277718
 31
0.0
  0
LINE
  8
0
  6
CONTINUOUS
 62
     7
  5
6EB
 10
1.279105
 20
7.277718
 30
0.0
 11
1.279795
 21
7.290834
 31
0.0
  0
LINE
  8
0
  6
CONTINUOUS
 62
     7
  5
6EC
 10
1.279795
 20
7.290834
 30
0.0
 11
1.279795
 21
7.303969
 31
0.0
  0
LINE
  8
0
  6
CONTINUOUS
 62
     7
  5
6ED
 10
1.279795
 20
7.303969
 30
0.0
 11
1.279105
 21
7.317085
 31
0.0
  0
LINE
  8
0
  6
CONTINUOUS
 62
     7
  5
6EE
 10
1.279105
 20
7.317085
 30
0.0
 11
1.277727
 21
7.330148
 31
0.0
  0
LINE
  8
0
  6
CONTINUOUS
 62
     7
  5
6EF
 10
1.277727
 20
7.330148
 30
0.0
 11
1.275665
 21
7.34312
 31
0.0
  0
LINE
  8
0
  6
CONTINUOUS
 62
     7
  5
6F0
 10
1.275665
 20
7.34312
 30
0.0
 11
1.272925
 21
7.355965
 31
0.0
  0
LINE
  8
0
  6
CONTINUOUS
 62
     7
  5
6F1
 10
1.272925
 20
7.355965
 30
0.0
 11
1.269514
 21
7.368649
 31
0.0
  0
LINE
  8
0
  6
CONTINUOUS
 62
     7
  5
6F2
 10
1.269514
 20
7.368649
 30
0.0
 11
1.265441
 21
7.381137
 31
0.0
  0
LINE
  8
0
  6
CONTINUOUS
 62
     7
  5
6F3
 10
1.265441
 20
7.381137
 30
0.0
 11
1.260718
 21
7.393393
 31
0.0
  0
LINE
  8
0
  6
CONTINUOUS
 62
     7
  5
6F4
 10
1.260718
 20
7.393393
 30
0.0
 11
1.255358
 21
7.405384
 31
0.0
  0
LINE
  8
0
  6
CONTINUOUS
 62
     7
  5
6F5
 10
1.255358
 20
7.405384
 30
0.0
 11
1.249375
 21
7.417077
 31
0.0
  0
LINE
  8
0
  6
CONTINUOUS
 62
     7
  5
6F6
 10
1.249375
 20
7.417077
 30
0.0
 11
1.242787
 21
7.42844
 31
0.0
  0
LINE
  8
0
  6
CONTINUOUS
 62
     7
  5
6F7
 10
1.242787
 20
7.42844
 30
0.0
 11
1.235611
 21
7.439441
 31
0.0
  0
LINE
  8
0
  6
CONTINUOUS
 62
     7
  5
6F8
 10
1.235611
 20
7.439441
 30
0.0
 11
1.227867
 21
7.45005
 31
0.0
  0
LINE
  8
0
  6
CONTINUOUS
 62
     7
  5
6F9
 10
1.227867
 20
7.45005
 30
0.0
 11
1.219576
 21
7.460238
 31
0.0
  0
LINE
  8
0
  6
CONTINUOUS
 62
     7
  5
6FA
 10
1.219576
 20
7.460238
 30
0.0
 11
1.210762
 21
7.469976
 31
0.0
  0
LINE
  8
0
  6
CONTINUOUS
 62
     7
  5
6FB
 10
1.210762
 20
7.469976
 30
0.0
 11
1.201449
 21
7.479238
 31
0.0
  0
LINE
  8
0
  6
CONTINUOUS
 62
     7
  5
6FC
 10
1.201449
 20
7.479238
 30
0.0
 11
1.191662
 21
7.487998
 31
0.0
  0
LINE
  8
0
  6
CONTINUOUS
 62
     7
  5
6FD
 10
1.191662
 20
7.487998
 30
0.0
 11
1.181429
 21
7.496231
 31
0.0
  0
LINE
  8
0
  6
CONTINUOUS
 62
     7
  5
6FE
 10
1.181429
 20
4.23
 30
0.0
 11
1.181429
 21
5.924162
 31
0.0
  0
ARC
  8
0
  6
CONTINUOUS
 62
     7
  5
6FF
 10
1.029881
 20
6.122992
 30
0.0
 40
0.25
 50
270.0
 51
307.314556
  0
LINE
  8
0
  6
CONTINUOUS
 62
     7
  5
700
 10
-1.181429
 20
4.23
 30
0.0
 11
1.181429
 21
4.23
 31
0.0
  0
LINE
  8
0
  6
CONTINUOUS
 62
     7
  5
701
 10
1.029881
 20
5.872992
 30
0.0
 11
-1.029881
 21
5.872992
 31
0.0
  0
ARC
  8
0
  6
CONTINUOUS
 62
     7
  5
702
 10
-1.029881
 20
6.122992
 30
0.0
 40
0.25
 50
232.685444
 51
270.0
  0
CIRCLE
  8
0
  6
CONTINUOUS
 62
     7
  5
703
 10
-0.492126
 20
6.122992
 30
0.0
 40
0.164882
  0
CIRCLE
  8
0
  6
CONTINUOUS
 62
     7
  5
704
 10
0.492126
 20
6.122992
 30
0.0
 40
0.164882
  0
LINE
  8
0
  6
CONTINUOUS
 62
     7
  5
705
 10
-0.555557
 20
-6.275185
 30
0.0
 11
-0.560733
 21
-6.272923
 31
0.0
  0
LINE
  8
0
  6
CONTINUOUS
 62
     7
  5
706
 10
-0.560733
 20
-6.272923
 30
0.0
 11
-0.565821
 21
-6.270488
 31
0.0
  0
LINE
  8
0
  6
CONTINUOUS
 62
     7
  5
707
 10
-0.565821
 20
-6.270488
 30
0.0
 11
-0.570812
 21
-6.267887
 31
0.0
  0
LINE
  8
0
  6
CONTINUOUS
 62
     7
  5
708
 10
-0.570812
 20
-6.267887
 30
0.0
 11
-0.575697
 21
-6.265126
 31
0.0
  0
LINE
  8
0
  6
CONTINUOUS
 62
     7
  5
709
 10
-0.575697
 20
-6.265126
 30
0.0
 11
-0.580467
 21
-6.262211
 31
0.0
  0
LINE
  8
0
  6
CONTINUOUS
 62
     7
  5
70A
 10
-0.580467
 20
-6.262211
 30
0.0
 11
-0.585113
 21
-6.259151
 31
0.0
  0
LINE
  8
0
  6
CONTINUOUS
 62
     7
  5
70B
 10
-0.585113
 20
-6.259151
 30
0.0
 11
-0.589628
 21
-6.255956
 31
0.0
  0
LINE
  8
0
  6
CONTINUOUS
 62
     7
  5
70C
 10
-0.589628
 20
-6.255956
 30
0.0
 11
-0.594004
 21
-6.252634
 31
0.0
  0
LINE
  8
0
  6
CONTINUOUS
 62
     7
  5
70D
 10
-0.594004
 20
-6.252634
 30
0.0
 11
-0.598233
 21
-6.249195
 31
0.0
  0
LINE
  8
0
  6
CONTINUOUS
 62
     7
  5
70E
 10
-0.598233
 20
-6.249195
 30
0.0
 11
-0.602311
 21
-6.245652
 31
0.0
  0
LINE
  8
0
  6
CONTINUOUS
 62
     7
  5
70F
 10
-0.602311
 20
-6.245652
 30
0.0
 11
-0.606231
 21
-6.242014
 31
0.0
  0
LINE
  8
0
  6
CONTINUOUS
 62
     7
  5
710
 10
-0.606231
 20
-6.242014
 30
0.0
 11
-0.609994
 21
-6.238288
 31
0.0
  0
LINE
  8
0
  6
CONTINUOUS
 62
     7
  5
711
 10
-0.609994
 20
-6.238288
 30
0.0
 11
-0.613658
 21
-6.234419
 31
0.0
  0
LINE
  8
0
  6
CONTINUOUS
 62
     7
  5
712
 10
-0.613658
 20
-6.234419
 30
0.0
 11
-0.617231
 21
-6.230392
 31
0.0
  0
LINE
  8
0
  6
CONTINUOUS
 62
     7
  5
713
 10
-0.617231
 20
-6.230392
 30
0.0
 11
-0.620702
 21
-6.226212
 31
0.0
  0
LINE
  8
0
  6
CONTINUOUS
 62
     7
  5
714
 10
-0.620702
 20
-6.226212
 30
0.0
 11
-0.624059
 21
-6.221884
 31
0.0
  0
LINE
  8
0
  6
CONTINUOUS
 62
     7
  5
715
 10
-0.624059
 20
-6.221884
 30
0.0
 11
-0.627293
 21
-6.217417
 31
0.0
  0
LINE
  8
0
  6
CONTINUOUS
 62
     7
  5
716
 10
-0.627293
 20
-6.217417
 30
0.0
 11
-0.630393
 21
-6.212816
 31
0.0
  0
LINE
  8
0
  6
CONTINUOUS
 62
     7
  5
717
 10
-0.630393
 20
-6.212816
 30
0.0
 11
-0.633351
 21
-6.20809
 31
0.0
  0
LINE
  8
0
  6
CONTINUOUS
 62
     7
  5
718
 10
-0.633351
 20
-6.20809
 30
0.0
 11
-0.636158
 21
-6.203246
 31
0.0
  0
LINE
  8
0
  6
CONTINUOUS
 62
     7
  5
719
 10
-0.636158
 20
-6.203246
 30
0.0
 11
-0.638808
 21
-6.198295
 31
0.0
  0
LINE
  8
0
  6
CONTINUOUS
 62
     7
  5
71A
 10
-0.638808
 20
-6.198295
 30
0.0
 11
-0.641293
 21
-6.193244
 31
0.0
  0
LINE
  8
0
  6
CONTINUOUS
 62
     7
  5
71B
 10
-0.641293
 20
-6.193244
 30
0.0
 11
-0.643608
 21
-6.188102
 31
0.0
  0
LINE
  8
0
  6
CONTINUOUS
 62
     7
  5
71C
 10
-0.643608
 20
-6.188102
 30
0.0
 11
-0.645748
 21
-6.182878
 31
0.0
  0
LINE
  8
0
  6
CONTINUOUS
 62
     7
  5
71D
 10
-0.645748
 20
-6.182878
 30
0.0
 11
-0.647709
 21
-6.177582
 31
0.0
  0
LINE
  8
0
  6
CONTINUOUS
 62
     7
  5
71E
 10
-0.647709
 20
-6.177582
 30
0.0
 11
-0.649487
 21
-6.172221
 31
0.0
  0
LINE
  8
0
  6
CONTINUOUS
 62
     7
  5
71F
 10
-0.649487
 20
-6.172221
 30
0.0
 11
-0.65108
 21
-6.166807
 31
0.0
  0
LINE
  8
0
  6
CONTINUOUS
 62
     7
  5
720
 10
-0.65108
 20
-6.166807
 30
0.0
 11
-0.652484
 21
-6.161351
 31
0.0
  0
LINE
  8
0
  6
CONTINUOUS
 62
     7
  5
721
 10
-0.652484
 20
-6.161351
 30
0.0
 11
-0.653698
 21
-6.155864
 31
0.0
  0
LINE
  8
0
  6
CONTINUOUS
 62
     7
  5
722
 10
-0.653698
 20
-6.155864
 30
0.0
 11
-0.654721
 21
-6.150359
 31
0.0
  0
LINE
  8
0
  6
CONTINUOUS
 62
     7
  5
723
 10
-0.654721
 20
-6.150359
 30
0.0
 11
-0.655553
 21
-6.144847
 31
0.0
  0
LINE
  8
0
  6
CONTINUOUS
 62
     7
  5
724
 10
-0.655553
 20
-6.144847
 30
0.0
 11
-0.656195
 21
-6.139343
 31
0.0
  0
LINE
  8
0
  6
CONTINUOUS
 62
     7
  5
725
 10
-0.656195
 20
-6.139343
 30
0.0
 11
-0.656649
 21
-6.133857
 31
0.0
  0
LINE
  8
0
  6
CONTINUOUS
 62
     7
  5
726
 10
-0.656649
 20
-6.133857
 30
0.0
 11
-0.656919
 21
-6.128403
 31
0.0
  0
LINE
  8
0
  6
CONTINUOUS
 62
     7
  5
727
 10
-0.656919
 20
-6.128403
 30
0.0
 11
-0.657008
 21
-6.122992
 31
0.0
  0
LINE
  8
0
  6
CONTINUOUS
 62
     7
  5
728
 10
-0.657008
 20
-6.122992
 30
0.0
 11
-0.656367
 21
-6.108473
 31
0.0
  0
LINE
  8
0
  6
CONTINUOUS
 62
     7
  5
729
 10
-0.656367
 20
-6.108473
 30
0.0
 11
-0.654401
 21
-6.093789
 31
0.0
  0
LINE
  8
0
  6
CONTINUOUS
 62
     7
  5
72A
 10
-0.654401
 20
-6.093789
 30
0.0
 11
-0.65108
 21
-6.079177
 31
0.0
  0
LINE
  8
0
  6
CONTINUOUS
 62
     7
  5
72B
 10
-0.65108
 20
-6.079177
 30
0.0
 11
-0.646422
 21
-6.064864
 31
0.0
  0
LINE
  8
0
  6
CONTINUOUS
 62
     7
  5
72C
 10
-0.646422
 20
-6.064864
 30
0.0
 11
-0.640483
 21
-6.051046
 31
0.0
  0
LINE
  8
0
  6
CONTINUOUS
 62
     7
  5
72D
 10
-0.640483
 20
-6.051046
 30
0.0
 11
-0.633351
 21
-6.037895
 31
0.0
  0
LINE
  8
0
  6
CONTINUOUS
 62
     7
  5
72E
 10
-0.633351
 20
-6.037895
 30
0.0
 11
-0.625151
 21
-6.025574
 31
0.0
  0
LINE
  8
0
  6
CONTINUOUS
 62
     7
  5
72F
 10
-0.625151
 20
-6.025574
 30
0.0
 11
-0.616051
 21
-6.014233
 31
0.0
  0
LINE
  8
0
  6
CONTINUOUS
 62
     7
  5
730
 10
-0.616051
 20
-6.014233
 30
0.0
 11
-0.606231
 21
-6.003971
 31
0.0
  0
LINE
  8
0
  6
CONTINUOUS
 62
     7
  5
731
 10
-0.606231
 20
-6.003971
 30
0.0
 11
-0.59543
 21
-5.994484
 31
0.0
  0
LINE
  8
0
  6
CONTINUOUS
 62
     7
  5
732
 10
-0.59543
 20
-5.994484
 30
0.0
 11
-0.583579
 21
-5.985797
 31
0.0
  0
LINE
  8
0
  6
CONTINUOUS
 62
     7
  5
733
 10
-0.583579
 20
-5.985797
 30
0.0
 11
-0.570812
 21
-5.978097
 31
0.0
  0
LINE
  8
0
  6
CONTINUOUS
 62
     7
  5
734
 10
-0.570812
 20
-5.978097
 30
0.0
 11
-0.557291
 21
-5.971534
 31
0.0
  0
LINE
  8
0
  6
CONTINUOUS
 62
     7
  5
735
 10
-0.557291
 20
-5.971534
 30
0.0
 11
-0.543186
 21
-5.966216
 31
0.0
  0
LINE
  8
0
  6
CONTINUOUS
 62
     7
  5
736
 10
-0.543186
 20
-5.966216
 30
0.0
 11
-0.52868
 21
-5.962213
 31
0.0
  0
LINE
  8
0
  6
CONTINUOUS
 62
     7
  5
737
 10
-0.52868
 20
-5.962213
 30
0.0
 11
-0.51399
 21
-5.959566
 31
0.0
  0
LINE
  8
0
  6
CONTINUOUS
 62
     7
  5
738
 10
-0.51399
 20
-5.959566
 30
0.0
 11
-0.499352
 21
-5.958269
 31
0.0
  0
LINE
  8
0
  6
CONTINUOUS
 62
     7
  5
739
 10
-0.499352
 20
-5.958269
 30
0.0
 11
-0.4849
 21
-5.958269
 31
0.0
  0
LINE
  8
0
  6
CONTINUOUS
 62
     7
  5
73A
 10
-0.4849
 20
-5.958269
 30
0.0
 11
-0.470262
 21
-5.959566
 31
0.0
  0
LINE
  8
0
  6
CONTINUOUS
 62
     7
  5
73B
 10
-0.470262
 20
-5.959566
 30
0.0
 11
-0.455572
 21
-5.962213
 31
0.0
  0
LINE
  8
0
  6
CONTINUOUS
 62
     7
  5
73C
 10
-0.455572
 20
-5.962213
 30
0.0
 11
-0.441066
 21
-5.966216
 31
0.0
  0
LINE
  8
0
  6
CONTINUOUS
 62
     7
  5
73D
 10
-0.441066
 20
-5.966216
 30
0.0
 11
-0.426961
 21
-5.971534
 31
0.0
  0
LINE
  8
0
  6
CONTINUOUS
 62
     7
  5
73E
 10
-0.426961
 20
-5.971534
 30
0.0
 11
-0.41344
 21
-5.978097
 31
0.0
  0
LINE
  8
0
  6
CONTINUOUS
 62
     7
  5
73F
 10
-0.41344
 20
-5.978097
 30
0.0
 11
-0.400673
 21
-5.985797
 31
0.0
  0
LINE
  8
0
  6
CONTINUOUS
 62
     7
  5
740
 10
-0.400673
 20
-5.985797
 30
0.0
 11
-0.388822
 21
-5.994484
 31
0.0
  0
LINE
  8
0
  6
CONTINUOUS
 62
     7
  5
741
 10
-0.388822
 20
-5.994484
 30
0.0
 11
-0.378021
 21
-6.003971
 31
0.0
  0
LINE
  8
0
  6
CONTINUOUS
 62
     7
  5
742
 10
-0.378021
 20
-6.003971
 30
0.0
 11
-0.368201
 21
-6.014233
 31
0.0
  0
LINE
  8
0
  6
CONTINUOUS
 62
     7
  5
743
 10
-0.368201
 20
-6.014233
 30
0.0
 11
-0.359101
 21
-6.025574
 31
0.0
  0
LINE
  8
0
  6
CONTINUOUS
 62
     7
  5
744
 10
-0.359101
 20
-6.025574
 30
0.0
 11
-0.350901
 21
-6.037895
 31
0.0
  0
LINE
  8
0
  6
CONTINUOUS
 62
     7
  5
745
 10
-0.350901
 20
-6.037895
 30
0.0
 11
-0.343769
 21
-6.051046
 31
0.0
  0
LINE
  8
0
  6
CONTINUOUS
 62
     7
  5
746
 10
-0.343769
 20
-6.051046
 30
0.0
 11
-0.33783
 21
-6.064864
 31
0.0
  0
LINE
  8
0
  6
CONTINUOUS
 62
     7
  5
747
 10
-0.33783
 20
-6.064864
 30
0.0
 11
-0.333172
 21
-6.079177
 31
0.0
  0
LINE
  8
0
  6
CONTINUOUS
 62
     7
  5
748
 10
-0.333172
 20
-6.079177
 30
0.0
 11
-0.329851
 21
-6.093789
 31
0.0
  0
LINE
  8
0
  6
CONTINUOUS
 62
     7
  5
749
 10
-0.329851
 20
-6.093789
 30
0.0
 11
-0.327885
 21
-6.108473
 31
0.0
  0
LINE
  8
0
  6
CONTINUOUS
 62
     7
  5
74A
 10
-0.327885
 20
-6.108473
 30
0.0
 11
-0.327244
 21
-6.122992
 31
0.0
  0
CIRCLE
  8
0
  6
CONTINUOUS
 62
     7
  5
74B
 10
-0.492126
 20
-6.122992
 30
0.0
 40
0.164882
  0
LINE
  8
0
  6
CONTINUOUS
 62
     7
  5
74C
 10
0.644341
 20
-6.059615
 30
0.0
 11
0.645054
 21
-6.061356
 31
0.0
  0
LINE
  8
0
  6
CONTINUOUS
 62
     7
  5
74D
 10
0.645054
 20
-6.061356
 30
0.0
 11
0.645748
 21
-6.063106
 31
0.0
  0
LINE
  8
0
  6
CONTINUOUS
 62
     7
  5
74E
 10
0.645748
 20
-6.063106
 30
0.0
 11
0.646422
 21
-6.064864
 31
0.0
  0
LINE
  8
0
  6
CONTINUOUS
 62
     7
  5
74F
 10
0.646422
 20
-6.064864
 30
0.0
 11
0.647075
 21
-6.066629
 31
0.0
  0
LINE
  8
0
  6
CONTINUOUS
 62
     7
  5
750
 10
0.647075
 20
-6.066629
 30
0.0
 11
0.647709
 21
-6.068403
 31
0.0
  0
LINE
  8
0
  6
CONTINUOUS
 62
     7
  5
751
 10
0.647709
 20
-6.068403
 30
0.0
 11
0.648322
 21
-6.070183
 31
0.0
  0
LINE
  8
0
  6
CONTINUOUS
 62
     7
  5
752
 10
0.648322
 20
-6.070183
 30
0.0
 11
0.648915
 21
-6.07197
 31
0.0
  0
LINE
  8
0
  6
CONTINUOUS
 62
     7
  5
753
 10
0.648915
 20
-6.07197
 30
0.0
 11
0.649487
 21
-6.073763
 31
0.0
  0
LINE
  8
0
  6
CONTINUOUS
 62
     7
  5
754
 10
0.649487
 20
-6.073763
 30
0.0
 11
0.650039
 21
-6.075562
 31
0.0
  0
LINE
  8
0
  6
CONTINUOUS
 62
     7
  5
755
 10
0.650039
 20
-6.075562
 30
0.0
 11
0.65057
 21
-6.077367
 31
0.0
  0
LINE
  8
0
  6
CONTINUOUS
 62
     7
  5
756
 10
0.65057
 20
-6.077367
 30
0.0
 11
0.65108
 21
-6.079177
 31
0.0
  0
LINE
  8
0
  6
CONTINUOUS
 62
     7
  5
757
 10
0.65108
 20
-6.079177
 30
0.0
 11
0.651569
 21
-6.080992
 31
0.0
  0
LINE
  8
0
  6
CONTINUOUS
 62
     7
  5
758
 10
0.651569
 20
-6.080992
 30
0.0
 11
0.652037
 21
-6.082811
 31
0.0
  0
LINE
  8
0
  6
CONTINUOUS
 62
     7
  5
759
 10
0.652037
 20
-6.082811
 30
0.0
 11
0.652484
 21
-6.084633
 31
0.0
  0
LINE
  8
0
  6
CONTINUOUS
 62
     7
  5
75A
 10
0.652484
 20
-6.084633
 30
0.0
 11
0.65291
 21
-6.08646
 31
0.0
  0
LINE
  8
0
  6
CONTINUOUS
 62
     7
  5
75B
 10
0.65291
 20
-6.08646
 30
0.0
 11
0.653314
 21
-6.088289
 31
0.0
  0
LINE
  8
0
  6
CONTINUOUS
 62
     7
  5
75C
 10
0.653314
 20
-6.088289
 30
0.0
 11
0.653698
 21
-6.09012
 31
0.0
  0
LINE
  8
0
  6
CONTINUOUS
 62
     7
  5
75D
 10
0.653698
 20
-6.09012
 30
0.0
 11
0.65406
 21
-6.091954
 31
0.0
  0
LINE
  8
0
  6
CONTINUOUS
 62
     7
  5
75E
 10
0.65406
 20
-6.091954
 30
0.0
 11
0.654401
 21
-6.093789
 31
0.0
  0
LINE
  8
0
  6
CONTINUOUS
 62
     7
  5
75F
 10
0.654401
 20
-6.093789
 30
0.0
 11
0.654721
 21
-6.095626
 31
0.0
  0
LINE
  8
0
  6
CONTINUOUS
 62
     7
  5
760
 10
0.654721
 20
-6.095626
 30
0.0
 11
0.655019
 21
-6.097463
 31
0.0
  0
LINE
  8
0
  6
CONTINUOUS
 62
     7
  5
761
 10
0.655019
 20
-6.097463
 30
0.0
 11
0.655297
 21
-6.0993
 31
0.0
  0
LINE
  8
0
  6
CONTINUOUS
 62
     7
  5
762
 10
0.655297
 20
-6.0993
 30
0.0
 11
0.655553
 21
-6.101137
 31
0.0
  0
LINE
  8
0
  6
CONTINUOUS
 62
     7
  5
763
 10
0.655553
 20
-6.101137
 30
0.0
 11
0.655788
 21
-6.102973
 31
0.0
  0
LINE
  8
0
  6
CONTINUOUS
 62
     7
  5
764
 10
0.655788
 20
-6.102973
 30
0.0
 11
0.656002
 21
-6.104808
 31
0.0
  0
LINE
  8
0
  6
CONTINUOUS
 62
     7
  5
765
 10
0.656002
 20
-6.104808
 30
0.0
 11
0.656195
 21
-6.106641
 31
0.0
  0
LINE
  8
0
  6
CONTINUOUS
 62
     7
  5
766
 10
0.656195
 20
-6.106641
 30
0.0
 11
0.656367
 21
-6.108473
 31
0.0
  0
LINE
  8
0
  6
CONTINUOUS
 62
     7
  5
767
 10
0.656367
 20
-6.108473
 30
0.0
 11
0.656519
 21
-6.110301
 31
0.0
  0
LINE
  8
0
  6
CONTINUOUS
 62
     7
  5
768
 10
0.656519
 20
-6.110301
 30
0.0
 11
0.656649
 21
-6.112127
 31
0.0
  0
LINE
  8
0
  6
CONTINUOUS
 62
     7
  5
769
 10
0.656649
 20
-6.112127
 30
0.0
 11
0.65676
 21
-6.113949
 31
0.0
  0
LINE
  8
0
  6
CONTINUOUS
 62
     7
  5
76A
 10
0.65676
 20
-6.113949
 30
0.0
 11
0.65685
 21
-6.115767
 31
0.0
  0
LINE
  8
0
  6
CONTINUOUS
 62
     7
  5
76B
 10
0.65685
 20
-6.115767
 30
0.0
 11
0.656919
 21
-6.117581
 31
0.0
  0
LINE
  8
0
  6
CONTINUOUS
 62
     7
  5
76C
 10
0.656919
 20
-6.117581
 30
0.0
 11
0.656969
 21
-6.11939
 31
0.0
  0
LINE
  8
0
  6
CONTINUOUS
 62
     7
  5
76D
 10
0.656969
 20
-6.11939
 30
0.0
 11
0.656998
 21
-6.121194
 31
0.0
  0
LINE
  8
0
  6
CONTINUOUS
 62
     7
  5
76E
 10
0.656998
 20
-6.121194
 30
0.0
 11
0.657008
 21
-6.122992
 31
0.0
  0
CIRCLE
  8
0
  6
CONTINUOUS
 62
     7
  5
76F
 10
0.492126
 20
-6.122992
 30
0.0
 40
0.164882
  0
CIRCLE
  8
0
  6
CONTINUOUS
 62
     7
  5
770
 10
-0.492126
 20
7.297402
 30
0.0
 40
0.164882
  0
CIRCLE
  8
0
  6
CONTINUOUS
 62
     7
  5
771
 10
0.492126
 20
7.297402
 30
0.0
 40
0.164882
  0
LINE
  8
0
  6
CONTINUOUS
 62
     7
  5
772
 10
-0.492126
 20
-7.462283
 30
0.0
 11
-0.499352
 21
-7.462125
 31
0.0
  0
LINE
  8
0
  6
CONTINUOUS
 62
     7
  5
773
 10
-0.499352
 20
-7.462125
 30
0.0
 11
-0.50665
 21
-7.461643
 31
0.0
  0
LINE
  8
0
  6
CONTINUOUS
 62
     7
  5
774
 10
-0.50665
 20
-7.461643
 30
0.0
 11
-0.51399
 21
-7.460827
 31
0.0
  0
LINE
  8
0
  6
CONTINUOUS
 62
     7
  5
775
 10
-0.51399
 20
-7.460827
 30
0.0
 11
-0.521343
 21
-7.459674
 31
0.0
  0
LINE
  8
0
  6
CONTINUOUS
 62
     7
  5
776
 10
-0.521343
 20
-7.459674
 30
0.0
 11
-0.52868
 21
-7.45818
 31
0.0
  0
LINE
  8
0
  6
CONTINUOUS
 62
     7
  5
777
 10
-0.52868
 20
-7.45818
 30
0.0
 11
-0.535971
 21
-7.456347
 31
0.0
  0
LINE
  8
0
  6
CONTINUOUS
 62
     7
  5
778
 10
-0.535971
 20
-7.456347
 30
0.0
 11
-0.543186
 21
-7.454178
 31
0.0
  0
LINE
  8
0
  6
CONTINUOUS
 62
     7
  5
779
 10
-0.543186
 20
-7.454178
 30
0.0
 11
-0.550301
 21
-7.45168
 31
0.0
  0
LINE
  8
0
  6
CONTINUOUS
 62
     7
  5
77A
 10
-0.550301
 20
-7.45168
 30
0.0
 11
-0.557291
 21
-7.44886
 31
0.0
  0
LINE
  8
0
  6
CONTINUOUS
 62
     7
  5
77B
 10
-0.557291
 20
-7.44886
 30
0.0
 11
-0.564135
 21
-7.445728
 31
0.0
  0
LINE
  8
0
  6
CONTINUOUS
 62
     7
  5
77C
 10
-0.564135
 20
-7.445728
 30
0.0
 11
-0.570812
 21
-7.442297
 31
0.0
  0
LINE
  8
0
  6
CONTINUOUS
 62
     7
  5
77D
 10
-0.570812
 20
-7.442297
 30
0.0
 11
-0.5773
 21
-7.43858
 31
0.0
  0
LINE
  8
0
  6
CONTINUOUS
 62
     7
  5
77E
 10
-0.5773
 20
-7.43858
 30
0.0
 11
-0.583579
 21
-7.434596
 31
0.0
  0
LINE
  8
0
  6
CONTINUOUS
 62
     7
  5
77F
 10
-0.583579
 20
-7.434596
 30
0.0
 11
-0.589628
 21
-7.430365
 31
0.0
  0
LINE
  8
0
  6
CONTINUOUS
 62
     7
  5
780
 10
-0.589628
 20
-7.430365
 30
0.0
 11
-0.59543
 21
-7.425909
 31
0.0
  0
LINE
  8
0
  6
CONTINUOUS
 62
     7
  5
781
 10
-0.59543
 20
-7.425909
 30
0.0
 11
-0.600969
 21
-7.421253
 31
0.0
  0
LINE
  8
0
  6
CONTINUOUS
 62
     7
  5
782
 10
-0.600969
 20
-7.421253
 30
0.0
 11
-0.606231
 21
-7.416423
 31
0.0
  0
LINE
  8
0
  6
CONTINUOUS
 62
     7
  5
783
 10
-0.606231
 20
-7.416423
 30
0.0
 11
-0.611225
 21
-7.411426
 31
0.0
  0
LINE
  8
0
  6
CONTINUOUS
 62
     7
  5
784
 10
-0.611225
 20
-7.411426
 30
0.0
 11
-0.616051
 21
-7.406161
 31
0.0
  0
LINE
  8
0
  6
CONTINUOUS
 62
     7
  5
785
 10
-0.616051
 20
-7.406161
 30
0.0
 11
-0.620702
 21
-7.400621
 31
0.0
  0
LINE
  8
0
  6
CONTINUOUS
 62
     7
  5
786
 10
-0.620702
 20
-7.400621
 30
0.0
 11
-0.625151
 21
-7.39482
 31
0.0
  0
LINE
  8
0
  6
CONTINUOUS
 62
     7
  5
787
 10
-0.625151
 20
-7.39482
 30
0.0
 11
-0.629375
 21
-7.388773
 31
0.0
  0
LINE
  8
0
  6
CONTINUOUS
 62
     7
  5
788
 10
-0.629375
 20
-7.388773
 30
0.0
 11
-0.633351
 21
-7.382499
 31
0.0
  0
LINE
  8
0
  6
CONTINUOUS
 62
     7
  5
789
 10
-0.633351
 20
-7.382499
 30
0.0
 11
-0.637059
 21
-7.376017
 31
0.0
  0
LINE
  8
0
  6
CONTINUOUS
 62
     7
  5
78A
 10
-0.637059
 20
-7.376017
 30
0.0
 11
-0.640483
 21
-7.369347
 31
0.0
  0
LINE
  8
0
  6
CONTINUOUS
 62
     7
  5
78B
 10
-0.640483
 20
-7.369347
 30
0.0
 11
-0.643608
 21
-7.362511
 31
0.0
  0
LINE
  8
0
  6
CONTINUOUS
 62
     7
  5
78C
 10
-0.643608
 20
-7.362511
 30
0.0
 11
-0.646422
 21
-7.35553
 31
0.0
  0
LINE
  8
0
  6
CONTINUOUS
 62
     7
  5
78D
 10
-0.646422
 20
-7.35553
 30
0.0
 11
-0.648915
 21
-7.348424
 31
0.0
  0
LINE
  8
0
  6
CONTINUOUS
 62
     7
  5
78E
 10
-0.648915
 20
-7.348424
 30
0.0
 11
-0.65108
 21
-7.341217
 31
0.0
  0
LINE
  8
0
  6
CONTINUOUS
 62
     7
  5
78F
 10
-0.65108
 20
-7.341217
 30
0.0
 11
-0.65291
 21
-7.333934
 31
0.0
  0
LINE
  8
0
  6
CONTINUOUS
 62
     7
  5
790
 10
-0.65291
 20
-7.333934
 30
0.0
 11
-0.654401
 21
-7.326604
 31
0.0
  0
LINE
  8
0
  6
CONTINUOUS
 62
     7
  5
791
 10
-0.654401
 20
-7.326604
 30
0.0
 11
-0.655553
 21
-7.319257
 31
0.0
  0
LINE
  8
0
  6
CONTINUOUS
 62
     7
  5
792
 10
-0.655553
 20
-7.319257
 30
0.0
 11
-0.656367
 21
-7.311921
 31
0.0
  0
LINE
  8
0
  6
CONTINUOUS
 62
     7
  5
793
 10
-0.656367
 20
-7.311921
 30
0.0
 11
-0.65685
 21
-7.304627
 31
0.0
  0
LINE
  8
0
  6
CONTINUOUS
 62
     7
  5
794
 10
-0.65685
 20
-7.304627
 30
0.0
 11
-0.657008
 21
-7.297402
 31
0.0
  0
CIRCLE
  8
0
  6
CONTINUOUS
 62
     7
  5
795
 10
-0.492126
 20
-7.297402
 30
0.0
 40
0.164882
  0
CIRCLE
  8
0
  6
CONTINUOUS
 62
     7
  5
796
 10
0.492126
 20
-7.297402
 30
0.0
 40
0.164882
  0
LINE
  8
0
  6
CONTINUOUS
 62
     7
  5
797
 10
1.181429
 20
-4.23
 30
0.0
 11
1.575238
 21
-4.23
 31
0.0
  0
LINE
  8
0
  6
CONTINUOUS
 62
     7
  5
798
 10
4.135
 20
4.23
 30
0.0
 11
4.135
 21
-4.23
 31
0.0
  0
LINE
  8
0
  6
CONTINUOUS
 62
     7
  5
799
 10
1.575238
 20
4.23
 30
0.0
 11
1.181429
 21
4.23
 31
0.0
  0
CIRCLE
  8
0
  6
CONTINUOUS
 62
     7
  5
79A
 10
3.915
 20
-3.94
 30
0.0
 40
0.11
  0
CIRCLE
  8
0
  6
CONTINUOUS
 62
     7
  5
79B
 10
3.915
 20
3.935
 30
0.0
 40
0.11
  0
LINE
  8
0
  6
CONTINUOUS
 62
     7
  5
79C
 10
1.575238
 20
-7.496231
 30
0.0
 11
1.575238
 21
-8.13
 31
0.0
  0
LINE
  8
0
  6
CONTINUOUS
 62
     7
  5
79D
 10
1.575238
 20
-4.23
 30
0.0
 11
1.575238
 21
-5.924162
 31
0.0
  0
LINE
  8
0
  6
CONTINUOUS
 62
     7
  5
79E
 10
1.575238
 20
-7.098572
 30
0.0
 11
1.565005
 21
-7.106805
 31
0.0
  0
LINE
  8
0
  6
CONTINUOUS
 62
     7
  5
79F
 10
1.565005
 20
-7.106805
 30
0.0
 11
1.555218
 21
-7.115565
 31
0.0
  0
LINE
  8
0
  6
CONTINUOUS
 62
     7
  5
7A0
 10
1.555218
 20
-7.115565
 30
0.0
 11
1.545904
 21
-7.124827
 31
0.0
  0
LINE
  8
0
  6
CONTINUOUS
 62
     7
  5
7A1
 10
1.545904
 20
-7.124827
 30
0.0
 11
1.53709
 21
-7.134565
 31
0.0
  0
LINE
  8
0
  6
CONTINUOUS
 62
     7
  5
7A2
 10
1.53709
 20
-7.134565
 30
0.0
 11
1.5288
 21
-7.144753
 31
0.0
  0
LINE
  8
0
  6
CONTINUOUS
 62
     7
  5
7A3
 10
1.5288
 20
-7.144753
 30
0.0
 11
1.521056
 21
-7.155362
 31
0.0
  0
LINE
  8
0
  6
CONTINUOUS
 62
     7
  5
7A4
 10
1.521056
 20
-7.155362
 30
0.0
 11
1.51388
 21
-7.166363
 31
0.0
  0
LINE
  8
0
  6
CONTINUOUS
 62
     7
  5
7A5
 10
1.51388
 20
-7.166363
 30
0.0
 11
1.507291
 21
-7.177726
 31
0.0
  0
LINE
  8
0
  6
CONTINUOUS
 62
     7
  5
7A6
 10
1.507291
 20
-7.177726
 30
0.0
 11
1.501309
 21
-7.189419
 31
0.0
  0
LINE
  8
0
  6
CONTINUOUS
 62
     7
  5
7A7
 10
1.501309
 20
-7.189419
 30
0.0
 11
1.495949
 21
-7.20141
 31
0.0
  0
LINE
  8
0
  6
CONTINUOUS
 62
     7
  5
7A8
 10
1.495949
 20
-7.20141
 30
0.0
 11
1.491226
 21
-7.213667
 31
0.0
  0
LINE
  8
0
  6
CONTINUOUS
 62
     7
  5
7A9
 10
1.491226
 20
-7.213667
 30
0.0
 11
1.487153
 21
-7.226154
 31
0.0
  0
LINE
  8
0
  6
CONTINUOUS
 62
     7
  5
7AA
 10
1.487153
 20
-7.226154
 30
0.0
 11
1.483742
 21
-7.238838
 31
0.0
  0
LINE
  8
0
  6
CONTINUOUS
 62
     7
  5
7AB
 10
1.483742
 20
-7.238838
 30
0.0
 11
1.481002
 21
-7.251684
 31
0.0
  0
LINE
  8
0
  6
CONTINUOUS
 62
     7
  5
7AC
 10
1.481002
 20
-7.251684
 30
0.0
 11
1.47894
 21
-7.264655
 31
0.0
  0
LINE
  8
0
  6
CONTINUOUS
 62
     7
  5
7AD
 10
1.47894
 20
-7.264655
 30
0.0
 11
1.477562
 21
-7.277718
 31
0.0
  0
LINE
  8
0
  6
CONTINUOUS
 62
     7
  5
7AE
 10
1.477562
 20
-7.277718
 30
0.0
 11
1.476872
 21
-7.290834
 31
0.0
  0
LINE
  8
0
  6
CONTINUOUS
 62
     7
  5
7AF
 10
1.476872
 20
-7.290834
 30
0.0
 11
1.476872
 21
-7.303969
 31
0.0
  0
LINE
  8
0
  6
CONTINUOUS
 62
     7
  5
7B0
 10
1.476872
 20
-7.303969
 30
0.0
 11
1.477562
 21
-7.317085
 31
0.0
  0
LINE
  8
0
  6
CONTINUOUS
 62
     7
  5
7B1
 10
1.477562
 20
-7.317085
 30
0.0
 11
1.47894
 21
-7.330148
 31
0.0
  0
LINE
  8
0
  6
CONTINUOUS
 62
     7
  5
7B2
 10
1.47894
 20
-7.330148
 30
0.0
 11
1.481002
 21
-7.34312
 31
0.0
  0
LINE
  8
0
  6
CONTINUOUS
 62
     7
  5
7B3
 10
1.481002
 20
-7.34312
 30
0.0
 11
1.483742
 21
-7.355965
 31
0.0
  0
LINE
  8
0
  6
CONTINUOUS
 62
     7
  5
7B4
 10
1.483742
 20
-7.355965
 30
0.0
 11
1.487153
 21
-7.368649
 31
0.0
  0
LINE
  8
0
  6
CONTINUOUS
 62
     7
  5
7B5
 10
1.487153
 20
-7.368649
 30
0.0
 11
1.491226
 21
-7.381137
 31
0.0
  0
LINE
  8
0
  6
CONTINUOUS
 62
     7
  5
7B6
 10
1.491226
 20
-7.381137
 30
0.0
 11
1.495949
 21
-7.393393
 31
0.0
  0
LINE
  8
0
  6
CONTINUOUS
 62
     7
  5
7B7
 10
1.495949
 20
-7.393393
 30
0.0
 11
1.501309
 21
-7.405384
 31
0.0
  0
LINE
  8
0
  6
CONTINUOUS
 62
     7
  5
7B8
 10
1.501309
 20
-7.405384
 30
0.0
 11
1.507291
 21
-7.417077
 31
0.0
  0
LINE
  8
0
  6
CONTINUOUS
 62
     7
  5
7B9
 10
1.507291
 20
-7.417077
 30
0.0
 11
1.51388
 21
-7.42844
 31
0.0
  0
LINE
  8
0
  6
CONTINUOUS
 62
     7
  5
7BA
 10
1.51388
 20
-7.42844
 30
0.0
 11
1.521056
 21
-7.439441
 31
0.0
  0
LINE
  8
0
  6
CONTINUOUS
 62
     7
  5
7BB
 10
1.521056
 20
-7.439441
 30
0.0
 11
1.5288
 21
-7.45005
 31
0.0
  0
LINE
  8
0
  6
CONTINUOUS
 62
     7
  5
7BC
 10
1.5288
 20
-7.45005
 30
0.0
 11
1.53709
 21
-7.460238
 31
0.0
  0
LINE
  8
0
  6
CONTINUOUS
 62
     7
  5
7BD
 10
1.53709
 20
-7.460238
 30
0.0
 11
1.545904
 21
-7.469976
 31
0.0
  0
LINE
  8
0
  6
CONTINUOUS
 62
     7
  5
7BE
 10
1.545904
 20
-7.469976
 30
0.0
 11
1.555218
 21
-7.479238
 31
0.0
  0
LINE
  8
0
  6
CONTINUOUS
 62
     7
  5
7BF
 10
1.555218
 20
-7.479238
 30
0.0
 11
1.565005
 21
-7.487998
 31
0.0
  0
LINE
  8
0
  6
CONTINUOUS
 62
     7
  5
7C0
 10
1.565005
 20
-7.487998
 30
0.0
 11
1.575238
 21
-7.496231
 31
0.0
  0
LINE
  8
0
  6
CONTINUOUS
 62
     7
  5
7C1
 10
1.575238
 20
-5.924162
 30
0.0
 11
1.565005
 21
-5.932396
 31
0.0
  0
LINE
  8
0
  6
CONTINUOUS
 62
     7
  5
7C2
 10
1.565005
 20
-5.932396
 30
0.0
 11
1.555218
 21
-5.941156
 31
0.0
  0
LINE
  8
0
  6
CONTINUOUS
 62
     7
  5
7C3
 10
1.555218
 20
-5.941156
 30
0.0
 11
1.545904
 21
-5.950418
 31
0.0
  0
LINE
  8
0
  6
CONTINUOUS
 62
     7
  5
7C4
 10
1.545904
 20
-5.950418
 30
0.0
 11
1.53709
 21
-5.960156
 31
0.0
  0
LINE
  8
0
  6
CONTINUOUS
 62
     7
  5
7C5
 10
1.53709
 20
-5.960156
 30
0.0
 11
1.5288
 21
-5.970344
 31
0.0
  0
LINE
  8
0
  6
CONTINUOUS
 62
     7
  5
7C6
 10
1.5288
 20
-5.970344
 30
0.0
 11
1.521056
 21
-5.980953
 31
0.0
  0
LINE
  8
0
  6
CONTINUOUS
 62
     7
  5
7C7
 10
1.521056
 20
-5.980953
 30
0.0
 11
1.51388
 21
-5.991954
 31
0.0
  0
LINE
  8
0
  6
CONTINUOUS
 62
     7
  5
7C8
 10
1.51388
 20
-5.991954
 30
0.0
 11
1.507291
 21
-6.003317
 31
0.0
  0
LINE
  8
0
  6
CONTINUOUS
 62
     7
  5
7C9
 10
1.507291
 20
-6.003317
 30
0.0
 11
1.501309
 21
-6.01501
 31
0.0
  0
LINE
  8
0
  6
CONTINUOUS
 62
     7
  5
7CA
 10
1.501309
 20
-6.01501
 30
0.0
 11
1.495949
 21
-6.027001
 31
0.0
  0
LINE
  8
0
  6
CONTINUOUS
 62
     7
  5
7CB
 10
1.495949
 20
-6.027001
 30
0.0
 11
1.491226
 21
-6.039257
 31
0.0
  0
LINE
  8
0
  6
CONTINUOUS
 62
     7
  5
7CC
 10
1.491226
 20
-6.039257
 30
0.0
 11
1.487153
 21
-6.051744
 31
0.0
  0
LINE
  8
0
  6
CONTINUOUS
 62
     7
  5
7CD
 10
1.487153
 20
-6.051744
 30
0.0
 11
1.483742
 21
-6.064428
 31
0.0
  0
LINE
  8
0
  6
CONTINUOUS
 62
     7
  5
7CE
 10
1.483742
 20
-6.064428
 30
0.0
 11
1.481002
 21
-6.077274
 31
0.0
  0
LINE
  8
0
  6
CONTINUOUS
 62
     7
  5
7CF
 10
1.481002
 20
-6.077274
 30
0.0
 11
1.47894
 21
-6.090246
 31
0.0
  0
LINE
  8
0
  6
CONTINUOUS
 62
     7
  5
7D0
 10
1.47894
 20
-6.090246
 30
0.0
 11
1.477562
 21
-6.103308
 31
0.0
  0
LINE
  8
0
  6
CONTINUOUS
 62
     7
  5
7D1
 10
1.477562
 20
-6.103308
 30
0.0
 11
1.476872
 21
-6.116425
 31
0.0
  0
LINE
  8
0
  6
CONTINUOUS
 62
     7
  5
7D2
 10
1.476872
 20
-6.116425
 30
0.0
 11
1.476872
 21
-6.129559
 31
0.0
  0
LINE
  8
0
  6
CONTINUOUS
 62
     7
  5
7D3
 10
1.476872
 20
-6.129559
 30
0.0
 11
1.477562
 21
-6.142676
 31
0.0
  0
LINE
  8
0
  6
CONTINUOUS
 62
     7
  5
7D4
 10
1.477562
 20
-6.142676
 30
0.0
 11
1.47894
 21
-6.155738
 31
0.0
  0
LINE
  8
0
  6
CONTINUOUS
 62
     7
  5
7D5
 10
1.47894
 20
-6.155738
 30
0.0
 11
1.481002
 21
-6.16871
 31
0.0
  0
LINE
  8
0
  6
CONTINUOUS
 62
     7
  5
7D6
 10
1.481002
 20
-6.16871
 30
0.0
 11
1.483742
 21
-6.181556
 31
0.0
  0
LINE
  8
0
  6
CONTINUOUS
 62
     7
  5
7D7
 10
1.483742
 20
-6.181556
 30
0.0
 11
1.487153
 21
-6.19424
 31
0.0
  0
LINE
  8
0
  6
CONTINUOUS
 62
     7
  5
7D8
 10
1.487153
 20
-6.19424
 30
0.0
 11
1.491226
 21
-6.206727
 31
0.0
  0
LINE
  8
0
  6
CONTINUOUS
 62
     7
  5
7D9
 10
1.491226
 20
-6.206727
 30
0.0
 11
1.495949
 21
-6.218983
 31
0.0
  0
LINE
  8
0
  6
CONTINUOUS
 62
     7
  5
7DA
 10
1.495949
 20
-6.218983
 30
0.0
 11
1.501309
 21
-6.230974
 31
0.0
  0
LINE
  8
0
  6
CONTINUOUS
 62
     7
  5
7DB
 10
1.501309
 20
-6.230974
 30
0.0
 11
1.507291
 21
-6.242668
 31
0.0
  0
LINE
  8
0
  6
CONTINUOUS
 62
     7
  5
7DC
 10
1.507291
 20
-6.242668
 30
0.0
 11
1.51388
 21
-6.25403
 31
0.0
  0
LINE
  8
0
  6
CONTINUOUS
 62
     7
  5
7DD
 10
1.51388
 20
-6.25403
 30
0.0
 11
1.521056
 21
-6.265032
 31
0.0
  0
LINE
  8
0
  6
CONTINUOUS
 62
     7
  5
7DE
 10
1.521056
 20
-6.265032
 30
0.0
 11
1.5288
 21
-6.275641
 31
0.0
  0
LINE
  8
0
  6
CONTINUOUS
 62
     7
  5
7DF
 10
1.5288
 20
-6.275641
 30
0.0
 11
1.53709
 21
-6.285828
 31
0.0
  0
LINE
  8
0
  6
CONTINUOUS
 62
     7
  5
7E0
 10
1.53709
 20
-6.285828
 30
0.0
 11
1.545904
 21
-6.295566
 31
0.0
  0
LINE
  8
0
  6
CONTINUOUS
 62
     7
  5
7E1
 10
1.545904
 20
-6.295566
 30
0.0
 11
1.555218
 21
-6.304828
 31
0.0
  0
LINE
  8
0
  6
CONTINUOUS
 62
     7
  5
7E2
 10
1.555218
 20
-6.304828
 30
0.0
 11
1.565005
 21
-6.313588
 31
0.0
  0
LINE
  8
0
  6
CONTINUOUS
 62
     7
  5
7E3
 10
1.565005
 20
-6.313588
 30
0.0
 11
1.575238
 21
-6.321822
 31
0.0
  0
LINE
  8
0
  6
CONTINUOUS
 62
     7
  5
7E4
 10
1.575238
 20
-8.13
 30
0.0
 11
1.378333
 21
-8.13
 31
0.0
  0
LINE
  8
0
  6
CONTINUOUS
 62
     7
  5
7E5
 10
1.575238
 20
-6.321822
 30
0.0
 11
1.575238
 21
-7.098572
 31
0.0
  0
ARC
  8
0
  6
CONTINUOUS
 62
     7
  5
7E6
 10
1.726786
 20
-7.297402
 30
0.0
 40
0.25
 50
232.685444
 51
270.0
  0
ARC
  8
0
  6
CONTINUOUS
 62
     7
  5
7E7
 10
1.726786
 20
-7.297402
 30
0.0
 40
0.25
 50
90.0
 51
127.314556
  0
LINE
  8
0
  6
CONTINUOUS
 62
     7
  5
7E8
 10
4.135
 20
-8.13
 30
0.0
 11
1.575238
 21
-8.13
 31
0.0
  0
LINE
  8
0
  6
CONTINUOUS
 62
     7
  5
7E9
 10
1.378333
 20
8.13
 30
0.0
 11
1.575238
 21
8.13
 31
0.0
  0
LINE
  8
0
  6
CONTINUOUS
 62
     7
  5
7EA
 10
1.575238
 20
6.321822
 30
0.0
 11
1.565005
 21
6.313588
 31
0.0
  0
LINE
  8
0
  6
CONTINUOUS
 62
     7
  5
7EB
 10
1.565005
 20
6.313588
 30
0.0
 11
1.555218
 21
6.304828
 31
0.0
  0
LINE
  8
0
  6
CONTINUOUS
 62
     7
  5
7EC
 10
1.555218
 20
6.304828
 30
0.0
 11
1.545904
 21
6.295566
 31
0.0
  0
LINE
  8
0
  6
CONTINUOUS
 62
     7
  5
7ED
 10
1.545904
 20
6.295566
 30
0.0
 11
1.53709
 21
6.285828
 31
0.0
  0
LINE
  8
0
  6
CONTINUOUS
 62
     7
  5
7EE
 10
1.53709
 20
6.285828
 30
0.0
 11
1.5288
 21
6.275641
 31
0.0
  0
LINE
  8
0
  6
CONTINUOUS
 62
     7
  5
7EF
 10
1.5288
 20
6.275641
 30
0.0
 11
1.521056
 21
6.265032
 31
0.0
  0
LINE
  8
0
  6
CONTINUOUS
 62
     7
  5
7F0
 10
1.521056
 20
6.265032
 30
0.0
 11
1.51388
 21
6.25403
 31
0.0
  0
LINE
  8
0
  6
CONTINUOUS
 62
     7
  5
7F1
 10
1.51388
 20
6.25403
 30
0.0
 11
1.507291
 21
6.242668
 31
0.0
  0
LINE
  8
0
  6
CONTINUOUS
 62
     7
  5
7F2
 10
1.507291
 20
6.242668
 30
0.0
 11
1.501309
 21
6.230974
 31
0.0
  0
LINE
  8
0
  6
CONTINUOUS
 62
     7
  5
7F3
 10
1.501309
 20
6.230974
 30
0.0
 11
1.495949
 21
6.218983
 31
0.0
  0
LINE
  8
0
  6
CONTINUOUS
 62
     7
  5
7F4
 10
1.495949
 20
6.218983
 30
0.0
 11
1.491226
 21
6.206727
 31
0.0
  0
LINE
  8
0
  6
CONTINUOUS
 62
     7
  5
7F5
 10
1.491226
 20
6.206727
 30
0.0
 11
1.487153
 21
6.19424
 31
0.0
  0
LINE
  8
0
  6
CONTINUOUS
 62
     7
  5
7F6
 10
1.487153
 20
6.19424
 30
0.0
 11
1.483742
 21
6.181556
 31
0.0
  0
LINE
  8
0
  6
CONTINUOUS
 62
     7
  5
7F7
 10
1.483742
 20
6.181556
 30
0.0
 11
1.481002
 21
6.16871
 31
0.0
  0
LINE
  8
0
  6
CONTINUOUS
 62
     7
  5
7F8
 10
1.481002
 20
6.16871
 30
0.0
 11
1.47894
 21
6.155738
 31
0.0
  0
LINE
  8
0
  6
CONTINUOUS
 62
     7
  5
7F9
 10
1.47894
 20
6.155738
 30
0.0
 11
1.477562
 21
6.142676
 31
0.0
  0
LINE
  8
0
  6
CONTINUOUS
 62
     7
  5
7FA
 10
1.477562
 20
6.142676
 30
0.0
 11
1.476872
 21
6.129559
 31
0.0
  0
LINE
  8
0
  6
CONTINUOUS
 62
     7
  5
7FB
 10
1.476872
 20
6.129559
 30
0.0
 11
1.476872
 21
6.116425
 31
0.0
  0
LINE
  8
0
  6
CONTINUOUS
 62
     7
  5
7FC
 10
1.476872
 20
6.116425
 30
0.0
 11
1.477562
 21
6.103308
 31
0.0
  0
LINE
  8
0
  6
CONTINUOUS
 62
     7
  5
7FD
 10
1.477562
 20
6.103308
 30
0.0
 11
1.47894
 21
6.090246
 31
0.0
  0
LINE
  8
0
  6
CONTINUOUS
 62
     7
  5
7FE
 10
1.47894
 20
6.090246
 30
0.0
 11
1.481002
 21
6.077274
 31
0.0
  0
LINE
  8
0
  6
CONTINUOUS
 62
     7
  5
7FF
 10
1.481002
 20
6.077274
 30
0.0
 11
1.483742
 21
6.064428
 31
0.0
  0
LINE
  8
0
  6
CONTINUOUS
 62
     7
  5
800
 10
1.483742
 20
6.064428
 30
0.0
 11
1.487153
 21
6.051744
 31
0.0
  0
LINE
  8
0
  6
CONTINUOUS
 62
     7
  5
801
 10
1.487153
 20
6.051744
 30
0.0
 11
1.491226
 21
6.039257
 31
0.0
  0
LINE
  8
0
  6
CONTINUOUS
 62
     7
  5
802
 10
1.491226
 20
6.039257
 30
0.0
 11
1.495949
 21
6.027001
 31
0.0
  0
LINE
  8
0
  6
CONTINUOUS
 62
     7
  5
803
 10
1.495949
 20
6.027001
 30
0.0
 11
1.501309
 21
6.01501
 31
0.0
  0
LINE
  8
0
  6
CONTINUOUS
 62
     7
  5
804
 10
1.501309
 20
6.01501
 30
0.0
 11
1.507291
 21
6.003317
 31
0.0
  0
LINE
  8
0
  6
CONTINUOUS
 62
     7
  5
805
 10
1.507291
 20
6.003317
 30
0.0
 11
1.51388
 21
5.991954
 31
0.0
  0
LINE
  8
0
  6
CONTINUOUS
 62
     7
  5
806
 10
1.51388
 20
5.991954
 30
0.0
 11
1.521056
 21
5.980953
 31
0.0
  0
LINE
  8
0
  6
CONTINUOUS
 62
     7
  5
807
 10
1.521056
 20
5.980953
 30
0.0
 11
1.5288
 21
5.970344
 31
0.0
  0
LINE
  8
0
  6
CONTINUOUS
 62
     7
  5
808
 10
1.5288
 20
5.970344
 30
0.0
 11
1.53709
 21
5.960156
 31
0.0
  0
LINE
  8
0
  6
CONTINUOUS
 62
     7
  5
809
 10
1.53709
 20
5.960156
 30
0.0
 11
1.545904
 21
5.950418
 31
0.0
  0
LINE
  8
0
  6
CONTINUOUS
 62
     7
  5
80A
 10
1.545904
 20
5.950418
 30
0.0
 11
1.555218
 21
5.941156
 31
0.0
  0
LINE
  8
0
  6
CONTINUOUS
 62
     7
  5
80B
 10
1.555218
 20
5.941156
 30
0.0
 11
1.565005
 21
5.932396
 31
0.0
  0
LINE
  8
0
  6
CONTINUOUS
 62
     7
  5
80C
 10
1.565005
 20
5.932396
 30
0.0
 11
1.575238
 21
5.924162
 31
0.0
  0
LINE
  8
0
  6
CONTINUOUS
 62
     7
  5
80D
 10
1.575238
 20
7.496231
 30
0.0
 11
1.565005
 21
7.487998
 31
0.0
  0
LINE
  8
0
  6
CONTINUOUS
 62
     7
  5
80E
 10
1.565005
 20
7.487998
 30
0.0
 11
1.555218
 21
7.479238
 31
0.0
  0
LINE
  8
0
  6
CONTINUOUS
 62
     7
  5
80F
 10
1.555218
 20
7.479238
 30
0.0
 11
1.545904
 21
7.469976
 31
0.0
  0
LINE
  8
0
  6
CONTINUOUS
 62
     7
  5
810
 10
1.545904
 20
7.469976
 30
0.0
 11
1.53709
 21
7.460238
 31
0.0
  0
LINE
  8
0
  6
CONTINUOUS
 62
     7
  5
811
 10
1.53709
 20
7.460238
 30
0.0
 11
1.5288
 21
7.45005
 31
0.0
  0
LINE
  8
0
  6
CONTINUOUS
 62
     7
  5
812
 10
1.5288
 20
7.45005
 30
0.0
 11
1.521056
 21
7.439441
 31
0.0
  0
LINE
  8
0
  6
CONTINUOUS
 62
     7
  5
813
 10
1.521056
 20
7.439441
 30
0.0
 11
1.51388
 21
7.42844
 31
0.0
  0
LINE
  8
0
  6
CONTINUOUS
 62
     7
  5
814
 10
1.51388
 20
7.42844
 30
0.0
 11
1.507291
 21
7.417077
 31
0.0
  0
LINE
  8
0
  6
CONTINUOUS
 62
     7
  5
815
 10
1.507291
 20
7.417077
 30
0.0
 11
1.501309
 21
7.405384
 31
0.0
  0
LINE
  8
0
  6
CONTINUOUS
 62
     7
  5
816
 10
1.501309
 20
7.405384
 30
0.0
 11
1.495949
 21
7.393393
 31
0.0
  0
LINE
  8
0
  6
CONTINUOUS
 62
     7
  5
817
 10
1.495949
 20
7.393393
 30
0.0
 11
1.491226
 21
7.381137
 31
0.0
  0
LINE
  8
0
  6
CONTINUOUS
 62
     7
  5
818
 10
1.491226
 20
7.381137
 30
0.0
 11
1.487153
 21
7.368649
 31
0.0
  0
LINE
  8
0
  6
CONTINUOUS
 62
     7
  5
819
 10
1.487153
 20
7.368649
 30
0.0
 11
1.483742
 21
7.355965
 31
0.0
  0
LINE
  8
0
  6
CONTINUOUS
 62
     7
  5
81A
 10
1.483742
 20
7.355965
 30
0.0
 11
1.481002
 21
7.34312
 31
0.0
  0
LINE
  8
0
  6
CONTINUOUS
 62
     7
  5
81B
 10
1.481002
 20
7.34312
 30
0.0
 11
1.47894
 21
7.330148
 31
0.0
  0
LINE
  8
0
  6
CONTINUOUS
 62
     7
  5
81C
 10
1.47894
 20
7.330148
 30
0.0
 11
1.477562
 21
7.317085
 31
0.0
  0
LINE
  8
0
  6
CONTINUOUS
 62
     7
  5
81D
 10
1.477562
 20
7.317085
 30
0.0
 11
1.476872
 21
7.303969
 31
0.0
  0
LINE
  8
0
  6
CONTINUOUS
 62
     7
  5
81E
 10
1.476872
 20
7.303969
 30
0.0
 11
1.476872
 21
7.290834
 31
0.0
  0
LINE
  8
0
  6
CONTINUOUS
 62
     7
  5
81F
 10
1.476872
 20
7.290834
 30
0.0
 11
1.477562
 21
7.277718
 31
0.0
  0
LINE
  8
0
  6
CONTINUOUS
 62
     7
  5
820
 10
1.477562
 20
7.277718
 30
0.0
 11
1.47894
 21
7.264655
 31
0.0
  0
LINE
  8
0
  6
CONTINUOUS
 62
     7
  5
821
 10
1.47894
 20
7.264655
 30
0.0
 11
1.481002
 21
7.251684
 31
0.0
  0
LINE
  8
0
  6
CONTINUOUS
 62
     7
  5
822
 10
1.481002
 20
7.251684
 30
0.0
 11
1.483742
 21
7.238838
 31
0.0
  0
LINE
  8
0
  6
CONTINUOUS
 62
     7
  5
823
 10
1.483742
 20
7.238838
 30
0.0
 11
1.487153
 21
7.226154
 31
0.0
  0
LINE
  8
0
  6
CONTINUOUS
 62
     7
  5
824
 10
1.487153
 20
7.226154
 30
0.0
 11
1.491226
 21
7.213667
 31
0.0
  0
LINE
  8
0
  6
CONTINUOUS
 62
     7
  5
825
 10
1.491226
 20
7.213667
 30
0.0
 11
1.495949
 21
7.20141
 31
0.0
  0
LINE
  8
0
  6
CONTINUOUS
 62
     7
  5
826
 10
1.495949
 20
7.20141
 30
0.0
 11
1.501309
 21
7.189419
 31
0.0
  0
LINE
  8
0
  6
CONTINUOUS
 62
     7
  5
827
 10
1.501309
 20
7.189419
 30
0.0
 11
1.507291
 21
7.177726
 31
0.0
  0
LINE
  8
0
  6
CONTINUOUS
 62
     7
  5
828
 10
1.507291
 20
7.177726
 30
0.0
 11
1.51388
 21
7.166363
 31
0.0
  0
LINE
  8
0
  6
CONTINUOUS
 62
     7
  5
829
 10
1.51388
 20
7.166363
 30
0.0
 11
1.521056
 21
7.155362
 31
0.0
  0
LINE
  8
0
  6
CONTINUOUS
 62
     7
  5
82A
 10
1.521056
 20
7.155362
 30
0.0
 11
1.5288
 21
7.144753
 31
0.0
  0
LINE
  8
0
  6
CONTINUOUS
 62
     7
  5
82B
 10
1.5288
 20
7.144753
 30
0.0
 11
1.53709
 21
7.134565
 31
0.0
  0
LINE
  8
0
  6
CONTINUOUS
 62
     7
  5
82C
 10
1.53709
 20
7.134565
 30
0.0
 11
1.545904
 21
7.124827
 31
0.0
  0
LINE
  8
0
  6
CONTINUOUS
 62
     7
  5
82D
 10
1.545904
 20
7.124827
 30
0.0
 11
1.555218
 21
7.115565
 31
0.0
  0
LINE
  8
0
  6
CONTINUOUS
 62
     7
  5
82E
 10
1.555218
 20
7.115565
 30
0.0
 11
1.565005
 21
7.106805
 31
0.0
  0
LINE
  8
0
  6
CONTINUOUS
 62
     7
  5
82F
 10
1.565005
 20
7.106805
 30
0.0
 11
1.575238
 21
7.098572
 31
0.0
  0
LINE
  8
0
  6
CONTINUOUS
 62
     7
  5
830
 10
1.575238
 20
7.098572
 30
0.0
 11
1.575238
 21
6.321822
 31
0.0
  0
LINE
  8
0
  6
CONTINUOUS
 62
     7
  5
831
 10
1.575238
 20
5.924162
 30
0.0
 11
1.575238
 21
4.23
 31
0.0
  0
LINE
  8
0
  6
CONTINUOUS
 62
     7
  5
832
 10
1.575238
 20
8.13
 30
0.0
 11
1.575238
 21
7.496231
 31
0.0
  0
LINE
  8
0
  6
CONTINUOUS
 62
     7
  5
833
 10
1.575238
 20
8.13
 30
0.0
 11
4.135
 21
8.13
 31
0.0
  0
ARC
  8
0
  6
CONTINUOUS
 62
     7
  5
834
 10
1.726786
 20
7.297402
 30
0.0
 40
0.25
 50
232.685444
 51
270.0
  0
ARC
  8
0
  6
CONTINUOUS
 62
     7
  5
835
 10
1.726786
 20
7.297402
 30
0.0
 40
0.25
 50
90.0
 51
127.314556
  0
LINE
  8
0
  6
CONTINUOUS
 62
     7
  5
836
 10
4.085
 20
6.41
 30
0.0
 11
4.135
 21
6.41
 31
0.0
  0
LINE
  8
0
  6
CONTINUOUS
 62
     7
  5
837
 10
4.135
 20
6.41
 30
0.0
 11
4.135
 21
4.51
 31
0.0
  0
LINE
  8
0
  6
CONTINUOUS
 62
     7
  5
838
 10
4.135
 20
4.51
 30
0.0
 11
4.085
 21
4.51
 31
0.0
  0
LINE
  8
0
  6
CONTINUOUS
 62
     7
  5
839
 10
4.085
 20
4.51
 30
0.0
 11
4.085
 21
6.41
 31
0.0
  0
LINE
  8
0
  6
CONTINUOUS
 62
     7
  5
83A
 10
4.135
 20
4.51
 30
0.0
 11
4.135
 21
4.23
 31
0.0
  0
LINE
  8
0
  6
CONTINUOUS
 62
     7
  5
83B
 10
4.135
 20
-4.23
 30
0.0
 11
4.135
 21
-4.51
 31
0.0
  0
LINE
  8
0
  6
CONTINUOUS
 62
     7
  5
83C
 10
4.135
 20
-4.51
 30
0.0
 11
4.135
 21
-6.41
 31
0.0
  0
LINE
  8
0
  6
CONTINUOUS
 62
     7
  5
83D
 10
4.135
 20
-6.41
 30
0.0
 11
4.135
 21
-8.13
 31
0.0
  0
LINE
  8
0
  6
CONTINUOUS
 62
     7
  5
83E
 10
4.135
 20
8.13
 30
0.0
 11
4.135
 21
6.41
 31
0.0
  0
LINE
  8
0
  6
CONTINUOUS
 62
     7
  5
83F
 10
4.085
 20
-4.51
 30
0.0
 11
4.135
 21
-4.51
 31
0.0
  0
LINE
  8
0
  6
CONTINUOUS
 62
     7
  5
840
 10
4.135
 20
-6.41
 30
0.0
 11
4.085
 21
-6.41
 31
0.0
  0
LINE
  8
0
  6
CONTINUOUS
 62
     7
  5
841
 10
4.085
 20
-6.41
 30
0.0
 11
4.085
 21
-4.51
 31
0.0
  0
LINE
  8
0
  6
CONTINUOUS
 62
     7
  5
842
 10
1.575238
 20
4.23
 30
0.0
 11
4.135
 21
4.23
 31
0.0
  0
LINE
  8
0
  6
CONTINUOUS
 62
     7
  5
843
 10
4.135
 20
-4.23
 30
0.0
 11
1.575238
 21
-4.23
 31
0.0
  0
LINE
  8
0
  6
CONTINUOUS
 62
     7
  5
844
 10
1.726786
 20
-7.047402
 30
0.0
 11
3.786548
 21
-7.047402
 31
0.0
  0
ARC
  8
0
  6
CONTINUOUS
 62
     7
  5
845
 10
3.786548
 20
-7.297402
 30
0.0
 40
0.25
 50
270.0
 51
90.0
  0
LINE
  8
0
  6
CONTINUOUS
 62
     7
  5
846
 10
3.786548
 20
-7.547402
 30
0.0
 11
1.726786
 21
-7.547402
 31
0.0
  0
ARC
  8
0
  6
CONTINUOUS
 62
     7
  5
847
 10
1.726786
 20
-6.122992
 30
0.0
 40
0.25
 50
90.0
 51
127.314556
  0
LINE
  8
0
  6
CONTINUOUS
 62
     7
  5
848
 10
1.726786
 20
-5.872992
 30
0.0
 11
3.786548
 21
-5.872992
 31
0.0
  0
ARC
  8
0
  6
CONTINUOUS
 62
     7
  5
849
 10
3.786548
 20
-6.122992
 30
0.0
 40
0.25
 50
270.0
 51
90.0
  0
LINE
  8
0
  6
CONTINUOUS
 62
     7
  5
84A
 10
3.786548
 20
-6.372992
 30
0.0
 11
1.726786
 21
-6.372992
 31
0.0
  0
ARC
  8
0
  6
CONTINUOUS
 62
     7
  5
84B
 10
1.726786
 20
-6.122992
 30
0.0
 40
0.25
 50
232.685444
 51
270.0
  0
LINE
  8
0
  6
CONTINUOUS
 62
     7
  5
84C
 10
1.726786
 20
7.547402
 30
0.0
 11
3.786548
 21
7.547402
 31
0.0
  0
ARC
  8
0
  6
CONTINUOUS
 62
     7
  5
84D
 10
3.786548
 20
7.297402
 30
0.0
 40
0.25
 50
270.0
 51
90.0
  0
LINE
  8
0
  6
CONTINUOUS
 62
     7
  5
84E
 10
3.786548
 20
7.047402
 30
0.0
 11
1.726786
 21
7.047402
 31
0.0
  0
ARC
  8
0
  6
CONTINUOUS
 62
     7
  5
84F
 10
1.726786
 20
6.122992
 30
0.0
 40
0.25
 50
90.0
 51
127.314556
  0
LINE
  8
0
  6
CONTINUOUS
 62
     7
  5
850
 10
1.726786
 20
6.372992
 30
0.0
 11
3.786548
 21
6.372992
 31
0.0
  0
ARC
  8
0
  6
CONTINUOUS
 62
     7
  5
851
 10
3.786548
 20
6.122992
 30
0.0
 40
0.25
 50
270.0
 51
90.0
  0
LINE
  8
0
  6
CONTINUOUS
 62
     7
  5
852
 10
3.786548
 20
5.872992
 30
0.0
 11
1.726786
 21
5.872992
 31
0.0
  0
ARC
  8
0
  6
CONTINUOUS
 62
     7
  5
853
 10
1.726786
 20
6.122992
 30
0.0
 40
0.25
 50
232.685444
 51
270.0
  0
CIRCLE
  8
0
  6
CONTINUOUS
 62
     7
  5
854
 10
2.264541
 20
6.122992
 30
0.0
 40
0.164882
  0
CIRCLE
  8
0
  6
CONTINUOUS
 62
     7
  5
855
 10
3.248793
 20
6.122992
 30
0.0
 40
0.164882
  0
LINE
  8
0
  6
CONTINUOUS
 62
     7
  5
856
 10
2.296513
 20
-6.284744
 30
0.0
 11
2.295595
 21
-6.284923
 31
0.0
  0
LINE
  8
0
  6
CONTINUOUS
 62
     7
  5
857
 10
2.295595
 20
-6.284923
 30
0.0
 11
2.294677
 21
-6.285097
 31
0.0
  0
LINE
  8
0
  6
CONTINUOUS
 62
     7
  5
858
 10
2.294677
 20
-6.285097
 30
0.0
 11
2.293758
 21
-6.285265
 31
0.0
  0
LINE
  8
0
  6
CONTINUOUS
 62
     7
  5
859
 10
2.293758
 20
-6.285265
 30
0.0
 11
2.292839
 21
-6.285427
 31
0.0
  0
LINE
  8
0
  6
CONTINUOUS
 62
     7
  5
85A
 10
2.292839
 20
-6.285427
 30
0.0
 11
2.29192
 21
-6.285585
 31
0.0
  0
LINE
  8
0
  6
CONTINUOUS
 62
     7
  5
85B
 10
2.29192
 20
-6.285585
 30
0.0
 11
2.291001
 21
-6.285737
 31
0.0
  0
LINE
  8
0
  6
CONTINUOUS
 62
     7
  5
85C
 10
2.291001
 20
-6.285737
 30
0.0
 11
2.290082
 21
-6.285884
 31
0.0
  0
LINE
  8
0
  6
CONTINUOUS
 62
     7
  5
85D
 10
2.290082
 20
-6.285884
 30
0.0
 11
2.289162
 21
-6.286025
 31
0.0
  0
LINE
  8
0
  6
CONTINUOUS
 62
     7
  5
85E
 10
2.289162
 20
-6.286025
 30
0.0
 11
2.288243
 21
-6.286161
 31
0.0
  0
LINE
  8
0
  6
CONTINUOUS
 62
     7
  5
85F
 10
2.288243
 20
-6.286161
 30
0.0
 11
2.287324
 21
-6.286292
 31
0.0
  0
LINE
  8
0
  6
CONTINUOUS
 62
     7
  5
860
 10
2.287324
 20
-6.286292
 30
0.0
 11
2.286405
 21
-6.286418
 31
0.0
  0
LINE
  8
0
  6
CONTINUOUS
 62
     7
  5
861
 10
2.286405
 20
-6.286418
 30
0.0
 11
2.285486
 21
-6.286538
 31
0.0
  0
LINE
  8
0
  6
CONTINUOUS
 62
     7
  5
862
 10
2.285486
 20
-6.286538
 30
0.0
 11
2.284567
 21
-6.286653
 31
0.0
  0
LINE
  8
0
  6
CONTINUOUS
 62
     7
  5
863
 10
2.284567
 20
-6.286653
 30
0.0
 11
2.283649
 21
-6.286763
 31
0.0
  0
LINE
  8
0
  6
CONTINUOUS
 62
     7
  5
864
 10
2.283649
 20
-6.286763
 30
0.0
 11
2.282731
 21
-6.286868
 31
0.0
  0
LINE
  8
0
  6
CONTINUOUS
 62
     7
  5
865
 10
2.282731
 20
-6.286868
 30
0.0
 11
2.281813
 21
-6.286967
 31
0.0
  0
LINE
  8
0
  6
CONTINUOUS
 62
     7
  5
866
 10
2.281813
 20
-6.286967
 30
0.0
 11
2.280896
 21
-6.287061
 31
0.0
  0
LINE
  8
0
  6
CONTINUOUS
 62
     7
  5
867
 10
2.280896
 20
-6.287061
 30
0.0
 11
2.27998
 21
-6.28715
 31
0.0
  0
LINE
  8
0
  6
CONTINUOUS
 62
     7
  5
868
 10
2.27998
 20
-6.28715
 30
0.0
 11
2.279064
 21
-6.287233
 31
0.0
  0
LINE
  8
0
  6
CONTINUOUS
 62
     7
  5
869
 10
2.279064
 20
-6.287233
 30
0.0
 11
2.278149
 21
-6.287311
 31
0.0
  0
LINE
  8
0
  6
CONTINUOUS
 62
     7
  5
86A
 10
2.278149
 20
-6.287311
 30
0.0
 11
2.277235
 21
-6.287385
 31
0.0
  0
LINE
  8
0
  6
CONTINUOUS
 62
     7
  5
86B
 10
2.277235
 20
-6.287385
 30
0.0
 11
2.276321
 21
-6.287453
 31
0.0
  0
LINE
  8
0
  6
CONTINUOUS
 62
     7
  5
86C
 10
2.276321
 20
-6.287453
 30
0.0
 11
2.275408
 21
-6.287515
 31
0.0
  0
LINE
  8
0
  6
CONTINUOUS
 62
     7
  5
86D
 10
2.275408
 20
-6.287515
 30
0.0
 11
2.274496
 21
-6.287573
 31
0.0
  0
LINE
  8
0
  6
CONTINUOUS
 62
     7
  5
86E
 10
2.274496
 20
-6.287573
 30
0.0
 11
2.273586
 21
-6.287626
 31
0.0
  0
LINE
  8
0
  6
CONTINUOUS
 62
     7
  5
86F
 10
2.273586
 20
-6.287626
 30
0.0
 11
2.272676
 21
-6.287673
 31
0.0
  0
LINE
  8
0
  6
CONTINUOUS
 62
     7
  5
870
 10
2.272676
 20
-6.287673
 30
0.0
 11
2.271767
 21
-6.287716
 31
0.0
  0
LINE
  8
0
  6
CONTINUOUS
 62
     7
  5
871
 10
2.271767
 20
-6.287716
 30
0.0
 11
2.270859
 21
-6.287753
 31
0.0
  0
LINE
  8
0
  6
CONTINUOUS
 62
     7
  5
872
 10
2.270859
 20
-6.287753
 30
0.0
 11
2.269952
 21
-6.287785
 31
0.0
  0
LINE
  8
0
  6
CONTINUOUS
 62
     7
  5
873
 10
2.269952
 20
-6.287785
 30
0.0
 11
2.269047
 21
-6.287812
 31
0.0
  0
LINE
  8
0
  6
CONTINUOUS
 62
     7
  5
874
 10
2.269047
 20
-6.287812
 30
0.0
 11
2.268143
 21
-6.287835
 31
0.0
  0
LINE
  8
0
  6
CONTINUOUS
 62
     7
  5
875
 10
2.268143
 20
-6.287835
 30
0.0
 11
2.26724
 21
-6.287852
 31
0.0
  0
LINE
  8
0
  6
CONTINUOUS
 62
     7
  5
876
 10
2.26724
 20
-6.287852
 30
0.0
 11
2.266339
 21
-6.287864
 31
0.0
  0
LINE
  8
0
  6
CONTINUOUS
 62
     7
  5
877
 10
2.266339
 20
-6.287864
 30
0.0
 11
2.265439
 21
-6.287872
 31
0.0
  0
LINE
  8
0
  6
CONTINUOUS
 62
     7
  5
878
 10
2.265439
 20
-6.287872
 30
0.0
 11
2.264541
 21
-6.287874
 31
0.0
  0
CIRCLE
  8
0
  6
CONTINUOUS
 62
     7
  5
879
 10
2.264541
 20
-6.122992
 30
0.0
 40
0.164882
  0
CIRCLE
  8
0
  6
CONTINUOUS
 62
     7
  5
87A
 10
3.248793
 20
-6.122992
 30
0.0
 40
0.164882
  0
CIRCLE
  8
0
  6
CONTINUOUS
 62
     7
  5
87B
 10
2.264541
 20
7.297402
 30
0.0
 40
0.164882
  0
LINE
  8
0
  6
CONTINUOUS
 62
     7
  5
87C
 10
3.083911
 20
7.297402
 30
0.0
 11
3.084551
 21
7.311921
 31
0.0
  0
LINE
  8
0
  6
CONTINUOUS
 62
     7
  5
87D
 10
3.084551
 20
7.311921
 30
0.0
 11
3.086517
 21
7.326604
 31
0.0
  0
LINE
  8
0
  6
CONTINUOUS
 62
     7
  5
87E
 10
3.086517
 20
7.326604
 30
0.0
 11
3.089839
 21
7.341217
 31
0.0
  0
LINE
  8
0
  6
CONTINUOUS
 62
     7
  5
87F
 10
3.089839
 20
7.341217
 30
0.0
 11
3.094497
 21
7.35553
 31
0.0
  0
LINE
  8
0
  6
CONTINUOUS
 62
     7
  5
880
 10
3.094497
 20
7.35553
 30
0.0
 11
3.100436
 21
7.369347
 31
0.0
  0
LINE
  8
0
  6
CONTINUOUS
 62
     7
  5
881
 10
3.100436
 20
7.369347
 30
0.0
 11
3.107568
 21
7.382499
 31
0.0
  0
LINE
  8
0
  6
CONTINUOUS
 62
     7
  5
882
 10
3.107568
 20
7.382499
 30
0.0
 11
3.115767
 21
7.39482
 31
0.0
  0
LINE
  8
0
  6
CONTINUOUS
 62
     7
  5
883
 10
3.115767
 20
7.39482
 30
0.0
 11
3.124867
 21
7.406161
 31
0.0
  0
LINE
  8
0
  6
CONTINUOUS
 62
     7
  5
884
 10
3.124867
 20
7.406161
 30
0.0
 11
3.134688
 21
7.416423
 31
0.0
  0
LINE
  8
0
  6
CONTINUOUS
 62
     7
  5
885
 10
3.134688
 20
7.416423
 30
0.0
 11
3.145488
 21
7.425909
 31
0.0
  0
LINE
  8
0
  6
CONTINUOUS
 62
     7
  5
886
 10
3.145488
 20
7.425909
 30
0.0
 11
3.15734
 21
7.434596
 31
0.0
  0
LINE
  8
0
  6
CONTINUOUS
 62
     7
  5
887
 10
3.15734
 20
7.434596
 30
0.0
 11
3.170107
 21
7.442297
 31
0.0
  0
LINE
  8
0
  6
CONTINUOUS
 62
     7
  5
888
 10
3.170107
 20
7.442297
 30
0.0
 11
3.183627
 21
7.44886
 31
0.0
  0
LINE
  8
0
  6
CONTINUOUS
 62
     7
  5
889
 10
3.183627
 20
7.44886
 30
0.0
 11
3.197732
 21
7.454178
 31
0.0
  0
LINE
  8
0
  6
CONTINUOUS
 62
     7
  5
88A
 10
3.197732
 20
7.454178
 30
0.0
 11
3.212239
 21
7.45818
 31
0.0
  0
LINE
  8
0
  6
CONTINUOUS
 62
     7
  5
88B
 10
3.212239
 20
7.45818
 30
0.0
 11
3.226929
 21
7.460827
 31
0.0
  0
LINE
  8
0
  6
CONTINUOUS
 62
     7
  5
88C
 10
3.226929
 20
7.460827
 30
0.0
 11
3.241567
 21
7.462125
 31
0.0
  0
LINE
  8
0
  6
CONTINUOUS
 62
     7
  5
88D
 10
3.241567
 20
7.462125
 30
0.0
 11
3.256019
 21
7.462125
 31
0.0
  0
LINE
  8
0
  6
CONTINUOUS
 62
     7
  5
88E
 10
3.256019
 20
7.462125
 30
0.0
 11
3.270657
 21
7.460827
 31
0.0
  0
LINE
  8
0
  6
CONTINUOUS
 62
     7
  5
88F
 10
3.270657
 20
7.460827
 30
0.0
 11
3.285347
 21
7.45818
 31
0.0
  0
LINE
  8
0
  6
CONTINUOUS
 62
     7
  5
890
 10
3.285347
 20
7.45818
 30
0.0
 11
3.299853
 21
7.454178
 31
0.0
  0
LINE
  8
0
  6
CONTINUOUS
 62
     7
  5
891
 10
3.299853
 20
7.454178
 30
0.0
 11
3.313958
 21
7.44886
 31
0.0
  0
LINE
  8
0
  6
CONTINUOUS
 62
     7
  5
892
 10
3.313958
 20
7.44886
 30
0.0
 11
3.327479
 21
7.442297
 31
0.0
  0
LINE
  8
0
  6
CONTINUOUS
 62
     7
  5
893
 10
3.327479
 20
7.442297
 30
0.0
 11
3.340246
 21
7.434596
 31
0.0
  0
LINE
  8
0
  6
CONTINUOUS
 62
     7
  5
894
 10
3.340246
 20
7.434596
 30
0.0
 11
3.352097
 21
7.425909
 31
0.0
  0
LINE
  8
0
  6
CONTINUOUS
 62
     7
  5
895
 10
3.352097
 20
7.425909
 30
0.0
 11
3.362897
 21
7.416423
 31
0.0
  0
LINE
  8
0
  6
CONTINUOUS
 62
     7
  5
896
 10
3.362897
 20
7.416423
 30
0.0
 11
3.372718
 21
7.406161
 31
0.0
  0
LINE
  8
0
  6
CONTINUOUS
 62
     7
  5
897
 10
3.372718
 20
7.406161
 30
0.0
 11
3.381818
 21
7.39482
 31
0.0
  0
LINE
  8
0
  6
CONTINUOUS
 62
     7
  5
898
 10
3.381818
 20
7.39482
 30
0.0
 11
3.390017
 21
7.382499
 31
0.0
  0
LINE
  8
0
  6
CONTINUOUS
 62
     7
  5
899
 10
3.390017
 20
7.382499
 30
0.0
 11
3.39715
 21
7.369347
 31
0.0
  0
LINE
  8
0
  6
CONTINUOUS
 62
     7
  5
89A
 10
3.39715
 20
7.369347
 30
0.0
 11
3.403088
 21
7.35553
 31
0.0
  0
LINE
  8
0
  6
CONTINUOUS
 62
     7
  5
89B
 10
3.403088
 20
7.35553
 30
0.0
 11
3.407746
 21
7.341217
 31
0.0
  0
LINE
  8
0
  6
CONTINUOUS
 62
     7
  5
89C
 10
3.407746
 20
7.341217
 30
0.0
 11
3.411068
 21
7.326604
 31
0.0
  0
LINE
  8
0
  6
CONTINUOUS
 62
     7
  5
89D
 10
3.411068
 20
7.326604
 30
0.0
 11
3.413034
 21
7.311921
 31
0.0
  0
LINE
  8
0
  6
CONTINUOUS
 62
     7
  5
89E
 10
3.413034
 20
7.311921
 30
0.0
 11
3.413675
 21
7.297402
 31
0.0
  0
CIRCLE
  8
0
  6
CONTINUOUS
 62
     7
  5
89F
 10
3.248793
 20
7.297402
 30
0.0
 40
0.164882
  0
CIRCLE
  8
0
  6
CONTINUOUS
 62
     7
  5
8A0
 10
2.264541
 20
-7.297402
 30
0.0
 40
0.164882
  0
CIRCLE
  8
0
  6
CONTINUOUS
 62
     7
  5
8A1
 10
3.248793
 20
-7.297402
 30
0.0
 40
0.164882
  0
LINE
  8
0
  6
CONTINUOUS
 62
     7
  5
8A2
 10
0.72
 20
-0.125951
 30
0.0
 11
0.8
 21
-0.125951
 31
0.0
  0
LINE
  8
0
  6
CONTINUOUS
 62
     7
  5
8A3
 10
-0.8
 20
-0.125951
 30
0.0
 11
-0.72
 21
-0.125951
 31
0.0
  0
LINE
  8
0
  6
CONTINUOUS
 62
     7
  5
8A4
 10
-0.72
 20
-2.754049
 30
0.0
 11
-0.8
 21
-2.754049
 31
0.0
  0
LINE
  8
0
  6
CONTINUOUS
 62
     7
  5
8A5
 10
0.8
 20
-2.754049
 30
0.0
 11
0.72
 21
-2.754049
 31
0.0
  0
LINE
  8
0
  6
CONTINUOUS
 62
     7
  5
8A6
 10
0.72
 20
-1.505129
 30
0.0
 11
-0.72
 21
-1.505129
 31
0.0
  0
LINE
  8
0
  6
CONTINUOUS
 62
     7
  5
8A7
 10
0.72
 20
-0.670038
 30
0.0
 11
-0.72
 21
-0.670038
 31
0.0
  0
LINE
  8
0
  6
CONTINUOUS
 62
     7
  5
8A8
 10
-0.72
 20
-2.10525
 30
0.0
 11
0.72
 21
-2.10525
 31
0.0
  0
LINE
  8
0
  6
CONTINUOUS
 62
     7
  5
8A9
 10
-0.72
 20
-3.001098
 30
0.0
 11
-0.72
 21
-2.10525
 31
0.0
  0
LINE
  8
0
  6
CONTINUOUS
 62
     7
  5
8AA
 10
0.72
 20
-3.001098
 30
0.0
 11
-0.72
 21
-3.001098
 31
0.0
  0
LINE
  8
0
  6
CONTINUOUS
 62
     7
  5
8AB
 10
0.72
 20
-3.001098
 30
0.0
 11
0.72
 21
-2.10525
 31
0.0
  0
LINE
  8
0
  6
CONTINUOUS
 62
     7
  5
8AC
 10
-0.72
 20
-3.001098
 30
0.0
 11
-0.72
 21
-3.454252
 31
0.0
  0
LINE
  8
0
  6
CONTINUOUS
 62
     7
  5
8AD
 10
-0.72
 20
-3.454252
 30
0.0
 11
0.72
 21
-3.454252
 31
0.0
  0
LINE
  8
0
  6
CONTINUOUS
 62
     7
  5
8AE
 10
0.72
 20
-3.454252
 30
0.0
 11
0.72
 21
-3.001098
 31
0.0
  0
LINE
  8
0
  6
CONTINUOUS
 62
     7
  5
8AF
 10
0.72
 20
0.766602
 30
0.0
 11
-0.72
 21
0.766602
 31
0.0
  0
LINE
  8
0
  6
CONTINUOUS
 62
     7
  5
8B0
 10
-0.72
 20
0.325128
 30
0.0
 11
-0.72
 21
-0.670038
 31
0.0
  0
LINE
  8
0
  6
CONTINUOUS
 62
     7
  5
8B1
 10
-0.72
 20
0.766602
 30
0.0
 11
-0.72
 21
0.325128
 31
0.0
  0
LINE
  8
0
  6
CONTINUOUS
 62
     7
  5
8B2
 10
-0.72
 20
0.325128
 30
0.0
 11
0.72
 21
0.325128
 31
0.0
  0
LINE
  8
0
  6
CONTINUOUS
 62
     7
  5
8B3
 10
0.72
 20
0.325128
 30
0.0
 11
0.72
 21
0.766602
 31
0.0
  0
LINE
  8
0
  6
CONTINUOUS
 62
     7
  5
8B4
 10
0.72
 20
0.325128
 30
0.0
 11
0.72
 21
-0.670038
 31
0.0
  0
LINE
  8
0
  6
CONTINUOUS
 62
     7
  5
8B5
 10
0.72
 20
-0.822283
 30
0.0
 11
-0.72
 21
-0.822283
 31
0.0
  0
LINE
  8
0
  6
CONTINUOUS
 62
     7
  5
8B6
 10
-0.72
 20
-1.32038
 30
0.0
 11
-0.72
 21
-1.505129
 31
0.0
  0
LINE
  8
0
  6
CONTINUOUS
 62
     7
  5
8B7
 10
-0.72
 20
-0.822283
 30
0.0
 11
-0.72
 21
-1.32038
 31
0.0
  0
LINE
  8
0
  6
CONTINUOUS
 62
     7
  5
8B8
 10
-0.72
 20
-1.32038
 30
0.0
 11
0.72
 21
-1.32038
 31
0.0
  0
LINE
  8
0
  6
CONTINUOUS
 62
     7
  5
8B9
 10
0.72
 20
-1.32038
 30
0.0
 11
0.72
 21
-0.822283
 31
0.0
  0
LINE
  8
0
  6
CONTINUOUS
 62
     7
  5
8BA
 10
0.72
 20
-1.32038
 30
0.0
 11
0.72
 21
-1.505129
 31
0.0
  0
LINE
  8
0
  6
CONTINUOUS
 62
     7
  5
8BB
 10
0.72
 20
0.06
 30
0.0
 11
0.8
 21
0.06
 31
0.0
  0
LINE
  8
0
  6
CONTINUOUS
 62
     7
  5
8BC
 10
-0.8
 20
0.06
 30
0.0
 11
-0.72
 21
0.06
 31
0.0
  0
LINE
  8
0
  6
CONTINUOUS
 62
     7
  5
8BD
 10
0.8
 20
0.06
 30
0.0
 11
0.8
 21
-2.94
 31
0.0
  0
LINE
  8
0
  6
CONTINUOUS
 62
     7
  5
8BE
 10
-0.72
 20
-2.94
 30
0.0
 11
-0.8
 21
-2.94
 31
0.0
  0
LINE
  8
0
  6
CONTINUOUS
 62
     7
  5
8BF
 10
0.8
 20
-2.94
 30
0.0
 11
0.72
 21
-2.94
 31
0.0
  0
LINE
  8
0
  6
CONTINUOUS
 62
     7
  5
8C0
 10
-0.8
 20
-2.94
 30
0.0
 11
-0.8
 21
0.06
 31
0.0
  0
LINE
  8
0
  6
CONTINUOUS
 62
     7
  5
8C1
 10
-1.28
 20
-3.645
 30
0.0
 11
1.28
 21
-3.645
 31
0.0
  0
LINE
  8
0
  6
CONTINUOUS
 62
     7
  5
8C2
 10
-1.28
 20
0.805
 30
0.0
 11
1.28
 21
0.805
 31
0.0
  0
LINE
  8
0
  6
CONTINUOUS
 62
     7
  5
8C3
 10
1.28
 20
-1.61
 30
0.0
 11
1.655
 21
-1.61
 31
0.0
  0
LINE
  8
0
  6
CONTINUOUS
 62
     7
  5
8C4
 10
1.655
 20
-1.61
 30
0.0
 11
1.655
 21
3.115
 31
0.0
  0
LINE
  8
0
  6
CONTINUOUS
 62
     7
  5
8C5
 10
1.655
 20
3.115
 30
0.0
 11
-1.395
 21
3.115
 31
0.0
  0
LINE
  8
0
  6
CONTINUOUS
 62
     7
  5
8C6
 10
-1.395
 20
3.115
 30
0.0
 11
-1.395
 21
-1.61
 31
0.0
  0
LINE
  8
0
  6
CONTINUOUS
 62
     7
  5
8C7
 10
-1.395
 20
-1.61
 30
0.0
 11
-1.28
 21
-1.61
 31
0.0
  0
LINE
  8
0
  6
CONTINUOUS
 62
     7
  5
8C8
 10
1.655
 20
-1.66
 30
0.0
 11
1.28
 21
-1.66
 31
0.0
  0
LINE
  8
0
  6
CONTINUOUS
 62
     7
  5
8C9
 10
1.705
 20
-1.66
 30
0.0
 11
1.705
 21
-3.835
 31
0.0
  0
LINE
  8
0
  6
CONTINUOUS
 62
     7
  5
8CA
 10
1.705
 20
3.115
 30
0.0
 11
1.705
 21
-1.61
 31
0.0
  0
LINE
  8
0
  6
CONTINUOUS
 62
     7
  5
8CB
 10
1.655
 20
-3.835
 30
0.0
 11
1.655
 21
-1.66
 31
0.0
  0
LINE
  8
0
  6
CONTINUOUS
 62
     7
  5
8CC
 10
-1.395
 20
3.165
 30
0.0
 11
3.445
 21
3.165
 31
0.0
  0
LINE
  8
0
  6
CONTINUOUS
 62
     7
  5
8CD
 10
3.445
 20
3.115
 30
0.0
 11
1.705
 21
3.115
 31
0.0
  0
LINE
  8
0
  6
CONTINUOUS
 62
     7
  5
8CE
 10
1.705
 20
-3.835
 30
0.0
 11
1.655
 21
-3.835
 31
0.0
  0
LINE
  8
0
  6
CONTINUOUS
 62
     7
  5
8CF
 10
1.655
 20
-3.835
 30
0.0
 11
-1.395
 21
-3.835
 31
0.0
  0
LINE
  8
0
  6
CONTINUOUS
 62
     7
  5
8D0
 10
-1.395
 20
-3.835
 30
0.0
 11
-1.445
 21
-3.835
 31
0.0
  0
LINE
  8
0
  6
CONTINUOUS
 62
     7
  5
8D1
 10
-1.445
 20
-3.835
 30
0.0
 11
-3.445
 21
-3.835
 31
0.0
  0
LINE
  8
0
  6
CONTINUOUS
 62
     7
  5
8D2
 10
3.445
 20
-3.835
 30
0.0
 11
1.705
 21
-3.835
 31
0.0
  0
LINE
  8
0
  6
CONTINUOUS
 62
     7
  5
8D3
 10
1.705
 20
-1.61
 30
0.0
 11
3.445
 21
-1.61
 31
0.0
  0
LINE
  8
0
  6
CONTINUOUS
 62
     7
  5
8D4
 10
3.445
 20
3.115
 30
0.0
 11
3.445
 21
-1.61
 31
0.0
  0
LINE
  8
0
  6
CONTINUOUS
 62
     7
  5
8D5
 10
-1.28
 20
-1.66
 30
0.0
 11
-1.395
 21
-1.66
 31
0.0
  0
LINE
  8
0
  6
CONTINUOUS
 62
     7
  5
8D6
 10
-1.395
 20
-1.66
 30
0.0
 11
-1.395
 21
-3.835
 31
0.0
  0
LINE
  8
0
  6
CONTINUOUS
 62
     7
  5
8D7
 10
3.445
 20
-1.61
 30
0.0
 11
3.445
 21
-1.66
 31
0.0
  0
LINE
  8
0
  6
CONTINUOUS
 62
     7
  5
8D8
 10
3.445
 20
3.165
 30
0.0
 11
3.445
 21
3.115
 31
0.0
  0
LINE
  8
0
  6
CONTINUOUS
 62
     7
  5
8D9
 10
-1.445
 20
3.835
 30
0.0
 11
-1.395
 21
3.835
 31
0.0
  0
LINE
  8
0
  6
CONTINUOUS
 62
     7
  5
8DA
 10
-3.445
 20
3.115
 30
0.0
 11
-3.445
 21
3.165
 31
0.0
  0
LINE
  8
0
  6
CONTINUOUS
 62
     7
  5
8DB
 10
-1.395
 20
3.835
 30
0.0
 11
-1.395
 21
3.165
 31
0.0
  0
LINE
  8
0
  6
CONTINUOUS
 62
     7
  5
8DC
 10
-1.445
 20
3.165
 30
0.0
 11
-1.445
 21
3.835
 31
0.0
  0
LINE
  8
0
  6
CONTINUOUS
 62
     7
  5
8DD
 10
-3.445
 20
3.835
 30
0.0
 11
-1.445
 21
3.835
 31
0.0
  0
LINE
  8
0
  6
CONTINUOUS
 62
     7
  5
8DE
 10
-3.445
 20
3.835
 30
0.0
 11
-3.445
 21
3.165
 31
0.0
  0
LINE
  8
0
  6
CONTINUOUS
 62
     7
  5
8DF
 10
-3.445
 20
3.165
 30
0.0
 11
-1.445
 21
3.165
 31
0.0
  0
LINE
  8
0
  6
CONTINUOUS
 62
     7
  5
8E0
 10
3.445
 20
3.835
 30
0.0
 11
3.445
 21
3.165
 31
0.0
  0
LINE
  8
0
  6
CONTINUOUS
 62
     7
  5
8E1
 10
-1.395
 20
3.835
 30
0.0
 11
3.445
 21
3.835
 31
0.0
  0
LINE
  8
0
  6
CONTINUOUS
 62
     7
  5
8E2
 10
-1.445
 20
3.115
 30
0.0
 11
-3.445
 21
3.115
 31
0.0
  0
LINE
  8
0
  6
CONTINUOUS
 62
     7
  5
8E3
 10
3.445
 20
-1.66
 30
0.0
 11
1.705
 21
-1.66
 31
0.0
  0
LINE
  8
0
  6
CONTINUOUS
 62
     7
  5
8E4
 10
3.445
 20
-1.66
 30
0.0
 11
3.445
 21
-3.835
 31
0.0
  0
LINE
  8
0
  6
CONTINUOUS
 62
     7
  5
8E5
 10
-1.445
 20
-3.835
 30
0.0
 11
-1.445
 21
3.115
 31
0.0
  0
LINE
  8
0
  6
CONTINUOUS
 62
     7
  5
8E6
 10
-3.445
 20
3.115
 30
0.0
 11
-3.445
 21
-3.835
 31
0.0
  0
LINE
  8
0
  6
CONTINUOUS
 62
     7
  5
8E7
 10
3.705
 20
-4.135
 30
0.0
 11
3.705
 21
4.135
 31
0.0
  0
LINE
  8
0
  6
CONTINUOUS
 62
     7
  5
8E8
 10
3.76
 20
-3.895
 30
0.0
 11
3.76
 21
-4.135
 31
0.0
  0
LINE
  8
0
  6
CONTINUOUS
 62
     7
  5
8E9
 10
4.0
 20
-3.655
 30
0.0
 11
3.76
 21
-3.895
 31
0.0
  0
LINE
  8
0
  6
CONTINUOUS
 62
     7
  5
8EA
 10
4.0
 20
-2.89733
 30
0.0
 11
4.0
 21
-3.655
 31
0.0
  0
LINE
  8
0
  6
CONTINUOUS
 62
     7
  5
8EB
 10
3.80534
 20
-2.89733
 30
0.0
 11
4.0
 21
-2.89733
 31
0.0
  0
ARC
  8
0
  6
CONTINUOUS
 62
     7
  5
8EC
 10
3.80534
 20
-2.8
 30
0.0
 40
0.09733
 50
90.0
 51
270.0
  0
LINE
  8
0
  6
CONTINUOUS
 62
     7
  5
8ED
 10
4.0
 20
-2.70267
 30
0.0
 11
3.80534
 21
-2.70267
 31
0.0
  0
LINE
  8
0
  6
CONTINUOUS
 62
     7
  5
8EE
 10
4.0
 20
2.70267
 30
0.0
 11
4.0
 21
-2.70267
 31
0.0
  0
LINE
  8
0
  6
CONTINUOUS
 62
     7
  5
8EF
 10
3.80534
 20
2.70267
 30
0.0
 11
4.0
 21
2.70267
 31
0.0
  0
ARC
  8
0
  6
CONTINUOUS
 62
     7
  5
8F0
 10
3.80534
 20
2.8
 30
0.0
 40
0.09733
 50
90.0
 51
270.0
  0
LINE
  8
0
  6
CONTINUOUS
 62
     7
  5
8F1
 10
4.0
 20
2.89733
 30
0.0
 11
3.80534
 21
2.89733
 31
0.0
  0
LINE
  8
0
  6
CONTINUOUS
 62
     7
  5
8F2
 10
4.0
 20
3.655
 30
0.0
 11
4.0
 21
2.89733
 31
0.0
  0
LINE
  8
0
  6
CONTINUOUS
 62
     7
  5
8F3
 10
3.76
 20
3.895
 30
0.0
 11
4.0
 21
3.655
 31
0.0
  0
LINE
  8
0
  6
CONTINUOUS
 62
     7
  5
8F4
 10
3.76
 20
4.135
 30
0.0
 11
3.76
 21
3.895
 31
0.0
  0
LINE
  8
0
  6
CONTINUOUS
 62
     7
  5
8F5
 10
3.705
 20
4.135
 30
0.0
 11
3.76
 21
4.135
 31
0.0
  0
LINE
  8
0
  6
CONTINUOUS
 62
     7
  5
8F6
 10
3.76
 20
-4.135
 30
0.0
 11
3.705
 21
-4.135
 31
0.0
  0
LINE
  8
0
  6
CONTINUOUS
 62
     7
  5
8F7
 10
3.705
 20
-4.135
 30
0.0
 11
-3.705
 21
-4.135
 31
0.0
  0
LINE
  8
0
  6
CONTINUOUS
 62
     7
  5
8F8
 10
-3.705
 20
-4.135
 30
0.0
 11
-3.76
 21
-4.135
 31
0.0
  0
LINE
  8
0
  6
CONTINUOUS
 62
     7
  5
8F9
 10
-3.705
 20
4.135
 30
0.0
 11
3.705
 21
4.135
 31
0.0
  0
LINE
  8
0
  6
CONTINUOUS
 62
     7
  5
8FA
 10
-3.705
 20
4.135
 30
0.0
 11
-3.705
 21
-4.135
 31
0.0
  0
LINE
  8
0
  6
CONTINUOUS
 62
     7
  5
8FB
 10
-3.76
 20
4.135
 30
0.0
 11
-3.705
 21
4.135
 31
0.0
  0
LINE
  8
0
  6
CONTINUOUS
 62
     7
  5
8FC
 10
-3.76
 20
-4.135
 30
0.0
 11
-3.76
 21
-3.895
 31
0.0
  0
LINE
  8
0
  6
CONTINUOUS
 62
     7
  5
8FD
 10
-3.76
 20
3.895
 30
0.0
 11
-3.76
 21
4.135
 31
0.0
  0
LINE
  8
0
  6
CONTINUOUS
 62
     7
  5
8FE
 10
-4.0
 20
3.655
 30
0.0
 11
-3.76
 21
3.895
 31
0.0
  0
LINE
  8
0
  6
CONTINUOUS
 62
     7
  5
8FF
 10
-4.0
 20
2.89733
 30
0.0
 11
-4.0
 21
3.655
 31
0.0
  0
LINE
  8
0
  6
CONTINUOUS
 62
     7
  5
900
 10
-3.80534
 20
2.89733
 30
0.0
 11
-4.0
 21
2.89733
 31
0.0
  0
ARC
  8
0
  6
CONTINUOUS
 62
     7
  5
901
 10
-3.80534
 20
2.8
 30
0.0
 40
0.09733
 50
270.0
 51
90.0
  0
LINE
  8
0
  6
CONTINUOUS
 62
     7
  5
902
 10
-4.0
 20
2.70267
 30
0.0
 11
-3.80534
 21
2.70267
 31
0.0
  0
LINE
  8
0
  6
CONTINUOUS
 62
     7
  5
903
 10
-4.0
 20
-2.70267
 30
0.0
 11
-4.0
 21
2.70267
 31
0.0
  0
LINE
  8
0
  6
CONTINUOUS
 62
     7
  5
904
 10
-3.80534
 20
-2.70267
 30
0.0
 11
-4.0
 21
-2.70267
 31
0.0
  0
ARC
  8
0
  6
CONTINUOUS
 62
     7
  5
905
 10
-3.80534
 20
-2.8
 30
0.0
 40
0.09733
 50
270.0
 51
90.0
  0
LINE
  8
0
  6
CONTINUOUS
 62
     7
  5
906
 10
-4.0
 20
-2.89733
 30
0.0
 11
-3.80534
 21
-2.89733
 31
0.0
  0
LINE
  8
0
  6
CONTINUOUS
 62
     7
  5
907
 10
-4.0
 20
-3.655
 30
0.0
 11
-4.0
 21
-2.89733
 31
0.0
  0
LINE
  8
0
  6
CONTINUOUS
 62
     7
  5
908
 10
-3.76
 20
-3.895
 30
0.0
 11
-4.0
 21
-3.655
 31
0.0
  0
LINE
  8
0
  6
CONTINUOUS
 62
     7
  5
909
 10
1.28
 20
-3.645
 30
0.0
 11
1.28
 21
0.805
 31
0.0
  0
LINE
  8
0
  6
CONTINUOUS
 62
     7
  5
90A
 10
-1.28
 20
0.805
 30
0.0
 11
-1.28
 21
-3.645
 31
0.0
  0
LINE
  8
0
  6
CONTINUOUS
 62
     3
  5
90B
 10
-4.047
 20
-3.94
 30
0.0
 11
-3.783
 21
-3.94
 31
0.0
  0
LINE
  8
0
  6
CONTINUOUS
 62
     3
  5
90C
 10
-3.915
 20
-4.072
 30
0.0
 11
-3.915
 21
-3.808
 31
0.0
  0
LINE
  8
0
  6
CONTINUOUS
 62
     3
  5
90D
 10
-4.047
 20
3.935
 30
0.0
 11
-3.783
 21
3.935
 31
0.0
  0
LINE
  8
0
  6
CONTINUOUS
 62
     3
  5
90E
 10
-3.915
 20
3.803
 30
0.0
 11
-3.915
 21
4.067
 31
0.0
  0
LINE
  8
0
  6
CONTINUOUS
 62
     3
  5
90F
 10
3.783
 20
-3.94
 30
0.0
 11
4.047
 21
-3.94
 31
0.0
  0
LINE
  8
0
  6
CONTINUOUS
 62
     3
  5
910
 10
3.915
 20
-4.072
 30
0.0
 11
3.915
 21
-3.808
 31
0.0
  0
LINE
  8
0
  6
CONTINUOUS
 62
     3
  5
911
 10
3.783
 20
3.935
 30
0.0
 11
4.047
 21
3.935
 31
0.0
  0
LINE
  8
0
  6
CONTINUOUS
 62
     3
  5
912
 10
3.915
 20
3.803
 30
0.0
 11
3.915
 21
4.067
 31
0.0
  0
LINE
  8
0
  6
CONTINUOUS
 62
     3
  5
913
 10
0.0
 20
-3.345675
 30
0.0
 11
0.0
 21
0.663865
 31
0.0
  0
ENDSEC
  0
EOF
