999
DXF file: C:\Users\sesa63760\Dev\_Creo\CAD\MCADPP0003325_3D-CAD\drw0001_7.dxf
999
Pro/ENGINEER 2019471 by Parametric Technology Corporation
  0
SECTION
  2
HEADER
  9
$ACADVER
  1
AC1024
  9
$DWGCODEPAGE
  3
ANSI_1252
  9
$EXTMAX
 10
209.3397589773
 20
296.0662305536
 30
0.0
  9
$EXTMIN
 10
0.0
 20
0.0
 30
0.0
  9
$LIMMIN
 10
0.0
 20
0.0
  9
$LIMMAX
 10
209.3397589773
 20
296.0662305536
  9
$VIEWCTR
 10
104.6698794886
 20
148.0331152768
  9
$VIEWSIZE
 40
296.0662305536
  9
$CLAYER
  8
0
  9
$LTSCALE
 40
19.2991320657
  9
$CELTYPE
  6
BYLAYER
  9
$DIMSCALE
 40
1.0
  9
$DIMASZ
 40
2.4921399878
  9
$DIMEXO
 40
1.0
  9
$DIMDLI
 40
13.3339457909
  9
$DIMEXE
 40
1.0
  9
$DIMCEN
 40
3.1580397926
  9
$DIMLFAC
 40
1.0
  9
$DIMBLK
  1
_FILLED
  9
$DIMALT
 70
0
  9
$DIMALTF
 40
0.0393700787
  9
$DIMTXT
 40
3.488995983
  9
$DIMTOL
 70
1
  9
$DIMLIM
 70
0
  9
$DIMTFAC
 40
1.0
  9
$DIMTP
 40
0.01
  9
$DIMTM
 40
0.01
  9
$DIMGAP
 40
0.625
  9
$DIMDSEP
 70
46
  9
$AUNITS
 70
0
  9
$PDMODE
 70
3
  9
$PDSIZE
 40
0.3125
  9
$HANDSEED
  5
2CF
  9
$TILEMODE
 70
1
  9
$MEASUREMENT
 70
1
  9
$INSUNITS
 70
4
  0
ENDSEC
  0
SECTION
  2
CLASSES
  0
CLASS
  1
ACDBDICTIONARYWDFLT
  2
AcDbDictionaryWithDefault
  3
AutoCAD 2000
 90
0
 91
1
280
0
281
0
  0
CLASS
  1
ACDBPLACEHOLDER
  2
AcDbPlaceHolder
  3
AutoCAD 2000
 90
0
 91
1
280
0
281
0
  0
CLASS
  1
LAYOUT
  2
AcDbLayout
  3
AutoCAD 2000
 90
0
 91
0
280
0
281
0
  0
ENDSEC
  0
SECTION
  2
TABLES
  0
TABLE
  2
VPORT
  5
8
100
AcDbSymbolTable
 70
2
  0
VPORT
  5
1F4
100
AcDbSymbolTableRecord
100
AcDbViewportTableRecord
  2
*ACTIVE
 70
0
 10
0.0
 20
0.0
 11
1.0
 21
1.0
 12
104.6698794886
 22
148.0331152768
 13
0.0
 23
0.0
 14
1.0
 24
1.0
 15
0.0
 25
0.0
 16
0.0
 26
0.0
 36
1.0
 17
0.0
 27
0.0
 37
0.0
 40
296.0662305536
 41
0.7070707071
 42
50.0
 43
0.0
 44
0.0
 50
0.0
 51
0.0
 71
0
 72
100
 73
1
 74
1
 75
0
 76
0
 77
0
 78
0
  0
ENDTAB
  0
TABLE
  2
LTYPE
  5
5
100
AcDbSymbolTable
 70
6
  0
LTYPE
  5
14
100
AcDbSymbolTableRecord
100
AcDbLinetypeTableRecord
  2
BYBLOCK
 70
0
  3

 72
65
 73
0
 40
0.0
  0
LTYPE
  5
15
100
AcDbSymbolTableRecord
100
AcDbLinetypeTableRecord
  2
BYLAYER
 70
0
  3

 72
65
 73
0
 40
0.0
  0
LTYPE
  5
16
100
AcDbSymbolTableRecord
100
AcDbLinetypeTableRecord
  2
CONTINUOUS
 70
64
  3
Solid line
 72
65
 73
0
 40
0.0
  0
LTYPE
  5
1F5
100
AcDbSymbolTableRecord
100
AcDbLinetypeTableRecord
  2
CENTER
 70
64
  3
____ _ ____ _ ____ _ ____ _ ____ _ ____ _ ____
 72
65
 73
4
 40
0.6
 49
0.375
 74
0
 49
-0.075
 74
0
 49
0.075
 74
0
 49
-0.075
 74
0
  0
LTYPE
  5
1F6
100
AcDbSymbolTableRecord
100
AcDbLinetypeTableRecord
  2
HIDDEN
 70
64
  3
- - - - - - - - - - - - - - - - - - - -
 72
65
 73
2
 40
0.2
 49
0.1
 74
0
 49
-0.1
 74
0
  0
LTYPE
  5
1F7
100
AcDbSymbolTableRecord
100
AcDbLinetypeTableRecord
  2
PHANTOM
 70
64
  3
_____ _ _ _____ _ _ _____ _ _ _____
 72
65
 73
6
 40
0.8
 49
0.45
 74
0
 49
-0.05
 74
0
 49
0.1
 74
0
 49
-0.05
 74
0
 49
0.1
 74
0
 49
-0.05
 74
0
  0
LTYPE
  5
1F8
100
AcDbSymbolTableRecord
100
AcDbLinetypeTableRecord
  2
DOT
 70
64
  3
. . . . . . . . . . . . . . . . . . . .
 72
65
 73
2
 40
0.2
 49
0.1
 74
0
 49
-0.1
 74
0
  0
LTYPE
  5
1F9
100
AcDbSymbolTableRecord
100
AcDbLinetypeTableRecord
  2
DASHED
 70
64
  3
- - - - - - - - - - - - - - - - - - - -
 72
65
 73
2
 40
0.2
 49
0.1
 74
0
 49
-0.1
 74
0
  0
ENDTAB
  0
TABLE
  2
LAYER
  5
2
100
AcDbSymbolTable
 70
36
  0
LAYER
  5
10
100
AcDbSymbolTableRecord
100
AcDbLayerTableRecord
  2
0
 70
0
 62
7
  6
CONTINUOUS
370
-3
390
F
  0
LAYER
  5
1FA
100
AcDbSymbolTableRecord
100
AcDbLayerTableRecord
  2
DEFAULT_1
 70
0
 62
7
  6
CENTER
370
-3
390
F
  0
LAYER
  5
1FB
100
AcDbSymbolTableRecord
100
AcDbLayerTableRecord
  2
DEFAULT_2
 70
0
 62
8
  6
HIDDEN
370
-3
390
F
  0
LAYER
  5
1FC
100
AcDbSymbolTableRecord
100
AcDbLayerTableRecord
  2
DEFAULT_3
 70
0
 62
7
  6
PHANTOM
370
-3
390
F
  0
LAYER
  5
1FD
100
AcDbSymbolTableRecord
100
AcDbLayerTableRecord
  2
00_COMPONENTS
 70
0
 62
7
  6
CONTINUOUS
370
-3
390
F
  0
LAYER
  5
1FE
100
AcDbSymbolTableRecord
100
AcDbLayerTableRecord
  2
01_1_DEFAULT_DATUMS
 70
0
 62
7
  6
CONTINUOUS
370
-3
390
F
  0
LAYER
  5
1FF
100
AcDbSymbolTableRecord
100
AcDbLayerTableRecord
  2
01_PLANES
 70
0
 62
7
  6
CONTINUOUS
370
-3
390
F
  0
LAYER
  5
200
100
AcDbSymbolTableRecord
100
AcDbLayerTableRecord
  2
02_COORD_SYS
 70
0
 62
7
  6
CONTINUOUS
370
-3
390
F
  0
LAYER
  5
201
100
AcDbSymbolTableRecord
100
AcDbLayerTableRecord
  2
03_AXES
 70
0
 62
7
  6
CONTINUOUS
370
-3
390
F
  0
LAYER
  5
202
100
AcDbSymbolTableRecord
100
AcDbLayerTableRecord
  2
04_POINTS
 70
0
 62
7
  6
CONTINUOUS
370
-3
390
F
  0
LAYER
  5
203
100
AcDbSymbolTableRecord
100
AcDbLayerTableRecord
  2
05_CURVES
 70
0
 62
7
  6
CONTINUOUS
370
-3
390
F
  0
LAYER
  5
204
100
AcDbSymbolTableRecord
100
AcDbLayerTableRecord
  2
06_SURFS
 70
0
 62
7
  6
CONTINUOUS
370
-3
390
F
  0
LAYER
  5
205
100
AcDbSymbolTableRecord
100
AcDbLayerTableRecord
  2
07_COSMETICS
 70
0
 62
7
  6
CONTINUOUS
370
-3
390
F
  0
LAYER
  5
206
100
AcDbSymbolTableRecord
100
AcDbLayerTableRecord
  2
10_NOTES
 70
0
 62
7
  6
CONTINUOUS
370
-3
390
F
  0
LAYER
  5
207
100
AcDbSymbolTableRecord
100
AcDbLayerTableRecord
  2
11_NOTES_PUB
 70
0
 62
7
  6
CONTINUOUS
370
-3
390
F
  0
LAYER
  5
208
100
AcDbSymbolTableRecord
100
AcDbLayerTableRecord
  2
13_REF_GTOL
 70
0
 62
7
  6
CONTINUOUS
370
-3
390
F
  0
LAYER
  5
209
100
AcDbSymbolTableRecord
100
AcDbLayerTableRecord
  2
16_MISC
 70
0
 62
7
  6
CONTINUOUS
370
-3
390
F
  0
LAYER
  5
20A
100
AcDbSymbolTableRecord
100
AcDbLayerTableRecord
  2
17_NO_PRINT
 70
0
 62
7
  6
CONTINUOUS
370
-3
390
F
  0
LAYER
  5
20B
100
AcDbSymbolTableRecord
100
AcDbLayerTableRecord
  2
18_DATUM_CAMS_JOINTS
 70
0
 62
7
  6
CONTINUOUS
370
-3
390
F
  0
LAYER
  5
20C
100
AcDbSymbolTableRecord
100
AcDbLayerTableRecord
  2
19_DATUM_FUNCTIONAL
 70
0
 62
7
  6
CONTINUOUS
370
-3
390
F
  0
LAYER
  5
20D
100
AcDbSymbolTableRecord
100
AcDbLayerTableRecord
  2
20_DATUM_KINEMATIC_SCHEME
 70
0
 62
7
  6
CONTINUOUS
370
-3
390
F
  0
ENDTAB
  0
TABLE
  2
STYLE
  5
3
100
AcDbSymbolTable
 70
1
  0
STYLE
  5
11
100
AcDbSymbolTableRecord
100
AcDbTextStyleTableRecord
  2
STANDARD
 70
0
 40
0.0
 41
0.8
 50
0.0
 71
0
 42
0.2
  3
txt
  4

  0
STYLE
  5
20E
100
AcDbSymbolTableRecord
100
AcDbTextStyleTableRecord
  2
TEXTSTYLE_1
 70
0
 40
0.0
 41
0.8
 50
0.0
 71
0
 42
0.2
  3
gdt
  4

  0
ENDTAB
  0
TABLE
  2
VIEW
  5
6
100
AcDbSymbolTable
 70
0
  0
ENDTAB
  0
TABLE
  2
UCS
  5
7
100
AcDbSymbolTable
 70
0
  0
ENDTAB
  0
TABLE
  2
APPID
  5
9
100
AcDbSymbolTable
 70
1
  0
APPID
  5
20F
100
AcDbSymbolTableRecord
100
AcDbRegAppTableRecord
  2
ACAD
 70
0
  0
ENDTAB
  0
TABLE
  2
BLOCK_RECORD
  5
1
100
AcDbSymbolTable
 70
0
  0
BLOCK_RECORD
  5
210
100
AcDbSymbolTableRecord
100
AcDbBlockTableRecord
  2
*Model_Space
  0
BLOCK_RECORD
  5
211
100
AcDbSymbolTableRecord
100
AcDbBlockTableRecord
  2
*Paper_Space
  0
BLOCK_RECORD
  5
212
100
AcDbSymbolTableRecord
100
AcDbBlockTableRecord
  2
_FILLED
  0
ENDTAB
  0
TABLE
  2
DIMSTYLE
  5
A
100
AcDbSymbolTable
 70
1
100
AcDbDimStyleTable
 71
0
  0
DIMSTYLE
105
213
100
AcDbSymbolTableRecord
100
AcDbDimStyleTableRecord
  2
STANDARD
 70
0
  3

  4

 40
1.0
 41
2.4921399878
 42
1.0
 43
0.38
 44
1.0
 45
0.0
 46
0.0
 47
0.01
 48
0.01
140
3.488995983
141
0.09
142
0.0
143
25.4
144
1.0
145
0.0
146
1.0
147
0.625
 71
1
 72
0
 73
0
 74
0
 75
0
 76
0
 77
1
 78
8
 79
2
170
0
171
1
172
0
173
0
174
0
175
0
176
0
177
0
178
0
270
2
179
2
271
2
272
2
273
2
274
2
275
0
280
0
281
0
282
0
283
1
284
8
285
0
286
0
287
3
288
0
340
11
278
46
341
212
342
212
343
212
344
212
  0
ENDTAB
  0
ENDSEC
  0
SECTION
  2
BLOCKS
  0
BLOCK
  5
20
100
AcDbEntity
  8
0
100
AcDbBlockBegin
  2
*Model_Space
 70
0
 10
0.0
 20
0.0
 30
0.0
  3
*Model_Space
  1

  0
ENDBLK
  5
21
100
AcDbEntity
  8
0
100
AcDbBlockEnd
  0
BLOCK
  5
1C
100
AcDbEntity
  8
0
100
AcDbBlockBegin
  2
*Paper_Space
 70
0
 10
0.0
 20
0.0
 30
0.0
  3
*Paper_Space
  1

  0
ENDBLK
  5
1D
100
AcDbEntity
  8
0
100
AcDbBlockEnd
  0
BLOCK
  5
214
100
AcDbEntity
  8
0
100
AcDbBlockBegin
  2
_FILLED
 70
64
 10
0.0
 20
0.0
  3
_FILLED
  1

  0
SOLID
  5
215
100
AcDbEntity
  8
0
  6
BYBLOCK
 62
0
100
AcDbTrace
 10
0.0
 20
0.0
 11
-1.0
 21
0.25
 12
-1.0
 22
-0.25
 13
-1.0
 23
-0.25
  0
ENDBLK
  5
216
100
AcDbEntity
  8
0
  6
BYBLOCK
 62
0
100
AcDbBlockEnd
  0
ENDSEC
  0
SECTION
  2
ENTITIES
  0
LINE
  5
217
100
AcDbEntity
  8
0
100
AcDbLine
 62
7
  6
CONTINUOUS
 10
22.2395927455
 20
201.1744979053
 11
22.2279364642
 21
199.8388203733
  0
LINE
  5
218
100
AcDbEntity
  8
0
100
AcDbLine
 62
7
  6
CONTINUOUS
 10
22.2395927455
 20
178.6744979053
 11
22.2279364642
 21
177.3388203733
  0
LINE
  5
219
100
AcDbEntity
  8
0
100
AcDbLine
 62
7
  6
CONTINUOUS
 10
22.2395927455
 20
174.1744979053
 11
22.2279364642
 21
172.8388203733
  0
LINE
  5
21A
100
AcDbEntity
  8
0
100
AcDbLine
 62
7
  6
CONTINUOUS
 10
22.2395927455
 20
151.6744979053
 11
22.2279364642
 21
150.3388203733
  0
LINE
  5
21B
100
AcDbEntity
  8
0
100
AcDbLine
 62
7
  6
CONTINUOUS
 10
22.2395927455
 20
147.1744979053
 11
22.2279364642
 21
145.8388203733
  0
LINE
  5
21C
100
AcDbEntity
  8
0
100
AcDbLine
 62
7
  6
CONTINUOUS
 10
22.2395927455
 20
124.6744979053
 11
22.2279364642
 21
123.3388203733
  0
LINE
  5
21D
100
AcDbEntity
  8
0
100
AcDbLine
 62
7
  6
CONTINUOUS
 10
22.2395927455
 20
120.1744979053
 11
22.2279364642
 21
118.8388203733
  0
LINE
  5
21E
100
AcDbEntity
  8
0
100
AcDbLine
 62
7
  6
CONTINUOUS
 10
22.2395927455
 20
97.6744979053
 11
22.2279364642
 21
96.3388203733
  0
LINE
  5
21F
100
AcDbEntity
  8
0
100
AcDbLine
 62
7
  6
CONTINUOUS
 10
25.3722615917
 20
199.8113802636
 11
25.3820462412
 21
200.9359440767
  0
LINE
  5
220
100
AcDbEntity
  8
0
100
AcDbLine
 62
7
  6
CONTINUOUS
 10
25.3722615917
 20
177.3113802636
 11
25.3820462412
 21
178.4359440767
  0
LINE
  5
221
100
AcDbEntity
  8
0
100
AcDbLine
 62
7
  6
CONTINUOUS
 10
25.3722615917
 20
172.8113802636
 11
25.3820462412
 21
173.9359440767
  0
LINE
  5
222
100
AcDbEntity
  8
0
100
AcDbLine
 62
7
  6
CONTINUOUS
 10
25.3722615917
 20
150.3113802636
 11
25.3820462412
 21
151.4359440767
  0
LINE
  5
223
100
AcDbEntity
  8
0
100
AcDbLine
 62
7
  6
CONTINUOUS
 10
25.3722615917
 20
145.8113802636
 11
25.3820462412
 21
146.9359440767
  0
LINE
  5
224
100
AcDbEntity
  8
0
100
AcDbLine
 62
7
  6
CONTINUOUS
 10
25.3722615917
 20
123.3113802636
 11
25.3820462412
 21
124.4359440767
  0
LINE
  5
225
100
AcDbEntity
  8
0
100
AcDbLine
 62
7
  6
CONTINUOUS
 10
25.3722615917
 20
118.8113802636
 11
25.3820462412
 21
119.9359440767
  0
LINE
  5
226
100
AcDbEntity
  8
0
100
AcDbLine
 62
7
  6
CONTINUOUS
 10
25.3722615917
 20
96.3113802636
 11
25.3820462412
 21
97.4359440767
  0
LINE
  5
227
100
AcDbEntity
  8
0
100
AcDbLine
 62
7
  6
CONTINUOUS
 10
39.0322616558
 20
94.7578796111
 11
39.0322616558
 21
202.7578796111
  0
LINE
  5
228
100
AcDbEntity
  8
0
100
AcDbLine
 62
7
  6
CONTINUOUS
 10
46.5322616558
 20
104.5659550359
 11
46.5322616558
 21
111.9498041862
  0
LINE
  5
229
100
AcDbEntity
  8
0
100
AcDbLine
 62
7
  6
CONTINUOUS
 10
46.5322616558
 20
131.5659550359
 11
46.5322616558
 21
138.9498041862
  0
LINE
  5
22A
100
AcDbEntity
  8
0
100
AcDbLine
 62
7
  6
CONTINUOUS
 10
46.5322616558
 20
158.5659550359
 11
46.5322616558
 21
165.9498041863
  0
LINE
  5
22B
100
AcDbEntity
  8
0
100
AcDbLine
 62
7
  6
CONTINUOUS
 10
46.5322616558
 20
185.5659550359
 11
46.5322616558
 21
192.9498041863
  0
LINE
  5
22C
100
AcDbEntity
  8
0
100
AcDbLine
 62
7
  6
CONTINUOUS
 10
47.5322616558
 20
192.9498041863
 11
47.5322616558
 21
185.5659550359
  0
LINE
  5
22D
100
AcDbEntity
  8
0
100
AcDbLine
 62
7
  6
CONTINUOUS
 10
47.5322616558
 20
165.9498041863
 11
47.5322616558
 21
158.5659550359
  0
LINE
  5
22E
100
AcDbEntity
  8
0
100
AcDbLine
 62
7
  6
CONTINUOUS
 10
47.5322616558
 20
138.9498041862
 11
47.5322616558
 21
131.5659550359
  0
LINE
  5
22F
100
AcDbEntity
  8
0
100
AcDbLine
 62
7
  6
CONTINUOUS
 10
47.5322616558
 20
111.9498041862
 11
47.5322616558
 21
104.5659550359
  0
LINE
  5
230
100
AcDbEntity
  8
0
100
AcDbLine
 62
7
  6
CONTINUOUS
 10
172.0322578783
 20
96.2008980839
 11
187.8365831709
 21
96.3388203412
  0
LINE
  5
231
100
AcDbEntity
  8
0
100
AcDbLine
 62
7
  6
CONTINUOUS
 10
172.0322616558
 20
94.7578796111
 11
39.0322616558
 21
94.7578796111
  0
LINE
  5
232
100
AcDbEntity
  8
0
100
AcDbLine
 62
7
  6
CONTINUOUS
 10
22.2279401406
 20
96.3388203412
 11
39.0322689335
 21
96.1921711855
  0
LINE
  5
233
100
AcDbEntity
  8
0
100
AcDbLine
 62
7
  6
CONTINUOUS
 10
39.0323743869
 20
97.7087176697
 11
25.272588011
 21
97.702406166
  0
LINE
  5
234
100
AcDbEntity
  8
0
100
AcDbLine
 62
7
  6
CONTINUOUS
 10
172.0322573267
 20
97.4340033698
 11
184.6824697731
 21
97.435944013
  0
LINE
  5
235
100
AcDbEntity
  8
0
100
AcDbLine
 62
7
  6
CONTINUOUS
 10
25.3820462412
 20
97.4359440767
 11
39.0322694887
 21
97.4338439901
  0
LINE
  5
236
100
AcDbEntity
  8
0
100
AcDbLine
 62
7
  6
CONTINUOUS
 10
184.7919425592
 20
97.702406215
 11
172.032200556
 21
97.7082516784
  0
LINE
  5
237
100
AcDbEntity
  8
0
100
AcDbLine
 62
7
  6
CONTINUOUS
 10
60.3822616558
 20
107.9203796111
 11
60.3822616558
 21
108.5953796111
  0
LINE
  5
238
100
AcDbEntity
  8
0
100
AcDbLine
 62
7
  6
CONTINUOUS
 10
60.3822616558
 20
188.9203796111
 11
60.3822616558
 21
189.5953796111
  0
LINE
  5
239
100
AcDbEntity
  8
0
100
AcDbLine
 62
7
  6
CONTINUOUS
 10
61.2322616558
 20
105.4803796111
 11
61.2322616558
 21
107.9203796111
  0
LINE
  5
23A
100
AcDbEntity
  8
0
100
AcDbLine
 62
7
  6
CONTINUOUS
 10
61.2322616558
 20
108.5953796111
 11
61.2322616558
 21
111.0353796111
  0
LINE
  5
23B
100
AcDbEntity
  8
0
100
AcDbLine
 62
7
  6
CONTINUOUS
 10
61.2322616558
 20
186.4803796111
 11
61.2322616558
 21
188.9203796111
  0
LINE
  5
23C
100
AcDbEntity
  8
0
100
AcDbLine
 62
7
  6
CONTINUOUS
 10
61.2322616558
 20
189.5953796111
 11
61.2322616558
 21
192.0353796111
  0
LINE
  5
23D
100
AcDbEntity
  8
0
100
AcDbLine
 62
7
  6
CONTINUOUS
 10
61.8322616558
 20
192.0353796111
 11
61.8322616558
 21
189.5953796111
  0
LINE
  5
23E
100
AcDbEntity
  8
0
100
AcDbLine
 62
7
  6
CONTINUOUS
 10
61.8322616558
 20
188.9203796111
 11
61.8322616558
 21
186.4803796111
  0
LINE
  5
23F
100
AcDbEntity
  8
0
100
AcDbLine
 62
7
  6
CONTINUOUS
 10
61.8322616558
 20
111.0353796111
 11
61.8322616558
 21
108.5953796111
  0
LINE
  5
240
100
AcDbEntity
  8
0
100
AcDbLine
 62
7
  6
CONTINUOUS
 10
61.8322616558
 20
107.9203796111
 11
61.8322616558
 21
105.4803796111
  0
LINE
  5
241
100
AcDbEntity
  8
0
100
AcDbLine
 62
7
  6
CONTINUOUS
 10
62.6822616558
 20
189.5953796111
 11
62.6822616558
 21
188.9203796111
  0
LINE
  5
242
100
AcDbEntity
  8
0
100
AcDbLine
 62
7
  6
CONTINUOUS
 10
62.6822616558
 20
108.5953796111
 11
62.6822616558
 21
107.9203796111
  0
LINE
  5
243
100
AcDbEntity
  8
0
100
AcDbLine
 62
7
  6
CONTINUOUS
 10
62.6822616558
 20
107.9203796111
 11
61.8322616558
 21
107.9203796111
  0
LINE
  5
244
100
AcDbEntity
  8
0
100
AcDbLine
 62
7
  6
CONTINUOUS
 10
61.2322616558
 20
107.9203796111
 11
60.3822616558
 21
107.9203796111
  0
LINE
  5
245
100
AcDbEntity
  8
0
100
AcDbLine
 62
7
  6
CONTINUOUS
 10
60.3822616558
 20
108.5953796111
 11
61.2322616558
 21
108.5953796111
  0
LINE
  5
246
100
AcDbEntity
  8
0
100
AcDbLine
 62
7
  6
CONTINUOUS
 10
61.8322616558
 20
108.5953796111
 11
62.6822616558
 21
108.5953796111
  0
LINE
  5
247
100
AcDbEntity
  8
0
100
AcDbLine
 62
7
  6
CONTINUOUS
 10
172.0322578783
 20
118.7008980839
 11
187.8365831709
 21
118.8388203412
  0
LINE
  5
248
100
AcDbEntity
  8
0
100
AcDbLine
 62
7
  6
CONTINUOUS
 10
172.0322578783
 20
123.2008980839
 11
187.8365831709
 21
123.3388203412
  0
LINE
  5
249
100
AcDbEntity
  8
0
100
AcDbLine
 62
7
  6
CONTINUOUS
 10
39.0323743869
 20
120.2087176697
 11
25.272588011
 21
120.202406166
  0
LINE
  5
24A
100
AcDbEntity
  8
0
100
AcDbLine
 62
7
  6
CONTINUOUS
 10
172.0322573267
 20
119.9340033698
 11
184.6824697731
 21
119.935944013
  0
LINE
  5
24B
100
AcDbEntity
  8
0
100
AcDbLine
 62
7
  6
CONTINUOUS
 10
25.3820462412
 20
119.9359440767
 11
39.0322694887
 21
119.9338439901
  0
LINE
  5
24C
100
AcDbEntity
  8
0
100
AcDbLine
 62
7
  6
CONTINUOUS
 10
184.7919425599
 20
120.202406215
 11
172.032200556
 21
120.2082516784
  0
LINE
  5
24D
100
AcDbEntity
  8
0
100
AcDbLine
 62
7
  6
CONTINUOUS
 10
22.2279401406
 20
118.8388203412
 11
39.0322689335
 21
118.6921711855
  0
LINE
  5
24E
100
AcDbEntity
  8
0
100
AcDbLine
 62
7
  6
CONTINUOUS
 10
22.2279401406
 20
123.3388203412
 11
39.0322689335
 21
123.1921711855
  0
LINE
  5
24F
100
AcDbEntity
  8
0
100
AcDbLine
 62
7
  6
CONTINUOUS
 10
83.0322616558
 20
94.7578796111
 11
83.0322616558
 21
202.7578796111
  0
LINE
  5
250
100
AcDbEntity
  8
0
100
AcDbLine
 62
7
  6
CONTINUOUS
 10
84.4964140523
 20
169.548067151
 11
84.4964140523
 21
155.3643661275
  0
LINE
  5
251
100
AcDbEntity
  8
0
100
AcDbLine
 62
7
  6
CONTINUOUS
 10
39.0323743869
 20
124.7087176697
 11
25.272588011
 21
124.702406166
  0
LINE
  5
252
100
AcDbEntity
  8
0
100
AcDbLine
 62
7
  6
CONTINUOUS
 10
172.0322573267
 20
124.4340033698
 11
184.6824697731
 21
124.435944013
  0
LINE
  5
253
100
AcDbEntity
  8
0
100
AcDbLine
 62
7
  6
CONTINUOUS
 10
25.3820462412
 20
124.4359440767
 11
39.0322694887
 21
124.4338439901
  0
LINE
  5
254
100
AcDbEntity
  8
0
100
AcDbLine
 62
7
  6
CONTINUOUS
 10
184.7919425599
 20
124.702406215
 11
172.032200556
 21
124.7082516784
  0
LINE
  5
255
100
AcDbEntity
  8
0
100
AcDbLine
 62
7
  6
CONTINUOUS
 10
117.4369871023
 20
168.3956798272
 11
117.0745805453
 21
168.1583865529
  0
LINE
  5
256
100
AcDbEntity
  8
0
100
AcDbLine
 62
7
  6
CONTINUOUS
 10
172.0322578783
 20
145.7008980839
 11
187.8365831709
 21
145.8388203412
  0
LINE
  5
257
100
AcDbEntity
  8
0
100
AcDbLine
 62
7
  6
CONTINUOUS
 10
172.0322578783
 20
150.2008980839
 11
187.8365831709
 21
150.3388203412
  0
LINE
  5
258
100
AcDbEntity
  8
0
100
AcDbLine
 62
7
  6
CONTINUOUS
 10
39.0323743869
 20
147.2087176697
 11
25.272588011
 21
147.202406166
  0
LINE
  5
259
100
AcDbEntity
  8
0
100
AcDbLine
 62
7
  6
CONTINUOUS
 10
172.0322573267
 20
146.9340033698
 11
184.6824697731
 21
146.935944013
  0
LINE
  5
25A
100
AcDbEntity
  8
0
100
AcDbLine
 62
7
  6
CONTINUOUS
 10
25.3820462412
 20
146.9359440767
 11
39.0322694887
 21
146.9338439901
  0
LINE
  5
25B
100
AcDbEntity
  8
0
100
AcDbLine
 62
7
  6
CONTINUOUS
 10
184.79194256
 20
147.202406215
 11
172.032200556
 21
147.2082516784
  0
LINE
  5
25C
100
AcDbEntity
  8
0
100
AcDbLine
 62
7
  6
CONTINUOUS
 10
22.2279401406
 20
145.8388203412
 11
39.0322689335
 21
145.6921711855
  0
LINE
  5
25D
100
AcDbEntity
  8
0
100
AcDbLine
 62
7
  6
CONTINUOUS
 10
22.2279401406
 20
150.3388203412
 11
39.0322689335
 21
150.1921711855
  0
LINE
  5
25E
100
AcDbEntity
  8
0
100
AcDbLine
 62
7
  6
CONTINUOUS
 10
108.3975407825
 20
155.7578796111
 11
108.3975407825
 21
168.8347548096
  0
LINE
  5
25F
100
AcDbEntity
  8
0
100
AcDbLine
 62
7
  6
CONTINUOUS
 10
39.0323743869
 20
151.7087176697
 11
25.272588011
 21
151.702406166
  0
LINE
  5
260
100
AcDbEntity
  8
0
100
AcDbLine
 62
7
  6
CONTINUOUS
 10
172.0322573267
 20
151.4340033698
 11
184.6824697731
 21
151.435944013
  0
LINE
  5
261
100
AcDbEntity
  8
0
100
AcDbLine
 62
7
  6
CONTINUOUS
 10
84.4964140523
 20
155.3643661275
 11
119.9556666109
 21
155.3643661275
  0
LINE
  5
262
100
AcDbEntity
  8
0
100
AcDbLine
 62
7
  6
CONTINUOUS
 10
108.3975407826
 20
155.7578796111
 11
117.4369871023
 21
155.7578796111
  0
LINE
  5
263
100
AcDbEntity
  8
0
100
AcDbLine
 62
7
  6
CONTINUOUS
 10
25.3820462412
 20
151.4359440767
 11
39.0322694887
 21
151.4338439901
  0
LINE
  5
264
100
AcDbEntity
  8
0
100
AcDbLine
 62
7
  6
CONTINUOUS
 10
184.79194256
 20
151.702406215
 11
172.032200556
 21
151.7082516784
  0
LINE
  5
265
100
AcDbEntity
  8
0
100
AcDbLine
 62
7
  6
CONTINUOUS
 10
114.6122924583
 20
155.7578796111
 11
114.6122924583
 21
168.1662276444
  0
LINE
  5
266
100
AcDbEntity
  8
0
100
AcDbLine
 62
7
  6
CONTINUOUS
 10
117.0745805453
 20
155.7578796111
 11
117.0745805453
 21
168.1583865529
  0
LINE
  5
267
100
AcDbEntity
  8
0
100
AcDbLine
 62
7
  6
CONTINUOUS
 10
117.4369871023
 20
155.7578796111
 11
117.4369871023
 21
168.3956798272
  0
LINE
  5
268
100
AcDbEntity
  8
0
100
AcDbLine
 62
7
  6
CONTINUOUS
 10
119.9556666109
 20
155.3643661275
 11
119.9556666109
 21
169.548067151
  0
LINE
  5
269
100
AcDbEntity
  8
0
100
AcDbLine
 62
7
  6
CONTINUOUS
 10
117.0745805453
 20
168.1583865529
 11
114.6122924583
 21
168.1662276444
  0
LINE
  5
26A
100
AcDbEntity
  8
0
100
AcDbLine
 62
7
  6
CONTINUOUS
 10
108.3975407826
 20
168.8347548096
 11
114.8035894558
 21
168.7726826951
  0
LINE
  5
26B
100
AcDbEntity
  8
0
100
AcDbLine
 62
7
  6
CONTINUOUS
 10
114.6122924583
 20
168.1662276444
 11
108.3975407826
 21
168.8347548096
  0
LINE
  5
26C
100
AcDbEntity
  8
0
100
AcDbLine
 62
7
  6
CONTINUOUS
 10
128.0322616558
 20
94.7578796111
 11
128.0322616558
 21
202.7578796111
  0
LINE
  5
26D
100
AcDbEntity
  8
0
100
AcDbLine
 62
7
  6
CONTINUOUS
 10
172.0322578783
 20
172.7008980839
 11
187.8365831709
 21
172.8388203412
  0
LINE
  5
26E
100
AcDbEntity
  8
0
100
AcDbLine
 62
7
  6
CONTINUOUS
 10
39.0323743869
 20
174.2087176697
 11
25.272588011
 21
174.202406166
  0
LINE
  5
26F
100
AcDbEntity
  8
0
100
AcDbLine
 62
7
  6
CONTINUOUS
 10
172.0322573267
 20
173.9340033698
 11
184.6824697731
 21
173.935944013
  0
LINE
  5
270
100
AcDbEntity
  8
0
100
AcDbLine
 62
7
  6
CONTINUOUS
 10
119.9556666109
 20
169.548067151
 11
84.4964140523
 21
169.548067151
  0
LINE
  5
271
100
AcDbEntity
  8
0
100
AcDbLine
 62
7
  6
CONTINUOUS
 10
25.3820462412
 20
173.9359440767
 11
39.0322694887
 21
173.9338439901
  0
LINE
  5
272
100
AcDbEntity
  8
0
100
AcDbLine
 62
7
  6
CONTINUOUS
 10
184.79194256
 20
174.202406215
 11
172.032200556
 21
174.2082516784
  0
LINE
  5
273
100
AcDbEntity
  8
0
100
AcDbLine
 62
7
  6
CONTINUOUS
 10
22.2279401406
 20
172.8388203412
 11
39.0322689335
 21
172.6921711855
  0
LINE
  5
274
100
AcDbEntity
  8
0
100
AcDbLine
 62
7
  6
CONTINUOUS
 10
114.8035894558
 20
168.7726826951
 11
117.4369871023
 21
168.3956798272
  0
LINE
  5
275
100
AcDbEntity
  8
0
100
AcDbLine
 62
7
  6
CONTINUOUS
 10
172.0322578783
 20
177.2008980839
 11
187.8365831709
 21
177.3388203412
  0
LINE
  5
276
100
AcDbEntity
  8
0
100
AcDbLine
 62
7
  6
CONTINUOUS
 10
39.0323743869
 20
178.7087176697
 11
25.272588011
 21
178.702406166
  0
LINE
  5
277
100
AcDbEntity
  8
0
100
AcDbLine
 62
7
  6
CONTINUOUS
 10
172.0322573267
 20
178.4340033698
 11
184.6824697731
 21
178.435944013
  0
LINE
  5
278
100
AcDbEntity
  8
0
100
AcDbLine
 62
7
  6
CONTINUOUS
 10
25.3820462412
 20
178.4359440767
 11
39.0322694887
 21
178.4338439901
  0
LINE
  5
279
100
AcDbEntity
  8
0
100
AcDbLine
 62
7
  6
CONTINUOUS
 10
184.7919425599
 20
178.702406215
 11
172.032200556
 21
178.7082516784
  0
LINE
  5
27A
100
AcDbEntity
  8
0
100
AcDbLine
 62
7
  6
CONTINUOUS
 10
22.2279401406
 20
177.3388203412
 11
39.0322689335
 21
177.1921711855
  0
LINE
  5
27B
100
AcDbEntity
  8
0
100
AcDbLine
 62
7
  6
CONTINUOUS
 10
62.6822616558
 20
188.9203796111
 11
61.8322616558
 21
188.9203796111
  0
LINE
  5
27C
100
AcDbEntity
  8
0
100
AcDbLine
 62
7
  6
CONTINUOUS
 10
61.2322616558
 20
188.9203796111
 11
60.3822616558
 21
188.9203796111
  0
LINE
  5
27D
100
AcDbEntity
  8
0
100
AcDbLine
 62
7
  6
CONTINUOUS
 10
60.3822616558
 20
189.5953796111
 11
61.2322616558
 21
189.5953796111
  0
LINE
  5
27E
100
AcDbEntity
  8
0
100
AcDbLine
 62
7
  6
CONTINUOUS
 10
61.8322616558
 20
189.5953796111
 11
62.6822616558
 21
189.5953796111
  0
LINE
  5
27F
100
AcDbEntity
  8
0
100
AcDbLine
 62
7
  6
CONTINUOUS
 10
172.0322578783
 20
199.7008980839
 11
187.8365831709
 21
199.8388203412
  0
LINE
  5
280
100
AcDbEntity
  8
0
100
AcDbLine
 62
7
  6
CONTINUOUS
 10
39.0323743869
 20
201.2087176697
 11
25.272588011
 21
201.202406166
  0
LINE
  5
281
100
AcDbEntity
  8
0
100
AcDbLine
 62
7
  6
CONTINUOUS
 10
172.0322573267
 20
200.9340033698
 11
184.6824697731
 21
200.935944013
  0
LINE
  5
282
100
AcDbEntity
  8
0
100
AcDbLine
 62
7
  6
CONTINUOUS
 10
25.3820462412
 20
200.9359440767
 11
39.0322694887
 21
200.9338439901
  0
LINE
  5
283
100
AcDbEntity
  8
0
100
AcDbLine
 62
7
  6
CONTINUOUS
 10
184.79194256
 20
201.202406215
 11
172.032200556
 21
201.2082516784
  0
LINE
  5
284
100
AcDbEntity
  8
0
100
AcDbLine
 62
7
  6
CONTINUOUS
 10
22.2279401406
 20
199.8388203412
 11
39.0322689335
 21
199.6921711855
  0
LINE
  5
285
100
AcDbEntity
  8
0
100
AcDbLine
 62
7
  6
CONTINUOUS
 10
163.5322616558
 20
104.5659550359
 11
163.5322616558
 21
111.9498041862
  0
LINE
  5
286
100
AcDbEntity
  8
0
100
AcDbLine
 62
7
  6
CONTINUOUS
 10
163.5322616558
 20
131.5659550359
 11
163.5322616558
 21
138.9498041862
  0
LINE
  5
287
100
AcDbEntity
  8
0
100
AcDbLine
 62
7
  6
CONTINUOUS
 10
163.5322616558
 20
158.5659550359
 11
163.5322616558
 21
165.9498041863
  0
LINE
  5
288
100
AcDbEntity
  8
0
100
AcDbLine
 62
7
  6
CONTINUOUS
 10
163.5322616558
 20
185.5659550359
 11
163.5322616558
 21
192.9498041863
  0
LINE
  5
289
100
AcDbEntity
  8
0
100
AcDbLine
 62
7
  6
CONTINUOUS
 10
164.5322616558
 20
192.9498041863
 11
164.5322616558
 21
185.5659550359
  0
LINE
  5
28A
100
AcDbEntity
  8
0
100
AcDbLine
 62
7
  6
CONTINUOUS
 10
164.5322616558
 20
165.9498041863
 11
164.5322616558
 21
158.5659550359
  0
LINE
  5
28B
100
AcDbEntity
  8
0
100
AcDbLine
 62
7
  6
CONTINUOUS
 10
164.5322616558
 20
138.9498041862
 11
164.5322616558
 21
131.5659550359
  0
LINE
  5
28C
100
AcDbEntity
  8
0
100
AcDbLine
 62
7
  6
CONTINUOUS
 10
164.5322616558
 20
111.9498041862
 11
164.5322616558
 21
104.5659550359
  0
LINE
  5
28D
100
AcDbEntity
  8
0
100
AcDbLine
 62
7
  6
CONTINUOUS
 10
172.0322616558
 20
202.7578796111
 11
39.0322616558
 21
202.7578796111
  0
LINE
  5
28E
100
AcDbEntity
  8
0
100
AcDbLine
 62
7
  6
CONTINUOUS
 10
172.0322616558
 20
94.7578796111
 11
172.0322616558
 21
202.7578796111
  0
LINE
  5
28F
100
AcDbEntity
  8
0
100
AcDbLine
 62
7
  6
CONTINUOUS
 10
184.6824697731
 20
97.435944013
 11
184.6922617278
 21
96.3113802637
  0
LINE
  5
290
100
AcDbEntity
  8
0
100
AcDbLine
 62
7
  6
CONTINUOUS
 10
184.6824697731
 20
119.935944013
 11
184.6922617278
 21
118.8113802637
  0
LINE
  5
291
100
AcDbEntity
  8
0
100
AcDbLine
 62
7
  6
CONTINUOUS
 10
184.6824697731
 20
124.435944013
 11
184.6922617278
 21
123.3113802637
  0
LINE
  5
292
100
AcDbEntity
  8
0
100
AcDbLine
 62
7
  6
CONTINUOUS
 10
184.6824697731
 20
146.935944013
 11
184.6922617278
 21
145.8113802637
  0
LINE
  5
293
100
AcDbEntity
  8
0
100
AcDbLine
 62
7
  6
CONTINUOUS
 10
184.6824697731
 20
151.435944013
 11
184.6922617278
 21
150.3113802637
  0
LINE
  5
294
100
AcDbEntity
  8
0
100
AcDbLine
 62
7
  6
CONTINUOUS
 10
184.6824697731
 20
173.935944013
 11
184.6922617278
 21
172.8113802637
  0
LINE
  5
295
100
AcDbEntity
  8
0
100
AcDbLine
 62
7
  6
CONTINUOUS
 10
184.6824697731
 20
178.435944013
 11
184.6922617278
 21
177.3113802637
  0
LINE
  5
296
100
AcDbEntity
  8
0
100
AcDbLine
 62
7
  6
CONTINUOUS
 10
184.6824697731
 20
200.935944013
 11
184.6922617278
 21
199.8113802637
  0
LINE
  5
297
100
AcDbEntity
  8
0
100
AcDbLine
 62
7
  6
CONTINUOUS
 10
187.8365868473
 20
96.3388203733
 11
187.8249305651
 21
97.6744980138
  0
LINE
  5
298
100
AcDbEntity
  8
0
100
AcDbLine
 62
7
  6
CONTINUOUS
 10
187.8365868473
 20
118.8388203733
 11
187.8249305651
 21
120.1744980138
  0
LINE
  5
299
100
AcDbEntity
  8
0
100
AcDbLine
 62
7
  6
CONTINUOUS
 10
187.8365868473
 20
123.3388203733
 11
187.8249305651
 21
124.6744980138
  0
LINE
  5
29A
100
AcDbEntity
  8
0
100
AcDbLine
 62
7
  6
CONTINUOUS
 10
187.8365868473
 20
145.8388203733
 11
187.8249305651
 21
147.1744980138
  0
LINE
  5
29B
100
AcDbEntity
  8
0
100
AcDbLine
 62
7
  6
CONTINUOUS
 10
187.8365868473
 20
150.3388203733
 11
187.8249305651
 21
151.6744980138
  0
LINE
  5
29C
100
AcDbEntity
  8
0
100
AcDbLine
 62
7
  6
CONTINUOUS
 10
187.8365868473
 20
172.8388203733
 11
187.8249305651
 21
174.1744980138
  0
LINE
  5
29D
100
AcDbEntity
  8
0
100
AcDbLine
 62
7
  6
CONTINUOUS
 10
187.8365868473
 20
177.3388203733
 11
187.8249305651
 21
178.6744980138
  0
LINE
  5
29E
100
AcDbEntity
  8
0
100
AcDbLine
 62
7
  6
CONTINUOUS
 10
187.8365868473
 20
199.8388203733
 11
187.8249305651
 21
201.1744980138
  0
CIRCLE
  5
29F
100
AcDbEntity
  8
0
100
AcDbCircle
 62
7
  6
CONTINUOUS
 10
47.0322616558
 20
189.2578796111
 40
3.7256284126
  0
CIRCLE
  5
2A0
100
AcDbEntity
  8
0
100
AcDbCircle
 62
7
  6
CONTINUOUS
 10
47.0322616558
 20
162.2578796111
 40
3.7256284126
  0
CIRCLE
  5
2A1
100
AcDbEntity
  8
0
100
AcDbCircle
 62
7
  6
CONTINUOUS
 10
47.0322616558
 20
135.2578796111
 40
3.7256284126
  0
CIRCLE
  5
2A2
100
AcDbEntity
  8
0
100
AcDbCircle
 62
7
  6
CONTINUOUS
 10
47.0322616558
 20
108.2578796111
 40
3.7256284126
  0
CIRCLE
  5
2A3
100
AcDbEntity
  8
0
100
AcDbCircle
 62
7
  6
CONTINUOUS
 10
164.0322616558
 20
108.2578796111
 40
3.7256284126
  0
CIRCLE
  5
2A4
100
AcDbEntity
  8
0
100
AcDbCircle
 62
7
  6
CONTINUOUS
 10
164.0322616558
 20
135.2578796111
 40
3.7256284126
  0
CIRCLE
  5
2A5
100
AcDbEntity
  8
0
100
AcDbCircle
 62
7
  6
CONTINUOUS
 10
164.0322616558
 20
162.2578796111
 40
3.7256284126
  0
CIRCLE
  5
2A6
100
AcDbEntity
  8
0
100
AcDbCircle
 62
7
  6
CONTINUOUS
 10
164.0322616558
 20
189.2578796111
 40
3.7256284126
  0
CIRCLE
  5
2A7
100
AcDbEntity
  8
0
100
AcDbCircle
 62
7
  6
CONTINUOUS
 10
61.5322616558
 20
108.2578796111
 40
3.25
  0
CIRCLE
  5
2A8
100
AcDbEntity
  8
0
100
AcDbCircle
 62
7
  6
CONTINUOUS
 10
61.5322616558
 20
189.2578796111
 40
3.25
  0
ARC
  5
2A9
100
AcDbEntity
  8
0
100
AcDbCircle
 62
7
  6
CONTINUOUS
 10
61.5403400709
 20
189.2578796111
 40
2.7945336927
100
AcDbArc
 50
96.3293367844
 51
263.6706632156
  0
ARC
  5
2AA
100
AcDbEntity
  8
0
100
AcDbCircle
 62
7
  6
CONTINUOUS
 10
61.5403400709
 20
108.2578796111
 40
2.7945336927
100
AcDbArc
 50
96.3293367844
 51
263.6706632156
  0
ARC
  5
2AB
100
AcDbEntity
  8
0
100
AcDbCircle
 62
7
  6
CONTINUOUS
 10
61.5403400709
 20
189.2578796111
 40
2.7927986791
100
AcDbArc
 50
275.9998892398
 51
84.0001107602
  0
ARC
  5
2AC
100
AcDbEntity
  8
0
100
AcDbCircle
 62
7
  6
CONTINUOUS
 10
61.5403400709
 20
108.2578796111
 40
2.7927986791
100
AcDbArc
 50
275.9998892398
 51
84.0001107602
  0
SPLINE
  5
2AD
100
AcDbEntity
  8
0
100
AcDbSpline
 62
7
  6
CONTINUOUS
 70
0
 71
3
 72
22
 73
18
 74
0
 42
0.0000001
 43
0.0000001
 44
0.0000000001
 40
0.0
 40
0.0
 40
0.0
 40
0.0
 40
0.0012474786
 40
0.0048250965
 40
0.010755754
 40
0.0190271529
 40
0.0296229632
 40
0.042525754
 40
0.0751604452
 40
0.1166121453
 40
0.1664891423
 40
0.2243904151
 40
0.2897847789
 40
0.4405170105
 40
0.6133512772
 40
0.802304427
 40
1.0
 40
1.0
 40
1.0
 40
1.0
 10
22.2392896785
 20
201.1744975774
 30
0.0
 10
22.2392081273
 20
201.1757564019
 30
0.0
 10
22.2467146155
 20
201.1757611962
 30
0.0
 10
22.2549859336
 20
201.1777785876
 30
0.0
 10
22.2743638768
 20
201.1785054108
 30
0.0
 10
22.298775918
 20
201.1799852047
 30
0.0
 10
22.331121434
 20
201.1811670343
 30
0.0
 10
22.3877393865
 20
201.1830349551
 30
0.0
 10
22.47575403
 20
201.1851405698
 30
0.0
 10
22.6010530319
 20
201.1875011483
 30
0.0
 10
22.7519508976
 20
201.1897475717
 30
0.0
 10
22.9270482909
 20
201.1918759899
 30
0.0
 10
23.2041359911
 20
201.1946477806
 30
0.0
 10
23.5974463017
 20
201.1975478303
 30
0.0
 10
24.1157058163
 20
201.2001212068
 30
0.0
 10
24.681458522
 20
201.2018146283
 30
0.0
 10
25.0724416576
 20
201.2023147222
 30
0.0
 10
25.272353461
 20
201.2024060799
 30
0.0
  0
SPLINE
  5
2AE
100
AcDbEntity
  8
0
100
AcDbSpline
 62
7
  6
CONTINUOUS
 70
0
 71
3
 72
22
 73
18
 74
0
 42
0.0000001
 43
0.0000001
 44
0.0000000001
 40
0.0
 40
0.0
 40
0.0
 40
0.0
 40
0.0012474785
 40
0.0048250965
 40
0.010755754
 40
0.0190271529
 40
0.0296229632
 40
0.042525754
 40
0.0751604453
 40
0.1166121454
 40
0.1664891424
 40
0.2243904151
 40
0.2897847789
 40
0.4405170106
 40
0.6133512772
 40
0.802304427
 40
1.0
 40
1.0
 40
1.0
 40
1.0
 10
22.2392896783
 20
178.6744975774
 30
0.0
 10
22.239208127
 20
178.6757564019
 30
0.0
 10
22.2467146155
 20
178.6757611963
 30
0.0
 10
22.2549859332
 20
178.6777785876
 30
0.0
 10
22.2743638766
 20
178.6785054108
 30
0.0
 10
22.2987759178
 20
178.6799852047
 30
0.0
 10
22.3311214339
 20
178.6811670343
 30
0.0
 10
22.3877393864
 20
178.6830349551
 30
0.0
 10
22.4757540301
 20
178.6851405698
 30
0.0
 10
22.601053032
 20
178.6875011483
 30
0.0
 10
22.7519508976
 20
178.6897475717
 30
0.0
 10
22.9270482909
 20
178.6918759899
 30
0.0
 10
23.2041359911
 20
178.6946477806
 30
0.0
 10
23.5974463016
 20
178.6975478303
 30
0.0
 10
24.115705816
 20
178.7001212068
 30
0.0
 10
24.6814585216
 20
178.7018146283
 30
0.0
 10
25.0724416572
 20
178.7023147222
 30
0.0
 10
25.2723534606
 20
178.7024060799
 30
0.0
  0
SPLINE
  5
2AF
100
AcDbEntity
  8
0
100
AcDbSpline
 62
7
  6
CONTINUOUS
 70
0
 71
3
 72
22
 73
18
 74
0
 42
0.0000001
 43
0.0000001
 44
0.0000000001
 40
0.0
 40
0.0
 40
0.0
 40
0.0
 40
0.0012474786
 40
0.0048250965
 40
0.010755754
 40
0.0190271529
 40
0.0296229632
 40
0.042525754
 40
0.0751604452
 40
0.1166121453
 40
0.1664891423
 40
0.2243904151
 40
0.2897847789
 40
0.4405170105
 40
0.6133512772
 40
0.802304427
 40
1.0
 40
1.0
 40
1.0
 40
1.0
 10
22.2392896785
 20
174.1744975774
 30
0.0
 10
22.2392081273
 20
174.1757564019
 30
0.0
 10
22.2467146155
 20
174.1757611962
 30
0.0
 10
22.2549859336
 20
174.1777785876
 30
0.0
 10
22.2743638768
 20
174.1785054108
 30
0.0
 10
22.298775918
 20
174.1799852047
 30
0.0
 10
22.331121434
 20
174.1811670343
 30
0.0
 10
22.3877393865
 20
174.1830349551
 30
0.0
 10
22.47575403
 20
174.1851405698
 30
0.0
 10
22.6010530319
 20
174.1875011483
 30
0.0
 10
22.7519508976
 20
174.1897475717
 30
0.0
 10
22.9270482909
 20
174.1918759899
 30
0.0
 10
23.2041359911
 20
174.1946477806
 30
0.0
 10
23.5974463016
 20
174.1975478303
 30
0.0
 10
24.1157058161
 20
174.2001212068
 30
0.0
 10
24.6814585218
 20
174.2018146283
 30
0.0
 10
25.0724416573
 20
174.2023147222
 30
0.0
 10
25.2723534608
 20
174.2024060799
 30
0.0
  0
SPLINE
  5
2B0
100
AcDbEntity
  8
0
100
AcDbSpline
 62
7
  6
CONTINUOUS
 70
0
 71
3
 72
22
 73
18
 74
0
 42
0.0000001
 43
0.0000001
 44
0.0000000001
 40
0.0
 40
0.0
 40
0.0
 40
0.0
 40
0.0012474785
 40
0.0048250965
 40
0.010755754
 40
0.0190271529
 40
0.0296229632
 40
0.042525754
 40
0.0751604452
 40
0.1166121454
 40
0.1664891423
 40
0.2243904151
 40
0.2897847789
 40
0.4405170105
 40
0.6133512772
 40
0.802304427
 40
1.0
 40
1.0
 40
1.0
 40
1.0
 10
22.2392896783
 20
151.6744975774
 30
0.0
 10
22.239208127
 20
151.6757564018
 30
0.0
 10
22.2467146155
 20
151.6757611963
 30
0.0
 10
22.2549859332
 20
151.6777785876
 30
0.0
 10
22.2743638766
 20
151.6785054108
 30
0.0
 10
22.2987759178
 20
151.6799852047
 30
0.0
 10
22.3311214339
 20
151.6811670343
 30
0.0
 10
22.3877393864
 20
151.6830349551
 30
0.0
 10
22.47575403
 20
151.6851405698
 30
0.0
 10
22.601053032
 20
151.6875011483
 30
0.0
 10
22.7519508976
 20
151.6897475717
 30
0.0
 10
22.9270482909
 20
151.6918759899
 30
0.0
 10
23.2041359911
 20
151.6946477806
 30
0.0
 10
23.5974463017
 20
151.6975478303
 30
0.0
 10
24.1157058163
 20
151.7001212068
 30
0.0
 10
24.6814585219
 20
151.7018146283
 30
0.0
 10
25.0724416576
 20
151.7023147222
 30
0.0
 10
25.272353461
 20
151.7024060799
 30
0.0
  0
SPLINE
  5
2B1
100
AcDbEntity
  8
0
100
AcDbSpline
 62
7
  6
CONTINUOUS
 70
0
 71
3
 72
22
 73
18
 74
0
 42
0.0000001
 43
0.0000001
 44
0.0000000001
 40
0.0
 40
0.0
 40
0.0
 40
0.0
 40
0.0012474786
 40
0.0048250965
 40
0.010755754
 40
0.0190271529
 40
0.0296229632
 40
0.042525754
 40
0.0751604452
 40
0.1166121453
 40
0.1664891423
 40
0.2243904151
 40
0.2897847789
 40
0.4405170105
 40
0.6133512772
 40
0.802304427
 40
1.0
 40
1.0
 40
1.0
 40
1.0
 10
22.2392896785
 20
147.1744975774
 30
0.0
 10
22.2392081273
 20
147.1757564019
 30
0.0
 10
22.2467146155
 20
147.1757611962
 30
0.0
 10
22.2549859336
 20
147.1777785876
 30
0.0
 10
22.2743638768
 20
147.1785054108
 30
0.0
 10
22.298775918
 20
147.1799852047
 30
0.0
 10
22.3311214341
 20
147.1811670343
 30
0.0
 10
22.3877393865
 20
147.1830349551
 30
0.0
 10
22.4757540301
 20
147.1851405698
 30
0.0
 10
22.601053032
 20
147.1875011483
 30
0.0
 10
22.7519508976
 20
147.1897475717
 30
0.0
 10
22.9270482909
 20
147.1918759899
 30
0.0
 10
23.2041359911
 20
147.1946477806
 30
0.0
 10
23.5974463016
 20
147.1975478303
 30
0.0
 10
24.1157058161
 20
147.2001212068
 30
0.0
 10
24.6814585217
 20
147.2018146283
 30
0.0
 10
25.0724416573
 20
147.2023147222
 30
0.0
 10
25.2723534607
 20
147.2024060799
 30
0.0
  0
SPLINE
  5
2B2
100
AcDbEntity
  8
0
100
AcDbSpline
 62
7
  6
CONTINUOUS
 70
0
 71
3
 72
22
 73
18
 74
0
 42
0.0000001
 43
0.0000001
 44
0.0000000001
 40
0.0
 40
0.0
 40
0.0
 40
0.0
 40
0.0012474786
 40
0.0048250965
 40
0.010755754
 40
0.0190271529
 40
0.0296229632
 40
0.042525754
 40
0.0751604452
 40
0.1166121453
 40
0.1664891423
 40
0.2243904151
 40
0.2897847789
 40
0.4405170105
 40
0.6133512772
 40
0.802304427
 40
1.0
 40
1.0
 40
1.0
 40
1.0
 10
22.2392896785
 20
124.6744975774
 30
0.0
 10
22.2392081273
 20
124.6757564019
 30
0.0
 10
22.2467146155
 20
124.6757611962
 30
0.0
 10
22.2549859336
 20
124.6777785876
 30
0.0
 10
22.2743638768
 20
124.6785054108
 30
0.0
 10
22.298775918
 20
124.6799852047
 30
0.0
 10
22.331121434
 20
124.6811670343
 30
0.0
 10
22.3877393865
 20
124.6830349551
 30
0.0
 10
22.47575403
 20
124.6851405698
 30
0.0
 10
22.6010530319
 20
124.6875011483
 30
0.0
 10
22.7519508976
 20
124.6897475717
 30
0.0
 10
22.9270482909
 20
124.6918759899
 30
0.0
 10
23.2041359911
 20
124.6946477806
 30
0.0
 10
23.5974463016
 20
124.6975478303
 30
0.0
 10
24.1157058162
 20
124.7001212068
 30
0.0
 10
24.6814585218
 20
124.7018146283
 30
0.0
 10
25.0724416574
 20
124.7023147222
 30
0.0
 10
25.2723534609
 20
124.7024060799
 30
0.0
  0
SPLINE
  5
2B3
100
AcDbEntity
  8
0
100
AcDbSpline
 62
7
  6
CONTINUOUS
 70
0
 71
3
 72
22
 73
18
 74
0
 42
0.0000001
 43
0.0000001
 44
0.0000000001
 40
0.0
 40
0.0
 40
0.0
 40
0.0
 40
0.0012474786
 40
0.0048250965
 40
0.010755754
 40
0.0190271529
 40
0.0296229632
 40
0.042525754
 40
0.0751604452
 40
0.1166121453
 40
0.1664891423
 40
0.224390415
 40
0.2897847788
 40
0.4405170105
 40
0.6133512772
 40
0.802304427
 40
1.0
 40
1.0
 40
1.0
 40
1.0
 10
22.2392896785
 20
120.1744975774
 30
0.0
 10
22.2392081273
 20
120.1757564019
 30
0.0
 10
22.2467146155
 20
120.1757611962
 30
0.0
 10
22.2549859336
 20
120.1777785876
 30
0.0
 10
22.2743638768
 20
120.1785054108
 30
0.0
 10
22.298775918
 20
120.1799852047
 30
0.0
 10
22.331121434
 20
120.1811670343
 30
0.0
 10
22.3877393864
 20
120.1830349551
 30
0.0
 10
22.47575403
 20
120.1851405698
 30
0.0
 10
22.6010530319
 20
120.1875011483
 30
0.0
 10
22.7519508975
 20
120.1897475717
 30
0.0
 10
22.9270482909
 20
120.1918759899
 30
0.0
 10
23.2041359912
 20
120.1946477806
 30
0.0
 10
23.5974463018
 20
120.1975478303
 30
0.0
 10
24.1157058165
 20
120.2001212068
 30
0.0
 10
24.6814585223
 20
120.2018146283
 30
0.0
 10
25.072441658
 20
120.2023147222
 30
0.0
 10
25.2723534615
 20
120.2024060799
 30
0.0
  0
SPLINE
  5
2B4
100
AcDbEntity
  8
0
100
AcDbSpline
 62
7
  6
CONTINUOUS
 70
0
 71
3
 72
22
 73
18
 74
0
 42
0.0000001
 43
0.0000001
 44
0.0000000001
 40
0.0
 40
0.0
 40
0.0
 40
0.0
 40
0.0012474786
 40
0.0048250965
 40
0.010755754
 40
0.0190271529
 40
0.0296229632
 40
0.042525754
 40
0.0751604452
 40
0.1166121453
 40
0.1664891423
 40
0.2243904151
 40
0.2897847789
 40
0.4405170105
 40
0.6133512772
 40
0.802304427
 40
1.0
 40
1.0
 40
1.0
 40
1.0
 10
22.2392896785
 20
97.6744975774
 30
0.0
 10
22.2392081273
 20
97.6757564019
 30
0.0
 10
22.2467146155
 20
97.6757611962
 30
0.0
 10
22.2549859336
 20
97.6777785876
 30
0.0
 10
22.2743638768
 20
97.6785054108
 30
0.0
 10
22.298775918
 20
97.6799852047
 30
0.0
 10
22.3311214341
 20
97.6811670343
 30
0.0
 10
22.3877393865
 20
97.6830349551
 30
0.0
 10
22.4757540301
 20
97.6851405698
 30
0.0
 10
22.601053032
 20
97.6875011483
 30
0.0
 10
22.7519508976
 20
97.6897475717
 30
0.0
 10
22.9270482909
 20
97.6918759899
 30
0.0
 10
23.2041359911
 20
97.6946477806
 30
0.0
 10
23.5974463017
 20
97.6975478303
 30
0.0
 10
24.1157058162
 20
97.7001212068
 30
0.0
 10
24.6814585218
 20
97.7018146283
 30
0.0
 10
25.0724416574
 20
97.7023147222
 30
0.0
 10
25.2723534608
 20
97.7024060799
 30
0.0
  0
SPLINE
  5
2B5
100
AcDbEntity
  8
0
100
AcDbSpline
 62
7
  6
CONTINUOUS
 70
0
 71
3
 72
22
 73
18
 74
0
 42
0.0000001
 43
0.0000001
 44
0.0000000001
 40
0.0
 40
0.0
 40
0.0
 40
0.0
 40
0.0012490474
 40
0.0048305943
 40
0.0107664787
 40
0.0190433909
 40
0.0296439955
 40
0.0425498577
 40
0.0751820552
 40
0.1166222389
 40
0.1664859164
 40
0.2243788136
 40
0.2897708077
 40
0.4405082814
 40
0.6133501088
 40
0.802304147
 40
1.0
 40
1.0
 40
1.0
 40
1.0
 10
187.8252336345
 20
201.1744974587
 30
0.0
 10
187.8253147169
 20
201.1757578986
 30
0.0
 10
187.8177995396
 20
201.1757588108
 30
0.0
 10
187.8095198011
 20
201.177779564
 30
0.0
 10
187.7901260336
 20
201.1785045225
 30
0.0
 10
187.7656986186
 20
201.1799849938
 30
0.0
 10
187.7333396452
 20
201.1811665199
 30
0.0
 10
187.6767164184
 20
201.1830342914
 30
0.0
 10
187.5887132038
 20
201.1851400585
 30
0.0
 10
187.4634422663
 20
201.1875010831
 30
0.0
 10
187.312578536
 20
201.1897478614
 30
0.0
 10
187.1375060967
 20
201.1918764506
 30
0.0
 10
186.8604249435
 20
201.1946484482
 30
0.0
 10
186.4671054717
 20
201.1975485271
 30
0.0
 10
185.9488339429
 20
201.2001217464
 30
0.0
 10
185.3830744081
 20
201.2018148765
 30
0.0
 10
184.9920914723
 20
201.2023147158
 30
0.0
 10
184.7921800921
 20
201.2024060753
 30
0.0
  0
SPLINE
  5
2B6
100
AcDbEntity
  8
0
100
AcDbSpline
 62
7
  6
CONTINUOUS
 70
0
 71
3
 72
22
 73
18
 74
0
 42
0.0000001
 43
0.0000001
 44
0.0000000001
 40
0.0
 40
0.0
 40
0.0
 40
0.0
 40
0.0012490474
 40
0.0048305944
 40
0.0107664788
 40
0.0190433912
 40
0.0296439958
 40
0.042549858
 40
0.0751820556
 40
0.1166222393
 40
0.1664859168
 40
0.2243788141
 40
0.2897708081
 40
0.4405082817
 40
0.6133501091
 40
0.8023041471
 40
1.0
 40
1.0
 40
1.0
 40
1.0
 10
187.8252336343
 20
178.6744974587
 30
0.0
 10
187.8253147166
 20
178.6757578987
 30
0.0
 10
187.8177995394
 20
178.6757588108
 30
0.0
 10
187.8095198005
 20
178.6777795641
 30
0.0
 10
187.790126033
 20
178.6785045225
 30
0.0
 10
187.7656986177
 20
178.6799849939
 30
0.0
 10
187.7333396442
 20
178.6811665199
 30
0.0
 10
187.6767164172
 20
178.6830342914
 30
0.0
 10
187.5887132025
 20
178.6851400585
 30
0.0
 10
187.4634422649
 20
178.6875010831
 30
0.0
 10
187.3125785346
 20
178.6897478614
 30
0.0
 10
187.1375060953
 20
178.6918764506
 30
0.0
 10
186.8604249422
 20
178.6946484482
 30
0.0
 10
186.4671054706
 20
178.6975485271
 30
0.0
 10
185.9488339421
 20
178.7001217464
 30
0.0
 10
185.3830744077
 20
178.7018148765
 30
0.0
 10
184.9920914722
 20
178.7023147158
 30
0.0
 10
184.7921800921
 20
178.7024060753
 30
0.0
  0
SPLINE
  5
2B7
100
AcDbEntity
  8
0
100
AcDbSpline
 62
7
  6
CONTINUOUS
 70
0
 71
3
 72
22
 73
18
 74
0
 42
0.0000001
 43
0.0000001
 44
0.0000000001
 40
0.0
 40
0.0
 40
0.0
 40
0.0
 40
0.0012490474
 40
0.0048305944
 40
0.0107664788
 40
0.0190433912
 40
0.0296439958
 40
0.042549858
 40
0.0751820556
 40
0.1166222393
 40
0.1664859168
 40
0.2243788141
 40
0.2897708081
 40
0.4405082817
 40
0.6133501091
 40
0.8023041471
 40
1.0
 40
1.0
 40
1.0
 40
1.0
 10
187.8252336343
 20
174.1744974587
 30
0.0
 10
187.8253147166
 20
174.1757578987
 30
0.0
 10
187.8177995394
 20
174.1757588108
 30
0.0
 10
187.8095198005
 20
174.1777795641
 30
0.0
 10
187.790126033
 20
174.1785045225
 30
0.0
 10
187.7656986177
 20
174.1799849939
 30
0.0
 10
187.7333396442
 20
174.1811665199
 30
0.0
 10
187.6767164173
 20
174.1830342914
 30
0.0
 10
187.5887132025
 20
174.1851400585
 30
0.0
 10
187.4634422649
 20
174.1875010831
 30
0.0
 10
187.3125785346
 20
174.1897478614
 30
0.0
 10
187.1375060953
 20
174.1918764506
 30
0.0
 10
186.8604249423
 20
174.1946484482
 30
0.0
 10
186.4671054707
 20
174.1975485271
 30
0.0
 10
185.9488339423
 20
174.2001217464
 30
0.0
 10
185.3830744079
 20
174.2018148765
 30
0.0
 10
184.9920914723
 20
174.2023147158
 30
0.0
 10
184.7921800922
 20
174.2024060753
 30
0.0
  0
SPLINE
  5
2B8
100
AcDbEntity
  8
0
100
AcDbSpline
 62
7
  6
CONTINUOUS
 70
0
 71
3
 72
22
 73
18
 74
0
 42
0.0000001
 43
0.0000001
 44
0.0000000001
 40
0.0
 40
0.0
 40
0.0
 40
0.0
 40
0.0012490474
 40
0.0048305944
 40
0.0107664788
 40
0.0190433912
 40
0.0296439958
 40
0.042549858
 40
0.0751820556
 40
0.1166222393
 40
0.1664859169
 40
0.2243788141
 40
0.2897708081
 40
0.4405082818
 40
0.6133501091
 40
0.8023041471
 40
1.0
 40
1.0
 40
1.0
 40
1.0
 10
187.8252336343
 20
97.6744974587
 30
0.0
 10
187.8253147166
 20
97.6757578987
 30
0.0
 10
187.8177995394
 20
97.6757588108
 30
0.0
 10
187.8095198005
 20
97.6777795641
 30
0.0
 10
187.7901260329
 20
97.6785045225
 30
0.0
 10
187.7656986177
 20
97.6799849939
 30
0.0
 10
187.7333396441
 20
97.6811665199
 30
0.0
 10
187.6767164171
 20
97.6830342914
 30
0.0
 10
187.5887132024
 20
97.6851400585
 30
0.0
 10
187.4634422647
 20
97.6875010831
 30
0.0
 10
187.3125785343
 20
97.6897478614
 30
0.0
 10
187.137506095
 20
97.6918764506
 30
0.0
 10
186.8604249419
 20
97.6946484482
 30
0.0
 10
186.4671054702
 20
97.6975485271
 30
0.0
 10
185.9488339417
 20
97.7001217464
 30
0.0
 10
185.3830744072
 20
97.7018148765
 30
0.0
 10
184.9920914716
 20
97.7023147158
 30
0.0
 10
184.7921800915
 20
97.7024060753
 30
0.0
  0
SPLINE
  5
2B9
100
AcDbEntity
  8
0
100
AcDbSpline
 62
7
  6
CONTINUOUS
 70
0
 71
3
 72
22
 73
18
 74
0
 42
0.0000001
 43
0.0000001
 44
0.0000000001
 40
0.0
 40
0.0
 40
0.0
 40
0.0
 40
0.0012490474
 40
0.0048305944
 40
0.0107664788
 40
0.0190433912
 40
0.0296439958
 40
0.042549858
 40
0.0751820556
 40
0.1166222393
 40
0.1664859168
 40
0.2243788141
 40
0.2897708081
 40
0.4405082817
 40
0.6133501091
 40
0.8023041471
 40
1.0
 40
1.0
 40
1.0
 40
1.0
 10
187.8252336343
 20
151.6744974587
 30
0.0
 10
187.8253147166
 20
151.6757578987
 30
0.0
 10
187.8177995394
 20
151.6757588108
 30
0.0
 10
187.8095198005
 20
151.6777795641
 30
0.0
 10
187.790126033
 20
151.6785045225
 30
0.0
 10
187.7656986177
 20
151.6799849939
 30
0.0
 10
187.7333396442
 20
151.6811665199
 30
0.0
 10
187.6767164173
 20
151.6830342914
 30
0.0
 10
187.5887132025
 20
151.6851400585
 30
0.0
 10
187.4634422649
 20
151.6875010831
 30
0.0
 10
187.3125785346
 20
151.6897478614
 30
0.0
 10
187.1375060954
 20
151.6918764506
 30
0.0
 10
186.8604249423
 20
151.6946484482
 30
0.0
 10
186.4671054708
 20
151.6975485271
 30
0.0
 10
185.9488339423
 20
151.7001217464
 30
0.0
 10
185.383074408
 20
151.7018148765
 30
0.0
 10
184.9920914725
 20
151.7023147158
 30
0.0
 10
184.7921800924
 20
151.7024060753
 30
0.0
  0
SPLINE
  5
2BA
100
AcDbEntity
  8
0
100
AcDbSpline
 62
7
  6
CONTINUOUS
 70
0
 71
3
 72
22
 73
18
 74
0
 42
0.0000001
 43
0.0000001
 44
0.0000000001
 40
0.0
 40
0.0
 40
0.0
 40
0.0
 40
0.0012490474
 40
0.0048305944
 40
0.0107664788
 40
0.0190433911
 40
0.0296439958
 40
0.042549858
 40
0.0751820555
 40
0.1166222392
 40
0.1664859168
 40
0.224378814
 40
0.289770808
 40
0.4405082817
 40
0.613350109
 40
0.8023041471
 40
1.0
 40
1.0
 40
1.0
 40
1.0
 10
187.8252336343
 20
120.1744974587
 30
0.0
 10
187.8253147166
 20
120.1757578987
 30
0.0
 10
187.8177995394
 20
120.1757588108
 30
0.0
 10
187.8095198005
 20
120.1777795641
 30
0.0
 10
187.790126033
 20
120.1785045225
 30
0.0
 10
187.7656986178
 20
120.1799849939
 30
0.0
 10
187.7333396443
 20
120.1811665199
 30
0.0
 10
187.6767164174
 20
120.1830342914
 30
0.0
 10
187.5887132026
 20
120.1851400585
 30
0.0
 10
187.463442265
 20
120.1875010831
 30
0.0
 10
187.3125785347
 20
120.1897478614
 30
0.0
 10
187.1375060953
 20
120.1918764506
 30
0.0
 10
186.8604249422
 20
120.1946484482
 30
0.0
 10
186.4671054705
 20
120.1975485271
 30
0.0
 10
185.9488339418
 20
120.2001217464
 30
0.0
 10
185.3830744072
 20
120.2018148765
 30
0.0
 10
184.9920914716
 20
120.2023147158
 30
0.0
 10
184.7921800914
 20
120.2024060753
 30
0.0
  0
SPLINE
  5
2BB
100
AcDbEntity
  8
0
100
AcDbSpline
 62
7
  6
CONTINUOUS
 70
0
 71
3
 72
22
 73
18
 74
0
 42
0.0000001
 43
0.0000001
 44
0.0000000001
 40
0.0
 40
0.0
 40
0.0
 40
0.0
 40
0.0012490474
 40
0.0048305944
 40
0.0107664788
 40
0.0190433911
 40
0.0296439958
 40
0.042549858
 40
0.0751820555
 40
0.1166222392
 40
0.1664859168
 40
0.224378814
 40
0.289770808
 40
0.4405082817
 40
0.613350109
 40
0.8023041471
 40
1.0
 40
1.0
 40
1.0
 40
1.0
 10
187.8252336343
 20
124.6744974587
 30
0.0
 10
187.8253147166
 20
124.6757578987
 30
0.0
 10
187.8177995394
 20
124.6757588108
 30
0.0
 10
187.8095198005
 20
124.6777795641
 30
0.0
 10
187.790126033
 20
124.6785045225
 30
0.0
 10
187.7656986178
 20
124.6799849938
 30
0.0
 10
187.7333396443
 20
124.6811665199
 30
0.0
 10
187.6767164174
 20
124.6830342914
 30
0.0
 10
187.5887132026
 20
124.6851400585
 30
0.0
 10
187.463442265
 20
124.6875010831
 30
0.0
 10
187.3125785347
 20
124.6897478614
 30
0.0
 10
187.1375060953
 20
124.6918764506
 30
0.0
 10
186.8604249421
 20
124.6946484482
 30
0.0
 10
186.4671054704
 20
124.6975485271
 30
0.0
 10
185.9488339417
 20
124.7001217464
 30
0.0
 10
185.3830744071
 20
124.7018148765
 30
0.0
 10
184.9920914714
 20
124.7023147158
 30
0.0
 10
184.7921800913
 20
124.7024060753
 30
0.0
  0
SPLINE
  5
2BC
100
AcDbEntity
  8
0
100
AcDbSpline
 62
7
  6
CONTINUOUS
 70
0
 71
3
 72
22
 73
18
 74
0
 42
0.0000001
 43
0.0000001
 44
0.0000000001
 40
0.0
 40
0.0
 40
0.0
 40
0.0
 40
0.0012490474
 40
0.0048305943
 40
0.0107664786
 40
0.0190433909
 40
0.0296439955
 40
0.0425498577
 40
0.0751820551
 40
0.1166222388
 40
0.1664859164
 40
0.2243788136
 40
0.2897708076
 40
0.4405082813
 40
0.6133501088
 40
0.802304147
 40
1.0
 40
1.0
 40
1.0
 40
1.0
 10
187.8252336345
 20
147.1744974587
 30
0.0
 10
187.8253147169
 20
147.1757578986
 30
0.0
 10
187.8177995396
 20
147.1757588109
 30
0.0
 10
187.8095198011
 20
147.177779564
 30
0.0
 10
187.7901260336
 20
147.1785045225
 30
0.0
 10
187.7656986186
 20
147.1799849938
 30
0.0
 10
187.7333396452
 20
147.1811665199
 30
0.0
 10
187.6767164185
 20
147.1830342914
 30
0.0
 10
187.5887132039
 20
147.1851400585
 30
0.0
 10
187.4634422663
 20
147.1875010831
 30
0.0
 10
187.3125785361
 20
147.1897478614
 30
0.0
 10
187.1375060967
 20
147.1918764506
 30
0.0
 10
186.8604249435
 20
147.1946484482
 30
0.0
 10
186.4671054716
 20
147.1975485271
 30
0.0
 10
185.9488339427
 20
147.2001217464
 30
0.0
 10
185.3830744077
 20
147.2018148765
 30
0.0
 10
184.9920914719
 20
147.2023147158
 30
0.0
 10
184.7921800916
 20
147.2024060753
 30
0.0
  0
SPLINE
  5
2BD
100
AcDbEntity
  8
0
100
AcDbSpline
 62
7
  6
CONTINUOUS
 70
0
 71
3
 72
22
 73
18
 74
0
 42
0.0000001
 43
0.0000001
 44
0.0000000001
 40
0.0
 40
0.0
 40
0.0
 40
0.0
 40
0.195972382
 40
0.3840050133
 40
0.5567138609
 40
0.7079430893
 40
0.7736374724
 40
0.831895039
 40
0.8821734445
 40
0.9239907673
 40
0.9569586399
 40
0.9700057061
 40
0.9807127313
 40
0.9890688681
 40
0.9950662255
 40
0.9987007017
 40
1.0
 40
1.0
 40
1.0
 40
1.0
 10
25.3819490476
 20
97.4359733699
 30
0.0
 10
25.1765412917
 20
97.4360045947
 30
0.0
 10
24.7740477308
 20
97.4363706122
 30
0.0
 10
24.1905319183
 20
97.4379439195
 30
0.0
 10
23.6539169568
 20
97.4404766157
 30
0.0
 10
23.2455354072
 20
97.443357109
 30
0.0
 10
22.9571171591
 20
97.4461473953
 30
0.0
 10
22.7745141822
 20
97.4483012182
 30
0.0
 10
22.6169278244
 20
97.4505774404
 30
0.0
 10
22.4858934659
 20
97.452980023
 30
0.0
 10
22.3937892447
 20
97.4551191408
 30
0.0
 10
22.3344693816
 20
97.4570271439
 30
0.0
 10
22.3006174389
 20
97.4582193586
 30
0.0
 10
22.2749521928
 20
97.4597661575
 30
0.0
 10
22.2548375749
 20
97.4604294094
 30
0.0
 10
22.2457553561
 20
97.4626458892
 30
0.0
 10
22.2381639474
 20
97.4624796833
 30
0.0
 10
22.2380646008
 20
97.4638379097
 30
0.0
  0
SPLINE
  5
2BE
100
AcDbEntity
  8
0
100
AcDbSpline
 62
7
  6
CONTINUOUS
 70
0
 71
3
 72
22
 73
18
 74
0
 42
0.0000001
 43
0.0000001
 44
0.0000000001
 40
0.0
 40
0.0
 40
0.0
 40
0.0
 40
0.195972382
 40
0.3840050133
 40
0.5567138609
 40
0.7079430893
 40
0.7736374724
 40
0.831895039
 40
0.8821734445
 40
0.9239907673
 40
0.9569586399
 40
0.9700057061
 40
0.9807127313
 40
0.9890688681
 40
0.9950662255
 40
0.9987007017
 40
1.0
 40
1.0
 40
1.0
 40
1.0
 10
25.3819490476
 20
173.9359733699
 30
0.0
 10
25.1765412917
 20
173.9360045947
 30
0.0
 10
24.7740477308
 20
173.9363706122
 30
0.0
 10
24.1905319183
 20
173.9379439195
 30
0.0
 10
23.6539169569
 20
173.9404766157
 30
0.0
 10
23.2455354073
 20
173.943357109
 30
0.0
 10
22.9571171592
 20
173.9461473953
 30
0.0
 10
22.7745141822
 20
173.9483012182
 30
0.0
 10
22.6169278244
 20
173.9505774404
 30
0.0
 10
22.485893466
 20
173.952980023
 30
0.0
 10
22.3937892447
 20
173.9551191408
 30
0.0
 10
22.3344693817
 20
173.9570271439
 30
0.0
 10
22.3006174389
 20
173.9582193586
 30
0.0
 10
22.2749521929
 20
173.9597661575
 30
0.0
 10
22.254837575
 20
173.9604294094
 30
0.0
 10
22.2457553561
 20
173.9626458892
 30
0.0
 10
22.2381639474
 20
173.9624796833
 30
0.0
 10
22.2380646008
 20
173.9638379097
 30
0.0
  0
SPLINE
  5
2BF
100
AcDbEntity
  8
0
100
AcDbSpline
 62
7
  6
CONTINUOUS
 70
0
 71
3
 72
22
 73
18
 74
0
 42
0.0000001
 43
0.0000001
 44
0.0000000001
 40
0.0
 40
0.0
 40
0.0
 40
0.0
 40
0.1959649463
 40
0.3839812644
 40
0.5566972038
 40
0.7079448803
 40
0.7736514787
 40
0.8319199082
 40
0.8822001508
 40
0.9240078505
 40
0.9569637831
 40
0.9700072495
 40
0.9807126119
 40
0.9890683285
 40
0.9950659418
 40
0.9987007831
 40
1.0
 40
1.0
 40
1.0
 40
1.0
 10
184.6825669666
 20
151.4359733688
 30
0.0
 10
184.8879674082
 20
151.4360045904
 30
0.0
 10
185.2904370174
 20
151.4363696575
 30
0.0
 10
185.8739367307
 20
151.4379436516
 30
0.0
 10
186.4105626191
 20
151.4404756559
 30
0.0
 10
186.8189846919
 20
151.4433565767
 30
0.0
 10
187.1074471409
 20
151.4461470877
 30
0.0
 10
187.2900766557
 20
151.4483008522
 30
0.0
 10
187.4476666231
 20
151.4505770337
 30
0.0
 10
187.5786805702
 20
151.4529799399
 30
0.0
 10
187.6707586813
 20
151.4551195244
 30
0.0
 10
187.7300605343
 20
151.4570275302
 30
0.0
 10
187.7639068638
 20
151.4582197563
 30
0.0
 10
187.7895694733
 20
151.459766493
 30
0.0
 10
187.8096862834
 20
151.4604297306
 30
0.0
 10
187.818765525
 20
151.4626461633
 30
0.0
 10
187.8263609563
 20
151.4624799362
 30
0.0
 10
187.8264587105
 20
151.4638381958
 30
0.0
  0
SPLINE
  5
2C0
100
AcDbEntity
  8
0
100
AcDbSpline
 62
7
  6
CONTINUOUS
 70
0
 71
3
 72
22
 73
18
 74
0
 42
0.0000001
 43
0.0000001
 44
0.0000000001
 40
0.0
 40
0.0
 40
0.0
 40
0.0
 40
0.1959649463
 40
0.3839812644
 40
0.5566972038
 40
0.7079448803
 40
0.7736514787
 40
0.8319199082
 40
0.8822001508
 40
0.9240078505
 40
0.9569637831
 40
0.9700072495
 40
0.9807126119
 40
0.9890683285
 40
0.9950659418
 40
0.9987007831
 40
1.0
 40
1.0
 40
1.0
 40
1.0
 10
184.6825669666
 20
200.9359733688
 30
0.0
 10
184.8879674082
 20
200.9360045904
 30
0.0
 10
185.2904370174
 20
200.9363696575
 30
0.0
 10
185.8739367307
 20
200.9379436516
 30
0.0
 10
186.4105626191
 20
200.9404756559
 30
0.0
 10
186.8189846919
 20
200.9433565767
 30
0.0
 10
187.1074471408
 20
200.9461470877
 30
0.0
 10
187.2900766557
 20
200.9483008522
 30
0.0
 10
187.4476666231
 20
200.9505770337
 30
0.0
 10
187.5786805701
 20
200.9529799399
 30
0.0
 10
187.6707586813
 20
200.9551195244
 30
0.0
 10
187.7300605343
 20
200.9570275302
 30
0.0
 10
187.7639068638
 20
200.9582197563
 30
0.0
 10
187.7895694733
 20
200.959766493
 30
0.0
 10
187.8096862834
 20
200.9604297306
 30
0.0
 10
187.818765525
 20
200.9626461633
 30
0.0
 10
187.8263609563
 20
200.9624799362
 30
0.0
 10
187.8264587105
 20
200.9638381958
 30
0.0
  0
SPLINE
  5
2C1
100
AcDbEntity
  8
0
100
AcDbSpline
 62
7
  6
CONTINUOUS
 70
0
 71
3
 72
22
 73
18
 74
0
 42
0.0000001
 43
0.0000001
 44
0.0000000001
 40
0.0
 40
0.0
 40
0.0
 40
0.0
 40
0.1959649463
 40
0.3839812644
 40
0.5566972039
 40
0.7079448804
 40
0.7736514787
 40
0.8319199083
 40
0.8822001508
 40
0.9240078505
 40
0.9569637831
 40
0.9700072495
 40
0.9807126119
 40
0.9890683285
 40
0.9950659418
 40
0.9987007831
 40
1.0
 40
1.0
 40
1.0
 40
1.0
 10
184.6825669666
 20
97.4359733688
 30
0.0
 10
184.8879674082
 20
97.4360045904
 30
0.0
 10
185.2904370174
 20
97.4363696575
 30
0.0
 10
185.8739367307
 20
97.4379436516
 30
0.0
 10
186.4105626192
 20
97.4404756559
 30
0.0
 10
186.8189846921
 20
97.4433565767
 30
0.0
 10
187.1074471411
 20
97.4461470877
 30
0.0
 10
187.2900766558
 20
97.4483008522
 30
0.0
 10
187.4476666232
 20
97.4505770337
 30
0.0
 10
187.5786805702
 20
97.4529799399
 30
0.0
 10
187.6707586813
 20
97.4551195244
 30
0.0
 10
187.7300605343
 20
97.4570275302
 30
0.0
 10
187.7639068638
 20
97.4582197563
 30
0.0
 10
187.7895694733
 20
97.459766493
 30
0.0
 10
187.8096862834
 20
97.4604297306
 30
0.0
 10
187.818765525
 20
97.4626461633
 30
0.0
 10
187.8263609563
 20
97.4624799362
 30
0.0
 10
187.8264587105
 20
97.4638381958
 30
0.0
  0
SPLINE
  5
2C2
100
AcDbEntity
  8
0
100
AcDbSpline
 62
7
  6
CONTINUOUS
 70
0
 71
3
 72
22
 73
18
 74
0
 42
0.0000001
 43
0.0000001
 44
0.0000000001
 40
0.0
 40
0.0
 40
0.0
 40
0.0
 40
0.195972382
 40
0.3840050133
 40
0.5567138609
 40
0.7079430893
 40
0.7736374724
 40
0.831895039
 40
0.8821734445
 40
0.9239907673
 40
0.9569586399
 40
0.970005706
 40
0.9807127313
 40
0.9890688681
 40
0.9950662255
 40
0.9987007017
 40
1.0
 40
1.0
 40
1.0
 40
1.0
 10
25.3819490476
 20
124.4359733699
 30
0.0
 10
25.1765412917
 20
124.4360045947
 30
0.0
 10
24.7740477308
 20
124.4363706122
 30
0.0
 10
24.1905319183
 20
124.4379439195
 30
0.0
 10
23.6539169569
 20
124.4404766157
 30
0.0
 10
23.2455354073
 20
124.443357109
 30
0.0
 10
22.9571171592
 20
124.4461473953
 30
0.0
 10
22.7745141822
 20
124.4483012182
 30
0.0
 10
22.6169278244
 20
124.4505774404
 30
0.0
 10
22.485893466
 20
124.452980023
 30
0.0
 10
22.3937892447
 20
124.4551191408
 30
0.0
 10
22.3344693817
 20
124.4570271439
 30
0.0
 10
22.3006174389
 20
124.4582193586
 30
0.0
 10
22.2749521929
 20
124.4597661575
 30
0.0
 10
22.254837575
 20
124.4604294094
 30
0.0
 10
22.2457553561
 20
124.4626458892
 30
0.0
 10
22.2381639474
 20
124.4624796833
 30
0.0
 10
22.2380646008
 20
124.4638379097
 30
0.0
  0
SPLINE
  5
2C3
100
AcDbEntity
  8
0
100
AcDbSpline
 62
7
  6
CONTINUOUS
 70
0
 71
3
 72
22
 73
18
 74
0
 42
0.0000001
 43
0.0000001
 44
0.0000000001
 40
0.0
 40
0.0
 40
0.0
 40
0.0
 40
0.195972382
 40
0.3840050133
 40
0.5567138609
 40
0.7079430893
 40
0.7736374724
 40
0.831895039
 40
0.8821734445
 40
0.9239907673
 40
0.9569586399
 40
0.9700057061
 40
0.9807127313
 40
0.9890688681
 40
0.9950662255
 40
0.9987007017
 40
1.0
 40
1.0
 40
1.0
 40
1.0
 10
25.3819490476
 20
178.4359733699
 30
0.0
 10
25.1765412917
 20
178.4360045947
 30
0.0
 10
24.7740477308
 20
178.4363706122
 30
0.0
 10
24.1905319183
 20
178.4379439195
 30
0.0
 10
23.6539169568
 20
178.4404766157
 30
0.0
 10
23.2455354072
 20
178.443357109
 30
0.0
 10
22.9571171592
 20
178.4461473953
 30
0.0
 10
22.7745141822
 20
178.4483012182
 30
0.0
 10
22.6169278244
 20
178.4505774404
 30
0.0
 10
22.485893466
 20
178.452980023
 30
0.0
 10
22.3937892447
 20
178.4551191408
 30
0.0
 10
22.3344693817
 20
178.4570271439
 30
0.0
 10
22.3006174389
 20
178.4582193586
 30
0.0
 10
22.2749521929
 20
178.4597661575
 30
0.0
 10
22.254837575
 20
178.4604294094
 30
0.0
 10
22.2457553561
 20
178.4626458892
 30
0.0
 10
22.2381639474
 20
178.4624796833
 30
0.0
 10
22.2380646008
 20
178.4638379097
 30
0.0
  0
SPLINE
  5
2C4
100
AcDbEntity
  8
0
100
AcDbSpline
 62
7
  6
CONTINUOUS
 70
0
 71
3
 72
22
 73
18
 74
0
 42
0.0000001
 43
0.0000001
 44
0.0000000001
 40
0.0
 40
0.0
 40
0.0
 40
0.0
 40
0.1959649463
 40
0.3839812644
 40
0.5566972038
 40
0.7079448803
 40
0.7736514787
 40
0.8319199082
 40
0.8822001508
 40
0.9240078505
 40
0.9569637831
 40
0.9700072495
 40
0.9807126119
 40
0.9890683285
 40
0.9950659418
 40
0.9987007831
 40
1.0
 40
1.0
 40
1.0
 40
1.0
 10
184.6825669666
 20
178.4359733688
 30
0.0
 10
184.8879674082
 20
178.4360045904
 30
0.0
 10
185.2904370174
 20
178.4363696575
 30
0.0
 10
185.8739367307
 20
178.4379436516
 30
0.0
 10
186.4105626191
 20
178.4404756559
 30
0.0
 10
186.8189846919
 20
178.4433565767
 30
0.0
 10
187.1074471409
 20
178.4461470877
 30
0.0
 10
187.2900766557
 20
178.4483008522
 30
0.0
 10
187.4476666231
 20
178.4505770337
 30
0.0
 10
187.5786805702
 20
178.4529799399
 30
0.0
 10
187.6707586813
 20
178.4551195244
 30
0.0
 10
187.7300605343
 20
178.4570275302
 30
0.0
 10
187.7639068638
 20
178.4582197563
 30
0.0
 10
187.7895694733
 20
178.459766493
 30
0.0
 10
187.8096862834
 20
178.4604297306
 30
0.0
 10
187.818765525
 20
178.4626461633
 30
0.0
 10
187.8263609563
 20
178.4624799362
 30
0.0
 10
187.8264587105
 20
178.4638381958
 30
0.0
  0
SPLINE
  5
2C5
100
AcDbEntity
  8
0
100
AcDbSpline
 62
7
  6
CONTINUOUS
 70
0
 71
3
 72
22
 73
18
 74
0
 42
0.0000001
 43
0.0000001
 44
0.0000000001
 40
0.0
 40
0.0
 40
0.0
 40
0.0
 40
0.1959649463
 40
0.3839812644
 40
0.5566972038
 40
0.7079448803
 40
0.7736514787
 40
0.8319199082
 40
0.8822001508
 40
0.9240078505
 40
0.9569637831
 40
0.9700072495
 40
0.9807126119
 40
0.9890683285
 40
0.9950659418
 40
0.9987007831
 40
1.0
 40
1.0
 40
1.0
 40
1.0
 10
184.6825669666
 20
119.9359733688
 30
0.0
 10
184.8879674082
 20
119.9360045904
 30
0.0
 10
185.2904370174
 20
119.9363696575
 30
0.0
 10
185.8739367307
 20
119.9379436516
 30
0.0
 10
186.4105626191
 20
119.9404756559
 30
0.0
 10
186.8189846919
 20
119.9433565767
 30
0.0
 10
187.1074471409
 20
119.9461470877
 30
0.0
 10
187.2900766557
 20
119.9483008522
 30
0.0
 10
187.4476666231
 20
119.9505770337
 30
0.0
 10
187.5786805702
 20
119.9529799399
 30
0.0
 10
187.6707586813
 20
119.9551195244
 30
0.0
 10
187.7300605343
 20
119.9570275302
 30
0.0
 10
187.7639068638
 20
119.9582197563
 30
0.0
 10
187.7895694733
 20
119.959766493
 30
0.0
 10
187.8096862834
 20
119.9604297306
 30
0.0
 10
187.818765525
 20
119.9626461633
 30
0.0
 10
187.8263609563
 20
119.9624799362
 30
0.0
 10
187.8264587105
 20
119.9638381958
 30
0.0
  0
SPLINE
  5
2C6
100
AcDbEntity
  8
0
100
AcDbSpline
 62
7
  6
CONTINUOUS
 70
0
 71
3
 72
22
 73
18
 74
0
 42
0.0000001
 43
0.0000001
 44
0.0000000001
 40
0.0
 40
0.0
 40
0.0
 40
0.0
 40
0.195972382
 40
0.3840050133
 40
0.5567138609
 40
0.7079430893
 40
0.7736374724
 40
0.831895039
 40
0.8821734445
 40
0.9239907673
 40
0.9569586399
 40
0.9700057061
 40
0.9807127313
 40
0.9890688681
 40
0.9950662255
 40
0.9987007017
 40
1.0
 40
1.0
 40
1.0
 40
1.0
 10
25.3819490476
 20
151.4359733699
 30
0.0
 10
25.1765412917
 20
151.4360045947
 30
0.0
 10
24.7740477308
 20
151.4363706122
 30
0.0
 10
24.1905319183
 20
151.4379439195
 30
0.0
 10
23.6539169568
 20
151.4404766157
 30
0.0
 10
23.2455354072
 20
151.443357109
 30
0.0
 10
22.9571171592
 20
151.4461473953
 30
0.0
 10
22.7745141822
 20
151.4483012182
 30
0.0
 10
22.6169278244
 20
151.4505774404
 30
0.0
 10
22.485893466
 20
151.452980023
 30
0.0
 10
22.3937892447
 20
151.4551191408
 30
0.0
 10
22.3344693817
 20
151.4570271439
 30
0.0
 10
22.3006174389
 20
151.4582193586
 30
0.0
 10
22.2749521928
 20
151.4597661575
 30
0.0
 10
22.254837575
 20
151.4604294094
 30
0.0
 10
22.2457553561
 20
151.4626458892
 30
0.0
 10
22.2381639474
 20
151.4624796833
 30
0.0
 10
22.2380646008
 20
151.4638379097
 30
0.0
  0
SPLINE
  5
2C7
100
AcDbEntity
  8
0
100
AcDbSpline
 62
7
  6
CONTINUOUS
 70
0
 71
3
 72
22
 73
18
 74
0
 42
0.0000001
 43
0.0000001
 44
0.0000000001
 40
0.0
 40
0.0
 40
0.0
 40
0.0
 40
0.195972382
 40
0.3840050133
 40
0.5567138609
 40
0.7079430893
 40
0.7736374724
 40
0.831895039
 40
0.8821734445
 40
0.9239907673
 40
0.9569586399
 40
0.9700057061
 40
0.9807127313
 40
0.9890688681
 40
0.9950662255
 40
0.9987007017
 40
1.0
 40
1.0
 40
1.0
 40
1.0
 10
25.3819490476
 20
119.9359733699
 30
0.0
 10
25.1765412917
 20
119.9360045947
 30
0.0
 10
24.7740477308
 20
119.9363706122
 30
0.0
 10
24.1905319183
 20
119.9379439195
 30
0.0
 10
23.6539169568
 20
119.9404766157
 30
0.0
 10
23.2455354072
 20
119.943357109
 30
0.0
 10
22.9571171591
 20
119.9461473953
 30
0.0
 10
22.7745141822
 20
119.9483012182
 30
0.0
 10
22.6169278244
 20
119.9505774404
 30
0.0
 10
22.4858934659
 20
119.952980023
 30
0.0
 10
22.3937892447
 20
119.9551191408
 30
0.0
 10
22.3344693816
 20
119.9570271439
 30
0.0
 10
22.3006174389
 20
119.9582193586
 30
0.0
 10
22.2749521928
 20
119.9597661575
 30
0.0
 10
22.2548375749
 20
119.9604294094
 30
0.0
 10
22.2457553561
 20
119.9626458892
 30
0.0
 10
22.2381639474
 20
119.9624796833
 30
0.0
 10
22.2380646008
 20
119.9638379097
 30
0.0
  0
SPLINE
  5
2C8
100
AcDbEntity
  8
0
100
AcDbSpline
 62
7
  6
CONTINUOUS
 70
0
 71
3
 72
22
 73
18
 74
0
 42
0.0000001
 43
0.0000001
 44
0.0000000001
 40
0.0
 40
0.0
 40
0.0
 40
0.0
 40
0.195972382
 40
0.3840050133
 40
0.5567138609
 40
0.7079430893
 40
0.7736374724
 40
0.831895039
 40
0.8821734445
 40
0.9239907673
 40
0.9569586399
 40
0.970005706
 40
0.9807127313
 40
0.9890688681
 40
0.9950662255
 40
0.9987007017
 40
1.0
 40
1.0
 40
1.0
 40
1.0
 10
25.3819490476
 20
200.9359733699
 30
0.0
 10
25.1765412917
 20
200.9360045947
 30
0.0
 10
24.7740477308
 20
200.9363706122
 30
0.0
 10
24.1905319183
 20
200.9379439195
 30
0.0
 10
23.6539169568
 20
200.9404766157
 30
0.0
 10
23.2455354073
 20
200.943357109
 30
0.0
 10
22.9571171592
 20
200.9461473953
 30
0.0
 10
22.7745141822
 20
200.9483012182
 30
0.0
 10
22.6169278244
 20
200.9505774404
 30
0.0
 10
22.485893466
 20
200.952980023
 30
0.0
 10
22.3937892447
 20
200.9551191408
 30
0.0
 10
22.3344693817
 20
200.9570271439
 30
0.0
 10
22.3006174389
 20
200.9582193586
 30
0.0
 10
22.2749521929
 20
200.9597661575
 30
0.0
 10
22.254837575
 20
200.9604294094
 30
0.0
 10
22.2457553561
 20
200.9626458892
 30
0.0
 10
22.2381639474
 20
200.9624796833
 30
0.0
 10
22.2380646008
 20
200.9638379097
 30
0.0
  0
SPLINE
  5
2C9
100
AcDbEntity
  8
0
100
AcDbSpline
 62
7
  6
CONTINUOUS
 70
0
 71
3
 72
22
 73
18
 74
0
 42
0.0000001
 43
0.0000001
 44
0.0000000001
 40
0.0
 40
0.0
 40
0.0
 40
0.0
 40
0.1959649463
 40
0.3839812644
 40
0.5566972038
 40
0.7079448803
 40
0.7736514787
 40
0.8319199082
 40
0.8822001508
 40
0.9240078505
 40
0.9569637831
 40
0.9700072495
 40
0.9807126119
 40
0.9890683285
 40
0.9950659418
 40
0.9987007831
 40
1.0
 40
1.0
 40
1.0
 40
1.0
 10
184.6825669666
 20
124.4359733688
 30
0.0
 10
184.8879674082
 20
124.4360045904
 30
0.0
 10
185.2904370174
 20
124.4363696575
 30
0.0
 10
185.8739367307
 20
124.4379436516
 30
0.0
 10
186.4105626191
 20
124.4404756559
 30
0.0
 10
186.8189846919
 20
124.4433565767
 30
0.0
 10
187.1074471409
 20
124.4461470877
 30
0.0
 10
187.2900766557
 20
124.4483008522
 30
0.0
 10
187.4476666231
 20
124.4505770337
 30
0.0
 10
187.5786805702
 20
124.4529799399
 30
0.0
 10
187.6707586813
 20
124.4551195244
 30
0.0
 10
187.7300605343
 20
124.4570275302
 30
0.0
 10
187.7639068638
 20
124.4582197563
 30
0.0
 10
187.7895694733
 20
124.459766493
 30
0.0
 10
187.8096862834
 20
124.4604297306
 30
0.0
 10
187.818765525
 20
124.4626461633
 30
0.0
 10
187.8263609563
 20
124.4624799362
 30
0.0
 10
187.8264587105
 20
124.4638381958
 30
0.0
  0
SPLINE
  5
2CA
100
AcDbEntity
  8
0
100
AcDbSpline
 62
7
  6
CONTINUOUS
 70
0
 71
3
 72
22
 73
18
 74
0
 42
0.0000001
 43
0.0000001
 44
0.0000000001
 40
0.0
 40
0.0
 40
0.0
 40
0.0
 40
0.1959649463
 40
0.3839812644
 40
0.5566972038
 40
0.7079448803
 40
0.7736514787
 40
0.8319199082
 40
0.8822001508
 40
0.9240078505
 40
0.9569637831
 40
0.9700072495
 40
0.9807126119
 40
0.9890683285
 40
0.9950659418
 40
0.9987007831
 40
1.0
 40
1.0
 40
1.0
 40
1.0
 10
184.6825669666
 20
173.9359733688
 30
0.0
 10
184.8879674082
 20
173.9360045904
 30
0.0
 10
185.2904370174
 20
173.9363696575
 30
0.0
 10
185.8739367307
 20
173.9379436516
 30
0.0
 10
186.4105626191
 20
173.9404756559
 30
0.0
 10
186.8189846919
 20
173.9433565767
 30
0.0
 10
187.1074471409
 20
173.9461470877
 30
0.0
 10
187.2900766557
 20
173.9483008522
 30
0.0
 10
187.4476666231
 20
173.9505770337
 30
0.0
 10
187.5786805702
 20
173.9529799399
 30
0.0
 10
187.6707586813
 20
173.9551195244
 30
0.0
 10
187.7300605343
 20
173.9570275302
 30
0.0
 10
187.7639068638
 20
173.9582197563
 30
0.0
 10
187.7895694733
 20
173.959766493
 30
0.0
 10
187.8096862834
 20
173.9604297306
 30
0.0
 10
187.818765525
 20
173.9626461633
 30
0.0
 10
187.8263609563
 20
173.9624799362
 30
0.0
 10
187.8264587105
 20
173.9638381958
 30
0.0
  0
SPLINE
  5
2CB
100
AcDbEntity
  8
0
100
AcDbSpline
 62
7
  6
CONTINUOUS
 70
0
 71
3
 72
22
 73
18
 74
0
 42
0.0000001
 43
0.0000001
 44
0.0000000001
 40
0.0
 40
0.0
 40
0.0
 40
0.0
 40
0.1959649463
 40
0.3839812644
 40
0.5566972038
 40
0.7079448803
 40
0.7736514787
 40
0.8319199082
 40
0.8822001508
 40
0.9240078505
 40
0.9569637831
 40
0.9700072495
 40
0.9807126119
 40
0.9890683285
 40
0.9950659418
 40
0.9987007831
 40
1.0
 40
1.0
 40
1.0
 40
1.0
 10
184.6825669666
 20
146.9359733688
 30
0.0
 10
184.8879674082
 20
146.9360045904
 30
0.0
 10
185.2904370174
 20
146.9363696575
 30
0.0
 10
185.8739367307
 20
146.9379436516
 30
0.0
 10
186.4105626191
 20
146.9404756559
 30
0.0
 10
186.8189846919
 20
146.9433565767
 30
0.0
 10
187.1074471409
 20
146.9461470877
 30
0.0
 10
187.2900766557
 20
146.9483008522
 30
0.0
 10
187.4476666231
 20
146.9505770337
 30
0.0
 10
187.5786805702
 20
146.9529799399
 30
0.0
 10
187.6707586813
 20
146.9551195244
 30
0.0
 10
187.7300605343
 20
146.9570275302
 30
0.0
 10
187.7639068638
 20
146.9582197563
 30
0.0
 10
187.7895694733
 20
146.959766493
 30
0.0
 10
187.8096862834
 20
146.9604297306
 30
0.0
 10
187.818765525
 20
146.9626461633
 30
0.0
 10
187.8263609563
 20
146.9624799362
 30
0.0
 10
187.8264587105
 20
146.9638381958
 30
0.0
  0
SPLINE
  5
2CC
100
AcDbEntity
  8
0
100
AcDbSpline
 62
7
  6
CONTINUOUS
 70
0
 71
3
 72
22
 73
18
 74
0
 42
0.0000001
 43
0.0000001
 44
0.0000000001
 40
0.0
 40
0.0
 40
0.0
 40
0.0
 40
0.195972382
 40
0.3840050133
 40
0.5567138609
 40
0.7079430893
 40
0.7736374724
 40
0.831895039
 40
0.8821734445
 40
0.9239907673
 40
0.9569586399
 40
0.9700057061
 40
0.9807127313
 40
0.9890688681
 40
0.9950662255
 40
0.9987007017
 40
1.0
 40
1.0
 40
1.0
 40
1.0
 10
25.3819490476
 20
146.9359733699
 30
0.0
 10
25.1765412917
 20
146.9360045947
 30
0.0
 10
24.7740477308
 20
146.9363706122
 30
0.0
 10
24.1905319183
 20
146.9379439195
 30
0.0
 10
23.6539169568
 20
146.9404766157
 30
0.0
 10
23.2455354072
 20
146.943357109
 30
0.0
 10
22.9571171592
 20
146.9461473953
 30
0.0
 10
22.7745141822
 20
146.9483012182
 30
0.0
 10
22.6169278244
 20
146.9505774404
 30
0.0
 10
22.485893466
 20
146.952980023
 30
0.0
 10
22.3937892447
 20
146.9551191408
 30
0.0
 10
22.3344693817
 20
146.9570271439
 30
0.0
 10
22.3006174389
 20
146.9582193586
 30
0.0
 10
22.2749521928
 20
146.9597661575
 30
0.0
 10
22.254837575
 20
146.9604294094
 30
0.0
 10
22.2457553561
 20
146.9626458892
 30
0.0
 10
22.2381639474
 20
146.9624796833
 30
0.0
 10
22.2380646008
 20
146.9638379097
 30
0.0
  0
ENDSEC
  0
SECTION
  2
OBJECTS
  0
DICTIONARY
  5
C
100
AcDbDictionary
280
0
281
1
  3
ACAD_GROUP
350
D
  3
ACAD_MLINESTYLE
350
17
  3
ACAD_LAYOUT
350
1A
  3
ACAD_PLOTSETTINGS
350
19
  3
ACAD_PLOTSTYLENAME
350
E
  0
DICTIONARY
  5
D
102
{ACAD_REACTORS
330
C
102
}
100
AcDbDictionary
280
0
281
1
  0
ACDBDICTIONARYWDFLT
  5
E
102
{ACAD_REACTORS
330
C
102
}
100
AcDbDictionary
281
1
  3
Normal
350
F
100
AcDbDictionaryWithDefault
340
F
  0
DICTIONARY
  5
17
102
{ACAD_REACTORS
330
C
102
}
100
AcDbDictionary
280
0
281
1
  3
Standard
350
18
  0
DICTIONARY
  5
19
102
{ACAD_REACTORS
330
C
102
}
100
AcDbDictionary
281
1
  0
DICTIONARY
  5
1A
102
{ACAD_REACTORS
330
C
102
}
100
AcDbDictionary
281
1
  3
Model
350
2CD
  3
Layout1
350
2CE
  0
ACDBPLACEHOLDER
  5
F
102
{ACAD_REACTORS
330
E
102
}
  0
MLINESTYLE
  5
18
102
{ACAD_REACTORS
330
17
102
}
100
AcDbMlineStyle
  2
STANDARD
 70
0
  3

 62
256
 51
90.0
 52
90.0
 71
2
 49
0.5
 62
256
  6
BYLAYER
 49
-0.5
 62
256
  6
BYLAYER
  0
LAYOUT
  5
2CD
102
{ACAD_REACTORS
330
1A
102
}
100
AcDbPlotSettings
  1

  2
none_device
  4

  6

 40
0.0
 41
0.0
 42
0.0
 43
0.0
 44
210.0
 45
297.0
 46
0.0
 47
0.0
 48
0.0
 49
0.0
140
0.0
141
0.0
142
1.0
143
1.0
 70
1024
 72
1
 73
0
 74
0
  7

 75
0
147
1.0
148
0.0
149
0.0
100
AcDbLayout
  1
Model
 70
0
 71
0
 10
0.0
 20
0.0
 11
210.0
 21
297.0
 12
0.0
 22
0.0
 32
0.0
 14
0.0
 24
0.0
 34
0.0
 15
0.0
 25
0.0
 35
0.0
146
0.0
 13
0.0
 23
0.0
 33
0.0
 16
1.0
 26
0.0
 36
0.0
 17
0.0
 27
1.0
 37
0.0
 76
0
330
210
345
0
346
0
  0
LAYOUT
  5
2CE
102
{ACAD_REACTORS
330
1A
102
}
100
AcDbPlotSettings
  1

  2
none_device
  4

  6

 40
0.0
 41
0.0
 42
0.0
 43
0.0
 44
210.0
 45
297.0
 46
0.0
 47
0.0
 48
0.0
 49
0.0
140
0.0
141
0.0
142
1.0
143
1.0
 70
0
 72
1
 73
0
 74
0
  7

 75
0
147
1.0
148
0.0
149
0.0
100
AcDbLayout
  1
Layout1
 70
0
 71
1
 10
0.0
 20
0.0
 11
210.0
 21
297.0
 12
0.0
 22
0.0
 32
0.0
 14
0.0
 24
0.0
 34
0.0
 15
0.0
 25
0.0
 35
0.0
146
0.0
 13
0.0
 23
0.0
 33
0.0
 16
1.0
 26
0.0
 36
0.0
 17
0.0
 27
1.0
 37
0.0
 76
0
330
211
345
0
346
0
  0
ENDSEC
  0
EOF
