999
DXF file: C:\Users\sesa63760\Dev\_Creo\CAD\MCADID0003735_3D-CAD\drw0001_1.dxf
999
Pro/ENGINEER 2019471 by Parametric Technology Corporation
  0
SECTION
  2
HEADER
  9
$ACADVER
  1
AC1024
  9
$DWGCODEPAGE
  3
ANSI_1252
  9
$EXTMAX
 10
46.5438691422
 20
65.8263292154
 30
0.0
  9
$EXTMIN
 10
0.0
 20
0.0
 30
0.0
  9
$LIMMIN
 10
0.0
 20
0.0
  9
$LIMMAX
 10
46.5438691422
 20
65.8263292154
  9
$VIEWCTR
 10
23.2719345711
 20
32.9131646077
  9
$VIEWSIZE
 40
65.8263292154
  9
$CLAYER
  8
0
  9
$LTSCALE
 40
4.29090146
  9
$CELTYPE
  6
BYLAYER
  9
$DIMSCALE
 40
1.0
  9
$DIMASZ
 40
0.5540936803
  9
$DIMEXO
 40
1.0
  9
$DIMDLI
 40
2.9646228269
  9
$DIMEXE
 40
1.0
  9
$DIMCEN
 40
0.7021475116
  9
$DIMLFAC
 40
1.0
  9
$DIMBLK
  1
_FILLED
  9
$DIMALT
 70
0
  9
$DIMALTF
 40
0.0393700787
  9
$DIMTXT
 40
0.7757311524
  9
$DIMTOL
 70
1
  9
$DIMLIM
 70
0
  9
$DIMTFAC
 40
1.0
  9
$DIMTP
 40
0.01
  9
$DIMTM
 40
0.01
  9
$DIMGAP
 40
0.625
  9
$DIMDSEP
 70
46
  9
$AUNITS
 70
0
  9
$PDMODE
 70
3
  9
$PDSIZE
 40
0.3125
  9
$HANDSEED
  5
2A1
  9
$TILEMODE
 70
1
  9
$MEASUREMENT
 70
1
  9
$INSUNITS
 70
4
  0
ENDSEC
  0
SECTION
  2
CLASSES
  0
CLASS
  1
ACDBDICTIONARYWDFLT
  2
AcDbDictionaryWithDefault
  3
AutoCAD 2000
 90
0
 91
1
280
0
281
0
  0
CLASS
  1
ACDBPLACEHOLDER
  2
AcDbPlaceHolder
  3
AutoCAD 2000
 90
0
 91
1
280
0
281
0
  0
CLASS
  1
LAYOUT
  2
AcDbLayout
  3
AutoCAD 2000
 90
0
 91
0
280
0
281
0
  0
ENDSEC
  0
SECTION
  2
TABLES
  0
TABLE
  2
VPORT
  5
8
100
AcDbSymbolTable
 70
2
  0
VPORT
  5
1F4
100
AcDbSymbolTableRecord
100
AcDbViewportTableRecord
  2
*ACTIVE
 70
0
 10
0.0
 20
0.0
 11
1.0
 21
1.0
 12
23.2719345711
 22
32.9131646077
 13
0.0
 23
0.0
 14
1.0
 24
1.0
 15
0.0
 25
0.0
 16
0.0
 26
0.0
 36
1.0
 17
0.0
 27
0.0
 37
0.0
 40
65.8263292154
 41
0.7070707071
 42
50.0
 43
0.0
 44
0.0
 50
0.0
 51
0.0
 71
0
 72
100
 73
1
 74
1
 75
0
 76
0
 77
0
 78
0
  0
ENDTAB
  0
TABLE
  2
LTYPE
  5
5
100
AcDbSymbolTable
 70
6
  0
LTYPE
  5
14
100
AcDbSymbolTableRecord
100
AcDbLinetypeTableRecord
  2
BYBLOCK
 70
0
  3

 72
65
 73
0
 40
0.0
  0
LTYPE
  5
15
100
AcDbSymbolTableRecord
100
AcDbLinetypeTableRecord
  2
BYLAYER
 70
0
  3

 72
65
 73
0
 40
0.0
  0
LTYPE
  5
16
100
AcDbSymbolTableRecord
100
AcDbLinetypeTableRecord
  2
CONTINUOUS
 70
64
  3
Solid line
 72
65
 73
0
 40
0.0
  0
LTYPE
  5
1F5
100
AcDbSymbolTableRecord
100
AcDbLinetypeTableRecord
  2
CENTER
 70
64
  3
____ _ ____ _ ____ _ ____ _ ____ _ ____ _ ____
 72
65
 73
4
 40
0.6
 49
0.375
 74
0
 49
-0.075
 74
0
 49
0.075
 74
0
 49
-0.075
 74
0
  0
LTYPE
  5
1F6
100
AcDbSymbolTableRecord
100
AcDbLinetypeTableRecord
  2
HIDDEN
 70
64
  3
- - - - - - - - - - - - - - - - - - - -
 72
65
 73
2
 40
0.2
 49
0.1
 74
0
 49
-0.1
 74
0
  0
LTYPE
  5
1F7
100
AcDbSymbolTableRecord
100
AcDbLinetypeTableRecord
  2
PHANTOM
 70
64
  3
_____ _ _ _____ _ _ _____ _ _ _____
 72
65
 73
6
 40
0.8
 49
0.45
 74
0
 49
-0.05
 74
0
 49
0.1
 74
0
 49
-0.05
 74
0
 49
0.1
 74
0
 49
-0.05
 74
0
  0
LTYPE
  5
1F8
100
AcDbSymbolTableRecord
100
AcDbLinetypeTableRecord
  2
DOT
 70
64
  3
. . . . . . . . . . . . . . . . . . . .
 72
65
 73
2
 40
0.2
 49
0.1
 74
0
 49
-0.1
 74
0
  0
LTYPE
  5
1F9
100
AcDbSymbolTableRecord
100
AcDbLinetypeTableRecord
  2
DASHED
 70
64
  3
- - - - - - - - - - - - - - - - - - - -
 72
65
 73
2
 40
0.2
 49
0.1
 74
0
 49
-0.1
 74
0
  0
ENDTAB
  0
TABLE
  2
LAYER
  5
2
100
AcDbSymbolTable
 70
36
  0
LAYER
  5
10
100
AcDbSymbolTableRecord
100
AcDbLayerTableRecord
  2
0
 70
0
 62
7
  6
CONTINUOUS
370
-3
390
F
  0
LAYER
  5
1FA
100
AcDbSymbolTableRecord
100
AcDbLayerTableRecord
  2
DEFAULT_1
 70
0
 62
7
  6
CENTER
370
-3
390
F
  0
LAYER
  5
1FB
100
AcDbSymbolTableRecord
100
AcDbLayerTableRecord
  2
DEFAULT_2
 70
0
 62
7
  6
HIDDEN
370
-3
390
F
  0
LAYER
  5
1FC
100
AcDbSymbolTableRecord
100
AcDbLayerTableRecord
  2
DEFAULT_3
 70
0
 62
7
  6
PHANTOM
370
-3
390
F
  0
LAYER
  5
1FD
100
AcDbSymbolTableRecord
100
AcDbLayerTableRecord
  2
00_COMPONENTS
 70
0
 62
7
  6
CONTINUOUS
370
-3
390
F
  0
LAYER
  5
1FE
100
AcDbSymbolTableRecord
100
AcDbLayerTableRecord
  2
01_1_DEFAULT_DATUMS
 70
0
 62
7
  6
CONTINUOUS
370
-3
390
F
  0
LAYER
  5
1FF
100
AcDbSymbolTableRecord
100
AcDbLayerTableRecord
  2
01_PLANES
 70
0
 62
7
  6
CONTINUOUS
370
-3
390
F
  0
LAYER
  5
200
100
AcDbSymbolTableRecord
100
AcDbLayerTableRecord
  2
02_COORD_SYS
 70
0
 62
7
  6
CONTINUOUS
370
-3
390
F
  0
LAYER
  5
201
100
AcDbSymbolTableRecord
100
AcDbLayerTableRecord
  2
03_AXES
 70
0
 62
7
  6
CONTINUOUS
370
-3
390
F
  0
LAYER
  5
202
100
AcDbSymbolTableRecord
100
AcDbLayerTableRecord
  2
04_POINTS
 70
0
 62
7
  6
CONTINUOUS
370
-3
390
F
  0
LAYER
  5
203
100
AcDbSymbolTableRecord
100
AcDbLayerTableRecord
  2
05_CURVES
 70
0
 62
7
  6
CONTINUOUS
370
-3
390
F
  0
LAYER
  5
204
100
AcDbSymbolTableRecord
100
AcDbLayerTableRecord
  2
06_SURFS
 70
0
 62
7
  6
CONTINUOUS
370
-3
390
F
  0
LAYER
  5
205
100
AcDbSymbolTableRecord
100
AcDbLayerTableRecord
  2
07_COSMETICS
 70
0
 62
7
  6
CONTINUOUS
370
-3
390
F
  0
LAYER
  5
206
100
AcDbSymbolTableRecord
100
AcDbLayerTableRecord
  2
1
 70
0
 62
7
  6
CONTINUOUS
370
-3
390
F
  0
LAYER
  5
207
100
AcDbSymbolTableRecord
100
AcDbLayerTableRecord
  2
10_NOTES
 70
0
 62
7
  6
CONTINUOUS
370
-3
390
F
  0
LAYER
  5
208
100
AcDbSymbolTableRecord
100
AcDbLayerTableRecord
  2
11_NOTES_PUB
 70
0
 62
7
  6
CONTINUOUS
370
-3
390
F
  0
LAYER
  5
209
100
AcDbSymbolTableRecord
100
AcDbLayerTableRecord
  2
13_REF_GTOL
 70
0
 62
7
  6
CONTINUOUS
370
-3
390
F
  0
LAYER
  5
20A
100
AcDbSymbolTableRecord
100
AcDbLayerTableRecord
  2
16_MISC
 70
0
 62
7
  6
CONTINUOUS
370
-3
390
F
  0
LAYER
  5
20B
100
AcDbSymbolTableRecord
100
AcDbLayerTableRecord
  2
17_NO_PRINT
 70
0
 62
7
  6
CONTINUOUS
370
-3
390
F
  0
LAYER
  5
20C
100
AcDbSymbolTableRecord
100
AcDbLayerTableRecord
  2
18_DATUM_CAMS_JOINTS
 70
0
 62
7
  6
CONTINUOUS
370
-3
390
F
  0
LAYER
  5
20D
100
AcDbSymbolTableRecord
100
AcDbLayerTableRecord
  2
19_DATUM_FUNCTIONAL
 70
0
 62
7
  6
CONTINUOUS
370
-3
390
F
  0
LAYER
  5
20E
100
AcDbSymbolTableRecord
100
AcDbLayerTableRecord
  2
20_DATUM_KINEMATIC_SCHEME
 70
0
 62
7
  6
CONTINUOUS
370
-3
390
F
  0
LAYER
  5
20F
100
AcDbSymbolTableRecord
100
AcDbLayerTableRecord
  2
INTFCLR_3179
 70
0
 62
7
  6
CONTINUOUS
370
-3
390
F
  0
ENDTAB
  0
TABLE
  2
STYLE
  5
3
100
AcDbSymbolTable
 70
1
  0
STYLE
  5
11
100
AcDbSymbolTableRecord
100
AcDbTextStyleTableRecord
  2
STANDARD
 70
0
 40
0.0
 41
1.0
 50
0.0
 71
0
 42
0.2
  3
ARIAL.TTF
  4

  0
STYLE
  5
210
100
AcDbSymbolTableRecord
100
AcDbTextStyleTableRecord
  2
TEXTSTYLE_1
 70
0
 40
0.0
 41
0.8
 50
0.0
 71
0
 42
0.2
  3
gdt
  4

  0
ENDTAB
  0
TABLE
  2
VIEW
  5
6
100
AcDbSymbolTable
 70
0
  0
ENDTAB
  0
TABLE
  2
UCS
  5
7
100
AcDbSymbolTable
 70
0
  0
ENDTAB
  0
TABLE
  2
APPID
  5
9
100
AcDbSymbolTable
 70
1
  0
APPID
  5
211
100
AcDbSymbolTableRecord
100
AcDbRegAppTableRecord
  2
ACAD
 70
0
  0
ENDTAB
  0
TABLE
  2
BLOCK_RECORD
  5
1
100
AcDbSymbolTable
 70
0
  0
BLOCK_RECORD
  5
212
100
AcDbSymbolTableRecord
100
AcDbBlockTableRecord
  2
*Model_Space
  0
BLOCK_RECORD
  5
213
100
AcDbSymbolTableRecord
100
AcDbBlockTableRecord
  2
*Paper_Space
  0
BLOCK_RECORD
  5
214
100
AcDbSymbolTableRecord
100
AcDbBlockTableRecord
  2
_FILLED
  0
ENDTAB
  0
TABLE
  2
DIMSTYLE
  5
A
100
AcDbSymbolTable
 70
1
100
AcDbDimStyleTable
 71
0
  0
DIMSTYLE
105
215
100
AcDbSymbolTableRecord
100
AcDbDimStyleTableRecord
  2
STANDARD
 70
0
  3

  4

 40
1.0
 41
0.5540936803
 42
1.0
 43
0.38
 44
1.0
 45
0.0
 46
0.0
 47
0.01
 48
0.01
140
0.7757311524
141
0.09
142
0.0
143
25.4
144
1.0
145
0.0
146
1.0
147
0.625
 71
1
 72
0
 73
0
 74
0
 75
0
 76
0
 77
1
 78
8
 79
2
170
0
171
1
172
0
173
0
174
0
175
0
176
0
177
0
178
0
270
2
179
2
271
2
272
2
273
2
274
2
275
0
280
0
281
0
282
0
283
1
284
8
285
0
286
0
287
3
288
0
340
11
278
46
341
214
342
214
343
214
344
214
  0
ENDTAB
  0
ENDSEC
  0
SECTION
  2
BLOCKS
  0
BLOCK
  5
20
100
AcDbEntity
  8
0
100
AcDbBlockBegin
  2
*Model_Space
 70
0
 10
0.0
 20
0.0
 30
0.0
  3
*Model_Space
  1

  0
ENDBLK
  5
21
100
AcDbEntity
  8
0
100
AcDbBlockEnd
  0
BLOCK
  5
1C
100
AcDbEntity
  8
0
100
AcDbBlockBegin
  2
*Paper_Space
 70
0
 10
0.0
 20
0.0
 30
0.0
  3
*Paper_Space
  1

  0
ENDBLK
  5
1D
100
AcDbEntity
  8
0
100
AcDbBlockEnd
  0
BLOCK
  5
216
100
AcDbEntity
  8
0
100
AcDbBlockBegin
  2
_FILLED
 70
64
 10
0.0
 20
0.0
  3
_FILLED
  1

  0
SOLID
  5
217
100
AcDbEntity
  8
0
  6
BYBLOCK
 62
0
100
AcDbTrace
 10
0.0
 20
0.0
 11
-1.0
 21
0.25
 12
-1.0
 22
-0.25
 13
-1.0
 23
-0.25
  0
ENDBLK
  5
218
100
AcDbEntity
  8
0
  6
BYBLOCK
 62
0
100
AcDbBlockEnd
  0
ENDSEC
  0
SECTION
  2
ENTITIES
  0
LINE
  5
219
100
AcDbEntity
  8
0
100
AcDbLine
 62
7
  6
BYLAYER
 10
20.9762277503
 20
5.6433204488
 11
18.9817144325
 21
6.4321204436
  0
LINE
  5
21A
100
AcDbEntity
  8
0
100
AcDbLine
 62
7
  6
BYLAYER
 10
18.9817144331
 20
6.4321204447
 11
19.6888182697
 21
6.0238621804
  0
LWPOLYLINE
  5
21B
100
AcDbEntity
  8
0
100
AcDbPolyline
 62
7
  6
BYLAYER
 90
6
 70
0
 10
17.6333970256
 20
53.3844143791
 10
15.8471532028
 20
52.3503869292
 10
14.4585289257
 20
50.6306317624
 10
14.1689070057
 20
48.7342800174
 10
15.0162660566
 20
46.899015558
 10
16.9159105721
 20
45.3297038291
  0
LWPOLYLINE
  5
21C
100
AcDbEntity
  8
0
100
AcDbPolyline
 62
7
  6
BYLAYER
 90
7
 70
0
 10
19.2847084265
 20
12.8562276667
 10
21.1493062687
 20
12.1188072869
 10
23.3493943325
 20
11.8200637718
 10
25.5878385337
 20
12.0003440883
 10
27.5623245792
 20
12.6353003809
 10
28.3648173049
 20
13.0986170065
 10
28.855623168
 20
13.6073557511
  0
LWPOLYLINE
  5
21D
100
AcDbEntity
  8
0
100
AcDbPolyline
 62
7
  6
BYLAYER
 90
3
 70
0
 10
18.5055589054
 20
56.6199461872
 10
17.8378514468
 20
55.8382504025
 10
17.6333970256
 20
54.9416675395
  0
LWPOLYLINE
  5
21E
100
AcDbEntity
  8
0
100
AcDbPolyline
 62
7
  6
BYLAYER
 90
4
 70
0
 10
17.6333970256
 20
52.6547404211
 10
16.2575078974
 20
51.8584883333
 10
14.9413777881
 20
50.2287067489
 10
14.7047444342
 20
49.1918435708
  0
LINE
  5
21F
100
AcDbEntity
  8
0
100
AcDbLine
 62
7
  6
BYLAYER
 10
19.6759559754
 20
13.1766620945
 11
18.5899889656
 21
13.6148406477
  0
LINE
  5
220
100
AcDbEntity
  8
0
100
AcDbLine
 62
7
  6
BYLAYER
 10
18.2299510727
 20
13.7451855284
 11
19.2847084265
 21
12.8562276667
  0
LWPOLYLINE
  5
221
100
AcDbEntity
  8
0
100
AcDbPolyline
 62
7
  6
BYLAYER
 90
5
 70
0
 10
11.6333970256
 20
47.1667672481
 10
12.2101664455
 20
49.6830139003
 10
14.0266052681
 20
52.0415397414
 10
16.9865478724
 20
53.868776195
 10
17.6333970256
 20
54.054103739
  0
LINE
  5
222
100
AcDbEntity
  8
0
100
AcDbLine
 62
7
  6
BYLAYER
 10
10.7481990616
 20
23.2462894075
 11
10.7481990616
 21
19.5257946305
  0
LWPOLYLINE
  5
223
100
AcDbEntity
  8
0
100
AcDbPolyline
 62
7
  6
BYLAYER
 90
4
 70
0
 10
14.6338490716
 20
49.2080233405
 10
14.942980773
 20
50.5591149819
 10
16.2697649378
 20
52.1955507892
 10
17.6333970256
 20
52.9809738123
  0
LWPOLYLINE
  5
224
100
AcDbEntity
  8
0
100
AcDbPolyline
 62
7
  6
BYLAYER
 90
3
 70
0
 10
17.454465916
 20
14.0259352002
 10
17.6154366248
 20
13.630806536
 10
18.9817144325
 20
12.4792967655
  0
LINE
  5
225
100
AcDbEntity
  8
0
100
AcDbLine
 62
7
  6
BYLAYER
 10
11.6126023533
 20
17.6633220359
 11
11.6126023533
 21
21.3838168129
  0
LINE
  5
226
100
AcDbEntity
  8
0
100
AcDbLine
 62
7
  6
BYLAYER
 10
11.6333970256
 20
24.7129507783
 11
11.6333970256
 21
47.1667672481
  0
LINE
  5
227
100
AcDbEntity
  8
0
100
AcDbLine
 62
7
  6
BYLAYER
 10
18.6836473908
 20
58.4341168642
 11
18.4856574057
 21
57.633943795
  0
LINE
  5
228
100
AcDbEntity
  8
0
100
AcDbLine
 62
7
  6
BYLAYER
 10
23.4891691283
 20
56.8887753564
 11
23.1526616547
 21
56.2094883232
  0
LINE
  5
229
100
AcDbEntity
  8
0
100
AcDbLine
 62
7
  6
BYLAYER
 10
28.1977712477
 20
55.1765151399
 11
28.3558858087
 21
55.3806424952
  0
LWPOLYLINE
  5
22A
100
AcDbEntity
  8
0
100
AcDbPolyline
 62
7
  6
BYLAYER
 90
5
 70
0
 10
28.6562031939
 20
55.9045468068
 10
27.7588152767
 20
54.8539604415
 10
26.2333698278
 20
54.0816133916
 10
24.3121020885
 20
53.7050884942
 10
22.2875076559
 20
53.7817082516
  0
LINE
  5
22B
100
AcDbEntity
  8
0
100
AcDbLine
 62
7
  6
BYLAYER
 10
18.4856574057
 20
57.633943795
 11
18.4333970256
 21
57.2093807475
  0
LINE
  5
22C
100
AcDbEntity
  8
0
100
AcDbLine
 62
7
  6
BYLAYER
 10
17.0548970256
 20
9.1177546113
 11
17.0548970256
 21
14.2038163546
  0
LINE
  5
22D
100
AcDbEntity
  8
0
100
AcDbLine
 62
7
  6
BYLAYER
 10
17.6333970256
 20
49.6975585099
 11
17.6333970256
 21
54.9416675395
  0
LINE
  5
22E
100
AcDbEntity
  8
0
100
AcDbLine
 62
7
  6
BYLAYER
 10
23.1526616544
 20
56.2094883234
 11
23.1333866171
 21
56.1301095485
  0
LINE
  5
22F
100
AcDbEntity
  8
0
100
AcDbLine
 62
7
  6
BYLAYER
 10
18.4333970256
 20
56.6815852881
 11
18.4333970256
 21
57.2093807475
  0
LINE
  5
230
100
AcDbEntity
  8
0
100
AcDbLine
 62
7
  6
BYLAYER
 10
18.6333970256
 20
55.4130754311
 11
18.6333970256
 21
55.8349366295
  0
LINE
  5
231
100
AcDbEntity
  8
0
100
AcDbLine
 62
7
  6
BYLAYER
 10
18.6836996048
 20
17.3014092677
 11
18.6836996048
 21
13.5809144907
  0
LINE
  5
232
100
AcDbEntity
  8
0
100
AcDbLine
 62
7
  6
BYLAYER
 10
21.9096500816
 20
13.0818736605
 11
21.9096500816
 21
16.8023684375
  0
LINE
  5
233
100
AcDbEntity
  8
0
100
AcDbLine
 62
7
  6
BYLAYER
 10
23.1333866171
 20
56.1301095476
 11
23.1333866171
 21
55.6732706259
  0
LINE
  5
234
100
AcDbEntity
  8
0
100
AcDbLine
 62
7
  6
BYLAYER
 10
28.8333970256
 20
56.6815852881
 11
28.6562031939
 21
55.9045468068
  0
LINE
  5
235
100
AcDbEntity
  8
0
100
AcDbLine
 62
7
  6
BYLAYER
 10
24.1333866171
 20
56.1301095476
 11
24.1333866171
 21
55.7112870147
  0
LINE
  5
236
100
AcDbEntity
  8
0
100
AcDbLine
 62
7
  6
BYLAYER
 10
27.7571965608
 20
58.018537654
 11
27.7298640963
 21
57.750776896
  0
LINE
  5
237
100
AcDbEntity
  8
0
100
AcDbLine
 62
7
  6
BYLAYER
 10
26.5107243729
 20
56.38701229
 11
26.5107243729
 21
57.4879334468
  0
LINE
  5
238
100
AcDbEntity
  8
0
100
AcDbLine
 62
7
  6
BYLAYER
 10
26.9554294456
 20
56.6287618143
 11
26.9554294456
 21
57.1533322503
  0
LINE
  5
239
100
AcDbEntity
  8
0
100
AcDbLine
 62
7
  6
BYLAYER
 10
35.6333970256
 20
27.1157518223
 11
35.6541916979
 21
27.0992689606
  0
LINE
  5
23A
100
AcDbEntity
  8
0
100
AcDbLine
 62
7
  6
BYLAYER
 10
35.6335503152
 20
27.1164646721
 11
35.6541916979
 21
27.0992689606
  0
LINE
  5
23B
100
AcDbEntity
  8
0
100
AcDbLine
 62
7
  6
BYLAYER
 10
28.6333970256
 20
55.4130754311
 11
28.6333970256
 21
55.8349574586
  0
LINE
  5
23C
100
AcDbEntity
  8
0
100
AcDbLine
 62
7
  6
BYLAYER
 10
28.8333970256
 20
56.6815852881
 11
28.8333970256
 21
57.2093807475
  0
LINE
  5
23D
100
AcDbEntity
  8
0
100
AcDbLine
 62
7
  6
BYLAYER
 10
29.6333970256
 20
49.6975585099
 11
29.6333970256
 21
54.9416675395
  0
LINE
  5
23E
100
AcDbEntity
  8
0
100
AcDbLine
 62
7
  6
BYLAYER
 10
30.2118970256
 20
9.1177546113
 11
30.2118970256
 21
14.1904144913
  0
LINE
  5
23F
100
AcDbEntity
  8
0
100
AcDbLine
 62
7
  6
BYLAYER
 10
31.5688975688
 20
18.2966627469
 11
31.5688975688
 21
14.5761679699
  0
LINE
  5
240
100
AcDbEntity
  8
0
100
AcDbLine
 62
7
  6
BYLAYER
 10
28.8333970256
 20
57.2093807475
 11
28.7811366455
 21
57.633943795
  0
LINE
  5
241
100
AcDbEntity
  8
0
100
AcDbLine
 62
7
  6
BYLAYER
 10
33.9304447539
 20
15.9395997344
 11
33.9304447539
 21
19.6600945113
  0
LINE
  5
242
100
AcDbEntity
  8
0
100
AcDbLine
 62
7
  6
BYLAYER
 10
19.0690228035
 20
55.1765151399
 11
18.9109082425
 21
55.3806424952
  0
LINE
  5
243
100
AcDbEntity
  8
0
100
AcDbLine
 62
7
  6
BYLAYER
 10
35.6333970256
 20
24.7129507783
 11
35.6333970256
 21
47.1667672481
  0
LWPOLYLINE
  5
244
100
AcDbEntity
  8
0
100
AcDbPolyline
 62
7
  6
BYLAYER
 90
7
 70
0
 10
21.8216228741
 20
44.9773754667
 10
19.5021321565
 20
45.6185564186
 10
17.7436490662
 20
46.6969934856
 10
16.7729543195
 20
48.0781145067
 10
16.7344373335
 20
49.5652019301
 10
17.0690193185
 20
50.2844601424
 10
17.6333970256
 20
50.8292532457
  0
LINE
  5
245
100
AcDbEntity
  8
0
100
AcDbLine
 62
7
  6
BYLAYER
 10
23.7776041059
 20
56.8887753564
 11
24.1141115795
 21
56.2094883232
  0
LINE
  5
246
100
AcDbEntity
  8
0
100
AcDbLine
 62
7
  6
BYLAYER
 10
28.5831466604
 20
58.4341168642
 11
28.7811366455
 21
57.633943795
  0
LINE
  5
247
100
AcDbEntity
  8
0
100
AcDbLine
 62
7
  6
BYLAYER
 10
36.5185949896
 20
25.2367963659
 11
36.5185949896
 21
21.516301589
  0
LINE
  5
248
100
AcDbEntity
  8
0
100
AcDbLine
 62
7
  6
BYLAYER
 10
23.7776055373
 20
56.8887755903
 11
23.7394521927
 21
56.926198347
  0
LWPOLYLINE
  5
249
100
AcDbEntity
  8
0
100
AcDbPolyline
 62
7
  6
BYLAYER
 90
5
 70
0
 10
29.7050240322
 20
14.0463261036
 10
29.0191568786
 20
13.6513721103
 10
26.071598607
 20
12.8580140733
 10
22.8215234038
 20
12.6925494456
 10
19.6759559754
 20
13.1766620945
  0
LINE
  5
24A
100
AcDbEntity
  8
0
100
AcDbLine
 62
7
  6
BYLAYER
 10
29.6333970256
 20
54.0049857415
 11
31.6008622703
 21
53.2101624641
  0
LINE
  5
24B
100
AcDbEntity
  8
0
100
AcDbLine
 62
7
  6
BYLAYER
 10
30.3508834791
 20
53.0863427527
 11
29.6333970256
 21
53.3763142525
  0
LINE
  5
24C
100
AcDbEntity
  8
0
100
AcDbLine
 62
7
  6
BYLAYER
 10
26.9554294456
 20
57.1533322503
 11
27.4192742418
 21
57.0815745029
  0
LINE
  5
24D
100
AcDbEntity
  8
0
100
AcDbLine
 62
7
  6
BYLAYER
 10
27.5780767959
 20
6.0239205012
 11
28.2851987403
 21
6.4321892202
  0
LWPOLYLINE
  5
24E
100
AcDbEntity
  8
0
100
AcDbPolyline
 62
7
  6
BYLAYER
 90
4
 70
0
 10
27.5521581657
 20
6.1044989912
 10
25.7240138484
 20
5.516603351
 10
23.3296065026
 20
5.32376204
 10
20.9762277503
 20
5.6433204488
  0
LINE
  5
24F
100
AcDbEntity
  8
0
100
AcDbLine
 62
7
  6
BYLAYER
 10
27.7298640963
 20
57.750776896
 11
27.2660193002
 21
57.8225346433
  0
ARC
  5
250
100
AcDbEntity
  8
0
100
AcDbCircle
 62
7
  6
BYLAYER
 10
24.2956932322
 20
30.9867806122
 40
18.2882106264
100
AcDbArc
 50
239.9875657401
 51
252.1296576525
  0
ARC
  5
251
100
AcDbEntity
  8
0
100
AcDbCircle
 62
7
  6
BYLAYER
 10
25.5803622199
 20
45.2244431005
 40
8.8403153535
100
AcDbArc
 50
60.0238581159
 51
62.3841285974
  0
ARC
  5
252
100
AcDbEntity
  8
0
100
AcDbCircle
 62
7
  6
BYLAYER
 10
25.6348448898
 20
44.9966200954
 40
8.7272119579
100
AcDbArc
 50
60.0084849176
 51
62.4009405559
  0
ARC
  5
253
100
AcDbEntity
  8
0
100
AcDbCircle
 62
7
  6
BYLAYER
 10
21.3595598171
 20
57.4100406406
 40
3.1530170567
100
AcDbArc
 50
224.4544840129
 51
225.0002350972
  0
ARC
  5
254
100
AcDbEntity
  8
0
100
AcDbCircle
 62
7
  6
BYLAYER
 10
29.6065203098
 20
48.879610909
 40
3.0268976123
100
AcDbArc
 50
4.7151642375
 51
6.1995424658
  0
ARC
  5
255
100
AcDbEntity
  8
0
100
AcDbCircle
 62
7
  6
BYLAYER
 10
21.1219898122
 20
57.0950017849
 40
2.7978218647
100
AcDbArc
 50
217.7883266558
 51
223.0230244927
  0
ARC
  5
256
100
AcDbEntity
  8
0
100
AcDbCircle
 62
7
  6
BYLAYER
 10
26.2397275254
 20
57.0204934983
 40
2.6771696236
100
AcDbArc
 50
322.2272196349
 51
326.0577799661
  0
ARC
  5
257
100
AcDbEntity
  8
0
100
AcDbCircle
 62
7
  6
BYLAYER
 10
21.0003379706
 20
57.0011755595
 40
2.6442095231
100
AcDbArc
 50
213.9183996682
 51
217.7966653408
  0
SPLINE
  5
258
100
AcDbEntity
  8
0
100
AcDbSpline
 62
7
  6
BYLAYER
 70
0
 71
3
 72
19
 73
15
 74
0
 42
0.0000001
 43
0.0000001
 44
0.0000000001
 40
0.0
 40
0.0
 40
0.0
 40
0.0
 40
0.1455516772
 40
0.292133183
 40
0.4354365343
 40
0.5714303593
 40
0.6356723628
 40
0.696944619
 40
0.7550393828
 40
0.8098590342
 40
0.8614562821
 40
0.9100420467
 40
0.9560239162
 40
1.0
 40
1.0
 40
1.0
 40
1.0
 10
24.9275214195
 20
60.8142264689
 30
0.0
 10
24.5828813989
 20
60.8675429915
 30
0.0
 10
23.8836218458
 20
60.9301678233
 30
0.0
 10
22.838402299
 20
60.8972626464
 30
0.0
 10
21.8274886951
 20
60.740386115
 30
0.0
 10
21.03482137
 20
60.5074391553
 30
0.0
 10
20.4575030415
 20
60.2624087699
 30
0.0
 10
20.0677494963
 20
60.0571599898
 30
0.0
 10
19.7173097791
 20
59.8293068489
 30
0.0
 10
19.4100959161
 20
59.581105073
 30
0.0
 10
19.1494361701
 20
59.3152527007
 30
0.0
 10
18.9384617129
 20
59.0342831816
 30
0.0
 10
18.7796743253
 20
58.741333267
 30
0.0
 10
18.7089876956
 20
58.5363947573
 30
0.0
 10
18.6836738739
 20
58.4341146619
 30
0.0
  0
SPLINE
  5
259
100
AcDbEntity
  8
0
100
AcDbSpline
 62
7
  6
BYLAYER
 70
0
 71
3
 72
16
 73
12
 74
0
 42
0.0000001
 43
0.0000001
 44
0.0000000001
 40
0.0
 40
0.0
 40
0.0
 40
0.0
 40
0.1493074339
 40
0.2996629028
 40
0.4453634946
 40
0.5819393069
 40
0.7058280726
 40
0.815316494
 40
0.9115639205
 40
0.9563412983
 40
1.0
 40
1.0
 40
1.0
 40
1.0
 10
27.2660193002
 20
57.8225346433
 30
0.0
 10
27.2212037216
 20
57.8294677058
 30
0.0
 10
27.1301856215
 20
57.8370811501
 30
0.0
 10
26.994695855
 20
57.830843909
 30
0.0
 10
26.8649979393
 20
57.8072089407
 30
0.0
 10
26.7476875766
 20
57.767440356
 30
0.0
 10
26.6484144152
 20
57.7133608057
 30
0.0
 10
26.5719458634
 20
57.6472851882
 30
0.0
 10
26.5298986459
 20
57.5820739246
 30
0.0
 10
26.5134381931
 20
57.5281315927
 30
0.0
 10
26.5107403713
 20
57.5011939862
 30
0.0
 10
26.5107473089
 20
57.4879336649
 30
0.0
  0
SPLINE
  5
25A
100
AcDbEntity
  8
0
100
AcDbSpline
 62
7
  6
BYLAYER
 70
0
 71
3
 72
18
 73
14
 74
0
 42
0.0000001
 43
0.0000001
 44
0.0000000001
 40
0.0
 40
0.0
 40
0.0
 40
0.0
 40
0.1569310967
 40
0.306860301
 40
0.4475568725
 40
0.5776384493
 40
0.6385168995
 40
0.696616433
 40
0.8048807931
 40
0.8557276652
 40
0.9048460129
 40
0.9527449827
 40
1.0
 40
1.0
 40
1.0
 40
1.0
 10
22.5659805274
 20
55.7260087015
 30
0.0
 10
22.3530356281
 20
55.7589517169
 30
0.0
 10
21.9394172445
 20
55.8435542282
 30
0.0
 10
21.3524417429
 20
56.0296197656
 30
0.0
 10
20.8247381414
 20
56.2681380542
 30
0.0
 10
20.4372184748
 20
56.5108201259
 30
0.0
 10
20.1716415889
 20
56.7269536216
 30
0.0
 10
19.9477885091
 20
56.9446614141
 30
0.0
 10
19.7641397828
 20
57.1831358695
 30
0.0
 10
19.6324114045
 20
57.4376040892
 30
0.0
 10
19.5624208013
 20
57.6288269214
 30
0.0
 10
19.5196960256
 20
57.8228650894
 30
0.0
 10
19.5096878949
 20
57.9536533163
 30
0.0
 10
19.5093495657
 20
58.0185370699
 30
0.0
  0
SPLINE
  5
25B
100
AcDbEntity
  8
0
100
AcDbSpline
 62
7
  6
BYLAYER
 70
0
 71
3
 72
15
 73
11
 74
0
 42
0.0000001
 43
0.0000001
 44
0.0000000001
 40
0.0
 40
0.0
 40
0.0
 40
0.0
 40
0.0973161559
 40
0.2050209879
 40
0.3229266577
 40
0.4498040516
 40
0.5836223806
 40
0.7218277494
 40
0.8616179411
 40
1.0
 40
1.0
 40
1.0
 40
1.0
 10
27.4192742418
 20
57.0815745029
 30
0.0
 10
27.3172803351
 20
56.9452753659
 30
0.0
 10
27.0667149995
 20
56.6841687816
 30
0.0
 10
26.6037357892
 20
56.3562012456
 30
0.0
 10
26.0495546653
 20
56.0809707789
 30
0.0
 10
25.4212213326
 20
55.8664442568
 30
0.0
 10
24.737720265
 20
55.7189398224
 30
0.0
 10
24.020030514
 20
55.6428554154
 30
0.0
 10
23.2904672611
 20
55.6406457801
 30
0.0
 10
22.8052073692
 20
55.6889998153
 30
0.0
 10
22.5659805274
 20
55.7260087015
 30
0.0
  0
SPLINE
  5
25C
100
AcDbEntity
  8
0
100
AcDbSpline
 62
7
  6
BYLAYER
 70
0
 71
3
 72
9
 73
5
 74
0
 42
0.0000001
 43
0.0000001
 44
0.0000000001
 40
0.0
 40
0.0
 40
0.0
 40
0.0
 40
0.4908813271
 40
1.0
 40
1.0
 40
1.0
 40
1.0
 10
24.1333686456
 20
56.1301095529
 30
0.0
 10
24.1333785647
 20
56.1435654126
 30
0.0
 10
24.1300129509
 20
56.1710768177
 30
0.0
 10
24.1203040026
 20
56.1969818695
 30
0.0
 10
24.1141108197
 20
56.2094881979
 30
0.0
  0
SPLINE
  5
25D
100
AcDbEntity
  8
0
100
AcDbSpline
 62
7
  6
BYLAYER
 70
0
 71
3
 72
15
 73
11
 74
0
 42
0.0000001
 43
0.0000001
 44
0.0000000001
 40
0.0
 40
0.0
 40
0.0
 40
0.0
 40
0.1485550599
 40
0.2895093594
 40
0.4227331837
 40
0.5486412735
 40
0.668002213
 40
0.7819400143
 40
0.8919875374
 40
1.0
 40
1.0
 40
1.0
 40
1.0
 10
17.2694624907
 20
45.5338259061
 30
0.0
 10
17.0665201022
 20
45.650992098
 30
0.0
 10
16.6802189955
 20
45.8958884396
 30
0.0
 10
16.1520154913
 20
46.3046304938
 30
0.0
 10
15.6951655025
 20
46.7419372457
 30
0.0
 10
15.3142503758
 20
47.2036759095
 30
0.0
 10
15.0130671503
 20
47.6857596718
 30
0.0
 10
14.7950836459
 20
48.1838893478
 30
0.0
 10
14.6629777158
 20
48.6929683597
 30
0.0
 10
14.6334275752
 20
49.0376404043
 30
0.0
 10
14.6334276609
 20
49.2080233406
 30
0.0
  0
SPLINE
  5
25E
100
AcDbEntity
  8
0
100
AcDbSpline
 62
7
  6
BYLAYER
 70
0
 71
3
 72
10
 73
6
 74
0
 42
0.0000001
 43
0.0000001
 44
0.0000000001
 40
0.0
 40
0.0
 40
0.0
 40
0.0
 40
0.2403293928
 40
0.486252238
 40
1.0
 40
1.0
 40
1.0
 40
1.0
 10
36.5185949896
 20
25.2367963659
 30
0.0
 10
36.4812583022
 20
25.3979200942
 30
0.0
 10
36.3878493045
 20
25.7200699566
 30
0.0
 10
36.1285085994
 20
26.3584536025
 30
0.0
 10
35.8594890913
 20
26.8114215382
 30
0.0
 10
35.6541916979
 20
27.0992689606
 30
0.0
  0
SPLINE
  5
25F
100
AcDbEntity
  8
0
100
AcDbSpline
 62
7
  6
BYLAYER
 70
0
 71
3
 72
9
 73
5
 74
0
 42
0.0000001
 43
0.0000001
 44
0.0000000001
 40
0.0
 40
0.0
 40
0.0
 40
0.0
 40
0.5056172058
 40
1.0
 40
1.0
 40
1.0
 40
1.0
 10
21.9096500816
 20
13.0818736605
 30
0.0
 10
21.3607013943
 20
13.1242718045
 30
0.0
 10
20.2777147784
 20
13.2485946444
 30
0.0
 10
19.2074533809
 20
13.4564044675
 30
0.0
 10
18.6836996048
 20
13.5809144907
 30
0.0
  0
SPLINE
  5
260
100
AcDbEntity
  8
0
100
AcDbSpline
 62
7
  6
BYLAYER
 70
0
 71
3
 72
13
 73
9
 74
0
 42
0.0000001
 43
0.0000001
 44
0.0000000001
 40
0.0
 40
0.0
 40
0.0
 40
0.0
 40
0.2548385715
 40
0.3814544684
 40
0.5072724421
 40
0.6321182786
 40
0.755881012
 40
1.0
 40
1.0
 40
1.0
 40
1.0
 10
31.5688975688
 20
14.5761679699
 30
0.0
 10
30.7788902028
 20
14.3056632937
 30
0.0
 10
29.5810619835
 20
13.9423071982
 30
0.0
 10
27.9611037645
 20
13.5677845005
 30
0.0
 10
26.7440386311
 20
13.3478915204
 30
0.0
 10
25.5266598787
 20
13.1910570561
 30
0.0
 10
23.916589813
 20
13.0645976378
 30
0.0
 10
22.709125194
 20
13.0554861979
 30
0.0
 10
21.9096500816
 20
13.0818736605
 30
0.0
  0
SPLINE
  5
261
100
AcDbEntity
  8
0
100
AcDbSpline
 62
7
  6
BYLAYER
 70
0
 71
3
 72
9
 73
5
 74
0
 42
0.0000001
 43
0.0000001
 44
0.0000000001
 40
0.0
 40
0.0
 40
0.0
 40
0.0
 40
0.4839262544
 40
1.0
 40
1.0
 40
1.0
 40
1.0
 10
33.9304447539
 20
15.9395997344
 30
0.0
 10
33.5778589675
 20
15.6754555475
 30
0.0
 10
32.8128881765
 20
15.1772839424
 30
0.0
 10
31.9981475649
 20
14.7671567482
 30
0.0
 10
31.5688975688
 20
14.5761679699
 30
0.0
  0
SPLINE
  5
262
100
AcDbEntity
  8
0
100
AcDbSpline
 62
7
  6
BYLAYER
 70
0
 71
3
 72
13
 73
9
 74
0
 42
0.0000001
 43
0.0000001
 44
0.0000000001
 40
0.0
 40
0.0
 40
0.0
 40
0.0
 40
0.1533231203
 40
0.2999587857
 40
0.4388541179
 40
0.5691189059
 40
0.8020114057
 40
1.0
 40
1.0
 40
1.0
 40
1.0
 10
36.5185949896
 20
21.516301589
 30
0.0
 10
36.4144524453
 20
21.2189488642
 30
0.0
 10
36.2061249911
 20
20.6387984495
 30
0.0
 10
35.8847522048
 20
19.7961398516
 30
0.0
 10
35.5612853541
 20
19.0051997335
 30
0.0
 10
35.1433808795
 20
18.0618494161
 30
0.0
 10
34.6248738707
 20
17.0306954135
 30
0.0
 10
34.1609752953
 20
16.27482892
 30
0.0
 10
33.9304447539
 20
15.9395997344
 30
0.0
  0
SPLINE
  5
263
100
AcDbEntity
  8
0
100
AcDbSpline
 62
7
  6
BYLAYER
 70
0
 71
3
 72
10
 73
6
 74
0
 42
0.0000001
 43
0.0000001
 44
0.0000000001
 40
0.0
 40
0.0
 40
0.0
 40
0.0
 40
0.513747762
 40
0.7596706072
 40
1.0
 40
1.0
 40
1.0
 40
1.0
 10
11.6126023533
 20
17.6633220359
 30
0.0
 10
11.4073049599
 20
17.9511694583
 30
0.0
 10
11.1382854518
 20
18.404137394
 30
0.0
 10
10.8789447467
 20
19.0425210398
 30
0.0
 10
10.785535749
 20
19.3646709022
 30
0.0
 10
10.7481990616
 20
19.5257946305
 30
0.0
  0
SPLINE
  5
264
100
AcDbEntity
  8
0
100
AcDbSpline
 62
7
  6
BYLAYER
 70
0
 71
3
 72
19
 73
15
 74
0
 42
0.0000001
 43
0.0000001
 44
0.0000000001
 40
0.0
 40
0.0
 40
0.0
 40
0.0
 40
0.0558506514
 40
0.1142023873
 40
0.1748194089
 40
0.2374019957
 40
0.3670108101
 40
0.4999942072
 40
0.6329762468
 40
0.762588227
 40
0.8251662134
 40
0.8857934858
 40
0.944175235
 40
1.0
 40
1.0
 40
1.0
 40
1.0
 10
27.5780692068
 20
6.0239248815
 30
0.0
 10
27.4459110046
 20
5.9476211399
 30
0.0
 10
27.1687895394
 20
5.803298323
 30
0.0
 10
26.7290423536
 20
5.6157455726
 30
0.0
 10
26.259663368
 20
5.4539778105
 30
0.0
 10
25.5927362225
 20
5.2725032994
 30
0.0
 10
24.7148881033
 20
5.1208669559
 30
0.0
 10
23.6335040039
 20
5.0601452089
 30
0.0
 10
22.5521082676
 20
5.1208385338
 30
0.0
 10
21.6742679866
 20
5.2724661047
 30
0.0
 10
21.0073043649
 20
5.4538976152
 30
0.0
 10
20.5378324352
 20
5.6156997141
 30
0.0
 10
20.0980635938
 20
5.8032993496
 30
0.0
 10
19.820916903
 20
5.9475967242
 30
0.0
 10
19.6888182697
 20
6.0238621804
 30
0.0
  0
SPLINE
  5
265
100
AcDbEntity
  8
0
100
AcDbSpline
 62
7
  6
BYLAYER
 70
0
 71
3
 72
15
 73
11
 74
0
 42
0.0000001
 43
0.0000001
 44
0.0000000001
 40
0.0
 40
0.0
 40
0.0
 40
0.0
 40
0.1080411678
 40
0.2181186884
 40
0.3320857005
 40
0.4514755652
 40
0.5136078431
 40
0.5774876105
 40
0.7107468304
 40
1.0
 40
1.0
 40
1.0
 40
1.0
 10
30.211884736
 20
9.1177546102
 30
0.0
 10
30.2118736726
 20
8.9932181918
 30
0.0
 10
30.1902681067
 20
8.741292593
 30
0.0
 10
30.0937165985
 20
8.3691896012
 30
0.0
 10
29.934415965
 20
8.0051116248
 30
0.0
 10
29.7533284393
 20
7.7152671847
 30
0.0
 10
29.5807798304
 20
7.490941448
 30
0.0
 10
29.3840895308
 20
7.2656778961
 30
0.0
 10
28.9782582598
 20
6.8773101495
 30
0.0
 10
28.5739283445
 20
6.5989085572
 30
0.0
 10
28.2851844813
 20
6.4321974514
 30
0.0
  0
SPLINE
  5
266
100
AcDbEntity
  8
0
100
AcDbSpline
 62
7
  6
BYLAYER
 70
0
 71
3
 72
15
 73
11
 74
0
 42
0.0000001
 43
0.0000001
 44
0.0000000001
 40
0.0
 40
0.0
 40
0.0
 40
0.0
 40
0.1485424806
 40
0.289507063
 40
0.4227371856
 40
0.5486421081
 40
0.6679989207
 40
0.7819403199
 40
0.8919888333
 40
1.0
 40
1.0
 40
1.0
 40
1.0
 10
18.9817144325
 20
6.4321204436
 30
0.0
 10
18.8333873972
 20
6.51775516
 30
0.0
 10
18.5510322974
 20
6.6967696492
 30
0.0
 10
18.1649279901
 20
6.9955237951
 30
0.0
 10
17.8309931975
 20
7.3151887235
 30
0.0
 10
17.5525457559
 20
7.6526791649
 30
0.0
 10
17.3324404188
 20
8.0050744137
 30
0.0
 10
17.1730565951
 20
8.3691601333
 30
0.0
 10
17.0765465866
 20
8.7412845039
 30
0.0
 10
17.0548982516
 20
8.9932156561
 30
0.0
 10
17.0549093152
 20
9.1177546095
 30
0.0
  0
SPLINE
  5
267
100
AcDbEntity
  8
0
100
AcDbSpline
 62
7
  6
BYLAYER
 70
0
 71
3
 72
9
 73
5
 74
0
 42
0.0000001
 43
0.0000001
 44
0.0000000001
 40
0.0
 40
0.0
 40
0.0
 40
0.0
 40
0.5163605516
 40
1.0
 40
1.0
 40
1.0
 40
1.0
 10
10.7481990616
 20
23.2462894075
 30
0.0
 10
10.8899543607
 20
23.6510358512
 30
0.0
 10
11.1732808526
 20
24.4318382759
 30
0.0
 10
11.4786488113
 20
25.2043785285
 30
0.0
 10
11.6333954092
 20
25.5750501428
 30
0.0
  0
SPLINE
  5
268
100
AcDbEntity
  8
0
100
AcDbSpline
 62
7
  6
BYLAYER
 70
0
 71
3
 72
9
 73
5
 74
0
 42
0.0000001
 43
0.0000001
 44
0.0000000001
 40
0.0
 40
0.0
 40
0.0
 40
0.0
 40
0.5119901292
 40
1.0
 40
1.0
 40
1.0
 40
1.0
 10
11.6126023533
 20
17.6633220359
 30
0.0
 10
12.1816715699
 20
17.1888615835
 30
0.0
 10
13.3230000874
 20
16.2970279089
 30
0.0
 10
14.5365509639
 20
15.5038098807
 30
0.0
 10
15.148150979
 20
15.1507104355
 30
0.0
  0
SPLINE
  5
269
100
AcDbEntity
  8
0
100
AcDbSpline
 62
7
  6
BYLAYER
 70
0
 71
3
 72
17
 73
13
 74
0
 42
0.0000001
 43
0.0000001
 44
0.0000000001
 40
0.0
 40
0.0
 40
0.0
 40
0.0
 40
0.1330805538
 40
0.1983343656
 40
0.2627484651
 40
0.389311725
 40
0.5135512492
 40
0.6361620876
 40
0.6971079451
 40
0.7579037408
 40
0.8790066884
 40
1.0
 40
1.0
 40
1.0
 40
1.0
 10
31.6008622703
 20
53.2101624641
 30
0.0
 10
31.8933036767
 20
53.041325159
 30
0.0
 10
32.3184300214
 20
52.7701708349
 30
0.0
 10
32.8524878881
 20
52.3706919922
 30
0.0
 10
33.3524144059
 20
51.9546298701
 30
0.0
 10
33.9247780515
 20
51.3932280465
 30
0.0
 10
34.5178759356
 20
50.6512066774
 30
0.0
 10
34.9216394162
 20
49.9794301245
 30
0.0
 10
35.181819302
 20
49.416077151
 30
0.0
 10
35.3976916155
 20
48.8383888858
 30
0.0
 10
35.5832419407
 20
48.0891900238
 30
0.0
 10
35.6333970256
 20
47.4737772611
 30
0.0
 10
35.6333970256
 20
47.1667672481
 30
0.0
  0
SPLINE
  5
26A
100
AcDbEntity
  8
0
100
AcDbSpline
 62
7
  6
BYLAYER
 70
0
 71
3
 72
26
 73
22
 74
0
 42
0.0000001
 43
0.0000001
 44
0.0000000001
 40
0.0
 40
0.0
 40
0.0
 40
0.0
 40
0.0213308447
 40
0.0428901373
 40
0.0648941885
 40
0.0875374345
 40
0.1109858382
 40
0.1353708123
 40
0.1872686128
 40
0.2437027276
 40
0.3046464467
 40
0.3697295076
 40
0.4383219092
 40
0.5096036325
 40
0.5826235518
 40
0.6563511724
 40
0.7297226278
 40
0.8016954809
 40
0.8712810945
 40
0.9376239867
 40
1.0
 40
1.0
 40
1.0
 40
1.0
 10
32.6333663903
 20
49.2080232413
 30
0.0
 10
32.6333663261
 20
49.0803468149
 30
0.0
 10
32.6169248576
 20
48.8233279834
 30
0.0
 10
32.5430411065
 20
48.4410122738
 30
0.0
 10
32.4205689275
 20
48.0631207074
 30
0.0
 10
32.2502652729
 20
47.6918666619
 30
0.0
 10
32.0331810427
 20
47.3292467974
 30
0.0
 10
31.6758831772
 20
46.8499629436
 30
0.0
 10
31.112300014
 20
46.2839110652
 30
0.0
 10
30.2915285998
 20
45.6842540075
 30
0.0
 10
29.3296625966
 20
45.1610817494
 30
0.0
 10
28.2470571592
 20
44.7249483701
 30
0.0
 10
27.0663886525
 20
44.3846715399
 30
0.0
 10
25.8126291529
 20
44.1473733188
 30
0.0
 10
24.5124037474
 20
44.0180664077
 30
0.0
 10
23.1934342894
 20
43.9995149737
 30
0.0
 10
21.8838407382
 20
44.0920799314
 30
0.0
 10
20.6115963695
 20
44.2938379215
 30
0.0
 10
19.4035898497
 20
44.6004502821
 30
0.0
 10
18.2857790912
 20
45.0055067036
 30
0.0
 10
17.5927979734
 20
45.3471523012
 30
0.0
 10
17.2694624907
 20
45.5338259061
 30
0.0
  0
SPLINE
  5
26B
100
AcDbEntity
  8
0
100
AcDbSpline
 62
7
  6
BYLAYER
 70
0
 71
3
 72
13
 73
9
 74
0
 42
0.0000001
 43
0.0000001
 44
0.0000000001
 40
0.0
 40
0.0
 40
0.0
 40
0.0
 40
0.1230668146
 40
0.2582171425
 40
0.5398920221
 40
0.6751981817
 40
0.7990741825
 40
1.0
 40
1.0
 40
1.0
 40
1.0
 10
23.7394521927
 20
56.926198347
 30
0.0
 10
23.7297401994
 20
56.9318054421
 30
0.0
 10
23.7079395305
 20
56.9411597319
 30
0.0
 10
23.659919686
 20
56.9525159193
 30
0.0
 10
23.6087131973
 20
56.9526605667
 30
0.0
 10
23.560386403
 20
56.9416753714
 30
0.0
 10
23.5218220217
 20
56.9255714648
 30
0.0
 10
23.4973335796
 20
56.9051710547
 30
0.0
 10
23.489192279
 20
56.8887714476
 30
0.0
  0
SPLINE
  5
26C
100
AcDbEntity
  8
0
100
AcDbSpline
 62
7
  6
BYLAYER
 70
0
 71
3
 72
12
 73
8
 74
0
 42
0.0000001
 43
0.0000001
 44
0.0000000001
 40
0.0
 40
0.0
 40
0.0
 40
0.0
 40
0.1158951907
 40
0.2327715247
 40
0.4728378674
 40
0.7270440076
 40
1.0
 40
1.0
 40
1.0
 40
1.0
 10
29.6333784287
 20
54.941667539
 30
0.0
 10
29.6333722174
 20
55.0173081263
 30
0.0
 10
29.624707809
 20
55.1693781407
 30
0.0
 10
29.5725914211
 20
55.4740902927
 30
0.0
 10
29.43971987
 20
55.8537178349
 30
0.0
 10
29.1817461488
 20
56.2861035798
 30
0.0
 10
28.9555367376
 20
56.5477046468
 30
0.0
 10
28.8295675667
 20
56.6736754676
 30
0.0
  0
SPLINE
  5
26D
100
AcDbEntity
  8
0
100
AcDbSpline
 62
7
  6
BYLAYER
 70
0
 71
3
 72
15
 73
11
 74
0
 42
0.0000001
 43
0.0000001
 44
0.0000000001
 40
0.0
 40
0.0
 40
0.0
 40
0.0
 40
0.0957375343
 40
0.198185052
 40
0.3093499404
 40
0.4301663602
 40
0.5606418188
 40
0.7000164794
 40
0.8470807677
 40
1.0
 40
1.0
 40
1.0
 40
1.0
 10
28.5831369448
 20
58.4341160568
 30
0.0
 10
28.5479443451
 20
58.5763141205
 30
0.0
 10
28.437766679
 20
58.8623315533
 30
0.0
 10
28.173934361
 20
59.2589520788
 30
0.0
 10
27.8149301276
 20
59.6271311213
 30
0.0
 10
27.368943099
 20
59.9599759305
 30
0.0
 10
26.8453181705
 20
60.2514378691
 30
0.0
 10
26.254777768
 20
60.4959989084
 30
0.0
 10
25.6096184645
 20
60.6885691422
 30
0.0
 10
25.1587528998
 20
60.7784544817
 30
0.0
 10
24.9275214195
 20
60.8142264689
 30
0.0
  0
SPLINE
  5
26E
100
AcDbEntity
  8
0
100
AcDbSpline
 62
7
  6
BYLAYER
 70
0
 71
3
 72
11
 73
7
 74
0
 42
0.0000001
 43
0.0000001
 44
0.0000000001
 40
0.0
 40
0.0
 40
0.0
 40
0.0
 40
0.2599760956
 40
0.51155466
 40
0.7572106942
 40
1.0
 40
1.0
 40
1.0
 40
1.0
 10
28.4607103079
 20
55.5256782345
 30
0.0
 10
28.5202462405
 20
55.6142559741
 30
0.0
 10
28.6266683992
 20
55.7961433023
 30
0.0
 10
28.7450582015
 20
56.0847306103
 30
0.0
 10
28.8172030301
 20
56.3810370974
 30
0.0
 10
28.8333970256
 20
56.5819143939
 30
0.0
 10
28.8333970256
 20
56.6815852881
 30
0.0
  0
SPLINE
  5
26F
100
AcDbEntity
  8
0
100
AcDbSpline
 62
7
  6
BYLAYER
 70
0
 71
3
 72
11
 73
7
 74
0
 42
0.0000001
 43
0.0000001
 44
0.0000000001
 40
0.0
 40
0.0
 40
0.0
 40
0.0
 40
0.2427892145
 40
0.488445105
 40
0.7400238093
 40
1.0
 40
1.0
 40
1.0
 40
1.0
 10
18.4333970256
 20
56.6815852881
 30
0.0
 10
18.4333970256
 20
56.5819142049
 30
0.0
 10
18.4495909926
 20
56.3810365342
 30
0.0
 10
18.5217362744
 20
56.0847294798
 30
0.0
 10
18.6401264614
 20
55.7961415261
 30
0.0
 10
18.7465491132
 20
55.6142538098
 30
0.0
 10
18.8060853032
 20
55.5256759039
 30
0.0
  0
SPLINE
  5
270
100
AcDbEntity
  8
0
100
AcDbSpline
 62
7
  6
BYLAYER
 70
0
 71
3
 72
14
 73
10
 74
0
 42
0.0000001
 43
0.0000001
 44
0.0000000001
 40
0.0
 40
0.0
 40
0.0
 40
0.0
 40
0.0950257657
 40
0.1948331228
 40
0.3031475965
 40
0.4220243171
 40
0.5521792493
 40
0.6931579255
 40
1.0
 40
1.0
 40
1.0
 40
1.0
 10
26.5107473089
 20
57.4879336649
 30
0.0
 10
26.5107572478
 20
57.4689365704
 30
0.0
 10
26.5164455094
 20
57.4297883299
 30
0.0
 10
26.5413450757
 20
57.3738426308
 30
0.0
 10
26.5814395196
 20
57.3215710832
 30
0.0
 10
26.6353041265
 20
57.2740915145
 30
0.0
 10
26.7015806943
 20
57.2324685349
 30
0.0
 10
26.8070737607
 20
57.1847256643
 30
0.0
 10
26.8948081712
 20
57.1627104865
 30
0.0
 10
26.9554294456
 20
57.1533322503
 30
0.0
  0
SPLINE
  5
271
100
AcDbEntity
  8
0
100
AcDbSpline
 62
7
  6
BYLAYER
 70
0
 71
3
 72
13
 73
9
 74
0
 42
0.0000001
 43
0.0000001
 44
0.0000000001
 40
0.0
 40
0.0
 40
0.0
 40
0.0
 40
0.2784950231
 40
0.4121387121
 40
0.5410178684
 40
0.6646096234
 40
0.7824939443
 40
1.0
 40
1.0
 40
1.0
 40
1.0
 10
22.2875076559
 20
53.7817082516
 30
0.0
 10
21.9658984746
 20
53.8314618558
 30
0.0
 10
21.4933692572
 20
53.9326735815
 30
0.0
 10
20.8908279579
 20
54.1252623087
 30
0.0
 10
20.4712462888
 20
54.2922224687
 30
0.0
 10
20.0818056786
 20
54.4821995945
 30
0.0
 10
19.6203714514
 20
54.7560512942
 30
0.0
 10
19.3097708015
 20
55.0007878183
 30
0.0
 10
19.1300492234
 20
55.1805117504
 30
0.0
  0
SPLINE
  5
272
100
AcDbEntity
  8
0
100
AcDbSpline
 62
7
  6
BYLAYER
 70
0
 71
3
 72
9
 73
5
 74
0
 42
0.0000001
 43
0.0000001
 44
0.0000000001
 40
0.0
 40
0.0
 40
0.0
 40
0.0
 40
0.2542164181
 40
1.0
 40
1.0
 40
1.0
 40
1.0
 10
19.1089140793
 20
55.2018489997
 30
0.0
 10
19.0924795965
 20
55.2185998061
 30
0.0
 10
19.0285752692
 20
55.2852151292
 30
0.0
 10
18.967705585
 20
55.3547552194
 30
0.0
 10
18.9243354553
 20
55.408219091
 30
0.0
  0
SPLINE
  5
273
100
AcDbEntity
  8
0
100
AcDbSpline
 62
7
  6
BYLAYER
 70
0
 71
3
 72
11
 73
7
 74
0
 42
0.0000001
 43
0.0000001
 44
0.0000000001
 40
0.0
 40
0.0
 40
0.0
 40
0.0
 40
0.2673593935
 40
0.5203793209
 40
0.7629556131
 40
1.0
 40
1.0
 40
1.0
 40
1.0
 10
18.9243354553
 20
55.408219091
 30
0.0
 10
18.8462757162
 20
55.5044460543
 30
0.0
 10
18.7066783862
 20
55.70236043
 30
0.0
 10
18.5500557888
 20
56.0211431176
 30
0.0
 10
18.4547712203
 20
56.3488964225
 30
0.0
 10
18.433422164
 20
56.5717276742
 30
0.0
 10
18.4334131429
 20
56.6815852886
 30
0.0
  0
SPLINE
  5
274
100
AcDbEntity
  8
0
100
AcDbSpline
 62
7
  6
BYLAYER
 70
0
 71
3
 72
9
 73
5
 74
0
 42
0.0000001
 43
0.0000001
 44
0.0000000001
 40
0.0
 40
0.0
 40
0.0
 40
0.0
 40
0.2438715442
 40
1.0
 40
1.0
 40
1.0
 40
1.0
 10
28.2851844813
 20
6.4321974514
 30
0.0
 10
28.2299009235
 20
6.4002785633
 30
0.0
 10
28.0011996624
 20
6.2728919352
 30
0.0
 10
27.7649076639
 20
6.1592593401
 30
0.0
 10
27.5833069835
 20
6.0805452697
 30
0.0
  0
SPLINE
  5
275
100
AcDbEntity
  8
0
100
AcDbSpline
 62
7
  6
BYLAYER
 70
0
 71
3
 72
16
 73
12
 74
0
 42
0.0000001
 43
0.0000001
 44
0.0000000001
 40
0.0
 40
0.0
 40
0.0
 40
0.0
 40
0.138038225
 40
0.2774880253
 40
0.4154311664
 40
0.5491068131
 40
0.6760000665
 40
0.794103426
 40
0.8494705941
 40
0.902242426
 40
1.0
 40
1.0
 40
1.0
 40
1.0
 10
22.3392726317
 20
53.566641017
 30
0.0
 10
22.626703951
 20
53.5221747986
 30
0.0
 10
23.2097080969
 20
53.4637891944
 30
0.0
 10
24.0864438866
 20
53.4652596993
 30
0.0
 10
24.9495066347
 20
53.5547298095
 30
0.0
 10
25.772556231
 20
53.729426524
 30
0.0
 10
26.5306545694
 20
53.9841405459
 30
0.0
 10
27.101499271
 20
54.2627581233
 30
0.0
 10
27.5029164029
 20
54.5209223266
 30
0.0
 10
27.8468310662
 20
54.7857461158
 30
0.0
 10
28.0716429303
 20
55.0136663315
 30
0.0
 10
28.1977644222
 20
55.1765169019
 30
0.0
  0
SPLINE
  5
276
100
AcDbEntity
  8
0
100
AcDbSpline
 62
7
  6
BYLAYER
 70
0
 71
3
 72
18
 73
14
 74
0
 42
0.0000001
 43
0.0000001
 44
0.0000000001
 40
0.0
 40
0.0
 40
0.0
 40
0.0
 40
0.1570197723
 40
0.3069848921
 40
0.447703089
 40
0.5777617341
 40
0.6965706823
 40
0.7519727673
 40
0.8049252134
 40
0.8557398484
 40
0.9048389879
 40
0.9527307339
 40
1.0
 40
1.0
 40
1.0
 40
1.0
 10
22.3392726317
 20
52.6247321255
 30
0.0
 10
22.0804852622
 20
52.6647670656
 30
0.0
 10
21.5778973974
 20
52.7676120974
 30
0.0
 10
20.864850941
 20
52.993953338
 30
0.0
 10
20.2239219982
 20
53.284199587
 30
0.0
 10
19.6718406507
 20
53.6308889278
 30
0.0
 10
19.2886975649
 20
53.968223856
 30
0.0
 10
19.0445289619
 20
54.2586927368
 30
0.0
 10
18.8961615155
 20
54.4794963379
 30
0.0
 10
18.779553121
 20
54.7069135223
 30
0.0
 10
18.6954742842
 20
54.9393928681
 30
0.0
 10
18.6447428718
 20
55.1753171764
 30
0.0
 10
18.6334189964
 20
55.3342432926
 30
0.0
 10
18.633412523
 20
55.4130754302
 30
0.0
  0
SPLINE
  5
277
100
AcDbEntity
  8
0
100
AcDbSpline
 62
7
  6
BYLAYER
 70
0
 71
3
 72
21
 73
17
 74
0
 42
0.0000001
 43
0.0000001
 44
0.0000000001
 40
0.0
 40
0.0
 40
0.0
 40
0.0
 40
0.0742417694
 40
0.1493851881
 40
0.2994189058
 40
0.4450332287
 40
0.5147273033
 40
0.5816307825
 40
0.645338796
 40
0.7055619902
 40
0.762155393
 40
0.8151590395
 40
0.8648212568
 40
0.9116431239
 40
0.9563770363
 40
1.0
 40
1.0
 40
1.0
 40
1.0
 10
22.0804477529
 20
51.5956555743
 30
0.0
 10
22.3034896036
 20
51.5611505396
 30
0.0
 10
22.7548606189
 20
51.5073803958
 30
0.0
 10
23.6643921056
 20
51.4601307786
 30
0.0
 10
24.7938067794
 20
51.5127693593
 30
0.0
 10
25.8903938591
 20
51.7123782355
 30
0.0
 10
26.7126564752
 20
51.9598053494
 30
0.0
 10
27.280539384
 20
52.1815791958
 30
0.0
 10
27.8011991645
 20
52.4392864907
 30
0.0
 10
28.2679610758
 20
52.7297576856
 30
0.0
 10
28.6747785543
 20
53.0494730493
 30
0.0
 10
29.0164293727
 20
53.3945218002
 30
0.0
 10
29.2881284628
 20
53.760960589
 30
0.0
 10
29.4859496338
 20
54.1443735787
 30
0.0
 10
29.6063028744
 20
54.5397259995
 30
0.0
 10
29.6333893184
 20
54.8090536761
 30
0.0
 10
29.6333784287
 20
54.941667539
 30
0.0
  0
SPLINE
  5
278
100
AcDbEntity
  8
0
100
AcDbSpline
 62
7
  6
BYLAYER
 70
0
 71
3
 72
24
 73
20
 74
0
 42
0.0000001
 43
0.0000001
 44
0.0000000001
 40
0.0
 40
0.0
 40
0.0
 40
0.0
 40
0.0596555328
 40
0.1227405344
 40
0.1887097876
 40
0.2569794996
 40
0.3268431648
 40
0.3975423326
 40
0.4682940184
 40
0.5383099663
 40
0.606828616
 40
0.6731413812
 40
0.7366200915
 40
0.7671417279
 40
0.7967742688
 40
0.8532065125
 40
0.9057764379
 40
0.9545753342
 40
1.0
 40
1.0
 40
1.0
 40
1.0
 10
18.9817144325
 20
12.4792967655
 30
0.0
 10
19.1886920818
 20
12.3598008673
 30
0.0
 10
19.628956437
 20
12.1383572132
 30
0.0
 10
20.335473165
 20
11.8664210979
 30
0.0
 10
21.0966093845
 20
11.6492102707
 30
0.0
 10
21.899580263
 20
11.4902428038
 30
0.0
 10
22.7312697256
 20
11.3921296783
 30
0.0
 10
23.5778880029
 20
11.3564773715
 30
0.0
 10
24.4254244642
 20
11.3838845742
 30
0.0
 10
25.2598452225
 20
11.4739233737
 30
0.0
 10
26.0673674217
 20
11.6250704448
 30
0.0
 10
26.8346130717
 20
11.8348213468
 30
0.0
 10
27.4377264487
 20
12.0585598148
 30
0.0
 10
27.8882792414
 20
12.2647862434
 30
0.0
 10
28.3024617278
 20
12.4810431415
 30
0.0
 10
28.7735729766
 20
12.7777129148
 30
0.0
 10
29.26366116
 20
13.1801235649
 30
0.0
 10
29.6608546824
 20
13.6168373966
 30
0.0
 10
29.8654967242
 20
13.9370070051
 30
0.0
 10
29.9476837852
 20
14.0993744398
 30
0.0
  0
SPLINE
  5
279
100
AcDbEntity
  8
0
100
AcDbSpline
 62
7
  6
BYLAYER
 70
0
 71
3
 72
18
 73
14
 74
0
 42
0.0000001
 43
0.0000001
 44
0.0000000001
 40
0.0
 40
0.0
 40
0.0
 40
0.0
 40
0.1570197723
 40
0.3069848921
 40
0.447703089
 40
0.5777617341
 40
0.6965706823
 40
0.7519727673
 40
0.8049252134
 40
0.8557398484
 40
0.9048389879
 40
0.9527307339
 40
1.0
 40
1.0
 40
1.0
 40
1.0
 10
22.0804477529
 20
46.3515465447
 30
0.0
 10
21.7699029096
 20
46.3995884729
 30
0.0
 10
21.1667974718
 20
46.523002511
 30
0.0
 10
20.311141724
 20
46.7946119997
 30
0.0
 10
19.5420269928
 20
47.1429074985
 30
0.0
 10
18.8795293758
 20
47.5589347075
 30
0.0
 10
18.4197576728
 20
47.9637366214
 30
0.0
 10
18.1267553492
 20
48.3122992783
 30
0.0
 10
17.9487144135
 20
48.5772635996
 30
0.0
 10
17.8087843401
 20
48.8501642209
 30
0.0
 10
17.7078897359
 20
49.1291394359
 30
0.0
 10
17.647012041
 20
49.4122486058
 30
0.0
 10
17.6334233906
 20
49.6029599452
 30
0.0
 10
17.6334156225
 20
49.6975585104
 30
0.0
  0
SPLINE
  5
27A
100
AcDbEntity
  8
0
100
AcDbSpline
 62
7
  6
BYLAYER
 70
0
 71
3
 72
28
 73
24
 74
0
 42
0.0000001
 43
0.0000001
 44
0.0000000001
 40
0.0
 40
0.0
 40
0.0
 40
0.0
 40
0.0541946433
 40
0.1042570721
 40
0.1281465423
 40
0.1515145055
 40
0.1745925105
 40
0.1976271497
 40
0.2208674351
 40
0.244551535
 40
0.2688957085
 40
0.2940840252
 40
0.3202682165
 40
0.3475596456
 40
0.4056968438
 40
0.4687881463
 40
0.5366343587
 40
0.6087021217
 40
0.6842082597
 40
0.7621971938
 40
0.8415804894
 40
0.921247141
 40
1.0
 40
1.0
 40
1.0
 40
1.0
 10
29.6748978216
 20
50.92227009
 30
0.0
 10
29.8414915703
 20
50.7578944637
 30
0.0
 10
30.1374745185
 20
50.4149209426
 30
0.0
 10
30.4105130377
 20
49.9281711456
 30
0.0
 10
30.5489188269
 20
49.5303734361
 30
0.0
 10
30.6132351412
 20
49.2327066719
 30
0.0
 10
30.6392317063
 20
48.9329698106
 30
0.0
 10
30.6265631161
 20
48.6329176942
 30
0.0
 10
30.5754965786
 20
48.3343433342
 30
0.0
 10
30.4862832548
 20
48.0389992077
 30
0.0
 10
30.3595521958
 20
47.7485748639
 30
0.0
 10
30.1961908614
 20
47.4646150477
 30
0.0
 10
29.9970558309
 20
47.188703019
 30
0.0
 10
29.678914382
 20
46.8258137246
 30
0.0
 10
29.1935442761
 20
46.4018502901
 30
0.0
 10
28.5050021581
 20
45.9586952261
 30
0.0
 10
27.7126364963
 20
45.5789006736
 30
0.0
 10
26.8333037542
 20
45.2702744433
 30
0.0
 10
25.8855483432
 20
45.039165786
 30
0.0
 10
24.8896079537
 20
44.8905004264
 30
0.0
 10
23.8666568704
 20
44.8273195954
 30
0.0
 10
22.8388319253
 20
44.8511494293
 30
0.0
 10
22.1577138252
 20
44.9253815029
 30
0.0
 10
21.8216228741
 20
44.9773754667
 30
0.0
  0
SPLINE
  5
27B
100
AcDbEntity
  8
0
100
AcDbSpline
 62
7
  6
BYLAYER
 70
0
 71
3
 72
36
 73
32
 74
0
 42
0.0000001
 43
0.0000001
 44
0.0000000001
 40
0.0
 40
0.0
 40
0.0
 40
0.0
 40
0.0325427604
 40
0.0665662675
 40
0.1018977425
 40
0.1383725137
 40
0.2139166257
 40
0.2914259493
 40
0.3689367416
 40
0.444480471
 40
0.4809576993
 40
0.5162886308
 40
0.5502996559
 40
0.5828523673
 40
0.6138461319
 40
0.6432321861
 40
0.6710177775
 40
0.6972803392
 40
0.7221744835
 40
0.7459378207
 40
0.768890526
 40
0.7914184683
 40
0.8139461946
 40
0.8368984211
 40
0.8606621357
 40
0.8855569486
 40
0.8985113282
 40
0.9118301404
 40
0.9396167139
 40
0.9690159181
 40
1.0
 40
1.0
 40
1.0
 40
1.0
 10
16.9159105721
 20
45.3297038291
 30
0.0
 10
17.1409041953
 20
45.1998066389
 30
0.0
 10
17.61286141
 20
44.9540398053
 30
0.0
 10
18.3617538351
 20
44.6346245473
 30
0.0
 10
19.1611713574
 20
44.3590904718
 30
0.0
 10
20.2969494876
 20
44.0501528126
 30
0.0
 10
21.791870252
 20
43.791895562
 30
0.0
 10
23.6334465218
 20
43.6885450944
 30
0.0
 10
25.4750173679
 20
43.7919191335
 30
0.0
 10
26.9699675428
 20
44.0501653635
 30
0.0
 10
28.1057514886
 20
44.3591499816
 30
0.0
 10
28.9050697325
 20
44.6346651588
 30
0.0
 10
29.6540052289
 20
44.9540438491
 30
0.0
 10
30.3455179154
 20
45.3141940649
 30
0.0
 10
30.9729703825
 20
45.7119178433
 30
0.0
 10
31.5304838916
 20
46.1434315629
 30
0.0
 10
32.0126323445
 20
46.6049670957
 30
0.0
 10
32.4147409771
 20
47.0923359034
 30
0.0
 10
32.7326472568
 20
47.6012241508
 30
0.0
 10
32.9627218072
 20
48.1269874176
 30
0.0
 10
33.1021740366
 20
48.6644685918
 30
0.0
 10
33.148815071
 20
49.2080365483
 30
0.0
 10
33.1021711918
 20
49.7515973925
 30
0.0
 10
32.962724478
 20
50.2890852587
 30
0.0
 10
32.7326521342
 20
50.8148228628
 30
0.0
 10
32.4711340858
 20
51.2333947877
 30
0.0
 10
32.2219859092
 20
51.557372943
 30
0.0
 10
31.9379183543
 20
51.8826131941
 30
0.0
 10
31.5303977141
 20
52.2727396584
 30
0.0
 10
30.9728715533
 20
52.7041522881
 30
0.0
 10
30.5651007354
 20
52.9626671601
 30
0.0
 10
30.3508834791
 20
53.0863427527
 30
0.0
  0
SPLINE
  5
27C
100
AcDbEntity
  8
0
100
AcDbSpline
 62
7
  6
BYLAYER
 70
0
 71
3
 72
11
 73
7
 74
0
 42
0.0000001
 43
0.0000001
 44
0.0000000001
 40
0.0
 40
0.0
 40
0.0
 40
0.0
 40
0.2449194656
 40
0.4919712047
 40
0.7431195028
 40
1.0
 40
1.0
 40
1.0
 40
1.0
 10
35.6333982069
 20
24.712950777
 30
0.0
 10
35.6333967105
 20
24.5616791779
 30
0.0
 10
35.6160929907
 20
24.2575435244
 30
0.0
 10
35.5384119309
 20
23.8042545409
 30
0.0
 10
35.4094096808
 20
23.3551706675
 30
0.0
 10
35.2913111232
 20
23.0637688137
 30
0.0
 10
35.2245198718
 20
22.919853329
 30
0.0
  0
SPLINE
  5
27D
100
AcDbEntity
  8
0
100
AcDbSpline
 62
7
  6
BYLAYER
 70
0
 71
3
 72
15
 73
11
 74
0
 42
0.0000001
 43
0.0000001
 44
0.0000000001
 40
0.0
 40
0.0
 40
0.0
 40
0.0
 40
0.1485550599
 40
0.2895093594
 40
0.4227331837
 40
0.5486412735
 40
0.668002213
 40
0.7819400143
 40
0.8919875374
 40
1.0
 40
1.0
 40
1.0
 40
1.0
 10
29.9973315605
 20
52.8822206758
 30
0.0
 10
30.200273949
 20
52.7650544838
 30
0.0
 10
30.5865750557
 20
52.5201581422
 30
0.0
 10
31.1147785599
 20
52.111416088
 30
0.0
 10
31.5716285487
 20
51.6741093362
 30
0.0
 10
31.9525436754
 20
51.2123706723
 30
0.0
 10
32.2537269009
 20
50.73028691
 30
0.0
 10
32.4717104053
 20
50.2321572341
 30
0.0
 10
32.6038163354
 20
49.7230782222
 30
0.0
 10
32.633366476
 20
49.3784061776
 30
0.0
 10
32.6333663903
 20
49.2080232413
 30
0.0
  0
SPLINE
  5
27E
100
AcDbEntity
  8
0
100
AcDbSpline
 62
7
  6
BYLAYER
 70
0
 71
3
 72
30
 73
26
 74
0
 42
0.0000001
 43
0.0000001
 44
0.0000000001
 40
0.0
 40
0.0
 40
0.0
 40
0.0
 40
0.0306581509
 40
0.0623966707
 40
0.1287268019
 40
0.1983043344
 40
0.2702681209
 40
0.3436311914
 40
0.4173489859
 40
0.4903596641
 40
0.5616329566
 40
0.6302175078
 40
0.6632496889
 40
0.6953171845
 40
0.7263464746
 40
0.7562828207
 40
0.812709398
 40
0.8392299795
 40
0.864647883
 40
0.8890302948
 40
0.912474856
 40
0.9351153316
 40
0.9571160897
 40
0.9786723058
 40
1.0
 40
1.0
 40
1.0
 40
1.0
 10
15.148150979
 20
42.2678374016
 30
0.0
 10
15.3600733938
 20
42.1454867064
 30
0.0
 10
15.7995862323
 20
41.9104358954
 30
0.0
 10
16.7330915029
 20
41.4800774631
 30
0.0
 10
17.9937643601
 20
41.0233140102
 30
0.0
 10
19.6042352369
 20
40.614520386
 30
0.0
 10
21.3006323486
 20
40.3455108366
 30
0.0
 10
23.046754066
 20
40.2220896596
 30
0.0
 10
24.8053860262
 20
40.2468302035
 30
0.0
 10
26.5390514032
 20
40.4192342028
 30
0.0
 10
28.2106591587
 20
40.7356109316
 30
0.0
 10
29.5390310375
 20
41.118395482
 30
0.0
 10
30.538611794
 20
41.4930193182
 30
0.0
 10
31.2417485717
 20
41.8011128013
 30
0.0
 10
31.9039023202
 20
42.1383210182
 30
0.0
 10
32.7111891683
 20
42.6146668768
 30
0.0
 10
33.44172199
 20
43.1485535246
 30
0.0
 10
34.0745964342
 20
43.7393711648
 30
0.0
 10
34.4831595577
 20
44.1923440997
 30
0.0
 10
34.8331942588
 20
44.6617377165
 30
0.0
 10
35.1225463087
 20
45.1452675486
 30
0.0
 10
35.3496706965
 20
45.6402408182
 30
0.0
 10
35.5129420581
 20
46.1441034824
 30
0.0
 10
35.6114204229
 20
46.6538507396
 30
0.0
 10
35.6333940254
 20
46.9965350314
 30
0.0
 10
35.6333831122
 20
47.1667672478
 30
0.0
  0
SPLINE
  5
27F
100
AcDbEntity
  8
0
100
AcDbSpline
 62
7
  6
BYLAYER
 70
0
 71
3
 72
15
 73
11
 74
0
 42
0.0000001
 43
0.0000001
 44
0.0000000001
 40
0.0
 40
0.0
 40
0.0
 40
0.0
 40
0.1080122409
 40
0.2180602995
 40
0.3319976428
 40
0.4513598211
 40
0.577270368
 40
0.7104894472
 40
0.8514345992
 40
1.0
 40
1.0
 40
1.0
 40
1.0
 10
11.633410939
 20
47.1667672484
 30
0.0
 10
11.6334255028
 20
46.9395902189
 30
0.0
 10
11.6728439852
 20
46.4800294078
 30
0.0
 10
11.8489765469
 20
45.8012569058
 30
0.0
 10
12.1395974834
 20
45.1370674119
 30
0.0
 10
12.5412139003
 20
44.4943038036
 30
0.0
 10
13.0490859626
 20
43.8786432343
 30
0.0
 10
13.6582139745
 20
43.2955952932
 30
0.0
 10
14.3624608195
 20
42.7505854606
 30
0.0
 10
14.8775419969
 20
42.4240700359
 30
0.0
 10
15.148150979
 20
42.2678374016
 30
0.0
  0
SPLINE
  5
280
100
AcDbEntity
  8
0
100
AcDbSpline
 62
7
  6
BYLAYER
 70
0
 71
3
 72
11
 73
7
 74
0
 42
0.0000001
 43
0.0000001
 44
0.0000000001
 40
0.0
 40
0.0
 40
0.0
 40
0.0
 40
0.2177013132
 40
0.4508884663
 40
0.710607349
 40
1.0
 40
1.0
 40
1.0
 40
1.0
 10
23.1334045886
 20
56.1301095441
 30
0.0
 10
23.1333905555
 20
56.1110727077
 30
0.0
 10
23.1404168869
 20
56.071378074
 30
0.0
 10
23.1705120077
 20
56.0160364741
 30
0.0
 10
23.2181445019
 20
55.9660922679
 30
0.0
 10
23.2579190447
 20
55.938640194
 30
0.0
 10
23.2798346985
 20
55.9259874716
 30
0.0
  0
SPLINE
  5
281
100
AcDbEntity
  8
0
100
AcDbSpline
 62
7
  6
BYLAYER
 70
0
 71
3
 72
10
 73
6
 74
0
 42
0.0000001
 43
0.0000001
 44
0.0000000001
 40
0.0
 40
0.0
 40
0.0
 40
0.0
 40
0.2403293928
 40
0.486252238
 40
1.0
 40
1.0
 40
1.0
 40
1.0
 10
10.7481990616
 20
23.2462894075
 30
0.0
 10
10.785535749
 20
23.0851656792
 30
0.0
 10
10.8789447467
 20
22.7630158168
 30
0.0
 10
11.1382854518
 20
22.1246321709
 30
0.0
 10
11.4073049599
 20
21.6716642353
 30
0.0
 10
11.6126023533
 20
21.3838168129
 30
0.0
  0
SPLINE
  5
282
100
AcDbEntity
  8
0
100
AcDbSpline
 62
7
  6
BYLAYER
 70
0
 71
3
 72
15
 73
11
 74
0
 42
0.0000001
 43
0.0000001
 44
0.0000000001
 40
0.0
 40
0.0
 40
0.0
 40
0.0
 40
0.1485809526
 40
0.2895108876
 40
0.4227267246
 40
0.5486441314
 40
0.6680045963
 40
0.7819424763
 40
0.8919924626
 40
1.0
 40
1.0
 40
1.0
 40
1.0
 10
15.148150979
 20
19.8140209306
 30
0.0
 10
14.8775135274
 20
19.9702700013
 30
0.0
 10
14.3624169393
 20
20.2967646213
 30
0.0
 10
13.6582003871
 20
20.8418059792
 30
0.0
 10
13.0490879596
 20
21.4248309424
 30
0.0
 10
12.5411904748
 20
22.0404813425
 30
0.0
 10
12.1396113721
 20
22.6832779288
 30
0.0
 10
11.8489239994
 20
23.3474454916
 30
0.0
 10
11.6728935657
 20
24.0262365044
 30
0.0
 10
11.6333935973
 20
24.4857835205
 30
0.0
 10
11.6333958443
 20
24.712950777
 30
0.0
  0
SPLINE
  5
283
100
AcDbEntity
  8
0
100
AcDbSpline
 62
7
  6
BYLAYER
 70
0
 71
3
 72
9
 73
5
 74
0
 42
0.0000001
 43
0.0000001
 44
0.0000000001
 40
0.0
 40
0.0
 40
0.0
 40
0.0
 40
0.5149842263
 40
1.0
 40
1.0
 40
1.0
 40
1.0
 10
15.148150979
 20
19.8140209306
 30
0.0
 10
14.5722365868
 20
20.1465177379
 30
0.0
 10
13.4188588155
 20
20.7336889997
 30
0.0
 10
12.2089510581
 20
21.1924328977
 30
0.0
 10
11.6126023533
 20
21.3838168129
 30
0.0
  0
SPLINE
  5
284
100
AcDbEntity
  8
0
100
AcDbSpline
 62
7
  6
BYLAYER
 70
0
 71
3
 72
11
 73
7
 74
0
 42
0.0000001
 43
0.0000001
 44
0.0000000001
 40
0.0
 40
0.0
 40
0.0
 40
0.0
 40
0.2585281581
 40
0.5118653157
 40
0.7592978375
 40
1.0
 40
1.0
 40
1.0
 40
1.0
 10
18.6836996048
 20
17.3014092677
 30
0.0
 10
18.396287541
 20
17.5410385673
 30
0.0
 10
17.8192527689
 20
18.0060284658
 30
0.0
 10
16.9382715972
 20
18.6635719007
 30
0.0
 10
16.0518938285
 20
19.269266469
 30
0.0
 10
15.4498768217
 20
19.6398233749
 30
0.0
 10
15.148150979
 20
19.8140209306
 30
0.0
  0
SPLINE
  5
285
100
AcDbEntity
  8
0
100
AcDbSpline
 62
7
  6
BYLAYER
 70
0
 71
3
 72
23
 73
19
 74
0
 42
0.0000001
 43
0.0000001
 44
0.0000000001
 40
0.0
 40
0.0
 40
0.0
 40
0.0
 40
0.0759176435
 40
0.1527602791
 40
0.2296606933
 40
0.3058797771
 40
0.3806653567
 40
0.4532968189
 40
0.5231387866
 40
0.5896562783
 40
0.6524398239
 40
0.7112585866
 40
0.7660964677
 40
0.8171997586
 40
0.865129222
 40
0.9107679014
 40
0.9552832272
 40
1.0
 40
1.0
 40
1.0
 40
1.0
 10
22.3392726317
 20
55.2375398603
 30
0.0
 10
22.5396468518
 20
55.2065415548
 30
0.0
 10
22.9453248273
 20
55.1593242295
 30
0.0
 10
23.558583509
 20
55.1321934934
 30
0.0
 10
24.173062517
 20
55.1487031168
 30
0.0
 10
24.7793229985
 20
55.2085540053
 30
0.0
 10
25.3683620711
 20
55.3107597256
 30
0.0
 10
25.9313098773
 20
55.4538985786
 30
0.0
 10
26.4597263476
 20
55.6358068394
 30
0.0
 10
26.9457551566
 20
55.8537551133
 30
0.0
 10
27.3821235287
 20
56.1046795776
 30
0.0
 10
27.7623716085
 20
56.3849512777
 30
0.0
 10
28.0807892346
 20
56.6907267487
 30
0.0
 10
28.3323146212
 20
57.0179588887
 30
0.0
 10
28.5126492457
 20
57.3621328172
 30
0.0
 10
28.6179301511
 20
57.7182875764
 30
0.0
 10
28.6454576008
 20
58.0801238149
 30
0.0
 10
28.6118284836
 20
58.3181859668
 30
0.0
 10
28.5831369448
 20
58.4341160568
 30
0.0
  0
SPLINE
  5
286
100
AcDbEntity
  8
0
100
AcDbSpline
 62
7
  6
BYLAYER
 70
0
 71
3
 72
9
 73
5
 74
0
 42
0.0000001
 43
0.0000001
 44
0.0000000001
 40
0.0
 40
0.0
 40
0.0
 40
0.0
 40
0.4943827942
 40
1.0
 40
1.0
 40
1.0
 40
1.0
 10
18.6836996048
 20
17.3014092677
 30
0.0
 10
19.2074533809
 20
17.1768992445
 30
0.0
 10
20.2777147784
 20
16.9690894214
 30
0.0
 10
21.3607013943
 20
16.8447665814
 30
0.0
 10
21.9096500816
 20
16.8023684375
 30
0.0
  0
SPLINE
  5
287
100
AcDbEntity
  8
0
100
AcDbSpline
 62
7
  6
BYLAYER
 70
0
 71
3
 72
15
 73
11
 74
0
 42
0.0000001
 43
0.0000001
 44
0.0000000001
 40
0.0
 40
0.0
 40
0.0
 40
0.0
 40
0.1298425803
 40
0.2611905963
 40
0.3925259819
 40
0.5223749791
 40
0.6492922651
 40
0.7719403272
 40
0.8891638547
 40
1.0
 40
1.0
 40
1.0
 40
1.0
 10
26.7392738252
 20
18.0209234825
 30
0.0
 10
26.228822975
 20
17.941956275
 30
0.0
 10
25.1952693
 20
17.8239586031
 30
0.0
 10
23.6334771253
 20
17.7651755733
 30
0.0
 10
22.0715584882
 20
17.8239664884
 30
0.0
 10
20.5361039425
 20
17.9992472115
 30
0.0
 10
19.0530137993
 20
18.2881467063
 30
0.0
 10
17.647191983
 20
18.685760978
 30
0.0
 10
16.3425489561
 20
19.1854504536
 30
0.0
 10
15.5299958236
 20
19.5935676941
 30
0.0
 10
15.148150979
 20
19.8140209306
 30
0.0
  0
SPLINE
  5
288
100
AcDbEntity
  8
0
100
AcDbSpline
 62
7
  6
BYLAYER
 70
0
 71
3
 72
9
 73
5
 74
0
 42
0.0000001
 43
0.0000001
 44
0.0000000001
 40
0.0
 40
0.0
 40
0.0
 40
0.0
 40
0.4975682171
 40
1.0
 40
1.0
 40
1.0
 40
1.0
 10
26.7392738252
 20
18.0209234825
 30
0.0
 10
25.9220649227
 20
17.8945005273
 30
0.0
 10
24.2921452845
 20
17.5547445629
 30
0.0
 10
22.6996360158
 20
17.0728657753
 30
0.0
 10
21.9096500816
 20
16.8023684375
 30
0.0
  0
SPLINE
  5
289
100
AcDbEntity
  8
0
100
AcDbSpline
 62
7
  6
BYLAYER
 70
0
 71
3
 72
9
 73
5
 74
0
 42
0.0000001
 43
0.0000001
 44
0.0000000001
 40
0.0
 40
0.0
 40
0.0
 40
0.0
 40
0.2467928057
 40
1.0
 40
1.0
 40
1.0
 40
1.0
 10
31.5688975688
 20
18.2966627469
 30
0.0
 10
31.1708525497
 20
18.3098006143
 30
0.0
 10
29.5572172695
 20
18.3294018793
 30
0.0
 10
27.9404727978
 20
18.2067500484
 30
0.0
 10
26.7392738252
 20
18.0209234825
 30
0.0
  0
SPLINE
  5
28A
100
AcDbEntity
  8
0
100
AcDbSpline
 62
7
  6
BYLAYER
 70
0
 71
3
 72
15
 73
11
 74
0
 42
0.0000001
 43
0.0000001
 44
0.0000000001
 40
0.0
 40
0.0
 40
0.0
 40
0.0
 40
0.0980147274
 40
0.2032703951
 40
0.3167472528
 40
0.4387534617
 40
0.5690009482
 40
0.7067342494
 40
0.8508690982
 40
1.0
 40
1.0
 40
1.0
 40
1.0
 10
35.2245198718
 20
22.919853329
 30
0.0
 10
35.0848348646
 20
22.6188732593
 30
0.0
 10
34.7299187364
 20
22.0236474597
 30
0.0
 10
34.0255565533
 20
21.2093501049
 30
0.0
 10
33.1458840107
 20
20.4572901791
 30
0.0
 10
32.1064172874
 20
19.77920636
 30
0.0
 10
30.9244260562
 20
19.1855501141
 30
0.0
 10
29.6196209657
 20
18.6857627024
 30
0.0
 10
28.2139409912
 20
18.2881746923
 30
0.0
 10
27.2381997984
 20
18.0981077811
 30
0.0
 10
26.7392738252
 20
18.0209234825
 30
0.0
  0
SPLINE
  5
28B
100
AcDbEntity
  8
0
100
AcDbSpline
 62
7
  6
BYLAYER
 70
0
 71
3
 72
9
 73
5
 74
0
 42
0.0000001
 43
0.0000001
 44
0.0000000001
 40
0.0
 40
0.0
 40
0.0
 40
0.0
 40
0.5160737456
 40
1.0
 40
1.0
 40
1.0
 40
1.0
 10
31.5688975688
 20
18.2966627469
 30
0.0
 10
31.9981475649
 20
18.4876515252
 30
0.0
 10
32.8128881765
 20
18.8977787194
 30
0.0
 10
33.5778589675
 20
19.3959503245
 30
0.0
 10
33.9304447539
 20
19.6600945113
 30
0.0
  0
SPLINE
  5
28C
100
AcDbEntity
  8
0
100
AcDbSpline
 62
7
  6
BYLAYER
 70
0
 71
3
 72
11
 73
7
 74
0
 42
0.0000001
 43
0.0000001
 44
0.0000000001
 40
0.0
 40
0.0
 40
0.0
 40
0.0
 40
0.2290012903
 40
0.4731141929
 40
0.7306757854
 40
1.0
 40
1.0
 40
1.0
 40
1.0
 10
35.2245198718
 20
22.919853329
 30
0.0
 10
35.1117763625
 20
22.6769242562
 30
0.0
 10
34.8878514267
 20
22.1708329958
 30
0.0
 10
34.5644303675
 20
21.3797856534
 30
0.0
 10
34.2429301821
 20
20.5372942894
 30
0.0
 10
34.0345580708
 20
19.9573637846
 30
0.0
 10
33.9304447539
 20
19.6600945113
 30
0.0
  0
SPLINE
  5
28D
100
AcDbEntity
  8
0
100
AcDbSpline
 62
7
  6
BYLAYER
 70
0
 71
3
 72
11
 73
7
 74
0
 42
0.0000001
 43
0.0000001
 44
0.0000000001
 40
0.0
 40
0.0
 40
0.0
 40
0.0
 40
0.2205563685
 40
0.459898801
 40
0.7192980468
 40
1.0
 40
1.0
 40
1.0
 40
1.0
 10
36.5185949896
 20
25.2367963659
 30
0.0
 10
36.4079221264
 20
25.0758598862
 30
0.0
 10
36.1858051133
 20
24.7342713035
 30
0.0
 10
35.8629017074
 20
24.1849779518
 30
0.0
 10
35.5379762189
 20
23.5757842162
 30
0.0
 10
35.329165708
 20
23.1453343002
 30
0.0
 10
35.2245198718
 20
22.919853329
 30
0.0
  0
SPLINE
  5
28E
100
AcDbEntity
  8
0
100
AcDbSpline
 62
7
  6
BYLAYER
 70
0
 71
3
 72
15
 73
11
 74
0
 42
0.0000001
 43
0.0000001
 44
0.0000000001
 40
0.0
 40
0.0
 40
0.0
 40
0.0
 40
0.1077027088
 40
0.2182293121
 40
0.3330092539
 40
0.4531717881
 40
0.5795479431
 40
0.7127007842
 40
0.8529090589
 40
1.0
 40
1.0
 40
1.0
 40
1.0
 10
32.6157160993
 20
49.2064898711
 30
0.0
 10
32.5986311606
 20
49.3637832474
 30
0.0
 10
32.5387878295
 20
49.6802519518
 30
0.0
 10
32.3764549445
 20
50.1434729378
 30
0.0
 10
32.142345165
 20
50.5955162148
 30
0.0
 10
31.8390073979
 20
51.032699573
 30
0.0
 10
31.4689988617
 20
51.4516093454
 30
0.0
 10
31.0354900146
 20
51.8491750853
 30
0.0
 10
30.5421003877
 20
52.2220802488
 30
0.0
 10
30.1844642749
 20
52.4472147987
 30
0.0
 10
29.9973315605
 20
52.5552534776
 30
0.0
  0
SPLINE
  5
28F
100
AcDbEntity
  8
0
100
AcDbSpline
 62
7
  6
BYLAYER
 70
0
 71
3
 72
17
 73
13
 74
0
 42
0.0000001
 43
0.0000001
 44
0.0000000001
 40
0.0
 40
0.0
 40
0.0
 40
0.0
 40
0.1286489267
 40
0.2702967244
 40
0.4174235082
 40
0.5617737283
 40
0.6954433609
 40
0.8127143371
 40
0.8646721059
 40
0.9125124474
 40
0.9571375576
 40
1.0
 40
1.0
 40
1.0
 40
1.0
 10
23.2798346985
 20
55.9259874716
 30
0.0
 10
23.3168346707
 20
55.9046260109
 30
0.0
 10
23.4006460912
 20
55.8700677995
 30
0.0
 10
23.5372121177
 20
55.842704718
 30
0.0
 10
23.681680246
 20
55.8387451702
 30
0.0
 10
23.8222191478
 20
55.858467318
 30
0.0
 10
23.9474534801
 20
55.900309357
 30
0.0
 10
24.034578666
 20
55.9533043022
 30
0.0
 10
24.0856681885
 20
56.004632443
 30
0.0
 10
24.1128524063
 20
56.044553241
 30
0.0
 10
24.129555736
 20
56.0867010174
 30
0.0
 10
24.1333581527
 20
56.1158751603
 30
0.0
 10
24.1333686456
 20
56.1301095529
 30
0.0
  0
SPLINE
  5
290
100
AcDbEntity
  8
0
100
AcDbSpline
 62
7
  6
BYLAYER
 70
0
 71
3
 72
18
 73
14
 74
0
 42
0.0000001
 43
0.0000001
 44
0.0000000001
 40
0.0
 40
0.0
 40
0.0
 40
0.0
 40
0.1570938228
 40
0.3071197691
 40
0.447851077
 40
0.5778889672
 40
0.6966449898
 40
0.7520142223
 40
0.8049333651
 40
0.8557149697
 40
0.9047899611
 40
0.9526890908
 40
1.0
 40
1.0
 40
1.0
 40
1.0
 10
24.7008135238
 20
60.3257576277
 30
0.0
 10
24.9147450281
 20
60.2926619825
 30
0.0
 10
25.3301981768
 20
60.2075917263
 30
0.0
 10
25.9195083207
 20
60.0202974148
 30
0.0
 10
26.4489957451
 20
59.7800525425
 30
0.0
 10
26.9047785558
 20
59.4931044085
 30
0.0
 10
27.2207701022
 20
59.2138887527
 30
0.0
 10
27.4218053029
 20
58.9734865208
 30
0.0
 10
27.5437686314
 20
58.7907818814
 30
0.0
 10
27.639444926
 20
58.6026608289
 30
0.0
 10
27.7080850129
 20
58.4103364842
 30
0.0
 10
27.7491267212
 20
58.2151697596
 30
0.0
 10
27.7577709995
 20
58.0837310677
 30
0.0
 10
27.7574213965
 20
58.0185372521
 30
0.0
  0
SPLINE
  5
291
100
AcDbEntity
  8
0
100
AcDbSpline
 62
7
  6
BYLAYER
 70
0
 71
3
 72
15
 73
11
 74
0
 42
0.0000001
 43
0.0000001
 44
0.0000000001
 40
0.0
 40
0.0
 40
0.0
 40
0.0
 40
0.1340288901
 40
0.2823366088
 40
0.4345321935
 40
0.5801983727
 40
0.7099748274
 40
0.8190121976
 40
0.9108971215
 40
1.0
 40
1.0
 40
1.0
 40
1.0
 10
23.5273210415
 20
56.8037251008
 30
0.0
 10
23.5398084071
 20
56.7965156801
 30
0.0
 10
23.5684179353
 20
56.7852687259
 30
0.0
 10
23.6147777708
 20
56.7775040764
 30
0.0
 10
23.663051148
 20
56.7785532526
 30
0.0
 10
23.7083518615
 20
56.7882135795
 30
0.0
 10
23.7462936072
 20
56.8056938103
 30
0.0
 10
23.7735272481
 20
56.8297469764
 30
0.0
 10
23.7862399497
 20
56.8598949981
 30
0.0
 10
23.7818629675
 20
56.8801870615
 30
0.0
 10
23.7776055094
 20
56.8887755857
 30
0.0
  0
SPLINE
  5
292
100
AcDbEntity
  8
0
100
AcDbSpline
 62
7
  6
BYLAYER
 70
0
 71
3
 72
18
 73
14
 74
0
 42
0.0000001
 43
0.0000001
 44
0.0000000001
 40
0.0
 40
0.0
 40
0.0
 40
0.0
 40
0.0472692661
 40
0.0951610121
 40
0.1442601516
 40
0.1950747866
 40
0.2480272327
 40
0.3034293177
 40
0.4222382659
 40
0.552296911
 40
0.6930151079
 40
0.8429802277
 40
1.0
 40
1.0
 40
1.0
 40
1.0
 10
17.6334156225
 20
54.94166754
 30
0.0
 10
17.6334233906
 20
54.8470689748
 30
0.0
 10
17.647012041
 20
54.6563576354
 30
0.0
 10
17.7078897359
 20
54.3732484655
 30
0.0
 10
17.8087843401
 20
54.0942732505
 30
0.0
 10
17.9487144135
 20
53.8213726292
 30
0.0
 10
18.1267553492
 20
53.5564083079
 30
0.0
 10
18.4197576728
 20
53.2078456509
 30
0.0
 10
18.8795293758
 20
52.8030437371
 30
0.0
 10
19.5420269928
 20
52.3870165281
 30
0.0
 10
20.311141724
 20
52.0387210293
 30
0.0
 10
21.1667974718
 20
51.7671115406
 30
0.0
 10
21.7699029096
 20
51.6436975025
 30
0.0
 10
22.0804477529
 20
51.5956555743
 30
0.0
  0
SPLINE
  5
293
100
AcDbEntity
  8
0
100
AcDbSpline
 62
7
  6
BYLAYER
 70
0
 71
3
 72
21
 73
17
 74
0
 42
0.0000001
 43
0.0000001
 44
0.0000000001
 40
0.0
 40
0.0
 40
0.0
 40
0.0
 40
0.0436229637
 40
0.0883568761
 40
0.1351787432
 40
0.1848409605
 40
0.237844607
 40
0.2944380098
 40
0.354661204
 40
0.4183692175
 40
0.4852726967
 40
0.5549667713
 40
0.7005810942
 40
0.8506148119
 40
0.9257582306
 40
1.0
 40
1.0
 40
1.0
 40
1.0
 10
29.6333784287
 20
49.6975585094
 30
0.0
 10
29.6333893184
 20
49.5649446466
 30
0.0
 10
29.6063028744
 20
49.2956169699
 30
0.0
 10
29.4859496338
 20
48.9002645491
 30
0.0
 10
29.2881284628
 20
48.5168515594
 30
0.0
 10
29.0164293727
 20
48.1504127707
 30
0.0
 10
28.6747785543
 20
47.8053640197
 30
0.0
 10
28.2679610758
 20
47.485648656
 30
0.0
 10
27.8011991645
 20
47.1951774611
 30
0.0
 10
27.280539384
 20
46.9374701662
 30
0.0
 10
26.7126564752
 20
46.7156963198
 30
0.0
 10
25.8903938591
 20
46.4682692059
 30
0.0
 10
24.7938067794
 20
46.2686603298
 30
0.0
 10
23.6643921056
 20
46.216021749
 30
0.0
 10
22.7548606189
 20
46.2632713662
 30
0.0
 10
22.3034896036
 20
46.31704151
 30
0.0
 10
22.0804477529
 20
46.3515465447
 30
0.0
  0
SPLINE
  5
294
100
AcDbEntity
  8
0
100
AcDbSpline
 62
7
  6
BYLAYER
 70
0
 71
3
 72
20
 73
16
 74
0
 42
0.0000001
 43
0.0000001
 44
0.0000000001
 40
0.0
 40
0.0
 40
0.0
 40
0.0
 40
0.1447896714
 40
0.2906572418
 40
0.4334498812
 40
0.5024912419
 40
0.569348603
 40
0.6336464619
 40
0.6950764383
 40
0.7534216308
 40
0.8085686723
 40
0.860539943
 40
0.909504643
 40
0.9558143197
 40
1.0
 40
1.0
 40
1.0
 40
1.0
 10
22.2875076559
 20
54.309503711
 30
0.0
 10
22.640091964
 20
54.2549581908
 30
0.0
 10
23.355498311
 20
54.1901500828
 30
0.0
 10
24.4254125778
 20
54.2207052382
 30
0.0
 10
25.2996267035
 20
54.3518550057
 30
0.0
 10
25.9658716756
 20
54.520144686
 30
0.0
 10
26.4350835271
 20
54.6738332251
 30
0.0
 10
26.8743095038
 20
54.8547339708
 30
0.0
 10
27.2788935819
 20
55.0609733444
 30
0.0
 10
27.6445468987
 20
55.290380484
 30
0.0
 10
27.9673475311
 20
55.5406736027
 30
0.0
 10
28.243883379
 20
55.8092559443
 30
0.0
 10
28.4710137788
 20
56.0936046981
 30
0.0
 10
28.6461532388
 20
56.390670548
 30
0.0
 10
28.7281881028
 20
56.5993166354
 30
0.0
 10
28.7590859765
 20
56.7037191157
 30
0.0
  0
SPLINE
  5
295
100
AcDbEntity
  8
0
100
AcDbSpline
 62
7
  6
BYLAYER
 70
0
 71
3
 72
9
 73
5
 74
0
 42
0.0000001
 43
0.0000001
 44
0.0000000001
 40
0.0
 40
0.0
 40
0.0
 40
0.0
 40
0.503501495
 40
1.0
 40
1.0
 40
1.0
 40
1.0
 10
28.7590859765
 20
56.7037191157
 30
0.0
 10
28.7834920046
 20
56.7861859514
 30
0.0
 10
28.8207883815
 20
56.9535339246
 30
0.0
 10
28.8333878722
 20
57.1245744016
 30
0.0
 10
28.8333809083
 20
57.209380747
 30
0.0
  0
SPLINE
  5
296
100
AcDbEntity
  8
0
100
AcDbSpline
 62
7
  6
BYLAYER
 70
0
 71
3
 72
21
 73
17
 74
0
 42
0.0000001
 43
0.0000001
 44
0.0000000001
 40
0.0
 40
0.0
 40
0.0
 40
0.0
 40
0.0436229637
 40
0.0883568761
 40
0.1351787432
 40
0.1848409605
 40
0.237844607
 40
0.2944380098
 40
0.354661204
 40
0.4183692175
 40
0.4852726967
 40
0.5549667713
 40
0.7005810942
 40
0.8506148119
 40
0.9257582306
 40
1.0
 40
1.0
 40
1.0
 40
1.0
 10
28.6333815282
 20
55.4130754294
 30
0.0
 10
28.6333906029
 20
55.302563877
 30
0.0
 10
28.6108185662
 20
55.0781241464
 30
0.0
 10
28.5105241991
 20
54.7486637958
 30
0.0
 10
28.3456732233
 20
54.429152971
 30
0.0
 10
28.1192573148
 20
54.1237873138
 30
0.0
 10
27.8345482995
 20
53.836246688
 30
0.0
 10
27.4955337341
 20
53.5698172182
 30
0.0
 10
27.1065654747
 20
53.3277578891
 30
0.0
 10
26.6726823243
 20
53.1130018101
 30
0.0
 10
26.1994465669
 20
52.9281902714
 30
0.0
 10
25.5142277202
 20
52.7220010098
 30
0.0
 10
24.6004051538
 20
52.5556602797
 30
0.0
 10
23.659226259
 20
52.5117947957
 30
0.0
 10
22.9012833534
 20
52.5511694768
 30
0.0
 10
22.5251408406
 20
52.5959779299
 30
0.0
 10
22.3392726317
 20
52.6247321255
 30
0.0
  0
SPLINE
  5
297
100
AcDbEntity
  8
0
100
AcDbSpline
 62
7
  6
BYLAYER
 70
0
 71
3
 72
20
 73
16
 74
0
 42
0.0000001
 43
0.0000001
 44
0.0000000001
 40
0.0
 40
0.0
 40
0.0
 40
0.0
 40
0.0436348944
 40
0.0883554601
 40
0.1351471723
 40
0.1847740672
 40
0.2377384622
 40
0.2943027016
 40
0.3545021085
 40
0.4182009268
 40
0.485104352
 40
0.554810774
 40
0.7004831308
 40
0.8506062959
 40
1.0
 40
1.0
 40
1.0
 40
1.0
 10
19.5093495657
 20
58.0185370699
 30
0.0
 10
19.5088736269
 20
58.1098111875
 30
0.0
 10
19.5265157373
 20
58.295233396
 30
0.0
 10
19.6080989043
 20
58.5675865779
 30
0.0
 10
19.7430661932
 20
58.8318289135
 30
0.0
 10
19.9291524228
 20
59.0843539077
 30
0.0
 10
20.1634237409
 20
59.3222869629
 30
0.0
 10
20.442796268
 20
59.5426873958
 30
0.0
 10
20.7635078191
 20
59.7430585013
 30
0.0
 10
21.1214913243
 20
59.9208009665
 30
0.0
 10
21.5120915312
 20
60.0738249872
 30
0.0
 10
22.07786906
 20
60.2446026569
 30
0.0
 10
22.832785253
 20
60.3824613158
 30
0.0
 10
23.7654149367
 20
60.4262030754
 30
0.0
 10
24.3919858564
 20
60.3735339053
 30
0.0
 10
24.7008135238
 20
60.3257576277
 30
0.0
  0
SPLINE
  5
298
100
AcDbEntity
  8
0
100
AcDbSpline
 62
7
  6
BYLAYER
 70
0
 71
3
 72
11
 73
7
 74
0
 42
0.0000001
 43
0.0000001
 44
0.0000000001
 40
0.0
 40
0.0
 40
0.0
 40
0.0
 40
0.2274267395
 40
0.4534878935
 40
0.7068407557
 40
1.0
 40
1.0
 40
1.0
 40
1.0
 10
23.489192279
 20
56.8887714476
 30
0.0
 10
23.4857192611
 20
56.881775498
 30
0.0
 10
23.4814559174
 20
56.8661378926
 30
0.0
 10
23.4869628052
 20
56.8416096439
 30
0.0
 10
23.5032567056
 20
56.8199503932
 30
0.0
 10
23.5186018051
 20
56.8087590405
 30
0.0
 10
23.5273210415
 20
56.8037251008
 30
0.0
  0
SPLINE
  5
299
100
AcDbEntity
  8
0
100
AcDbSpline
 62
7
  6
BYLAYER
 70
0
 71
3
 72
19
 73
15
 74
0
 42
0.0000001
 43
0.0000001
 44
0.0000000001
 40
0.0
 40
0.0
 40
0.0
 40
0.0
 40
0.0487737546
 40
0.097102018
 40
0.1457737256
 40
0.195552289
 40
0.2471136547
 40
0.3010172816
 40
0.3576751261
 40
0.4173638423
 40
0.5461666773
 40
0.6874093701
 40
0.8395455658
 40
1.0
 40
1.0
 40
1.0
 40
1.0
 10
18.6836738739
 20
58.4341146619
 30
0.0
 10
18.6625245414
 20
58.3486611196
 30
0.0
 10
18.6331281
 20
58.1750471982
 30
0.0
 10
18.6304751564
 20
57.9109044722
 30
0.0
 10
18.6694804548
 20
57.6477741451
 30
0.0
 10
18.7498866065
 20
57.3881901871
 30
0.0
 10
18.870586732
 20
57.1343315431
 30
0.0
 10
19.0305260452
 20
56.8883683794
 30
0.0
 10
19.2280768818
 20
56.6521224745
 30
0.0
 10
19.5475292488
 20
56.3449194421
 30
0.0
 10
20.0358078297
 20
55.9986149156
 30
0.0
 10
20.7212695579
 20
55.660104361
 30
0.0
 10
21.4995388632
 20
55.397975943
 30
0.0
 10
22.0530726997
 20
55.2818155804
 30
0.0
 10
22.3392726317
 20
55.2375398603
 30
0.0
  0
SPLINE
  5
29A
100
AcDbEntity
  8
0
100
AcDbSpline
 62
7
  6
BYLAYER
 70
0
 71
3
 72
14
 73
10
 74
0
 42
0.0000001
 43
0.0000001
 44
0.0000000001
 40
0.0
 40
0.0
 40
0.0
 40
0.0
 40
0.2114167367
 40
0.327706467
 40
0.4508404183
 40
0.5803684204
 40
0.7156650791
 40
0.8559397489
 40
1.0
 40
1.0
 40
1.0
 40
1.0
 10
19.0690414322
 20
55.1765199497
 30
0.0
 10
19.2297485566
 20
54.969050657
 30
0.0
 10
19.5285912504
 20
54.6847026714
 30
0.0
 10
19.9909199038
 20
54.368841963
 30
0.0
 10
20.3934087357
 20
54.1486006688
 30
0.0
 10
20.8351657055
 20
53.9555522949
 30
0.0
 10
21.3111644234
 20
53.7918195867
 30
0.0
 10
21.8154247136
 20
53.6595584912
 30
0.0
 10
22.1625529024
 20
53.5939799238
 30
0.0
 10
22.3392726317
 20
53.566641017
 30
0.0
  0
SPLINE
  5
29B
100
AcDbEntity
  8
0
100
AcDbSpline
 62
7
  6
BYLAYER
 70
0
 71
3
 72
9
 73
5
 74
0
 42
0.0000001
 43
0.0000001
 44
0.0000000001
 40
0.0
 40
0.0
 40
0.0
 40
0.0
 40
0.496900863
 40
1.0
 40
1.0
 40
1.0
 40
1.0
 10
18.4334131429
 20
57.2093807479
 30
0.0
 10
18.4334196925
 20
57.1296207873
 30
0.0
 10
18.4445545336
 20
56.9689173183
 30
0.0
 10
18.4775108138
 20
56.8112687841
 30
0.0
 10
18.4991539433
 20
56.7334682383
 30
0.0
  0
SPLINE
  5
29C
100
AcDbEntity
  8
0
100
AcDbSpline
 62
7
  6
BYLAYER
 70
0
 71
3
 72
15
 73
11
 74
0
 42
0.0000001
 43
0.0000001
 44
0.0000000001
 40
0.0
 40
0.0
 40
0.0
 40
0.0
 40
0.0959869758
 40
0.1988170825
 40
0.3103279407
 40
0.4313418368
 40
0.5618086759
 40
0.7009635327
 40
0.8476233402
 40
1.0
 40
1.0
 40
1.0
 40
1.0
 10
18.4991539433
 20
56.7334682383
 30
0.0
 10
18.5396380079
 20
56.5879401934
 30
0.0
 10
18.6607668379
 20
56.2960130788
 30
0.0
 10
18.9406377677
 20
55.8922354094
 30
0.0
 10
19.315924246
 20
55.5176966693
 30
0.0
 10
19.7784118718
 20
55.1792467012
 30
0.0
 10
20.3187162443
 20
54.8829089343
 30
0.0
 10
20.9260930716
 20
54.6341565594
 30
0.0
 10
21.5882503903
 20
54.438025908
 30
0.0
 10
22.0505322732
 20
54.3461642918
 30
0.0
 10
22.2875076559
 20
54.309503711
 30
0.0
  0
SPLINE
  5
29D
100
AcDbEntity
  8
0
100
AcDbSpline
 62
7
  6
BYLAYER
 70
0
 71
3
 72
14
 73
10
 74
0
 42
0.0000001
 43
0.0000001
 44
0.0000000001
 40
0.0
 40
0.0
 40
0.0
 40
0.0
 40
0.2156816251
 40
0.3331006321
 40
0.4565599795
 40
0.5856245038
 40
0.7197403002
 40
0.8582117108
 40
1.0
 40
1.0
 40
1.0
 40
1.0
 10
19.0765593802
 20
55.1860697446
 30
0.0
 10
19.2528011329
 20
54.9967072634
 30
0.0
 10
19.5630935645
 20
54.7385714351
 30
0.0
 10
20.0290027121
 20
54.4503585328
 30
0.0
 10
20.4256575757
 20
54.2501373701
 30
0.0
 10
20.8552257812
 20
54.0743544192
 30
0.0
 10
21.3135221197
 20
53.9245866138
 30
0.0
 10
21.7956631622
 20
53.8025710238
 30
0.0
 10
22.1263817434
 20
53.7410000965
 30
0.0
 10
22.2944428477
 20
53.7150006968
 30
0.0
  0
SPLINE
  5
29E
100
AcDbEntity
  8
0
100
AcDbSpline
 62
7
  6
BYLAYER
 70
0
 71
3
 72
16
 73
12
 74
0
 42
0.0000001
 43
0.0000001
 44
0.0000000001
 40
0.0
 40
0.0
 40
0.0
 40
0.0
 40
0.138038225
 40
0.2774880253
 40
0.4154311664
 40
0.5491068131
 40
0.6760000665
 40
0.794103426
 40
0.8494705941
 40
0.902242426
 40
1.0
 40
1.0
 40
1.0
 40
1.0
 10
22.2944428477
 20
53.7150006968
 30
0.0
 10
22.5918310799
 20
53.6689941235
 30
0.0
 10
23.1950310819
 20
53.6085859826
 30
0.0
 10
24.1021378902
 20
53.6101074273
 30
0.0
 10
24.9950980088
 20
53.7026768731
 30
0.0
 10
25.8466588795
 20
53.8834252593
 30
0.0
 10
26.6310185147
 20
54.1469628337
 30
0.0
 10
27.2216378568
 20
54.4352320071
 30
0.0
 10
27.636960486
 20
54.7023392807
 30
0.0
 10
27.9927887027
 20
54.976336835
 30
0.0
 10
28.2253882782
 20
55.2121524386
 30
0.0
 10
28.3558787467
 20
55.3806443183
 30
0.0
  0
ENDSEC
  0
SECTION
  2
OBJECTS
  0
DICTIONARY
  5
C
100
AcDbDictionary
280
0
281
1
  3
ACAD_GROUP
350
D
  3
ACAD_MLINESTYLE
350
17
  3
ACAD_LAYOUT
350
1A
  3
ACAD_PLOTSETTINGS
350
19
  3
ACAD_PLOTSTYLENAME
350
E
  0
DICTIONARY
  5
D
102
{ACAD_REACTORS
330
C
102
}
100
AcDbDictionary
280
0
281
1
  0
ACDBDICTIONARYWDFLT
  5
E
102
{ACAD_REACTORS
330
C
102
}
100
AcDbDictionary
281
1
  3
Normal
350
F
100
AcDbDictionaryWithDefault
340
F
  0
DICTIONARY
  5
17
102
{ACAD_REACTORS
330
C
102
}
100
AcDbDictionary
280
0
281
1
  3
Standard
350
18
  0
DICTIONARY
  5
19
102
{ACAD_REACTORS
330
C
102
}
100
AcDbDictionary
281
1
  0
DICTIONARY
  5
1A
102
{ACAD_REACTORS
330
C
102
}
100
AcDbDictionary
281
1
  3
Model
350
29F
  3
Layout1
350
2A0
  0
ACDBPLACEHOLDER
  5
F
102
{ACAD_REACTORS
330
E
102
}
  0
MLINESTYLE
  5
18
102
{ACAD_REACTORS
330
17
102
}
100
AcDbMlineStyle
  2
STANDARD
 70
0
  3

 62
256
 51
90.0
 52
90.0
 71
2
 49
0.5
 62
256
  6
BYLAYER
 49
-0.5
 62
256
  6
BYLAYER
  0
LAYOUT
  5
29F
102
{ACAD_REACTORS
330
1A
102
}
100
AcDbPlotSettings
  1

  2
none_device
  4

  6

 40
0.0
 41
0.0
 42
0.0
 43
0.0
 44
210.0
 45
297.0
 46
0.0
 47
0.0
 48
0.0
 49
0.0
140
0.0
141
0.0
142
1.0
143
1.0
 70
1024
 72
1
 73
0
 74
0
  7

 75
0
147
1.0
148
0.0
149
0.0
100
AcDbLayout
  1
Model
 70
0
 71
0
 10
0.0
 20
0.0
 11
210.0
 21
297.0
 12
0.0
 22
0.0
 32
0.0
 14
0.0
 24
0.0
 34
0.0
 15
0.0
 25
0.0
 35
0.0
146
0.0
 13
0.0
 23
0.0
 33
0.0
 16
1.0
 26
0.0
 36
0.0
 17
0.0
 27
1.0
 37
0.0
 76
0
330
212
345
0
346
0
  0
LAYOUT
  5
2A0
102
{ACAD_REACTORS
330
1A
102
}
100
AcDbPlotSettings
  1

  2
none_device
  4

  6

 40
0.0
 41
0.0
 42
0.0
 43
0.0
 44
210.0
 45
297.0
 46
0.0
 47
0.0
 48
0.0
 49
0.0
140
0.0
141
0.0
142
1.0
143
1.0
 70
0
 72
1
 73
0
 74
0
  7

 75
0
147
1.0
148
0.0
149
0.0
100
AcDbLayout
  1
Layout1
 70
0
 71
1
 10
0.0
 20
0.0
 11
210.0
 21
297.0
 12
0.0
 22
0.0
 32
0.0
 14
0.0
 24
0.0
 34
0.0
 15
0.0
 25
0.0
 35
0.0
146
0.0
 13
0.0
 23
0.0
 33
0.0
 16
1.0
 26
0.0
 36
0.0
 17
0.0
 27
1.0
 37
0.0
 76
0
330
213
345
0
346
0
  0
ENDSEC
  0
EOF
