999
DXF file: C:\Users\sesa63760\Dev\_Creo\CAD\MCADUE0001309_3D-CAD\drw0001_1.dxf
999
Pro/ENGINEER 2019471 by Parametric Technology Corporation
  0
SECTION
  2
HEADER
  9
$ACADVER
  1
AC1024
  9
$DWGCODEPAGE
  3
ANSI_1252
  9
$EXTMAX
 10
896.6919015436
 20
1268.1785464688
 30
0.0
  9
$EXTMIN
 10
0.0
 20
0.0
 30
0.0
  9
$LIMMIN
 10
0.0
 20
0.0
  9
$LIMMAX
 10
896.6919015436
 20
1268.1785464688
  9
$VIEWCTR
 10
448.3459507718
 20
634.0892732344
  9
$VIEWSIZE
 40
1268.1785464688
  9
$CLAYER
  8
0
  9
$LTSCALE
 40
82.6664533995
  9
$CELTYPE
  6
BYLAYER
  9
$DIMSCALE
 40
1.0
  9
$DIMASZ
 40
10.6749035898
  9
$DIMEXO
 40
1.0
  9
$DIMDLI
 40
57.1150041669
  9
$DIMEXE
 40
1.0
  9
$DIMCEN
 40
13.527237829
  9
$DIMLFAC
 40
1.0
  9
$DIMBLK
  1
_FILLED
  9
$DIMALT
 70
0
  9
$DIMALTF
 40
0.0393700787
  9
$DIMTXT
 40
14.9448650257
  9
$DIMTOL
 70
1
  9
$DIMLIM
 70
0
  9
$DIMTFAC
 40
1.0
  9
$DIMTP
 40
0.01
  9
$DIMTM
 40
0.01
  9
$DIMGAP
 40
0.625
  9
$DIMDSEP
 70
46
  9
$AUNITS
 70
0
  9
$PDMODE
 70
3
  9
$PDSIZE
 40
0.3125
  9
$HANDSEED
  5
40C
  9
$TILEMODE
 70
1
  9
$MEASUREMENT
 70
1
  9
$INSUNITS
 70
4
  0
ENDSEC
  0
SECTION
  2
CLASSES
  0
CLASS
  1
ACDBDICTIONARYWDFLT
  2
AcDbDictionaryWithDefault
  3
AutoCAD 2000
 90
0
 91
1
280
0
281
0
  0
CLASS
  1
ACDBPLACEHOLDER
  2
AcDbPlaceHolder
  3
AutoCAD 2000
 90
0
 91
1
280
0
281
0
  0
CLASS
  1
LAYOUT
  2
AcDbLayout
  3
AutoCAD 2000
 90
0
 91
0
280
0
281
0
  0
ENDSEC
  0
SECTION
  2
TABLES
  0
TABLE
  2
VPORT
  5
8
100
AcDbSymbolTable
 70
2
  0
VPORT
  5
1F4
100
AcDbSymbolTableRecord
100
AcDbViewportTableRecord
  2
*ACTIVE
 70
0
 10
0.0
 20
0.0
 11
1.0
 21
1.0
 12
448.3459507718
 22
634.0892732344
 13
0.0
 23
0.0
 14
1.0
 24
1.0
 15
0.0
 25
0.0
 16
0.0
 26
0.0
 36
1.0
 17
0.0
 27
0.0
 37
0.0
 40
1268.1785464688
 41
0.7070707071
 42
50.0
 43
0.0
 44
0.0
 50
0.0
 51
0.0
 71
0
 72
100
 73
1
 74
1
 75
0
 76
0
 77
0
 78
0
  0
ENDTAB
  0
TABLE
  2
LTYPE
  5
5
100
AcDbSymbolTable
 70
6
  0
LTYPE
  5
14
100
AcDbSymbolTableRecord
100
AcDbLinetypeTableRecord
  2
BYBLOCK
 70
0
  3

 72
65
 73
0
 40
0.0
  0
LTYPE
  5
15
100
AcDbSymbolTableRecord
100
AcDbLinetypeTableRecord
  2
BYLAYER
 70
0
  3

 72
65
 73
0
 40
0.0
  0
LTYPE
  5
16
100
AcDbSymbolTableRecord
100
AcDbLinetypeTableRecord
  2
CONTINUOUS
 70
64
  3
Solid line
 72
65
 73
0
 40
0.0
  0
LTYPE
  5
1F5
100
AcDbSymbolTableRecord
100
AcDbLinetypeTableRecord
  2
CENTER
 70
64
  3
____ _ ____ _ ____ _ ____ _ ____ _ ____ _ ____
 72
65
 73
4
 40
0.6
 49
0.375
 74
0
 49
-0.075
 74
0
 49
0.075
 74
0
 49
-0.075
 74
0
  0
LTYPE
  5
1F6
100
AcDbSymbolTableRecord
100
AcDbLinetypeTableRecord
  2
HIDDEN
 70
64
  3
- - - - - - - - - - - - - - - - - - - -
 72
65
 73
2
 40
0.2
 49
0.1
 74
0
 49
-0.1
 74
0
  0
LTYPE
  5
1F7
100
AcDbSymbolTableRecord
100
AcDbLinetypeTableRecord
  2
PHANTOM
 70
64
  3
_____ _ _ _____ _ _ _____ _ _ _____
 72
65
 73
6
 40
0.8
 49
0.45
 74
0
 49
-0.05
 74
0
 49
0.1
 74
0
 49
-0.05
 74
0
 49
0.1
 74
0
 49
-0.05
 74
0
  0
LTYPE
  5
1F8
100
AcDbSymbolTableRecord
100
AcDbLinetypeTableRecord
  2
DOT
 70
64
  3
. . . . . . . . . . . . . . . . . . . .
 72
65
 73
2
 40
0.2
 49
0.1
 74
0
 49
-0.1
 74
0
  0
LTYPE
  5
1F9
100
AcDbSymbolTableRecord
100
AcDbLinetypeTableRecord
  2
DASHED
 70
64
  3
- - - - - - - - - - - - - - - - - - - -
 72
65
 73
2
 40
0.2
 49
0.1
 74
0
 49
-0.1
 74
0
  0
ENDTAB
  0
TABLE
  2
LAYER
  5
2
100
AcDbSymbolTable
 70
36
  0
LAYER
  5
10
100
AcDbSymbolTableRecord
100
AcDbLayerTableRecord
  2
0
 70
0
 62
7
  6
CONTINUOUS
370
-3
390
F
  0
LAYER
  5
1FA
100
AcDbSymbolTableRecord
100
AcDbLayerTableRecord
  2
DEFAULT_1
 70
0
 62
7
  6
CENTER
370
-3
390
F
  0
LAYER
  5
1FB
100
AcDbSymbolTableRecord
100
AcDbLayerTableRecord
  2
DEFAULT_2
 70
0
 62
8
  6
HIDDEN
370
-3
390
F
  0
LAYER
  5
1FC
100
AcDbSymbolTableRecord
100
AcDbLayerTableRecord
  2
DEFAULT_3
 70
0
 62
7
  6
PHANTOM
370
-3
390
F
  0
LAYER
  5
1FD
100
AcDbSymbolTableRecord
100
AcDbLayerTableRecord
  2
00_COMPONENTS
 70
0
 62
7
  6
CONTINUOUS
370
-3
390
F
  0
LAYER
  5
1FE
100
AcDbSymbolTableRecord
100
AcDbLayerTableRecord
  2
01_1_DEFAULT_DATUMS
 70
0
 62
7
  6
CONTINUOUS
370
-3
390
F
  0
LAYER
  5
1FF
100
AcDbSymbolTableRecord
100
AcDbLayerTableRecord
  2
01_PLANES
 70
0
 62
7
  6
CONTINUOUS
370
-3
390
F
  0
LAYER
  5
200
100
AcDbSymbolTableRecord
100
AcDbLayerTableRecord
  2
02_COORD_SYS
 70
0
 62
7
  6
CONTINUOUS
370
-3
390
F
  0
LAYER
  5
201
100
AcDbSymbolTableRecord
100
AcDbLayerTableRecord
  2
03_AXES
 70
0
 62
7
  6
CONTINUOUS
370
-3
390
F
  0
LAYER
  5
202
100
AcDbSymbolTableRecord
100
AcDbLayerTableRecord
  2
04_POINTS
 70
0
 62
7
  6
CONTINUOUS
370
-3
390
F
  0
LAYER
  5
203
100
AcDbSymbolTableRecord
100
AcDbLayerTableRecord
  2
05_CURVES
 70
0
 62
7
  6
CONTINUOUS
370
-3
390
F
  0
LAYER
  5
204
100
AcDbSymbolTableRecord
100
AcDbLayerTableRecord
  2
06_SURFS
 70
0
 62
7
  6
CONTINUOUS
370
-3
390
F
  0
LAYER
  5
205
100
AcDbSymbolTableRecord
100
AcDbLayerTableRecord
  2
07_COSMETICS
 70
0
 62
7
  6
CONTINUOUS
370
-3
390
F
  0
LAYER
  5
206
100
AcDbSymbolTableRecord
100
AcDbLayerTableRecord
  2
10_NOTES
 70
0
 62
7
  6
CONTINUOUS
370
-3
390
F
  0
LAYER
  5
207
100
AcDbSymbolTableRecord
100
AcDbLayerTableRecord
  2
11_NOTES_PUB
 70
0
 62
7
  6
CONTINUOUS
370
-3
390
F
  0
LAYER
  5
208
100
AcDbSymbolTableRecord
100
AcDbLayerTableRecord
  2
13_REF_GTOL
 70
0
 62
7
  6
CONTINUOUS
370
-3
390
F
  0
LAYER
  5
209
100
AcDbSymbolTableRecord
100
AcDbLayerTableRecord
  2
16_MISC
 70
0
 62
7
  6
CONTINUOUS
370
-3
390
F
  0
LAYER
  5
20A
100
AcDbSymbolTableRecord
100
AcDbLayerTableRecord
  2
17_NO_PRINT
 70
0
 62
7
  6
CONTINUOUS
370
-3
390
F
  0
LAYER
  5
20B
100
AcDbSymbolTableRecord
100
AcDbLayerTableRecord
  2
18_DATUM_CAMS_JOINTS
 70
0
 62
7
  6
CONTINUOUS
370
-3
390
F
  0
LAYER
  5
20C
100
AcDbSymbolTableRecord
100
AcDbLayerTableRecord
  2
19_DATUM_FUNCTIONAL
 70
0
 62
7
  6
CONTINUOUS
370
-3
390
F
  0
LAYER
  5
20D
100
AcDbSymbolTableRecord
100
AcDbLayerTableRecord
  2
20_DATUM_KINEMATIC_SCHEME
 70
0
 62
7
  6
CONTINUOUS
370
-3
390
F
  0
ENDTAB
  0
TABLE
  2
STYLE
  5
3
100
AcDbSymbolTable
 70
1
  0
STYLE
  5
11
100
AcDbSymbolTableRecord
100
AcDbTextStyleTableRecord
  2
STANDARD
 70
0
 40
0.0
 41
0.8
 50
0.0
 71
0
 42
0.2
  3
txt
  4

  0
STYLE
  5
20E
100
AcDbSymbolTableRecord
100
AcDbTextStyleTableRecord
  2
TEXTSTYLE_1
 70
0
 40
0.0
 41
0.8
 50
0.0
 71
0
 42
0.2
  3
gdt
  4

  0
ENDTAB
  0
TABLE
  2
VIEW
  5
6
100
AcDbSymbolTable
 70
0
  0
ENDTAB
  0
TABLE
  2
UCS
  5
7
100
AcDbSymbolTable
 70
0
  0
ENDTAB
  0
TABLE
  2
APPID
  5
9
100
AcDbSymbolTable
 70
1
  0
APPID
  5
20F
100
AcDbSymbolTableRecord
100
AcDbRegAppTableRecord
  2
ACAD
 70
0
  0
ENDTAB
  0
TABLE
  2
BLOCK_RECORD
  5
1
100
AcDbSymbolTable
 70
0
  0
BLOCK_RECORD
  5
210
100
AcDbSymbolTableRecord
100
AcDbBlockTableRecord
  2
*Model_Space
  0
BLOCK_RECORD
  5
211
100
AcDbSymbolTableRecord
100
AcDbBlockTableRecord
  2
*Paper_Space
  0
BLOCK_RECORD
  5
212
100
AcDbSymbolTableRecord
100
AcDbBlockTableRecord
  2
_FILLED
  0
ENDTAB
  0
TABLE
  2
DIMSTYLE
  5
A
100
AcDbSymbolTable
 70
1
100
AcDbDimStyleTable
 71
0
  0
DIMSTYLE
105
213
100
AcDbSymbolTableRecord
100
AcDbDimStyleTableRecord
  2
STANDARD
 70
0
  3

  4

 40
1.0
 41
10.6749035898
 42
1.0
 43
0.38
 44
1.0
 45
0.0
 46
0.0
 47
0.01
 48
0.01
140
14.9448650257
141
0.09
142
0.0
143
25.4
144
1.0
145
0.0
146
1.0
147
0.625
 71
1
 72
0
 73
0
 74
0
 75
0
 76
0
 77
1
 78
8
 79
2
170
0
171
1
172
0
173
0
174
0
175
0
176
0
177
0
178
0
270
2
179
2
271
2
272
2
273
2
274
2
275
0
280
0
281
0
282
0
283
1
284
8
285
0
286
0
287
3
288
0
340
11
278
46
341
212
342
212
343
212
344
212
  0
ENDTAB
  0
ENDSEC
  0
SECTION
  2
BLOCKS
  0
BLOCK
  5
20
100
AcDbEntity
  8
0
100
AcDbBlockBegin
  2
*Model_Space
 70
0
 10
0.0
 20
0.0
 30
0.0
  3
*Model_Space
  1

  0
ENDBLK
  5
21
100
AcDbEntity
  8
0
100
AcDbBlockEnd
  0
BLOCK
  5
1C
100
AcDbEntity
  8
0
100
AcDbBlockBegin
  2
*Paper_Space
 70
0
 10
0.0
 20
0.0
 30
0.0
  3
*Paper_Space
  1

  0
ENDBLK
  5
1D
100
AcDbEntity
  8
0
100
AcDbBlockEnd
  0
BLOCK
  5
214
100
AcDbEntity
  8
0
100
AcDbBlockBegin
  2
_FILLED
 70
64
 10
0.0
 20
0.0
  3
_FILLED
  1

  0
SOLID
  5
215
100
AcDbEntity
  8
0
  6
BYBLOCK
 62
0
100
AcDbTrace
 10
0.0
 20
0.0
 11
-1.0
 21
0.25
 12
-1.0
 22
-0.25
 13
-1.0
 23
-0.25
  0
ENDBLK
  5
216
100
AcDbEntity
  8
0
  6
BYBLOCK
 62
0
100
AcDbBlockEnd
  0
ENDSEC
  0
SECTION
  2
ENTITIES
  0
LINE
  5
217
100
AcDbEntity
  8
0
100
AcDbLine
 62
7
  6
CONTINUOUS
 10
526.0138974302
 20
107.9640237912
 11
524.5166159657
 21
107.6914618462
  0
LINE
  5
218
100
AcDbEntity
  8
0
100
AcDbLine
 62
7
  6
CONTINUOUS
 10
524.5166159657
 20
107.6914618462
 11
517.5194300314
 21
108.4037648505
  0
LINE
  5
219
100
AcDbEntity
  8
0
100
AcDbLine
 62
7
  6
CONTINUOUS
 10
524.2561498493
 20
108.0633585064
 11
519.3686423082
 21
108.5608994232
  0
LINE
  5
21A
100
AcDbEntity
  8
0
100
AcDbLine
 62
7
  6
CONTINUOUS
 10
514.8679950698
 20
109.3492319185
 11
519.3686423083
 21
108.5608994232
  0
LINE
  5
21B
100
AcDbEntity
  8
0
100
AcDbLine
 62
7
  6
CONTINUOUS
 10
105.9907206929
 20
1001.2114584285
 11
105.5186352746
 21
1000.3470126605
  0
LINE
  5
21C
100
AcDbEntity
  8
0
100
AcDbLine
 62
7
  6
CONTINUOUS
 10
118.6471363466
 20
1011.2484814569
 11
382.3261643092
 21
1163.482747445
  0
LINE
  5
21D
100
AcDbEntity
  8
0
100
AcDbLine
 62
7
  6
CONTINUOUS
 10
112.801622674
 20
1005.1437110484
 11
104.9300561052
 21
1000.5990659346
  0
LINE
  5
21E
100
AcDbEntity
  8
0
100
AcDbLine
 62
7
  6
CONTINUOUS
 10
514.7274284456
 20
108.9334781606
 11
514.4625157016
 21
109.0864221446
  0
LINE
  5
21F
100
AcDbEntity
  8
0
100
AcDbLine
 62
7
  6
CONTINUOUS
 10
513.8236832651
 20
109.4552438799
 11
106.3445120504
 21
344.7081309385
  0
LINE
  5
220
100
AcDbEntity
  8
0
100
AcDbLine
 62
7
  6
CONTINUOUS
 10
513.1609238388
 20
110.9201595529
 11
106.5854978046
 21
345.6512808921
  0
LINE
  5
221
100
AcDbEntity
  8
0
100
AcDbLine
 62
7
  6
CONTINUOUS
 10
104.9032438933
 20
347.8471953886
 11
105.6968475876
 21
345.5789598315
  0
LINE
  5
222
100
AcDbEntity
  8
0
100
AcDbLine
 62
7
  6
CONTINUOUS
 10
104.9032438934
 20
347.8471953884
 11
104.0414247295
 21
350.6689546998
  0
LINE
  5
223
100
AcDbEntity
  8
0
100
AcDbLine
 62
7
  6
CONTINUOUS
 10
539.4123778341
 20
115.1221652645
 11
534.3833774663
 21
118.0255942963
  0
LINE
  5
224
100
AcDbEntity
  8
0
100
AcDbLine
 62
7
  6
CONTINUOUS
 10
538.8117521039
 20
116.4497450932
 11
534.3833774663
 21
119.0064105428
  0
LINE
  5
225
100
AcDbEntity
  8
0
100
AcDbLine
 62
7
  6
CONTINUOUS
 10
104.0414247295
 20
350.6689546998
 11
103.9934928493
 21
350.9897771552
  0
LINE
  5
226
100
AcDbEntity
  8
0
100
AcDbLine
 62
7
  6
CONTINUOUS
 10
103.9928072256
 20
999.2926955201
 11
103.9928072256
 21
350.9897763192
  0
LINE
  5
227
100
AcDbEntity
  8
0
100
AcDbLine
 62
7
  6
CONTINUOUS
 10
104.0414247295
 20
350.6689546998
 11
104.0414247295
 21
998.9718739007
  0
LINE
  5
228
100
AcDbEntity
  8
0
100
AcDbLine
 62
7
  6
CONTINUOUS
 10
105.5186352746
 20
999.1222590348
 11
105.5186352746
 21
1000.3470126605
  0
LINE
  5
229
100
AcDbEntity
  8
0
100
AcDbLine
 62
7
  6
CONTINUOUS
 10
105.6968475876
 20
993.2215322814
 11
105.6968475876
 21
345.5789598315
  0
LINE
  5
22A
100
AcDbEntity
  8
0
100
AcDbLine
 62
7
  6
CONTINUOUS
 10
106.5854978046
 20
345.6512808921
 11
106.5854978046
 21
991.1780918748
  0
LINE
  5
22B
100
AcDbEntity
  8
0
100
AcDbLine
 62
7
  6
CONTINUOUS
 10
117.7977545495
 20
1008.6765291596
 11
117.7977545495
 21
1002.8341839245
  0
LINE
  5
22C
100
AcDbEntity
  8
0
100
AcDbLine
 62
7
  6
CONTINUOUS
 10
118.6471534216
 20
1002.3437943511
 11
118.6471534216
 21
1007.4926211135
  0
LINE
  5
22D
100
AcDbEntity
  8
0
100
AcDbLine
 62
7
  6
CONTINUOUS
 10
103.9934928493
 20
999.2926963561
 11
104.0414247295
 21
998.9718739007
  0
LINE
  5
22E
100
AcDbEntity
  8
0
100
AcDbLine
 62
7
  6
CONTINUOUS
 10
106.3558758751
 20
344.7577140642
 11
106.3445128401
 21
344.7081304825
  0
LINE
  5
22F
100
AcDbEntity
  8
0
100
AcDbLine
 62
7
  6
CONTINUOUS
 10
105.5204220982
 20
999.1224409396
 11
105.493097931
 21
999.2926962035
  0
LWPOLYLINE
  5
230
100
AcDbEntity
  8
0
100
AcDbPolyline
 62
7
  6
CONTINUOUS
 90
4
 70
0
 10
492.6617133364
 20
422.5628857565
 10
493.371151911
 20
422.6627181599
 10
493.8413820035
 20
422.7981406707
 10
494.656789602
 20
423.1221073179
  0
LINE
  5
231
100
AcDbEntity
  8
0
100
AcDbLine
 62
7
  6
CONTINUOUS
 10
492.6590486817
 20
422.562787704
 11
492.6617944032
 21
422.5628729873
  0
LINE
  5
232
100
AcDbEntity
  8
0
100
AcDbLine
 62
7
  6
CONTINUOUS
 10
492.3322072047
 20
422.5575123922
 11
492.6590486817
 21
422.562787704
  0
LINE
  5
233
100
AcDbEntity
  8
0
100
AcDbLine
 62
7
  6
CONTINUOUS
 10
104.0414247295
 20
998.9718739007
 11
104.9032438934
 21
996.1501145893
  0
LINE
  5
234
100
AcDbEntity
  8
0
100
AcDbLine
 62
7
  6
CONTINUOUS
 10
106.5754258997
 20
995.6621261999
 11
105.5186352746
 21
999.1222590348
  0
LINE
  5
235
100
AcDbEntity
  8
0
100
AcDbLine
 62
7
  6
CONTINUOUS
 10
105.5186352746
 20
1000.3470126605
 11
106.7524561701
 21
996.307249162
  0
LINE
  5
236
100
AcDbEntity
  8
0
100
AcDbLine
 62
7
  6
CONTINUOUS
 10
105.6968475876
 20
993.2215322814
 11
104.9032438934
 21
996.1501145894
  0
LINE
  5
237
100
AcDbEntity
  8
0
100
AcDbLine
 62
7
  6
CONTINUOUS
 10
106.3804544385
 20
996.3004997231
 11
106.5643661198
 21
995.6218228217
  0
LINE
  5
238
100
AcDbEntity
  8
0
100
AcDbLine
 62
7
  6
CONTINUOUS
 10
480.7688017099
 20
456.7452720586
 11
480.7818608377
 21
456.7476928681
  0
LINE
  5
239
100
AcDbEntity
  8
0
100
AcDbLine
 62
7
  6
CONTINUOUS
 10
479.5554575202
 20
456.8802349989
 11
478.6093936103
 21
456.7539849789
  0
LINE
  5
23A
100
AcDbEntity
  8
0
100
AcDbLine
 62
7
  6
CONTINUOUS
 10
484.0567215993
 20
452.6853280492
 11
484.0473906913
 21
452.6853862067
  0
LWPOLYLINE
  5
23B
100
AcDbEntity
  8
0
100
AcDbPolyline
 62
7
  6
CONTINUOUS
 90
3
 70
0
 10
484.056704857
 20
452.6852980676
 10
484.1985871453
 20
452.669472347
 10
484.2915838863
 20
452.6340419642
  0
LINE
  5
23C
100
AcDbEntity
  8
0
100
AcDbLine
 62
7
  6
CONTINUOUS
 10
538.8117521039
 20
116.4497450932
 11
534.3833774663
 21
124.1198723819
  0
LINE
  5
23D
100
AcDbEntity
  8
0
100
AcDbLine
 62
7
  6
CONTINUOUS
 10
484.2287703251
 20
451.1304393283
 11
485.7245138123
 21
450.2668909594
  0
LINE
  5
23E
100
AcDbEntity
  8
0
100
AcDbLine
 62
7
  6
CONTINUOUS
 10
485.5968484501
 20
450.8261820008
 11
484.4373073529
 21
451.4956282205
  0
LINE
  5
23F
100
AcDbEntity
  8
0
100
AcDbLine
 62
7
  6
CONTINUOUS
 10
485.1769022712
 20
452.122914555
 11
484.2916291712
 21
452.6340156549
  0
LINE
  5
240
100
AcDbEntity
  8
0
100
AcDbLine
 62
7
  6
CONTINUOUS
 10
485.1044346879
 20
452.266341572
 11
484.2294954981
 21
452.771476521
  0
LINE
  5
241
100
AcDbEntity
  8
0
100
AcDbLine
 62
7
  6
CONTINUOUS
 10
474.3639869978
 20
432.8096911609
 11
474.3642462907
 21
432.8093662203
  0
LINE
  5
242
100
AcDbEntity
  8
0
100
AcDbLine
 62
7
  6
CONTINUOUS
 10
473.0869210628
 20
436.2884879371
 11
472.6920042643
 21
436.945588925
  0
LINE
  5
243
100
AcDbEntity
  8
0
100
AcDbLine
 62
7
  6
CONTINUOUS
 10
118.6471534217
 20
1007.4926211134
 11
123.1061548898
 21
999.7694468927
  0
LINE
  5
244
100
AcDbEntity
  8
0
100
AcDbLine
 62
7
  6
CONTINUOUS
 10
514.4603271376
 20
757.261475965
 11
514.3045242374
 21
757.1380053807
  0
LINE
  5
245
100
AcDbEntity
  8
0
100
AcDbLine
 62
7
  6
CONTINUOUS
 10
514.3045242374
 20
757.1380053807
 11
513.9289116363
 21
756.8903707165
  0
LINE
  5
246
100
AcDbEntity
  8
0
100
AcDbLine
 62
7
  6
CONTINUOUS
 10
533.8854639991
 20
760.8115881058
 11
534.3833774663
 21
761.1053287349
  0
LINE
  5
247
100
AcDbEntity
  8
0
100
AcDbLine
 62
7
  6
CONTINUOUS
 10
513.9238945103
 20
756.8874692288
 11
513.160923839
 21
756.4469705356
  0
LINE
  5
248
100
AcDbEntity
  8
0
100
AcDbLine
 62
7
  6
CONTINUOUS
 10
532.8247994114
 20
762.6487028633
 11
526.0138974302
 21
758.7164502434
  0
LINE
  5
249
100
AcDbEntity
  8
0
100
AcDbLine
 62
7
  6
CONTINUOUS
 10
542.0644397646
 20
767.7737205507
 11
804.894936057
 21
919.5180725447
  0
LINE
  5
24A
100
AcDbEntity
  8
0
100
AcDbLine
 62
7
  6
CONTINUOUS
 10
539.6602767086
 20
765.4058577621
 11
538.8117521049
 21
764.915964778
  0
LINE
  5
24B
100
AcDbEntity
  8
0
100
AcDbLine
 62
7
  6
CONTINUOUS
 10
542.0644397646
 20
766.7939176502
 11
805.7434506521
 21
919.028132864
  0
LINE
  5
24C
100
AcDbEntity
  8
0
100
AcDbLine
 62
7
  6
CONTINUOUS
 10
538.811752104
 20
764.9159647775
 11
532.8094930756
 21
761.4504598308
  0
LINE
  5
24D
100
AcDbEntity
  8
0
100
AcDbLine
 62
7
  6
CONTINUOUS
 10
532.8247994113
 20
761.4239492376
 11
526.0138974302
 21
757.4916966178
  0
LINE
  5
24E
100
AcDbEntity
  8
0
100
AcDbLine
 62
7
  6
CONTINUOUS
 10
542.9129714339
 20
766.3040287453
 11
805.7434677263
 21
918.0483807393
  0
LINE
  5
24F
100
AcDbEntity
  8
0
100
AcDbLine
 62
7
  6
CONTINUOUS
 10
533.8854639991
 20
760.8115881058
 11
527.0745620179
 21
756.879335486
  0
LINE
  5
250
100
AcDbEntity
  8
0
100
AcDbLine
 62
7
  6
CONTINUOUS
 10
532.8247994114
 20
762.6487028633
 11
533.3281792088
 21
762.9330086807
  0
LWPOLYLINE
  5
251
100
AcDbEntity
  8
0
100
AcDbPolyline
 62
7
  6
CONTINUOUS
 90
3
 70
0
 10
472.6919934202
 20
436.9455571129
 10
473.523829982
 20
434.1468878553
 10
474.363866974
 20
432.8098271242
  0
LINE
  5
252
100
AcDbEntity
  8
0
100
AcDbLine
 62
7
  6
CONTINUOUS
 10
535.4427313706
 20
709.8401228053
 11
535.5841521381
 21
709.9217716361
  0
LINE
  5
253
100
AcDbEntity
  8
0
100
AcDbLine
 62
7
  6
CONTINUOUS
 10
476.1012524788
 20
447.2529211617
 11
476.0955739096
 21
432.7402581507
  0
LINE
  5
254
100
AcDbEntity
  8
0
100
AcDbLine
 62
7
  6
CONTINUOUS
 10
476.0204231369
 20
460.2014415389
 11
476.0176644157
 21
453.3212310842
  0
LINE
  5
255
100
AcDbEntity
  8
0
100
AcDbLine
 62
7
  6
CONTINUOUS
 10
476.0153359256
 20
447.5047840034
 11
476.0094335435
 21
432.7843289041
  0
LINE
  5
256
100
AcDbEntity
  8
0
100
AcDbLine
 62
7
  6
CONTINUOUS
 10
476.106525939
 20
460.1517276904
 11
476.1038483779
 21
453.4739293268
  0
LINE
  5
257
100
AcDbEntity
  8
0
100
AcDbLine
 62
7
  6
CONTINUOUS
 10
479.5486318384
 20
439.8633974541
 11
479.5445071358
 21
429.5764491368
  0
LINE
  5
258
100
AcDbEntity
  8
0
100
AcDbLine
 62
7
  6
CONTINUOUS
 10
479.5564385693
 20
459.3269569132
 11
479.5554575202
 21
456.8802347684
  0
LINE
  5
259
100
AcDbEntity
  8
0
100
AcDbLine
 62
7
  6
CONTINUOUS
 10
479.6347218751
 20
439.7688454032
 11
479.6306151509
 21
429.5267348825
  0
LINE
  5
25A
100
AcDbEntity
  8
0
100
AcDbLine
 62
7
  6
CONTINUOUS
 10
479.6425442126
 20
459.2772426394
 11
479.6415811404
 21
456.8753544401
  0
LINE
  5
25B
100
AcDbEntity
  8
0
100
AcDbLine
 62
7
  6
CONTINUOUS
 10
483.0910252472
 20
454.8838647524
 11
483.0919883164
 21
457.285745421
  0
LINE
  5
25C
100
AcDbEntity
  8
0
100
AcDbLine
 62
7
  6
CONTINUOUS
 10
483.080061878
 20
427.5352274141
 11
483.0841686077
 21
437.7773514924
  0
LINE
  5
25D
100
AcDbEntity
  8
0
100
AcDbLine
 62
7
  6
CONTINUOUS
 10
483.1770998031
 20
454.7893283868
 11
483.1780808492
 21
457.2360429125
  0
LINE
  5
25E
100
AcDbEntity
  8
0
100
AcDbLine
 62
7
  6
CONTINUOUS
 10
483.1661702647
 20
427.4855136306
 11
483.1702949718
 21
437.7724730721
  0
LINE
  5
25F
100
AcDbEntity
  8
0
100
AcDbLine
 62
7
  6
CONTINUOUS
 10
486.6160790055
 20
426.6607404954
 11
486.6219002246
 21
441.1787762038
  0
LINE
  5
260
100
AcDbEntity
  8
0
100
AcDbLine
 62
7
  6
CONTINUOUS
 10
486.624569529
 20
447.3992521616
 11
486.6272422584
 21
454.0650003454
  0
LINE
  5
261
100
AcDbEntity
  8
0
100
AcDbLine
 62
7
  6
CONTINUOUS
 10
486.7104122785
 20
447.1479212974
 11
486.7131710026
 21
454.0281390519
  0
LINE
  5
262
100
AcDbEntity
  8
0
100
AcDbLine
 62
7
  6
CONTINUOUS
 10
486.702184883
 20
426.6110284208
 11
486.7080872621
 21
441.3314762204
  0
LINE
  5
263
100
AcDbEntity
  8
0
100
AcDbLine
 62
7
  6
CONTINUOUS
 10
514.8679950698
 20
756.9918043685
 11
515.1284611861
 21
757.844661334
  0
LINE
  5
264
100
AcDbEntity
  8
0
100
AcDbLine
 62
7
  6
CONTINUOUS
 10
519.6291084244
 20
757.7166755896
 11
519.3686423082
 21
756.8638186241
  0
LINE
  5
265
100
AcDbEntity
  8
0
100
AcDbLine
 62
7
  6
CONTINUOUS
 10
513.1609238388
 20
756.4469705356
 11
513.1609238388
 21
110.9201595529
  0
LINE
  5
266
100
AcDbEntity
  8
0
100
AcDbLine
 62
7
  6
CONTINUOUS
 10
514.8679950698
 20
109.3492319185
 11
514.8679950698
 21
756.9918043684
  0
LINE
  5
267
100
AcDbEntity
  8
0
100
AcDbLine
 62
7
  6
CONTINUOUS
 10
517.5194300314
 20
108.4037648508
 11
517.5194300314
 21
108.8848070861
  0
LINE
  5
268
100
AcDbEntity
  8
0
100
AcDbLine
 62
7
  6
CONTINUOUS
 10
517.5194300314
 20
757.9314376771
 11
517.5194300314
 21
759.1561913025
  0
LINE
  5
269
100
AcDbEntity
  8
0
100
AcDbLine
 62
7
  6
CONTINUOUS
 10
524.2561498494
 20
756.3662777073
 11
524.2561498493
 21
108.0633585064
  0
LINE
  5
26A
100
AcDbEntity
  8
0
100
AcDbLine
 62
7
  6
CONTINUOUS
 10
524.5166159657
 20
108.0633585064
 11
524.5166159657
 21
107.6914618462
  0
LINE
  5
26B
100
AcDbEntity
  8
0
100
AcDbLine
 62
7
  6
CONTINUOUS
 10
524.5166159657
 20
757.2191346728
 11
524.5166159657
 21
758.4438882985
  0
LINE
  5
26C
100
AcDbEntity
  8
0
100
AcDbLine
 62
7
  6
CONTINUOUS
 10
526.0138974302
 20
108.1892192252
 11
526.0138974302
 21
107.9640237912
  0
LINE
  5
26D
100
AcDbEntity
  8
0
100
AcDbLine
 62
7
  6
CONTINUOUS
 10
526.0138974302
 20
757.4916966178
 11
526.0138974302
 21
758.7164502434
  0
LINE
  5
26E
100
AcDbEntity
  8
0
100
AcDbLine
 62
7
  6
CONTINUOUS
 10
527.0745620179
 20
108.5764162851
 11
527.0745620179
 21
756.879335486
  0
LINE
  5
26F
100
AcDbEntity
  8
0
100
AcDbLine
 62
7
  6
CONTINUOUS
 10
532.8247994114
 20
762.6487028633
 11
532.8247994114
 21
761.4239492376
  0
LINE
  5
270
100
AcDbEntity
  8
0
100
AcDbLine
 62
7
  6
CONTINUOUS
 10
533.8854639991
 20
760.8115881058
 11
533.8854639991
 21
112.5086689049
  0
LINE
  5
271
100
AcDbEntity
  8
0
100
AcDbLine
 62
7
  6
CONTINUOUS
 10
534.3833774663
 20
761.1053324773
 11
534.3833774663
 21
113.6029430988
  0
LINE
  5
272
100
AcDbEntity
  8
0
100
AcDbLine
 62
7
  6
CONTINUOUS
 10
538.811752104
 20
764.9159647775
 11
538.811752104
 21
116.4497450932
  0
LINE
  5
273
100
AcDbEntity
  8
0
100
AcDbLine
 62
7
  6
CONTINUOUS
 10
542.0644397646
 20
114.5717868481
 11
542.0644397646
 21
115.0617008422
  0
LINE
  5
274
100
AcDbEntity
  8
0
100
AcDbLine
 62
7
  6
CONTINUOUS
 10
542.0644397646
 20
766.7939176502
 11
542.0644397646
 21
767.7737205497
  0
LINE
  5
275
100
AcDbEntity
  8
0
100
AcDbLine
 62
7
  6
CONTINUOUS
 10
542.9129714348
 20
115.0617008422
 11
542.9129714348
 21
766.3040287447
  0
LINE
  5
276
100
AcDbEntity
  8
0
100
AcDbLine
 62
7
  6
CONTINUOUS
 10
532.8247994114
 20
761.7697024533
 11
532.8580594299
 21
762.0512810741
  0
LWPOLYLINE
  5
277
100
AcDbEntity
  8
0
100
AcDbPolyline
 62
7
  6
CONTINUOUS
 90
4
 70
0
 10
475.9877302194
 20
468.1445487015
 10
474.8247552055
 20
466.7800721558
 10
473.5250867191
 20
464.5303296849
 10
472.7189940286
 20
461.9071775244
  0
LINE
  5
278
100
AcDbEntity
  8
0
100
AcDbLine
 62
7
  6
CONTINUOUS
 10
526.0138974302
 20
757.4916966178
 11
524.5166159657
 21
757.2191346728
  0
LINE
  5
279
100
AcDbEntity
  8
0
100
AcDbLine
 62
7
  6
CONTINUOUS
 10
524.5166159657
 20
758.4438882985
 11
526.0138974302
 21
758.7164502434
  0
LINE
  5
27A
100
AcDbEntity
  8
0
100
AcDbLine
 62
7
  6
CONTINUOUS
 10
519.3686423085
 20
756.8638186241
 11
514.8679950698
 21
756.9918043684
  0
LINE
  5
27B
100
AcDbEntity
  8
0
100
AcDbLine
 62
7
  6
CONTINUOUS
 10
515.1284611861
 20
757.844661334
 11
519.629108424
 21
757.7166755897
  0
LINE
  5
27C
100
AcDbEntity
  8
0
100
AcDbLine
 62
7
  6
CONTINUOUS
 10
519.3686423082
 20
756.8638186241
 11
524.2561498494
 21
756.3662777073
  0
LINE
  5
27D
100
AcDbEntity
  8
0
100
AcDbLine
 62
7
  6
CONTINUOUS
 10
524.5166159656
 20
757.2191346728
 11
517.5194300314
 21
757.9314376771
  0
LINE
  5
27E
100
AcDbEntity
  8
0
100
AcDbLine
 62
7
  6
CONTINUOUS
 10
517.5194300314
 20
759.1561913028
 11
524.5166159657
 21
758.4438882985
  0
LINE
  5
27F
100
AcDbEntity
  8
0
100
AcDbLine
 62
7
  6
CONTINUOUS
 10
514.9120091244
 20
757.6505121288
 11
514.2089667821
 21
757.8130501358
  0
LINE
  5
280
100
AcDbEntity
  8
0
100
AcDbLine
 62
7
  6
CONTINUOUS
 10
475.9877302194
 20
468.1445487015
 11
475.9885510212
 21
468.1453671032
  0
LWPOLYLINE
  5
281
100
AcDbEntity
  8
0
100
AcDbPolyline
 62
7
  6
CONTINUOUS
 90
3
 70
0
 10
476.3876330253
 20
468.4881760009
 10
476.0782576623
 20
468.2312443025
 10
475.9884929743
 20
468.1453289623
  0
LINE
  5
282
100
AcDbEntity
  8
0
100
AcDbLine
 62
7
  6
CONTINUOUS
 10
479.8192531674
 20
452.4249827481
 11
479.6764544817
 21
452.3378035387
  0
LINE
  5
283
100
AcDbEntity
  8
0
100
AcDbLine
 62
7
  6
CONTINUOUS
 10
479.8179059568
 20
452.4199107771
 11
479.6912197089
 21
452.3426942434
  0
LINE
  5
284
100
AcDbEntity
  8
0
100
AcDbLine
 62
7
  6
CONTINUOUS
 10
479.817910077
 20
452.4199006697
 11
479.6912197089
 21
452.3426942434
  0
LINE
  5
285
100
AcDbEntity
  8
0
100
AcDbLine
 62
7
  6
CONTINUOUS
 10
481.2171428517
 20
456.2697216548
 11
481.5021139737
 21
456.4423036834
  0
LINE
  5
286
100
AcDbEntity
  8
0
100
AcDbLine
 62
7
  6
CONTINUOUS
 10
535.4427313706
 20
485.3019580947
 11
535.5841521381
 21
485.3836069255
  0
LINE
  5
287
100
AcDbEntity
  8
0
100
AcDbLine
 62
7
  6
CONTINUOUS
 10
480.3742899291
 20
456.3093877615
 11
477.3031985295
 21
454.6233733829
  0
LINE
  5
288
100
AcDbEntity
  8
0
100
AcDbLine
 62
7
  6
CONTINUOUS
 10
480.7514559633
 20
456.5222035719
 11
480.7521581362
 21
456.5225887727
  0
LWPOLYLINE
  5
289
100
AcDbEntity
  8
0
100
AcDbPolyline
 62
7
  6
CONTINUOUS
 90
3
 70
0
 10
480.7521506803
 20
456.5225846664
 10
480.8669388599
 20
456.5837438756
 10
480.9919410363
 20
456.6443013714
  0
LINE
  5
28A
100
AcDbEntity
  8
0
100
AcDbLine
 62
7
  6
CONTINUOUS
 10
480.9919516766
 20
456.6443066691
 11
480.99172928
 21
456.6442073387
  0
LINE
  5
28B
100
AcDbEntity
  8
0
100
AcDbLine
 62
7
  6
CONTINUOUS
 10
480.7688017099
 20
456.7452720586
 11
480.7804061553
 21
456.7504367522
  0
LINE
  5
28C
100
AcDbEntity
  8
0
100
AcDbLine
 62
7
  6
CONTINUOUS
 10
533.5502348941
 20
761.1049946378
 11
533.376073546
 21
761.1416579629
  0
LINE
  5
28D
100
AcDbEntity
  8
0
100
AcDbLine
 62
7
  6
CONTINUOUS
 10
533.376073546
 20
761.1416579629
 11
533.1241888368
 21
761.2511005826
  0
LINE
  5
28E
100
AcDbEntity
  8
0
100
AcDbLine
 62
7
  6
CONTINUOUS
 10
106.5854978046
 20
991.1780918748
 11
513.1609238388
 21
756.4469705356
  0
LINE
  5
28F
100
AcDbEntity
  8
0
100
AcDbLine
 62
7
  6
CONTINUOUS
 10
517.5194300314
 20
759.1561913028
 11
106.7524561701
 21
996.307249162
  0
LINE
  5
290
100
AcDbEntity
  8
0
100
AcDbLine
 62
7
  6
CONTINUOUS
 10
532.8247994113
 20
761.4239492376
 11
533.8854639991
 21
760.8115881058
  0
LINE
  5
291
100
AcDbEntity
  8
0
100
AcDbLine
 62
7
  6
CONTINUOUS
 10
112.801622674
 20
1005.1437110484
 11
532.8247994114
 21
762.6487028633
  0
LINE
  5
292
100
AcDbEntity
  8
0
100
AcDbLine
 62
7
  6
CONTINUOUS
 10
113.9982429741
 20
1005.0277833295
 11
533.3281502673
 21
762.9330253897
  0
LINE
  5
293
100
AcDbEntity
  8
0
100
AcDbLine
 62
7
  6
CONTINUOUS
 10
118.6471534217
 20
1007.4926211134
 11
538.811752104
 21
764.9159647775
  0
LINE
  5
294
100
AcDbEntity
  8
0
100
AcDbLine
 62
7
  6
CONTINUOUS
 10
542.9129714339
 20
766.3040287453
 11
542.0644397646
 21
766.7939176502
  0
LINE
  5
295
100
AcDbEntity
  8
0
100
AcDbLine
 62
7
  6
CONTINUOUS
 10
119.0714057146
 20
1011.0035349645
 11
118.6471363475
 21
1011.2484814564
  0
LINE
  5
296
100
AcDbEntity
  8
0
100
AcDbLine
 62
7
  6
CONTINUOUS
 10
542.0644397646
 20
767.7737205507
 11
119.4956680168
 21
1011.738395452
  0
LINE
  5
297
100
AcDbEntity
  8
0
100
AcDbLine
 62
7
  6
CONTINUOUS
 10
477.2994324327
 20
445.2260513118
 11
480.3705520806
 21
446.9686097029
  0
LINE
  5
298
100
AcDbEntity
  8
0
100
AcDbLine
 62
7
  6
CONTINUOUS
 10
479.6911591479
 20
452.3428473001
 11
479.6764527208
 21
452.3378065338
  0
LINE
  5
299
100
AcDbEntity
  8
0
100
AcDbLine
 62
7
  6
CONTINUOUS
 10
479.7632917921
 20
452.3669945321
 11
479.6911591479
 21
452.3428473001
  0
LINE
  5
29A
100
AcDbEntity
  8
0
100
AcDbLine
 62
7
  6
CONTINUOUS
 10
534.3833774663
 20
113.6029455147
 11
533.8854639991
 21
112.5086689049
  0
LINE
  5
29B
100
AcDbEntity
  8
0
100
AcDbLine
 62
7
  6
CONTINUOUS
 10
112.801622674
 20
1005.1437110484
 11
113.9982448574
 21
1005.0277822422
  0
LINE
  5
29C
100
AcDbEntity
  8
0
100
AcDbLine
 62
7
  6
CONTINUOUS
 10
804.894936057
 20
919.5180725437
 11
804.894936057
 21
918.5382696442
  0
LINE
  5
29D
100
AcDbEntity
  8
0
100
AcDbLine
 62
7
  6
CONTINUOUS
 10
805.7434677272
 20
918.0483807388
 11
805.7434677272
 21
266.8060528362
  0
LINE
  5
29E
100
AcDbEntity
  8
0
100
AcDbLine
 62
7
  6
CONTINUOUS
 10
806.5928495243
 20
268.6839743994
 11
806.5928495243
 21
918.5382555518
  0
LINE
  5
29F
100
AcDbEntity
  8
0
100
AcDbLine
 62
7
  6
CONTINUOUS
 10
805.7438779781
 20
920.0087023994
 11
805.7434506521
 21
919.028132864
  0
LINE
  5
2A0
100
AcDbEntity
  8
0
100
AcDbLine
 62
7
  6
CONTINUOUS
 10
514.4632134622
 20
109.641306166
 11
514.2089667823
 21
109.2889492543
  0
LINE
  5
2A1
100
AcDbEntity
  8
0
100
AcDbLine
 62
7
  6
CONTINUOUS
 10
105.6968475876
 20
993.2215322814
 11
106.3551898369
 21
993.2885537956
  0
LINE
  5
2A2
100
AcDbEntity
  8
0
100
AcDbLine
 62
7
  6
CONTINUOUS
 10
106.3804544384
 20
996.3004997235
 11
104.9032438934
 21
996.1501145893
  0
LINE
  5
2A3
100
AcDbEntity
  8
0
100
AcDbLine
 62
7
  6
CONTINUOUS
 10
805.7434506522
 20
919.0281328639
 11
806.5928495243
 21
918.538255563
  0
LINE
  5
2A4
100
AcDbEntity
  8
0
100
AcDbLine
 62
7
  6
CONTINUOUS
 10
804.894936057
 20
918.5382696442
 11
805.7434677263
 21
918.0483807393
  0
LINE
  5
2A5
100
AcDbEntity
  8
0
100
AcDbLine
 62
7
  6
CONTINUOUS
 10
382.3261643092
 20
1163.4827474461
 11
804.894936057
 21
919.5180725447
  0
LINE
  5
2A6
100
AcDbEntity
  8
0
100
AcDbLine
 62
7
  6
CONTINUOUS
 10
805.7438779879
 20
920.0087023937
 11
384.377173174
 21
1163.2793793275
  0
LINE
  5
2A7
100
AcDbEntity
  8
0
100
AcDbLine
 62
7
  6
CONTINUOUS
 10
535.4427313706
 20
169.3155226656
 11
535.5841521381
 21
169.3971714963
  0
LINE
  5
2A8
100
AcDbEntity
  8
0
100
AcDbLine
 62
7
  6
CONTINUOUS
 10
533.8854639991
 20
112.508668905
 11
526.0138974302
 21
107.9640237912
  0
LINE
  5
2A9
100
AcDbEntity
  8
0
100
AcDbLine
 62
7
  6
CONTINUOUS
 10
542.0644397646
 20
114.5717868481
 11
805.7434677272
 21
266.8060528362
  0
ARC
  5
2AA
100
AcDbEntity
  8
0
100
AcDbCircle
 62
7
  6
CONTINUOUS
 10
105.5210158785
 20
351.3023944941
 40
5.7504962145
100
AcDbArc
 50
278.6765509772
 51
280.6676224727
  0
ARC
  5
2AB
100
AcDbEntity
  8
0
100
AcDbCircle
 62
7
  6
CONTINUOUS
 10
105.6343000642
 20
350.557098154
 40
4.9966396542
100
AcDbArc
 50
276.7763565337
 51
278.6816524165
  0
ARC
  5
2AC
100
AcDbEntity
  8
0
100
AcDbCircle
 62
7
  6
CONTINUOUS
 10
114.6155918032
 20
993.7515193981
 40
8.272530309
100
AcDbArc
 50
167.9156729698
 51
175.1614368047
  0
ARC
  5
2AD
100
AcDbEntity
  8
0
100
AcDbCircle
 62
7
  6
CONTINUOUS
 10
114.5115464527
 20
993.749247982
 40
8.1690547932
100
AcDbArc
 50
175.084009144
 51
183.2802542045
  0
ARC
  5
2AE
100
AcDbEntity
  8
0
100
AcDbCircle
 62
7
  6
CONTINUOUS
 10
114.2019417669
 20
993.8368690252
 40
7.8501791246
100
AcDbArc
 50
166.4121278005
 51
167.8927569358
  0
ARC
  5
2AF
100
AcDbEntity
  8
0
100
AcDbCircle
 62
7
  6
CONTINUOUS
 10
112.6068916747
 20
992.8258005494
 40
6.2676269558
100
AcDbArc
 50
175.8276382513
 51
182.3784645535
  0
ARC
  5
2B0
100
AcDbEntity
  8
0
100
AcDbCircle
 62
7
  6
CONTINUOUS
 10
124.1800133371
 20
1008.5772632629
 40
5.6801942049
100
AcDbArc
 50
166.9370541934
 51
171.7469062189
  0
ARC
  5
2B1
100
AcDbEntity
  8
0
100
AcDbCircle
 62
7
  6
CONTINUOUS
 10
109.7535422287
 20
993.8567354932
 40
4.1061240278
100
AcDbArc
 50
188.8991974488
 51
191.8207566851
  0
ARC
  5
2B2
100
AcDbEntity
  8
0
100
AcDbCircle
 62
7
  6
CONTINUOUS
 10
383.2343367119
 20
1161.2947233391
 40
2.2901822133
100
AcDbArc
 50
60.0651114677
 51
71.7203638452
  0
ARC
  5
2B3
100
AcDbEntity
  8
0
100
AcDbCircle
 62
7
  6
CONTINUOUS
 10
120.0878984358
 20
1009.3679797145
 40
2.2901453396
100
AcDbArc
 50
168.2798522088
 51
179.9354480341
  0
ARC
  5
2B4
100
AcDbEntity
  8
0
100
AcDbCircle
 62
7
  6
CONTINUOUS
 10
120.0878529125
 20
1009.3731363757
 40
2.2900998121
100
AcDbArc
 50
180.0644607734
 51
191.7203858798
  0
ARC
  5
2B5
100
AcDbEntity
  8
0
100
AcDbCircle
 62
7
  6
CONTINUOUS
 10
492.3035072325
 20
434.4633363806
 40
11.9058585799
100
AcDbArc
 50
270.1381388589
 51
271.7112628474
  0
ARC
  5
2B6
100
AcDbEntity
  8
0
100
AcDbCircle
 62
7
  6
CONTINUOUS
 10
490.5167598902
 20
431.2063785586
 40
9.0048830943
100
AcDbArc
 50
297.1590849321
 51
299.4958260385
  0
ARC
  5
2B7
100
AcDbEntity
  8
0
100
AcDbCircle
 62
7
  6
CONTINUOUS
 10
488.6233595169
 20
453.1730559234
 40
8.8686854764
100
AcDbArc
 50
184.0119183219
 51
184.5526422049
  0
ARC
  5
2B8
100
AcDbEntity
  8
0
100
AcDbCircle
 62
7
  6
CONTINUOUS
 10
488.4857491419
 20
453.1633930498
 40
8.73073626
100
AcDbArc
 50
183.5020304201
 51
184.0118433418
  0
ARC
  5
2B9
100
AcDbEntity
  8
0
100
AcDbCircle
 62
7
  6
CONTINUOUS
 10
492.9953754713
 20
445.0877646995
 40
8.6159741131
100
AcDbArc
 50
114.6978711254
 51
115.0353161312
  0
ARC
  5
2BA
100
AcDbEntity
  8
0
100
AcDbCircle
 62
7
  6
CONTINUOUS
 10
488.3302267768
 20
453.1539540538
 40
8.5749277415
100
AcDbArc
 50
182.8204262355
 51
183.5025552361
  0
ARC
  5
2BB
100
AcDbEntity
  8
0
100
AcDbCircle
 62
7
  6
CONTINUOUS
 10
483.4183918376
 20
435.1650477234
 40
7.8601064135
100
AcDbArc
 50
208.3601875337
 51
213.6126302745
  0
ARC
  5
2BC
100
AcDbEntity
  8
0
100
AcDbCircle
 62
7
  6
CONTINUOUS
 10
488.7341546553
 20
449.278330883
 40
7.7095969504
100
AcDbArc
 50
239.9992529327
 51
240.721283956
  0
ARC
  5
2BD
100
AcDbEntity
  8
0
100
AcDbCircle
 62
7
  6
CONTINUOUS
 10
518.9797192021
 20
115.6655742629
 40
7.5367404063
100
AcDbArc
 50
233.1207587349
 51
236.93724071
  0
ARC
  5
2BE
100
AcDbEntity
  8
0
100
AcDbCircle
 62
7
  6
CONTINUOUS
 10
518.7731742654
 20
115.3885676109
 40
7.1912083581
100
AcDbArc
 50
230.9446948454
 51
233.1125969305
  0
ARC
  5
2BF
100
AcDbEntity
  8
0
100
AcDbCircle
 62
7
  6
CONTINUOUS
 10
524.8117641969
 20
113.5810636258
 40
5.5456835519
100
AcDbArc
 50
266.9517863188
 51
274.7967548201
  0
ARC
  5
2C0
100
AcDbEntity
  8
0
100
AcDbCircle
 62
7
  6
CONTINUOUS
 10
481.113825434
 20
453.9357599866
 40
5.529212986
100
AcDbArc
 50
9.3107993547
 51
16.3792550692
  0
ARC
  5
2C1
100
AcDbEntity
  8
0
100
AcDbCircle
 62
7
  6
CONTINUOUS
 10
524.8022094672
 20
113.4367391029
 40
5.4010554655
100
AcDbArc
 50
264.1973454618
 51
266.9715873826
  0
ARC
  5
2C2
100
AcDbEntity
  8
0
100
AcDbCircle
 62
7
  6
CONTINUOUS
 10
488.4410753454
 20
447.3915525473
 40
5.1852249635
100
AcDbArc
 50
252.6162885062
 51
255.4655855147
  0
ARC
  5
2C3
100
AcDbEntity
  8
0
100
AcDbCircle
 62
7
  6
CONTINUOUS
 10
484.3642651418
 20
453.0454902838
 40
4.6916773871
100
AcDbArc
 50
162.1476236329
 51
167.052240356
  0
ARC
  5
2C4
100
AcDbEntity
  8
0
100
AcDbCircle
 62
7
  6
CONTINUOUS
 10
480.3368834346
 20
433.5068613456
 40
4.3624908365
100
AcDbArc
 50
190.0891055944
 51
199.8117554793
  0
ARC
  5
2C5
100
AcDbEntity
  8
0
100
AcDbCircle
 62
7
  6
CONTINUOUS
 10
487.7019671805
 20
446.5841843913
 40
4.1869442043
100
AcDbArc
 50
258.8250490602
 51
262.4786510999
  0
ARC
  5
2C6
100
AcDbEntity
  8
0
100
AcDbCircle
 62
7
  6
CONTINUOUS
 10
516.7686505092
 20
112.4688765488
 40
4.0821724063
100
AcDbArc
 50
238.3303058275
 51
239.9992634161
  0
ARC
  5
2C7
100
AcDbEntity
  8
0
100
AcDbCircle
 62
7
  6
CONTINUOUS
 10
516.7678406684
 20
112.4673687251
 40
4.0804639316
100
AcDbArc
 50
231.163242019
 51
238.3288680721
  0
ARC
  5
2C8
100
AcDbEntity
  8
0
100
AcDbCircle
 62
7
  6
CONTINUOUS
 10
488.4918204218
 20
450.3376907087
 40
3.6769802601
100
AcDbArc
 50
239.9985079659
 51
240.926469717
  0
ARC
  5
2C9
100
AcDbEntity
  8
0
100
AcDbCircle
 62
7
  6
CONTINUOUS
 10
488.4628300877
 20
450.2858048641
 40
3.6175448784
100
AcDbArc
 50
240.9284413472
 51
241.1289524075
  0
ARC
  5
2CA
100
AcDbEntity
  8
0
100
AcDbCircle
 62
7
  6
CONTINUOUS
 10
492.630327027
 20
425.7920556692
 40
3.2298114306
100
AcDbArc
 50
264.7549300873
 51
269.9191445112
  0
ARC
  5
2CB
100
AcDbEntity
  8
0
100
AcDbCircle
 62
7
  6
CONTINUOUS
 10
516.2968349983
 20
111.7175895778
 40
3.2033863919
100
AcDbArc
 50
217.9806709887
 51
224.5113620256
  0
ARC
  5
2CC
100
AcDbEntity
  8
0
100
AcDbCircle
 62
7
  6
CONTINUOUS
 10
516.1842058264
 20
111.608059122
 40
3.046282958
100
AcDbArc
 50
224.5273743444
 51
229.5782021523
  0
ARC
  5
2CD
100
AcDbEntity
  8
0
100
AcDbCircle
 62
7
  6
CONTINUOUS
 10
482.8868223922
 20
454.4703168638
 40
2.8267152764
100
AcDbArc
 50
128.2367942231
 51
130.8160872236
  0
ARC
  5
2CE
100
AcDbEntity
  8
0
100
AcDbCircle
 62
7
  6
CONTINUOUS
 10
482.0809457265
 20
454.2117069089
 40
2.6652297526
100
AcDbArc
 50
111.5759447806
 51
114.1164758466
  0
ARC
  5
2CF
100
AcDbEntity
  8
0
100
AcDbCircle
 62
7
  6
CONTINUOUS
 10
482.5736463854
 20
454.0284998137
 40
2.6197642476
100
AcDbArc
 50
113.358380598
 51
121.1844987363
  0
ARC
  5
2D0
100
AcDbEntity
  8
0
100
AcDbCircle
 62
7
  6
CONTINUOUS
 10
541.1607346903
 20
116.7572285994
 40
2.2901794421
100
AcDbArc
 50
228.2804725485
 51
239.9360185527
  0
ARC
  5
2D1
100
AcDbEntity
  8
0
100
AcDbCircle
 62
7
  6
CONTINUOUS
 10
541.1562481654
 20
116.7597705098
 40
2.2901375855
100
AcDbArc
 50
240.0650227338
 51
251.7205088545
  0
ARC
  5
2D2
100
AcDbEntity
  8
0
100
AcDbCircle
 62
7
  6
CONTINUOUS
 10
804.3027503443
 20
268.6865509149
 40
2.2901006292
100
AcDbArc
 50
348.2797085564
 51
359.9355383943
  0
ARC
  5
2D3
100
AcDbEntity
  8
0
100
AcDbCircle
 62
7
  6
CONTINUOUS
 10
492.5696002464
 20
424.5945214202
 40
2.0330445835
100
AcDbArc
 50
271.582920482
 51
272.3950107309
  0
ARC
  5
2D4
100
AcDbEntity
  8
0
100
AcDbCircle
 62
7
  6
CONTINUOUS
 10
534.6055308409
 20
170.7651315433
 40
1.6739958494
100
AcDbArc
 50
300.0079573516
 51
305.5698003716
  0
ARC
  5
2D5
100
AcDbEntity
  8
0
100
AcDbCircle
 62
7
  6
CONTINUOUS
 10
534.6055308409
 20
486.7515669725
 40
1.6739958494
100
AcDbArc
 50
300.0079573516
 51
305.5698003716
  0
ARC
  5
2D6
100
AcDbEntity
  8
0
100
AcDbCircle
 62
7
  6
CONTINUOUS
 10
480.5014366204
 20
451.5289627686
 40
1.1963545589
100
AcDbArc
 50
3.2178518089
 51
6.8209957728
  0
ARC
  5
2D7
100
AcDbEntity
  8
0
100
AcDbCircle
 62
7
  6
CONTINUOUS
 10
480.6149981899
 20
451.535541444
 40
1.0826027786
100
AcDbArc
 50
0.0008120255
 51
3.2075952215
  0
ARC
  5
2D8
100
AcDbEntity
  8
0
100
AcDbCircle
 62
7
  6
CONTINUOUS
 10
481.3141378902
 20
452.425216131
 40
0.8846517803
100
AcDbArc
 50
180.0008120262
 51
183.2075952205
  0
ARC
  5
2D9
100
AcDbEntity
  8
0
100
AcDbCircle
 62
7
  6
CONTINUOUS
 10
489.5452743982
 20
425.3331275064
 40
0.2330644994
100
AcDbArc
 50
207.3177594501
 51
226.2911387418
  0
ARC
  5
2DA
100
AcDbEntity
  8
0
100
AcDbCircle
 62
7
  6
CONTINUOUS
 10
505.9788225024
 20
767.7270446572
 40
13.4679987051
100
AcDbArc
 50
310.8951643133
 51
311.9535036763
  0
ARC
  5
2DB
100
AcDbEntity
  8
0
100
AcDbCircle
 62
7
  6
CONTINUOUS
 10
511.4901655599
 20
764.5336293114
 40
8.2637071383
100
AcDbArc
 50
289.4526400325
 51
294.1266338484
  0
ARC
  5
2DC
100
AcDbEntity
  8
0
100
AcDbCircle
 62
7
  6
CONTINUOUS
 10
518.9930937485
 20
751.1312453628
 40
8.2179307525
100
AcDbArc
 50
117.5126486539
 51
125.6024070059
  0
ARC
  5
2DD
100
AcDbEntity
  8
0
100
AcDbCircle
 62
7
  6
CONTINUOUS
 10
511.6419685448
 20
764.0941849374
 40
7.7987936094
100
AcDbArc
 50
285.0364698597
 51
289.476219154
  0
ARC
  5
2DE
100
AcDbEntity
  8
0
100
AcDbCircle
 62
7
  6
CONTINUOUS
 10
511.8942995108
 20
763.139439312
 40
6.8112756156
100
AcDbArc
 50
280.717103472
 51
285.0701337009
  0
ARC
  5
2DF
100
AcDbEntity
  8
0
100
AcDbCircle
 62
7
  6
CONTINUOUS
 10
518.8312768942
 20
753.0735115902
 40
6.6203456402
100
AcDbArc
 50
134.2825836316
 51
136.3475081046
  0
ARC
  5
2E0
100
AcDbEntity
  8
0
100
AcDbCircle
 62
7
  6
CONTINUOUS
 10
518.6972829904
 20
753.2000278395
 40
6.4360638149
100
AcDbArc
 50
136.3390140767
 51
139.088932037
  0
ARC
  5
2E1
100
AcDbEntity
  8
0
100
AcDbCircle
 62
7
  6
CONTINUOUS
 10
524.8119108299
 20
761.8530058912
 40
5.5148033901
100
AcDbArc
 50
264.2161302009
 51
274.8221488764
  0
ARC
  5
2E2
100
AcDbEntity
  8
0
100
AcDbCircle
 62
7
  6
CONTINUOUS
 10
525.0395217548
 20
760.6992489489
 40
4.3362995741
100
AcDbArc
 50
286.1828181107
 51
288.2821914867
  0
ARC
  5
2E3
100
AcDbEntity
  8
0
100
AcDbCircle
 62
7
  6
CONTINUOUS
 10
534.6055308409
 20
711.2897316831
 40
1.6739958494
100
AcDbArc
 50
300.0079573516
 51
305.5698003716
  0
SPLINE
  5
2E4
100
AcDbEntity
  8
0
100
AcDbSpline
 62
7
  6
CONTINUOUS
 70
0
 71
3
 72
9
 73
5
 74
0
 42
0.0000001
 43
0.0000001
 44
0.0000000001
 40
0.0
 40
0.0
 40
0.0
 40
0.0
 40
0.5147838082
 40
1.0
 40
1.0
 40
1.0
 40
1.0
 10
534.3946549776
 20
169.0850311354
 30
0.0
 10
534.5804914296
 20
169.0743860394
 30
0.0
 10
534.9464605284
 20
169.0970527064
 30
0.0
 10
535.2907889383
 20
169.2277952566
 30
0.0
 10
535.442730098
 20
169.3155248698
 30
0.0
  0
SPLINE
  5
2E5
100
AcDbEntity
  8
0
100
AcDbSpline
 62
7
  6
CONTINUOUS
 70
0
 71
3
 72
11
 73
7
 74
0
 42
0.0000001
 43
0.0000001
 44
0.0000000001
 40
0.0
 40
0.0
 40
0.0
 40
0.0
 40
0.2460250624
 40
0.4989372739
 40
0.7523917812
 40
1.0
 40
1.0
 40
1.0
 40
1.0
 10
534.3889935774
 20
176.7682828501
 30
0.0
 10
534.6078278799
 20
176.5415950362
 30
0.0
 10
535.0225513084
 20
176.0530905449
 30
0.0
 10
535.5587954177
 20
175.2501727553
 30
0.0
 10
536.0031679493
 20
174.3907121872
 30
0.0
 10
536.2317223698
 20
173.7891817298
 30
0.0
 10
536.3255520145
 20
173.4862731737
 30
0.0
  0
SPLINE
  5
2E6
100
AcDbEntity
  8
0
100
AcDbSpline
 62
7
  6
CONTINUOUS
 70
0
 71
3
 72
9
 73
5
 74
0
 42
0.0000001
 43
0.0000001
 44
0.0000000001
 40
0.0
 40
0.0
 40
0.0
 40
0.0
 40
0.258671748
 40
1.0
 40
1.0
 40
1.0
 40
1.0
 10
536.3255520145
 20
173.4862731737
 30
0.0
 10
536.3579530165
 20
173.381673601
 30
0.0
 10
536.4743408854
 20
172.9746658068
 30
0.0
 10
536.55471063
 20
172.5569047148
 30
0.0
 10
536.5885517442
 20
172.2449097937
 30
0.0
  0
SPLINE
  5
2E7
100
AcDbEntity
  8
0
100
AcDbSpline
 62
7
  6
CONTINUOUS
 70
0
 71
3
 72
9
 73
5
 74
0
 42
0.0000001
 43
0.0000001
 44
0.0000000001
 40
0.0
 40
0.0
 40
0.0
 40
0.0
 40
0.2558493467
 40
1.0
 40
1.0
 40
1.0
 40
1.0
 10
536.5885517442
 20
172.2449097937
 30
0.0
 10
536.5937001668
 20
172.1974444025
 30
0.0
 10
536.6114746043
 20
172.011681374
 30
0.0
 10
536.619711956
 20
171.8249664159
 30
0.0
 10
536.619711956
 20
171.6861012045
 30
0.0
  0
SPLINE
  5
2E8
100
AcDbEntity
  8
0
100
AcDbSpline
 62
7
  6
CONTINUOUS
 70
0
 71
3
 72
9
 73
5
 74
0
 42
0.0000001
 43
0.0000001
 44
0.0000000001
 40
0.0
 40
0.0
 40
0.0
 40
0.0
 40
0.2727195743
 40
1.0
 40
1.0
 40
1.0
 40
1.0
 10
536.619711956
 20
171.6861012045
 30
0.0
 10
536.619711956
 20
171.5503149344
 30
0.0
 10
536.5984464741
 20
171.0535047126
 30
0.0
 10
536.483660619
 20
170.5544087454
 30
0.0
 10
536.3267439636
 20
170.2280632592
 30
0.0
  0
SPLINE
  5
2E9
100
AcDbEntity
  8
0
100
AcDbSpline
 62
7
  6
CONTINUOUS
 70
0
 71
3
 72
9
 73
5
 74
0
 42
0.0000001
 43
0.0000001
 44
0.0000000001
 40
0.0
 40
0.0
 40
0.0
 40
0.0
 40
0.5157665712
 40
1.0
 40
1.0
 40
1.0
 40
1.0
 10
536.3267439636
 20
170.2280632592
 30
0.0
 10
536.2427628573
 20
170.0534045852
 30
0.0
 10
536.0371852972
 20
169.7322421113
 30
0.0
 10
535.7417220267
 20
169.4881553807
 30
0.0
 10
535.5841502279
 20
169.3971747986
 30
0.0
  0
SPLINE
  5
2EA
100
AcDbEntity
  8
0
100
AcDbSpline
 62
7
  6
CONTINUOUS
 70
0
 71
3
 72
9
 73
5
 74
0
 42
0.0000001
 43
0.0000001
 44
0.0000000001
 40
0.0
 40
0.0
 40
0.0
 40
0.0
 40
0.2425701239
 40
1.0
 40
1.0
 40
1.0
 40
1.0
 10
536.4782911886
 20
171.6044523737
 30
0.0
 10
536.4782911886
 20
171.6636400887
 30
0.0
 10
536.4736810496
 20
171.9076325742
 30
0.0
 10
536.451361888
 20
172.1511931173
 30
0.0
 10
536.4259909991
 20
172.3342581883
 30
0.0
  0
SPLINE
  5
2EB
100
AcDbEntity
  8
0
100
AcDbSpline
 62
7
  6
CONTINUOUS
 70
0
 71
3
 72
9
 73
5
 74
0
 42
0.0000001
 43
0.0000001
 44
0.0000000001
 40
0.0
 40
0.0
 40
0.0
 40
0.0
 40
0.2425847524
 40
1.0
 40
1.0
 40
1.0
 40
1.0
 10
536.4259909991
 20
172.3342581883
 30
0.0
 10
536.4138769358
 20
172.4216678912
 30
0.0
 10
536.3559346968
 20
172.78086389
 30
0.0
 10
536.2674125523
 20
173.134925594
 30
0.0
 10
536.1861227843
 20
173.3981861747
 30
0.0
  0
SPLINE
  5
2EC
100
AcDbEntity
  8
0
100
AcDbSpline
 62
7
  6
CONTINUOUS
 70
0
 71
3
 72
9
 73
5
 74
0
 42
0.0000001
 43
0.0000001
 44
0.0000000001
 40
0.0
 40
0.0
 40
0.0
 40
0.0
 40
0.4995758939
 40
1.0
 40
1.0
 40
1.0
 40
1.0
 10
536.1861227843
 20
173.3981861747
 30
0.0
 10
536.0078470826
 20
173.9755400771
 30
0.0
 10
535.5137621827
 20
175.091140024
 30
0.0
 10
534.8024149183
 20
176.0823073989
 30
0.0
 10
534.3947398833
 20
176.5297017669
 30
0.0
  0
SPLINE
  5
2ED
100
AcDbEntity
  8
0
100
AcDbSpline
 62
7
  6
CONTINUOUS
 70
0
 71
3
 72
9
 73
5
 74
0
 42
0.0000001
 43
0.0000001
 44
0.0000000001
 40
0.0
 40
0.0
 40
0.0
 40
0.0
 40
0.4849546492
 40
1.0
 40
1.0
 40
1.0
 40
1.0
 10
535.5792847145
 20
169.403490806
 30
0.0
 10
535.7061661602
 20
169.4942182304
 30
0.0
 10
535.9421905074
 20
169.7192113543
 30
0.0
 10
536.1127744125
 20
169.9957784171
 30
0.0
 10
536.1846576567
 20
170.1450304292
 30
0.0
  0
SPLINE
  5
2EE
100
AcDbEntity
  8
0
100
AcDbSpline
 62
7
  6
CONTINUOUS
 70
0
 71
3
 72
9
 73
5
 74
0
 42
0.0000001
 43
0.0000001
 44
0.0000000001
 40
0.0
 40
0.0
 40
0.0
 40
0.0
 40
0.2292660595
 40
1.0
 40
1.0
 40
1.0
 40
1.0
 10
536.1846576567
 20
170.1450304292
 30
0.0
 10
536.2342670837
 20
170.2480350567
 30
0.0
 10
536.4182110891
 20
170.7130251863
 30
0.0
 10
536.4782911886
 20
171.2201085281
 30
0.0
 10
536.4782911886
 20
171.6044523737
 30
0.0
  0
SPLINE
  5
2EF
100
AcDbEntity
  8
0
100
AcDbSpline
 62
7
  6
CONTINUOUS
 70
0
 71
3
 72
9
 73
5
 74
0
 42
0.0000001
 43
0.0000001
 44
0.0000000001
 40
0.0
 40
0.0
 40
0.0
 40
0.0
 40
0.5147838082
 40
1.0
 40
1.0
 40
1.0
 40
1.0
 10
534.3946549776
 20
485.0714665645
 30
0.0
 10
534.5804914296
 20
485.0608214685
 30
0.0
 10
534.9464605284
 20
485.0834881355
 30
0.0
 10
535.2907889383
 20
485.2142306858
 30
0.0
 10
535.442730098
 20
485.301960299
 30
0.0
  0
SPLINE
  5
2F0
100
AcDbEntity
  8
0
100
AcDbSpline
 62
7
  6
CONTINUOUS
 70
0
 71
3
 72
11
 73
7
 74
0
 42
0.0000001
 43
0.0000001
 44
0.0000000001
 40
0.0
 40
0.0
 40
0.0
 40
0.0
 40
0.2460250624
 40
0.4989372739
 40
0.7523917812
 40
1.0
 40
1.0
 40
1.0
 40
1.0
 10
534.3889935774
 20
492.7547182793
 30
0.0
 10
534.6078278799
 20
492.5280304653
 30
0.0
 10
535.0225513084
 20
492.039525974
 30
0.0
 10
535.5587954177
 20
491.2366081845
 30
0.0
 10
536.0031679493
 20
490.3771476164
 30
0.0
 10
536.2317223698
 20
489.7756171589
 30
0.0
 10
536.3255520145
 20
489.4727086029
 30
0.0
  0
SPLINE
  5
2F1
100
AcDbEntity
  8
0
100
AcDbSpline
 62
7
  6
CONTINUOUS
 70
0
 71
3
 72
9
 73
5
 74
0
 42
0.0000001
 43
0.0000001
 44
0.0000000001
 40
0.0
 40
0.0
 40
0.0
 40
0.0
 40
0.258671748
 40
1.0
 40
1.0
 40
1.0
 40
1.0
 10
536.3255520145
 20
489.4727086029
 30
0.0
 10
536.3579530165
 20
489.3681090301
 30
0.0
 10
536.4743408854
 20
488.961101236
 30
0.0
 10
536.55471063
 20
488.5433401439
 30
0.0
 10
536.5885517442
 20
488.2313452229
 30
0.0
  0
SPLINE
  5
2F2
100
AcDbEntity
  8
0
100
AcDbSpline
 62
7
  6
CONTINUOUS
 70
0
 71
3
 72
9
 73
5
 74
0
 42
0.0000001
 43
0.0000001
 44
0.0000000001
 40
0.0
 40
0.0
 40
0.0
 40
0.0
 40
0.2558493467
 40
1.0
 40
1.0
 40
1.0
 40
1.0
 10
536.5885517442
 20
488.2313452229
 30
0.0
 10
536.5937001668
 20
488.1838798316
 30
0.0
 10
536.6114746043
 20
487.9981168031
 30
0.0
 10
536.619711956
 20
487.811401845
 30
0.0
 10
536.619711956
 20
487.6725366336
 30
0.0
  0
SPLINE
  5
2F3
100
AcDbEntity
  8
0
100
AcDbSpline
 62
7
  6
CONTINUOUS
 70
0
 71
3
 72
9
 73
5
 74
0
 42
0.0000001
 43
0.0000001
 44
0.0000000001
 40
0.0
 40
0.0
 40
0.0
 40
0.0
 40
0.2727195743
 40
1.0
 40
1.0
 40
1.0
 40
1.0
 10
536.619711956
 20
487.6725366336
 30
0.0
 10
536.619711956
 20
487.5367503636
 30
0.0
 10
536.5984464741
 20
487.0399401418
 30
0.0
 10
536.483660619
 20
486.5408441745
 30
0.0
 10
536.3267439636
 20
486.2144986884
 30
0.0
  0
SPLINE
  5
2F4
100
AcDbEntity
  8
0
100
AcDbSpline
 62
7
  6
CONTINUOUS
 70
0
 71
3
 72
9
 73
5
 74
0
 42
0.0000001
 43
0.0000001
 44
0.0000000001
 40
0.0
 40
0.0
 40
0.0
 40
0.0
 40
0.5157665712
 40
1.0
 40
1.0
 40
1.0
 40
1.0
 10
536.3267439636
 20
486.2144986884
 30
0.0
 10
536.2427628573
 20
486.0398400144
 30
0.0
 10
536.0371852972
 20
485.7186775404
 30
0.0
 10
535.7417220267
 20
485.4745908098
 30
0.0
 10
535.5841502279
 20
485.3836102278
 30
0.0
  0
SPLINE
  5
2F5
100
AcDbEntity
  8
0
100
AcDbSpline
 62
7
  6
CONTINUOUS
 70
0
 71
3
 72
9
 73
5
 74
0
 42
0.0000001
 43
0.0000001
 44
0.0000000001
 40
0.0
 40
0.0
 40
0.0
 40
0.0
 40
0.2425701239
 40
1.0
 40
1.0
 40
1.0
 40
1.0
 10
536.4782911886
 20
487.5908878028
 30
0.0
 10
536.4782911886
 20
487.6500755178
 30
0.0
 10
536.4736810496
 20
487.8940680034
 30
0.0
 10
536.451361888
 20
488.1376285464
 30
0.0
 10
536.4259909991
 20
488.3206936175
 30
0.0
  0
SPLINE
  5
2F6
100
AcDbEntity
  8
0
100
AcDbSpline
 62
7
  6
CONTINUOUS
 70
0
 71
3
 72
9
 73
5
 74
0
 42
0.0000001
 43
0.0000001
 44
0.0000000001
 40
0.0
 40
0.0
 40
0.0
 40
0.0
 40
0.2425847524
 40
1.0
 40
1.0
 40
1.0
 40
1.0
 10
536.4259909991
 20
488.3206936175
 30
0.0
 10
536.4138769358
 20
488.4081033203
 30
0.0
 10
536.3559346968
 20
488.7672993192
 30
0.0
 10
536.2674125523
 20
489.1213610231
 30
0.0
 10
536.1861227843
 20
489.3846216039
 30
0.0
  0
SPLINE
  5
2F7
100
AcDbEntity
  8
0
100
AcDbSpline
 62
7
  6
CONTINUOUS
 70
0
 71
3
 72
9
 73
5
 74
0
 42
0.0000001
 43
0.0000001
 44
0.0000000001
 40
0.0
 40
0.0
 40
0.0
 40
0.0
 40
0.4995758939
 40
1.0
 40
1.0
 40
1.0
 40
1.0
 10
536.1861227843
 20
489.3846216039
 30
0.0
 10
536.0078470826
 20
489.9619755062
 30
0.0
 10
535.5137621827
 20
491.0775754532
 30
0.0
 10
534.8024149183
 20
492.0687428281
 30
0.0
 10
534.3947398833
 20
492.516137196
 30
0.0
  0
SPLINE
  5
2F8
100
AcDbEntity
  8
0
100
AcDbSpline
 62
7
  6
CONTINUOUS
 70
0
 71
3
 72
9
 73
5
 74
0
 42
0.0000001
 43
0.0000001
 44
0.0000000001
 40
0.0
 40
0.0
 40
0.0
 40
0.0
 40
0.4849546492
 40
1.0
 40
1.0
 40
1.0
 40
1.0
 10
535.5792847145
 20
485.3899262351
 30
0.0
 10
535.7061661602
 20
485.4806536596
 30
0.0
 10
535.9421905074
 20
485.7056467835
 30
0.0
 10
536.1127744125
 20
485.9822138462
 30
0.0
 10
536.1846576567
 20
486.1314658584
 30
0.0
  0
SPLINE
  5
2F9
100
AcDbEntity
  8
0
100
AcDbSpline
 62
7
  6
CONTINUOUS
 70
0
 71
3
 72
9
 73
5
 74
0
 42
0.0000001
 43
0.0000001
 44
0.0000000001
 40
0.0
 40
0.0
 40
0.0
 40
0.0
 40
0.2292660595
 40
1.0
 40
1.0
 40
1.0
 40
1.0
 10
536.1846576567
 20
486.1314658584
 30
0.0
 10
536.2342670837
 20
486.2344704859
 30
0.0
 10
536.4182110891
 20
486.6994606155
 30
0.0
 10
536.4782911886
 20
487.2065439572
 30
0.0
 10
536.4782911886
 20
487.5908878028
 30
0.0
  0
SPLINE
  5
2FA
100
AcDbEntity
  8
0
100
AcDbSpline
 62
7
  6
CONTINUOUS
 70
0
 71
3
 72
9
 73
5
 74
0
 42
0.0000001
 43
0.0000001
 44
0.0000000001
 40
0.0
 40
0.0
 40
0.0
 40
0.0
 40
0.5147838082
 40
1.0
 40
1.0
 40
1.0
 40
1.0
 10
534.3946549776
 20
709.6096312752
 30
0.0
 10
534.5804914296
 20
709.5989861791
 30
0.0
 10
534.9464605284
 20
709.6216528462
 30
0.0
 10
535.2907889383
 20
709.7523953964
 30
0.0
 10
535.442730098
 20
709.8401250096
 30
0.0
  0
SPLINE
  5
2FB
100
AcDbEntity
  8
0
100
AcDbSpline
 62
7
  6
CONTINUOUS
 70
0
 71
3
 72
11
 73
7
 74
0
 42
0.0000001
 43
0.0000001
 44
0.0000000001
 40
0.0
 40
0.0
 40
0.0
 40
0.0
 40
0.2460250624
 40
0.4989372739
 40
0.7523917812
 40
1.0
 40
1.0
 40
1.0
 40
1.0
 10
534.3889935774
 20
717.2928829899
 30
0.0
 10
534.6078278799
 20
717.066195176
 30
0.0
 10
535.0225513084
 20
716.5776906846
 30
0.0
 10
535.5587954177
 20
715.7747728951
 30
0.0
 10
536.0031679493
 20
714.915312327
 30
0.0
 10
536.2317223698
 20
714.3137818696
 30
0.0
 10
536.3255520145
 20
714.0108733135
 30
0.0
  0
SPLINE
  5
2FC
100
AcDbEntity
  8
0
100
AcDbSpline
 62
7
  6
CONTINUOUS
 70
0
 71
3
 72
9
 73
5
 74
0
 42
0.0000001
 43
0.0000001
 44
0.0000000001
 40
0.0
 40
0.0
 40
0.0
 40
0.0
 40
0.258671748
 40
1.0
 40
1.0
 40
1.0
 40
1.0
 10
536.3255520145
 20
714.0108733135
 30
0.0
 10
536.3579530165
 20
713.9062737407
 30
0.0
 10
536.4743408854
 20
713.4992659466
 30
0.0
 10
536.55471063
 20
713.0815048546
 30
0.0
 10
536.5885517442
 20
712.7695099335
 30
0.0
  0
SPLINE
  5
2FD
100
AcDbEntity
  8
0
100
AcDbSpline
 62
7
  6
CONTINUOUS
 70
0
 71
3
 72
9
 73
5
 74
0
 42
0.0000001
 43
0.0000001
 44
0.0000000001
 40
0.0
 40
0.0
 40
0.0
 40
0.0
 40
0.2558493467
 40
1.0
 40
1.0
 40
1.0
 40
1.0
 10
536.5885517442
 20
712.7695099335
 30
0.0
 10
536.5937001668
 20
712.7220445423
 30
0.0
 10
536.6114746043
 20
712.5362815137
 30
0.0
 10
536.619711956
 20
712.3495665556
 30
0.0
 10
536.619711956
 20
712.2107013442
 30
0.0
  0
SPLINE
  5
2FE
100
AcDbEntity
  8
0
100
AcDbSpline
 62
7
  6
CONTINUOUS
 70
0
 71
3
 72
9
 73
5
 74
0
 42
0.0000001
 43
0.0000001
 44
0.0000000001
 40
0.0
 40
0.0
 40
0.0
 40
0.0
 40
0.2727195743
 40
1.0
 40
1.0
 40
1.0
 40
1.0
 10
536.619711956
 20
712.2107013442
 30
0.0
 10
536.619711956
 20
712.0749150742
 30
0.0
 10
536.5984464741
 20
711.5781048524
 30
0.0
 10
536.483660619
 20
711.0790088851
 30
0.0
 10
536.3267439636
 20
710.752663399
 30
0.0
  0
SPLINE
  5
2FF
100
AcDbEntity
  8
0
100
AcDbSpline
 62
7
  6
CONTINUOUS
 70
0
 71
3
 72
9
 73
5
 74
0
 42
0.0000001
 43
0.0000001
 44
0.0000000001
 40
0.0
 40
0.0
 40
0.0
 40
0.0
 40
0.5157665712
 40
1.0
 40
1.0
 40
1.0
 40
1.0
 10
536.3267439636
 20
710.752663399
 30
0.0
 10
536.2427628573
 20
710.578004725
 30
0.0
 10
536.0371852972
 20
710.2568422511
 30
0.0
 10
535.7417220267
 20
710.0127555204
 30
0.0
 10
535.5841502279
 20
709.9217749384
 30
0.0
  0
SPLINE
  5
300
100
AcDbEntity
  8
0
100
AcDbSpline
 62
7
  6
CONTINUOUS
 70
0
 71
3
 72
9
 73
5
 74
0
 42
0.0000001
 43
0.0000001
 44
0.0000000001
 40
0.0
 40
0.0
 40
0.0
 40
0.0
 40
0.2425701239
 40
1.0
 40
1.0
 40
1.0
 40
1.0
 10
536.4782911886
 20
712.1290525135
 30
0.0
 10
536.4782911886
 20
712.1882402285
 30
0.0
 10
536.4736810496
 20
712.432232714
 30
0.0
 10
536.451361888
 20
712.6757932571
 30
0.0
 10
536.4259909991
 20
712.8588583281
 30
0.0
  0
SPLINE
  5
301
100
AcDbEntity
  8
0
100
AcDbSpline
 62
7
  6
CONTINUOUS
 70
0
 71
3
 72
9
 73
5
 74
0
 42
0.0000001
 43
0.0000001
 44
0.0000000001
 40
0.0
 40
0.0
 40
0.0
 40
0.0
 40
0.2425847524
 40
1.0
 40
1.0
 40
1.0
 40
1.0
 10
536.4259909991
 20
712.8588583281
 30
0.0
 10
536.4138769358
 20
712.946268031
 30
0.0
 10
536.3559346968
 20
713.3054640298
 30
0.0
 10
536.2674125523
 20
713.6595257338
 30
0.0
 10
536.1861227843
 20
713.9227863145
 30
0.0
  0
SPLINE
  5
302
100
AcDbEntity
  8
0
100
AcDbSpline
 62
7
  6
CONTINUOUS
 70
0
 71
3
 72
9
 73
5
 74
0
 42
0.0000001
 43
0.0000001
 44
0.0000000001
 40
0.0
 40
0.0
 40
0.0
 40
0.0
 40
0.4995758939
 40
1.0
 40
1.0
 40
1.0
 40
1.0
 10
536.1861227843
 20
713.9227863145
 30
0.0
 10
536.0078470826
 20
714.5001402168
 30
0.0
 10
535.5137621827
 20
715.6157401638
 30
0.0
 10
534.8024149183
 20
716.6069075387
 30
0.0
 10
534.3947398833
 20
717.0543019067
 30
0.0
  0
SPLINE
  5
303
100
AcDbEntity
  8
0
100
AcDbSpline
 62
7
  6
CONTINUOUS
 70
0
 71
3
 72
9
 73
5
 74
0
 42
0.0000001
 43
0.0000001
 44
0.0000000001
 40
0.0
 40
0.0
 40
0.0
 40
0.0
 40
0.4849546492
 40
1.0
 40
1.0
 40
1.0
 40
1.0
 10
535.5792847145
 20
709.9280909458
 30
0.0
 10
535.7061661602
 20
710.0188183702
 30
0.0
 10
535.9421905074
 20
710.2438114941
 30
0.0
 10
536.1127744125
 20
710.5203785569
 30
0.0
 10
536.1846576567
 20
710.669630569
 30
0.0
  0
SPLINE
  5
304
100
AcDbEntity
  8
0
100
AcDbSpline
 62
7
  6
CONTINUOUS
 70
0
 71
3
 72
9
 73
5
 74
0
 42
0.0000001
 43
0.0000001
 44
0.0000000001
 40
0.0
 40
0.0
 40
0.0
 40
0.0
 40
0.2292660595
 40
1.0
 40
1.0
 40
1.0
 40
1.0
 10
536.1846576567
 20
710.669630569
 30
0.0
 10
536.2342670837
 20
710.7726351965
 30
0.0
 10
536.4182110891
 20
711.2376253261
 30
0.0
 10
536.4782911886
 20
711.7447086678
 30
0.0
 10
536.4782911886
 20
712.1290525135
 30
0.0
  0
SPLINE
  5
305
100
AcDbEntity
  8
0
100
AcDbSpline
 62
7
  6
CONTINUOUS
 70
0
 71
3
 72
9
 73
5
 74
0
 42
0.0000001
 43
0.0000001
 44
0.0000000001
 40
0.0
 40
0.0
 40
0.0
 40
0.0
 40
0.226322284
 40
1.0
 40
1.0
 40
1.0
 40
1.0
 10
479.6569481735
 20
453.139184155
 30
0.0
 10
479.656579658
 20
453.1315291482
 30
0.0
 10
479.6594680957
 20
453.097565818
 30
0.0
 10
479.6751804762
 20
453.0654016148
 30
0.0
 10
479.6914647351
 20
453.0448784866
 30
0.0
  0
SPLINE
  5
306
100
AcDbEntity
  8
0
100
AcDbSpline
 62
7
  6
CONTINUOUS
 70
0
 71
3
 72
15
 73
11
 74
0
 42
0.0000001
 43
0.0000001
 44
0.0000000001
 40
0.0
 40
0.0
 40
0.0
 40
0.0
 40
0.117737145
 40
0.2437395678
 40
0.3752166786
 40
0.5088985037
 40
0.6413408535
 40
0.7691984624
 40
0.8895075242
 40
1.0
 40
1.0
 40
1.0
 40
1.0
 10
479.6565719294
 20
452.288443576
 30
0.0
 10
479.6816657799
 20
451.8375731768
 30
0.0
 10
479.8108175008
 20
450.9076281245
 30
0.0
 10
480.1993187568
 20
449.5182999256
 30
0.0
 10
480.7756609915
 20
448.1293809368
 30
0.0
 10
481.5180858685
 20
446.7936576888
 30
0.0
 10
482.3984776515
 20
445.5614793054
 30
0.0
 10
483.3838628114
 20
444.479296387
 30
0.0
 10
484.4368567311
 20
443.587980426
 30
0.0
 10
485.1947013652
 20
443.1210157736
 30
0.0
 10
485.57507471
 20
442.9341807559
 30
0.0
  0
SPLINE
  5
307
100
AcDbEntity
  8
0
100
AcDbSpline
 62
7
  6
CONTINUOUS
 70
0
 71
3
 72
9
 73
5
 74
0
 42
0.0000001
 43
0.0000001
 44
0.0000000001
 40
0.0
 40
0.0
 40
0.0
 40
0.0
 40
0.2633029069
 40
1.0
 40
1.0
 40
1.0
 40
1.0
 10
485.57507471
 20
442.9341807559
 30
0.0
 10
485.6849609167
 20
442.8802059134
 30
0.0
 10
486.1077921685
 20
442.6869712697
 30
0.0
 10
486.5544561463
 20
442.5429359007
 30
0.0
 10
486.8905144899
 20
442.4766247386
 30
0.0
  0
SPLINE
  5
308
100
AcDbEntity
  8
0
100
AcDbSpline
 62
7
  6
CONTINUOUS
 70
0
 71
3
 72
9
 73
5
 74
0
 42
0.0000001
 43
0.0000001
 44
0.0000000001
 40
0.0
 40
0.0
 40
0.0
 40
0.0
 40
0.2608481238
 40
1.0
 40
1.0
 40
1.0
 40
1.0
 10
479.8639688012
 20
452.5941808633
 30
0.0
 10
479.8639655732
 20
452.5868760495
 30
0.0
 10
479.8632947964
 20
452.5588815623
 30
0.0
 10
479.8599208219
 20
452.5309101802
 30
0.0
 10
479.8555527256
 20
452.5106770449
 30
0.0
  0
SPLINE
  5
309
100
AcDbEntity
  8
0
100
AcDbSpline
 62
7
  6
CONTINUOUS
 70
0
 71
3
 72
9
 73
5
 74
0
 42
0.0000001
 43
0.0000001
 44
0.0000000001
 40
0.0
 40
0.0
 40
0.0
 40
0.0
 40
0.2658081011
 40
1.0
 40
1.0
 40
1.0
 40
1.0
 10
479.8555527256
 20
452.5106770449
 30
0.0
 10
479.8537889867
 20
452.5025073609
 30
0.0
 10
479.8460036299
 20
452.472055167
 30
0.0
 10
479.8331918862
 20
452.4427109994
 30
0.0
 10
479.8205863732
 20
452.4233708937
 30
0.0
  0
SPLINE
  5
30A
100
AcDbEntity
  8
0
100
AcDbSpline
 62
7
  6
CONTINUOUS
 70
0
 71
3
 72
9
 73
5
 74
0
 42
0.0000001
 43
0.0000001
 44
0.0000000001
 40
0.0
 40
0.0
 40
0.0
 40
0.0
 40
0.258754375
 40
1.0
 40
1.0
 40
1.0
 40
1.0
 10
479.8205863732
 20
452.4233708937
 30
0.0
 10
479.8167830228
 20
452.4175355739
 30
0.0
 10
479.8009770438
 20
452.395735553
 30
0.0
 10
479.7803435916
 20
452.3773568682
 30
0.0
 10
479.7632916983
 20
452.3669946918
 30
0.0
  0
SPLINE
  5
30B
100
AcDbEntity
  8
0
100
AcDbSpline
 62
7
  6
CONTINUOUS
 70
0
 71
3
 72
9
 73
5
 74
0
 42
0.0000001
 43
0.0000001
 44
0.0000000001
 40
0.0
 40
0.0
 40
0.0
 40
0.0
 40
0.5107401477
 40
1.0
 40
1.0
 40
1.0
 40
1.0
 10
479.6914647351
 20
453.0448784866
 30
0.0
 10
479.7331836699
 20
452.9920952379
 30
0.0
 10
479.8023642058
 20
452.8785122644
 30
0.0
 10
479.8443979913
 20
452.751950916
 30
0.0
 10
479.8554410829
 20
452.6884540626
 30
0.0
  0
SPLINE
  5
30C
100
AcDbEntity
  8
0
100
AcDbSpline
 62
7
  6
CONTINUOUS
 70
0
 71
3
 72
9
 73
5
 74
0
 42
0.0000001
 43
0.0000001
 44
0.0000000001
 40
0.0
 40
0.0
 40
0.0
 40
0.0
 40
0.2592960674
 40
1.0
 40
1.0
 40
1.0
 40
1.0
 10
479.8554410829
 20
452.6884540626
 30
0.0
 10
479.8568438759
 20
452.6803881199
 30
0.0
 10
479.8616452109
 20
452.6491819156
 30
0.0
 10
479.8639791359
 20
452.6175678576
 30
0.0
 10
479.8639688012
 20
452.5941808633
 30
0.0
  0
SPLINE
  5
30D
100
AcDbEntity
  8
0
100
AcDbSpline
 62
7
  6
CONTINUOUS
 70
0
 71
3
 72
11
 73
7
 74
0
 42
0.0000001
 43
0.0000001
 44
0.0000000001
 40
0.0
 40
0.0
 40
0.0
 40
0.0
 40
0.2859630379
 40
0.5438733049
 40
0.7789180205
 40
1.0
 40
1.0
 40
1.0
 40
1.0
 10
484.6866472014
 20
453.1133466016
 30
0.0
 10
484.561730107
 20
453.1579270936
 30
0.0
 10
484.3173217602
 20
453.2255860907
 30
0.0
 10
483.9551514314
 20
453.2577793675
 30
0.0
 10
483.6238209912
 20
453.2156558484
 30
0.0
 10
483.424254605
 20
453.1378399656
 30
0.0
 10
483.3343537104
 20
453.0885198223
 30
0.0
  0
SPLINE
  5
30E
100
AcDbEntity
  8
0
100
AcDbSpline
 62
7
  6
CONTINUOUS
 70
0
 71
3
 72
9
 73
5
 74
0
 42
0.0000001
 43
0.0000001
 44
0.0000000001
 40
0.0
 40
0.0
 40
0.0
 40
0.0
 40
0.4457485816
 40
1.0
 40
1.0
 40
1.0
 40
1.0
 10
479.6764353252
 20
452.3378359209
 30
0.0
 10
479.6694781318
 20
452.333502414
 30
0.0
 10
479.6576941171
 20
452.3175625923
 30
0.0
 10
479.6561028151
 20
452.2986243822
 30
0.0
 10
479.6565719294
 20
452.288443576
 30
0.0
  0
SPLINE
  5
30F
100
AcDbEntity
  8
0
100
AcDbSpline
 62
7
  6
CONTINUOUS
 70
0
 71
3
 72
9
 73
5
 74
0
 42
0.0000001
 43
0.0000001
 44
0.0000000001
 40
0.0
 40
0.0
 40
0.0
 40
0.0
 40
0.4828693388
 40
1.0
 40
1.0
 40
1.0
 40
1.0
 10
481.217144055
 20
456.2697196023
 30
0.0
 10
480.9686698688
 20
456.1192459474
 30
0.0
 10
480.5050692303
 20
455.7168187243
 30
0.0
 10
480.1896379562
 20
455.1941299411
 30
0.0
 10
480.0620152872
 20
454.9104163754
 30
0.0
  0
SPLINE
  5
310
100
AcDbEntity
  8
0
100
AcDbSpline
 62
7
  6
CONTINUOUS
 70
0
 71
3
 72
9
 73
5
 74
0
 42
0.0000001
 43
0.0000001
 44
0.0000000001
 40
0.0
 40
0.0
 40
0.0
 40
0.0
 40
0.2454978524
 40
1.0
 40
1.0
 40
1.0
 40
1.0
 10
480.0620152872
 20
454.9104163754
 30
0.0
 10
480.0466729389
 20
454.8763093289
 30
0.0
 10
479.9862056069
 20
454.7364725378
 30
0.0
 10
479.9337803047
 20
454.5931867424
 30
0.0
 10
479.8984941479
 20
454.483796974
 30
0.0
  0
SPLINE
  5
311
100
AcDbEntity
  8
0
100
AcDbSpline
 62
7
  6
CONTINUOUS
 70
0
 71
3
 72
9
 73
5
 74
0
 42
0.0000001
 43
0.0000001
 44
0.0000000001
 40
0.0
 40
0.0
 40
0.0
 40
0.0
 40
0.2415621044
 40
1.0
 40
1.0
 40
1.0
 40
1.0
 10
479.7918747664
 20
454.0967195452
 30
0.0
 10
479.774316818
 20
454.0208086568
 30
0.0
 10
479.7089264583
 20
453.7048877199
 30
0.0
 10
479.6717035991
 20
453.3833701467
 30
0.0
 10
479.6569481735
 20
453.139184155
 30
0.0
  0
SPLINE
  5
312
100
AcDbEntity
  8
0
100
AcDbSpline
 62
7
  6
CONTINUOUS
 70
0
 71
3
 72
15
 73
11
 74
0
 42
0.0000001
 43
0.0000001
 44
0.0000000001
 40
0.0
 40
0.0
 40
0.0
 40
0.0
 40
0.1377955551
 40
0.2915892795
 40
0.4512199695
 40
0.6063530347
 40
0.7467804716
 40
0.8085197988
 40
0.863067914
 40
1.0
 40
1.0
 40
1.0
 40
1.0
 10
481.6376347879
 20
451.6665804521
 30
0.0
 10
481.6333045887
 20
451.744468506
 30
0.0
 10
481.6040924944
 20
451.9083187178
 30
0.0
 10
481.5152357775
 20
452.1489192525
 30
0.0
 10
481.3845204963
 20
452.3810368322
 30
0.0
 10
481.2234163722
 20
452.5836632655
 30
0.0
 10
481.071403526
 20
452.7187825806
 30
0.0
 10
480.947136641
 20
452.7960434825
 30
0.0
 10
480.8190316189
 20
452.8553161088
 30
0.0
 10
480.6947604707
 20
452.8762805474
 30
0.0
 10
480.6260149175
 20
452.8404570531
 30
0.0
  0
SPLINE
  5
313
100
AcDbEntity
  8
0
100
AcDbSpline
 62
7
  6
CONTINUOUS
 70
0
 71
3
 72
10
 73
6
 74
0
 42
0.0000001
 43
0.0000001
 44
0.0000000001
 40
0.0
 40
0.0
 40
0.0
 40
0.0
 40
0.3661128453
 40
0.6492988639
 40
1.0
 40
1.0
 40
1.0
 40
1.0
 10
481.5183137769
 20
451.2933615711
 30
0.0
 10
481.5600830196
 20
451.3198946052
 30
0.0
 10
481.6102011122
 20
451.4010429915
 30
0.0
 10
481.6383967641
 20
451.5327236452
 30
0.0
 10
481.640265991
 20
451.6192525401
 30
0.0
 10
481.6376347879
 20
451.6665804521
 30
0.0
  0
SPLINE
  5
314
100
AcDbEntity
  8
0
100
AcDbSpline
 62
7
  6
CONTINUOUS
 70
0
 71
3
 72
17
 73
13
 74
0
 42
0.0000001
 43
0.0000001
 44
0.0000000001
 40
0.0
 40
0.0
 40
0.0
 40
0.0
 40
0.0432907019
 40
0.0889536476
 40
0.1378059531
 40
0.1903341758
 40
0.3067023028
 40
0.4369706871
 40
0.5771381061
 40
0.7217152765
 40
0.8646191603
 40
1.0
 40
1.0
 40
1.0
 40
1.0
 10
487.0434971821
 20
446.0354549719
 30
0.0
 10
486.9478944151
 20
446.0045072247
 30
0.0
 10
486.7440050896
 20
445.9622779128
 30
0.0
 10
486.4224358259
 20
445.9598196836
 30
0.0
 10
486.0842477368
 20
446.0160133151
 30
0.0
 10
485.6020780116
 20
446.1726316463
 30
0.0
 10
484.9906377618
 20
446.5157625847
 30
0.0
 10
484.3043918652
 20
447.1012201273
 30
0.0
 10
483.679540236
 20
447.8394733309
 30
0.0
 10
483.1540783597
 20
448.6857615279
 30
0.0
 10
482.759889536
 20
449.5882492242
 30
0.0
 10
482.5939566748
 20
450.21623977
 30
0.0
 10
482.5422822846
 20
450.5262102195
 30
0.0
  0
SPLINE
  5
315
100
AcDbEntity
  8
0
100
AcDbSpline
 62
7
  6
CONTINUOUS
 70
0
 71
3
 72
9
 73
5
 74
0
 42
0.0000001
 43
0.0000001
 44
0.0000000001
 40
0.0
 40
0.0
 40
0.0
 40
0.0
 40
0.2586835776
 40
1.0
 40
1.0
 40
1.0
 40
1.0
 10
482.2650379154
 20
450.4917838714
 30
0.0
 10
482.2543010683
 20
450.5561891858
 30
0.0
 10
482.2174689239
 20
450.8058948816
 30
0.0
 10
482.1997925206
 20
451.0586131507
 30
0.0
 10
482.1998807494
 20
451.2457282803
 30
0.0
  0
SPLINE
  5
316
100
AcDbEntity
  8
0
100
AcDbSpline
 62
7
  6
CONTINUOUS
 70
0
 71
3
 72
17
 73
13
 74
0
 42
0.0000001
 43
0.0000001
 44
0.0000000001
 40
0.0
 40
0.0
 40
0.0
 40
0.0
 40
0.0429890023
 40
0.0880067972
 40
0.1360514168
 40
0.1877642644
 40
0.3028711256
 40
0.4327344497
 40
0.5733706201
 40
0.7190549686
 40
0.8633444889
 40
1.0
 40
1.0
 40
1.0
 40
1.0
 10
487.1142221309
 20
445.8223132862
 30
0.0
 10
487.0161661842
 20
445.7803858923
 30
0.0
 10
486.8050327209
 20
445.7172312635
 30
0.0
 10
486.4665171319
 20
445.6900931585
 30
0.0
 10
486.1075549988
 20
445.7283144734
 30
0.0
 10
485.5916695153
 20
445.869667373
 30
0.0
 10
484.9315434168
 20
446.2130690519
 30
0.0
 10
484.1874135695
 20
446.8218896697
 30
0.0
 10
483.5065502193
 20
447.6038980615
 30
0.0
 10
482.9324116614
 20
448.5093963024
 30
0.0
 10
482.5015372342
 20
449.4800948222
 30
0.0
 10
482.3207831183
 20
450.1573945245
 30
0.0
 10
482.2650379154
 20
450.4917838714
 30
0.0
  0
SPLINE
  5
317
100
AcDbEntity
  8
0
100
AcDbSpline
 62
7
  6
CONTINUOUS
 70
0
 71
3
 72
15
 73
11
 74
0
 42
0.0000001
 43
0.0000001
 44
0.0000000001
 40
0.0
 40
0.0
 40
0.0
 40
0.0
 40
0.1488693198
 40
0.2838323312
 40
0.406286581
 40
0.5197930592
 40
0.6299612074
 40
0.743287253
 40
0.8654228009
 40
1.0
 40
1.0
 40
1.0
 40
1.0
 10
482.1998807494
 20
451.2457282803
 30
0.0
 10
482.1999702361
 20
451.4355112969
 30
0.0
 10
482.2259544422
 20
451.7982838603
 30
0.0
 10
482.3555452687
 20
452.3031556726
 30
0.0
 10
482.5725934536
 20
452.7285455704
 30
0.0
 10
482.874134766
 20
453.059036618
 30
0.0
 10
483.2512223297
 20
453.2787865604
 30
0.0
 10
483.6869311302
 20
453.3777785479
 30
0.0
 10
484.1627661695
 20
453.3560969024
 30
0.0
 10
484.4808180274
 20
453.2688708021
 30
0.0
 10
484.6417802367
 20
453.2094987885
 30
0.0
  0
SPLINE
  5
318
100
AcDbEntity
  8
0
100
AcDbSpline
 62
7
  6
CONTINUOUS
 70
0
 71
3
 72
19
 73
15
 74
0
 42
0.0000001
 43
0.0000001
 44
0.0000000001
 40
0.0
 40
0.0
 40
0.0
 40
0.0
 40
0.0628219991
 40
0.1193935206
 40
0.1701390778
 40
0.2166967996
 40
0.2617924935
 40
0.3086282033
 40
0.359853106
 40
0.4169727959
 40
0.5490904076
 40
0.6993388577
 40
0.8545429872
 40
1.0
 40
1.0
 40
1.0
 40
1.0
 10
480.1533618629
 20
452.3675222153
 30
0.0
 10
480.1502522184
 20
452.4234559375
 30
0.0
 10
480.1521252326
 20
452.5304880123
 30
0.0
 10
480.1830178014
 20
452.6801035177
 30
0.0
 10
480.2417369966
 20
452.8058411981
 30
0.0
 10
480.3275686327
 20
452.902286731
 30
0.0
 10
480.4375800356
 20
452.963490911
 30
0.0
 10
480.56534427
 20
452.9860148414
 30
0.0
 10
480.7043805882
 20
452.9705563797
 30
0.0
 10
480.9078922102
 20
452.8985893835
 30
0.0
 10
481.1586921443
 20
452.7195891053
 30
0.0
 10
481.4125368733
 20
452.419404766
 30
0.0
 10
481.6024614185
 20
452.0617494418
 30
0.0
 10
481.6739966859
 20
451.7998504855
 30
0.0
 10
481.689323445
 20
451.671051201
 30
0.0
  0
SPLINE
  5
319
100
AcDbEntity
  8
0
100
AcDbSpline
 62
7
  6
CONTINUOUS
 70
0
 71
3
 72
19
 73
15
 74
0
 42
0.0000001
 43
0.0000001
 44
0.0000000001
 40
0.0
 40
0.0
 40
0.0
 40
0.0
 40
0.0605677339
 40
0.114904133
 40
0.1638381397
 40
0.209452033
 40
0.2547759489
 40
0.3029427412
 40
0.3562239869
 40
0.4156813371
 40
0.5519672114
 40
0.7041938739
 40
0.8583968816
 40
1.0
 40
1.0
 40
1.0
 40
1.0
 10
481.6976009684
 20
451.5355567872
 30
0.0
 10
481.697576971
 20
451.4812518177
 30
0.0
 10
481.6894650264
 20
451.3778926519
 30
0.0
 10
481.6484914932
 20
451.235564826
 30
0.0
 10
481.5795677131
 20
451.1191553716
 30
0.0
 10
481.4839324062
 20
451.0344935614
 30
0.0
 10
481.3659693213
 20
450.9871834678
 30
0.0
 10
481.2327313707
 20
450.9790428533
 30
0.0
 10
481.0901258535
 20
451.0084423442
 30
0.0
 10
480.8845781863
 20
451.0988218485
 30
0.0
 10
480.6369161817
 20
451.2965170198
 30
0.0
 10
480.3923625564
 20
451.6129004451
 30
0.0
 10
480.2181721919
 20
451.9780411065
 30
0.0
 10
480.1604094103
 20
452.2407567425
 30
0.0
 10
480.1533618629
 20
452.3675222153
 30
0.0
  0
SPLINE
  5
31A
100
AcDbEntity
  8
0
100
AcDbSpline
 62
7
  6
CONTINUOUS
 70
0
 71
3
 72
9
 73
5
 74
0
 42
0.0000001
 43
0.0000001
 44
0.0000000001
 40
0.0
 40
0.0
 40
0.0
 40
0.0
 40
0.4680236491
 40
1.0
 40
1.0
 40
1.0
 40
1.0
 10
484.2915733809
 20
452.6340486492
 30
0.0
 10
484.2704875932
 20
452.6462212675
 30
0.0
 10
484.2361044888
 20
452.6908122472
 30
0.0
 10
484.2294828062
 20
452.7438023188
 30
0.0
 10
484.2294949898
 20
452.7714763473
 30
0.0
  0
SPLINE
  5
31B
100
AcDbEntity
  8
0
100
AcDbSpline
 62
7
  6
CONTINUOUS
 70
0
 71
3
 72
11
 73
7
 74
0
 42
0.0000001
 43
0.0000001
 44
0.0000000001
 40
0.0
 40
0.0
 40
0.0
 40
0.0
 40
0.2905089148
 40
0.5495555861
 40
0.7820541614
 40
1.0
 40
1.0
 40
1.0
 40
1.0
 10
480.42948611
 20
452.4252035932
 30
0.0
 10
480.4295067197
 20
452.4718425803
 30
0.0
 10
480.4367937304
 20
452.5603922886
 30
0.0
 10
480.4739477073
 20
452.6815920238
 30
0.0
 10
480.536507753
 20
452.7788308745
 30
0.0
 10
480.5949873672
 20
452.8242846912
 30
0.0
 10
480.6260178274
 20
452.8404519006
 30
0.0
  0
SPLINE
  5
31C
100
AcDbEntity
  8
0
100
AcDbSpline
 62
7
  6
CONTINUOUS
 70
0
 71
3
 72
15
 73
11
 74
0
 42
0.0000001
 43
0.0000001
 44
0.0000000001
 40
0.0
 40
0.0
 40
0.0
 40
0.0
 40
0.0866151418
 40
0.1845882507
 40
0.2999780233
 40
0.4320449469
 40
0.5756968849
 40
0.7235451408
 40
0.8674473742
 40
1.0
 40
1.0
 40
1.0
 40
1.0
 10
481.5183125324
 20
451.2933637202
 30
0.0
 10
481.4758691837
 20
451.266412327
 30
0.0
 10
481.3686740644
 20
451.2331915411
 30
0.0
 10
481.1926181886
 20
451.2606836112
 30
0.0
 10
481.0114657563
 20
451.3517552428
 30
0.0
 10
480.8358887715
 20
451.4981410341
 30
0.0
 10
480.6783444282
 20
451.6884732115
 30
0.0
 10
480.5509272985
 20
451.9080917257
 30
0.0
 10
480.4636205564
 20
452.1395538899
 30
0.0
 10
480.4351430891
 20
452.2988924227
 30
0.0
 10
480.4308720446
 20
452.3757164497
 30
0.0
  0
SPLINE
  5
31D
100
AcDbEntity
  8
0
100
AcDbSpline
 62
7
  6
CONTINUOUS
 70
0
 71
3
 72
9
 73
5
 74
0
 42
0.0000001
 43
0.0000001
 44
0.0000000001
 40
0.0
 40
0.0
 40
0.0
 40
0.0
 40
0.2394493522
 40
1.0
 40
1.0
 40
1.0
 40
1.0
 10
484.1320940385
 20
453.2555596514
 30
0.0
 10
484.1104063995
 20
453.216298073
 30
0.0
 10
484.0260660722
 20
453.0489043633
 30
0.0
 10
483.9663345755
 20
452.8696199847
 30
0.0
 10
483.9328425462
 20
452.7311472706
 30
0.0
  0
SPLINE
  5
31E
100
AcDbEntity
  8
0
100
AcDbSpline
 62
7
  6
CONTINUOUS
 70
0
 71
3
 72
11
 73
7
 74
0
 42
0.0000001
 43
0.0000001
 44
0.0000000001
 40
0.0
 40
0.0
 40
0.0
 40
0.0
 40
0.2901763379
 40
0.5492871758
 40
0.7821492433
 40
1.0
 40
1.0
 40
1.0
 40
1.0
 10
482.4802309041
 20
451.2440798799
 30
0.0
 10
482.4803218048
 20
451.4497842148
 30
0.0
 10
482.5119869515
 20
451.8405567045
 30
0.0
 10
482.6733837379
 20
452.3763694994
 30
0.0
 10
482.9446237814
 20
452.8087760115
 30
0.0
 10
483.1989612959
 20
453.0142332773
 30
0.0
 10
483.3343542168
 20
453.088518932
 30
0.0
  0
SPLINE
  5
31F
100
AcDbEntity
  8
0
100
AcDbSpline
 62
7
  6
CONTINUOUS
 70
0
 71
3
 72
9
 73
5
 74
0
 42
0.0000001
 43
0.0000001
 44
0.0000000001
 40
0.0
 40
0.0
 40
0.0
 40
0.0
 40
0.2586816966
 40
1.0
 40
1.0
 40
1.0
 40
1.0
 10
482.5422822846
 20
450.5262102195
 30
0.0
 10
482.5320592368
 20
450.5875334921
 30
0.0
 10
482.4969885089
 20
450.8252913868
 30
0.0
 10
482.480152174
 20
451.0659171783
 30
0.0
 10
482.4802309041
 20
451.2440798799
 30
0.0
  0
LINE
  5
320
100
AcDbEntity
  8
0
100
AcDbLine
 62
7
  6
CONTINUOUS
 10
484.1991215742
 20
451.5740845146
 11
485.1611026964
 21
452.1320362606
  0
SPLINE
  5
321
100
AcDbEntity
  8
0
100
AcDbSpline
 62
7
  6
CONTINUOUS
 70
0
 71
3
 72
9
 73
5
 74
0
 42
0.0000001
 43
0.0000001
 44
0.0000000001
 40
0.0
 40
0.0
 40
0.0
 40
0.0
 40
0.5224019105
 40
1.0
 40
1.0
 40
1.0
 40
1.0
 10
483.9321626407
 20
451.1925510686
 30
0.0
 10
483.9591363144
 20
451.2702899611
 30
0.0
 10
484.0233330605
 20
451.4150638621
 30
0.0
 10
484.1340488069
 20
451.536336786
 30
0.0
 10
484.1991212707
 20
451.5740843401
 30
0.0
  0
SPLINE
  5
322
100
AcDbEntity
  8
0
100
AcDbSpline
 62
7
  6
CONTINUOUS
 70
0
 71
3
 72
11
 73
7
 74
0
 42
0.0000001
 43
0.0000001
 44
0.0000000001
 40
0.0
 40
0.0
 40
0.0
 40
0.0
 40
0.2504676335
 40
0.5130062773
 40
0.7686403363
 40
1.0
 40
1.0
 40
1.0
 40
1.0
 10
483.9321626407
 20
451.1925510686
 30
0.0
 10
484.0093719458
 20
450.7826568595
 30
0.0
 10
484.268711715
 20
449.9607613904
 30
0.0
 10
484.8831584892
 20
448.8297722532
 30
0.0
 10
485.677655731
 20
447.8578111245
 30
0.0
 10
486.3195813592
 20
447.346018074
 30
0.0
 10
486.6532473688
 20
447.1533802713
 30
0.0
  0
SPLINE
  5
323
100
AcDbEntity
  8
0
100
AcDbSpline
 62
7
  6
CONTINUOUS
 70
0
 71
3
 72
9
 73
5
 74
0
 42
0.0000001
 43
0.0000001
 44
0.0000000001
 40
0.0
 40
0.0
 40
0.0
 40
0.0
 40
0.5126962466
 40
1.0
 40
1.0
 40
1.0
 40
1.0
 10
484.2287703292
 20
451.1304393017
 30
0.0
 10
484.1899601922
 20
451.168468985
 30
0.0
 10
484.0946459297
 20
451.2236873007
 30
0.0
 10
483.9763215301
 20
451.2193327979
 30
0.0
 10
483.9321626402
 20
451.1925510715
 30
0.0
  0
SPLINE
  5
324
100
AcDbEntity
  8
0
100
AcDbSpline
 62
7
  6
CONTINUOUS
 70
0
 71
3
 72
11
 73
7
 74
0
 42
0.0000001
 43
0.0000001
 44
0.0000000001
 40
0.0
 40
0.0
 40
0.0
 40
0.0
 40
0.249354241
 40
0.509559107
 40
0.7647428414
 40
1.0
 40
1.0
 40
1.0
 40
1.0
 10
484.2287703251
 20
451.1304393283
 30
0.0
 10
484.3039328932
 20
450.7730015542
 30
0.0
 10
484.5365030013
 20
450.0580180247
 30
0.0
 10
485.0676049139
 20
449.0657195357
 30
0.0
 10
485.7485294022
 20
448.1955693394
 30
0.0
 10
486.2954851141
 20
447.7195258135
 30
0.0
 10
486.581910732
 20
447.5279186403
 30
0.0
  0
SPLINE
  5
325
100
AcDbEntity
  8
0
100
AcDbSpline
 62
7
  6
CONTINUOUS
 70
0
 71
3
 72
9
 73
5
 74
0
 42
0.0000001
 43
0.0000001
 44
0.0000000001
 40
0.0
 40
0.0
 40
0.0
 40
0.0
 40
0.5299244412
 40
1.0
 40
1.0
 40
1.0
 40
1.0
 10
484.0473906913
 20
452.6853862067
 30
0.0
 10
484.0252633419
 20
452.6860948017
 30
0.0
 10
483.9831101499
 20
452.6946624699
 30
0.0
 10
483.9476565958
 20
452.718255027
 30
0.0
 10
483.9328425462
 20
452.7311472706
 30
0.0
  0
SPLINE
  5
326
100
AcDbEntity
  8
0
100
AcDbSpline
 62
7
  6
CONTINUOUS
 70
0
 71
3
 72
11
 73
7
 74
0
 42
0.0000001
 43
0.0000001
 44
0.0000000001
 40
0.0
 40
0.0
 40
0.0
 40
0.0
 40
0.2269099835
 40
0.4989757652
 40
0.7716415693
 40
1.0
 40
1.0
 40
1.0
 40
1.0
 10
484.2287697407
 20
451.1304391584
 30
0.0
 10
484.2287843513
 20
451.1633802361
 30
0.0
 10
484.2410607144
 20
451.2358580571
 30
0.0
 10
484.285890426
 20
451.3395176359
 30
0.0
 10
484.3525331657
 20
451.4309558544
 30
0.0
 10
484.4088415134
 20
451.478635712
 30
0.0
 10
484.4373073045
 20
451.4956272132
 30
0.0
  0
SPLINE
  5
327
100
AcDbEntity
  8
0
100
AcDbSpline
 62
7
  6
CONTINUOUS
 70
0
 71
3
 72
9
 73
5
 74
0
 42
0.0000001
 43
0.0000001
 44
0.0000000001
 40
0.0
 40
0.0
 40
0.0
 40
0.0
 40
0.2326124423
 40
1.0
 40
1.0
 40
1.0
 40
1.0
 10
484.4373073529
 20
451.4956282205
 30
0.0
 10
484.4204116455
 20
451.505385654
 30
0.0
 10
484.3453200406
 20
451.5430470024
 30
0.0
 10
484.2628178935
 20
451.56482276
 30
0.0
 10
484.1991215742
 20
451.5740845146
 30
0.0
  0
SPLINE
  5
328
100
AcDbEntity
  8
0
100
AcDbSpline
 62
7
  6
CONTINUOUS
 70
0
 71
3
 72
10
 73
6
 74
0
 42
0.0000001
 43
0.0000001
 44
0.0000000001
 40
0.0
 40
0.0
 40
0.0
 40
0.0
 40
0.2370750231
 40
0.5057019462
 40
1.0
 40
1.0
 40
1.0
 40
1.0
 10
483.9328435629
 20
452.7311461155
 30
0.0
 10
483.9540367816
 20
452.7422970771
 30
0.0
 10
484.0025188002
 20
452.7598744687
 30
0.0
 10
484.1017494269
 20
452.7787870316
 30
0.0
 10
484.1803095134
 20
452.7800662931
 30
0.0
 10
484.2294955389
 20
452.7714744919
 30
0.0
  0
SPLINE
  5
329
100
AcDbEntity
  8
0
100
AcDbSpline
 62
7
  6
CONTINUOUS
 70
0
 71
3
 72
9
 73
5
 74
0
 42
0.0000001
 43
0.0000001
 44
0.0000000001
 40
0.0
 40
0.0
 40
0.0
 40
0.0
 40
0.2411943899
 40
1.0
 40
1.0
 40
1.0
 40
1.0
 10
484.3944439434
 20
453.1840635515
 30
0.0
 10
484.3773000647
 20
453.1526714085
 30
0.0
 10
484.3103620639
 20
453.02027013
 30
0.0
 10
484.2597262201
 20
452.8798683698
 30
0.0
 10
484.2294954981
 20
452.771476521
 30
0.0
  0
SPLINE
  5
32A
100
AcDbEntity
  8
0
100
AcDbSpline
 62
7
  6
CONTINUOUS
 70
0
 71
3
 72
9
 73
5
 74
0
 42
0.0000001
 43
0.0000001
 44
0.0000000001
 40
0.0
 40
0.0
 40
0.0
 40
0.0
 40
0.2487180272
 40
1.0
 40
1.0
 40
1.0
 40
1.0
 10
486.624569529
 20
447.3992521616
 30
0.0
 10
486.5805579025
 20
447.5938261815
 30
0.0
 10
486.3870389079
 20
448.3720765122
 30
0.0
 10
486.1194150863
 20
449.1336546879
 30
0.0
 10
485.8654970419
 20
449.6801252891
 30
0.0
  0
SPLINE
  5
32B
100
AcDbEntity
  8
0
100
AcDbSpline
 62
7
  6
CONTINUOUS
 70
0
 71
3
 72
9
 73
5
 74
0
 42
0.0000001
 43
0.0000001
 44
0.0000000001
 40
0.0
 40
0.0
 40
0.0
 40
0.0
 40
0.2450125402
 40
1.0
 40
1.0
 40
1.0
 40
1.0
 10
486.7104122785
 20
447.1479212974
 30
0.0
 10
486.7013230739
 20
447.167638781
 30
0.0
 10
486.6664045386
 20
447.2490900106
 30
0.0
 10
486.6393804087
 20
447.3340107846
 30
0.0
 10
486.6245700844
 20
447.3992534863
 30
0.0
  0
SPLINE
  5
32C
100
AcDbEntity
  8
0
100
AcDbSpline
 62
7
  6
CONTINUOUS
 70
0
 71
3
 72
11
 73
7
 74
0
 42
0.0000001
 43
0.0000001
 44
0.0000000001
 40
0.0
 40
0.0
 40
0.0
 40
0.0
 40
0.2240025224
 40
0.4625096426
 40
0.7220063343
 40
1.0
 40
1.0
 40
1.0
 40
1.0
 10
486.7080872621
 20
441.3314762614
 30
0.0
 10
486.9500553081
 20
441.7115749756
 30
0.0
 10
487.3175000633
 20
442.58612924
 30
0.0
 10
487.4742192544
 20
444.0447448021
 30
0.0
 10
487.2915926177
 20
445.6058405093
 30
0.0
 10
486.9445084899
 20
446.640096154
 30
0.0
 10
486.7104122785
 20
447.1479213257
 30
0.0
  0
SPLINE
  5
32D
100
AcDbEntity
  8
0
100
AcDbSpline
 62
7
  6
CONTINUOUS
 70
0
 71
3
 72
9
 73
5
 74
0
 42
0.0000001
 43
0.0000001
 44
0.0000000001
 40
0.0
 40
0.0
 40
0.0
 40
0.0
 40
0.2185717754
 40
1.0
 40
1.0
 40
1.0
 40
1.0
 10
486.6218995051
 20
441.1787743839
 30
0.0
 10
486.6272440103
 20
441.1903840197
 30
0.0
 10
486.6533786647
 20
441.2427196764
 30
0.0
 10
486.683549196
 20
441.2929308278
 30
0.0
 10
486.7080872621
 20
441.3314762204
 30
0.0
  0
SPLINE
  5
32E
100
AcDbEntity
  8
0
100
AcDbSpline
 62
7
  6
CONTINUOUS
 70
0
 71
3
 72
9
 73
5
 74
0
 42
0.0000001
 43
0.0000001
 44
0.0000000001
 40
0.0
 40
0.0
 40
0.0
 40
0.0
 40
0.4940855217
 40
1.0
 40
1.0
 40
1.0
 40
1.0
 10
485.8617314828
 20
440.282653634
 30
0.0
 10
486.0263068298
 20
440.3884093474
 30
0.0
 10
486.3303225974
 20
440.6531683524
 30
0.0
 10
486.5381373326
 20
440.9968216802
 30
0.0
 10
486.6219002246
 20
441.1787762038
 30
0.0
  0
SPLINE
  5
32F
100
AcDbEntity
  8
0
100
AcDbSpline
 62
7
  6
CONTINUOUS
 70
0
 71
3
 72
9
 73
5
 74
0
 42
0.0000001
 43
0.0000001
 44
0.0000000001
 40
0.0
 40
0.0
 40
0.0
 40
0.0
 40
0.2958830955
 40
1.0
 40
1.0
 40
1.0
 40
1.0
 10
485.8292199348
 20
440.2200422633
 30
0.0
 10
485.8301506688
 20
440.2270547059
 30
0.0
 10
485.8346389093
 20
440.2503010139
 30
0.0
 10
485.8475984677
 20
440.2736262009
 30
0.0
 10
485.8617851303
 20
440.2826882292
 30
0.0
  0
SPLINE
  5
330
100
AcDbEntity
  8
0
100
AcDbSpline
 62
7
  6
CONTINUOUS
 70
0
 71
3
 72
11
 73
7
 74
0
 42
0.0000001
 43
0.0000001
 44
0.0000000001
 40
0.0
 40
0.0
 40
0.0
 40
0.0
 40
0.2615202672
 40
0.5109842698
 40
0.7546513539
 40
1.0
 40
1.0
 40
1.0
 40
1.0
 10
483.0910252472
 20
454.8838647524
 30
0.0
 10
482.9162989276
 20
455.2075493309
 30
0.0
 10
482.5047210411
 20
455.8073139169
 30
0.0
 10
481.671083024
 20
456.4908891677
 30
0.0
 10
480.6837455509
 20
456.8670831364
 30
0.0
 10
479.9855719509
 20
456.9028403216
 30
0.0
 10
479.6415811404
 20
456.8753544401
 30
0.0
  0
SPLINE
  5
331
100
AcDbEntity
  8
0
100
AcDbSpline
 62
7
  6
CONTINUOUS
 70
0
 71
3
 72
9
 73
5
 74
0
 42
0.0000001
 43
0.0000001
 44
0.0000000001
 40
0.0
 40
0.0
 40
0.0
 40
0.0
 40
0.2601062099
 40
1.0
 40
1.0
 40
1.0
 40
1.0
 10
483.1770998031
 20
454.7893283868
 30
0.0
 10
483.1680176956
 20
454.7957728853
 30
0.0
 10
483.1344406601
 20
454.822312903
 30
0.0
 10
483.1060752173
 20
454.8559857133
 30
0.0
 10
483.0910276843
 20
454.8838616577
 30
0.0
  0
SPLINE
  5
332
100
AcDbEntity
  8
0
100
AcDbSpline
 62
7
  6
CONTINUOUS
 70
0
 71
3
 72
11
 73
7
 74
0
 42
0.0000001
 43
0.0000001
 44
0.0000000001
 40
0.0
 40
0.0
 40
0.0
 40
0.0
 40
0.2373704363
 40
0.4884740364
 40
0.7444370149
 40
1.0
 40
1.0
 40
1.0
 40
1.0
 10
485.833057425
 20
449.7913706685
 30
0.0
 10
485.7823538127
 20
450.2486224997
 30
0.0
 10
485.5997497966
 20
451.1822899315
 30
0.0
 10
485.0940372482
 20
452.54146301
 30
0.0
 10
484.3086239918
 20
453.8075234625
 30
0.0
 10
483.5810634949
 20
454.5027121566
 30
0.0
 10
483.1770998033
 20
454.7893290462
 30
0.0
  0
SPLINE
  5
333
100
AcDbEntity
  8
0
100
AcDbSpline
 62
7
  6
CONTINUOUS
 70
0
 71
3
 72
9
 73
5
 74
0
 42
0.0000001
 43
0.0000001
 44
0.0000000001
 40
0.0
 40
0.0
 40
0.0
 40
0.0
 40
0.3064634507
 40
1.0
 40
1.0
 40
1.0
 40
1.0
 10
479.6415806989
 20
456.8753545705
 30
0.0
 10
479.6327743838
 20
456.8746509197
 30
0.0
 10
479.6041001366
 20
456.8732691365
 30
0.0
 10
479.5744923464
 20
456.8741212595
 30
0.0
 10
479.5554575202
 20
456.8802347684
 30
0.0
  0
SPLINE
  5
334
100
AcDbEntity
  8
0
100
AcDbSpline
 62
7
  6
CONTINUOUS
 70
0
 71
3
 72
9
 73
5
 74
0
 42
0.0000001
 43
0.0000001
 44
0.0000000001
 40
0.0
 40
0.0
 40
0.0
 40
0.0
 40
0.2596664099
 40
1.0
 40
1.0
 40
1.0
 40
1.0
 10
485.8655517209
 20
449.6800105613
 30
0.0
 10
485.8613047438
 20
449.689134628
 30
0.0
 10
485.846252195
 20
449.7248380348
 30
0.0
 10
485.836199856
 20
449.76284943
 30
0.0
 10
485.8330577265
 20
449.7913704753
 30
0.0
  0
SPLINE
  5
335
100
AcDbEntity
  8
0
100
AcDbSpline
 62
7
  6
CONTINUOUS
 70
0
 71
3
 72
9
 73
5
 74
0
 42
0.0000001
 43
0.0000001
 44
0.0000000001
 40
0.0
 40
0.0
 40
0.0
 40
0.0
 40
0.5196278345
 40
1.0
 40
1.0
 40
1.0
 40
1.0
 10
472.6920042643
 20
436.945588925
 30
0.0
 10
472.0807508643
 20
441.2388242863
 30
0.0
 10
471.4223430275
 20
449.5871263713
 30
0.0
 10
472.0419623422
 20
457.9560714292
 30
0.0
 10
472.7190428755
 20
461.9074050806
 30
0.0
  0
SPLINE
  5
336
100
AcDbEntity
  8
0
100
AcDbSpline
 62
7
  6
CONTINUOUS
 70
0
 71
3
 72
9
 73
5
 74
0
 42
0.0000001
 43
0.0000001
 44
0.0000000001
 40
0.0
 40
0.0
 40
0.0
 40
0.0
 40
0.5614881725
 40
1.0
 40
1.0
 40
1.0
 40
1.0
 10
482.2013595797
 20
428.7348028637
 30
0.0
 10
482.2013283838
 20
428.6570007336
 30
0.0
 10
482.1865233934
 20
428.5162911092
 30
0.0
 10
482.1033218397
 20
428.3932166759
 30
0.0
 10
482.052813865
 20
428.35943846
 30
0.0
  0
SPLINE
  5
337
100
AcDbEntity
  8
0
100
AcDbSpline
 62
7
  6
CONTINUOUS
 70
0
 71
3
 72
9
 73
5
 74
0
 42
0.0000001
 43
0.0000001
 44
0.0000000001
 40
0.0
 40
0.0
 40
0.0
 40
0.0
 40
0.4923004555
 40
1.0
 40
1.0
 40
1.0
 40
1.0
 10
476.387644331
 20
468.4881581804
 30
0.0
 10
476.4414436503
 20
468.5290867612
 30
0.0
 10
476.5638578898
 20
468.5962497391
 30
0.0
 10
476.7000281386
 20
468.6251501848
 30
0.0
 10
476.769470431
 20
468.6312838667
 30
0.0
  0
SPLINE
  5
338
100
AcDbEntity
  8
0
100
AcDbSpline
 62
7
  6
CONTINUOUS
 70
0
 71
3
 72
13
 73
9
 74
0
 42
0.0000001
 43
0.0000001
 44
0.0000000001
 40
0.0
 40
0.0
 40
0.0
 40
0.0
 40
0.0924876765
 40
0.1953944765
 40
0.3131729718
 40
0.4453368866
 40
0.7322295019
 40
1.0
 40
1.0
 40
1.0
 40
1.0
 10
481.1952476766
 20
429.8517965225
 30
0.0
 10
481.2424230743
 20
429.8751836729
 30
0.0
 10
481.3554866335
 20
429.8998335733
 30
0.0
 10
481.533762364
 20
429.8628469865
 30
0.0
 10
481.7103603381
 20
429.7618365896
 30
0.0
 10
481.9328055819
 20
429.5488270771
 30
0.0
 10
482.1290623402
 20
429.2022737894
 30
0.0
 10
482.2014207047
 20
428.8872477267
 30
0.0
 10
482.2013595797
 20
428.7348028637
 30
0.0
  0
SPLINE
  5
339
100
AcDbEntity
  8
0
100
AcDbSpline
 62
7
  6
CONTINUOUS
 70
0
 71
3
 72
11
 73
7
 74
0
 42
0.0000001
 43
0.0000001
 44
0.0000000001
 40
0.0
 40
0.0
 40
0.0
 40
0.0
 40
0.2373664436
 40
0.4732141431
 40
0.7239491554
 40
1.0
 40
1.0
 40
1.0
 40
1.0
 10
484.6852587609
 20
438.2266467004
 30
0.0
 10
484.8461648352
 20
438.3241189592
 30
0.0
 10
485.1450819215
 20
438.5591459132
 30
0.0
 10
485.4867168327
 20
439.0280953324
 30
0.0
 10
485.7167623319
 20
439.5919828787
 30
0.0
 10
485.8002134635
 20
440.0031876511
 30
0.0
 10
485.8292196338
 20
440.2200425245
 30
0.0
  0
SPLINE
  5
33A
100
AcDbEntity
  8
0
100
AcDbSpline
 62
7
  6
CONTINUOUS
 70
0
 71
3
 72
9
 73
5
 74
0
 42
0.0000001
 43
0.0000001
 44
0.0000000001
 40
0.0
 40
0.0
 40
0.0
 40
0.0
 40
0.2488546879
 40
1.0
 40
1.0
 40
1.0
 40
1.0
 10
494.4246705551
 20
458.4382797207
 30
0.0
 10
494.4807814056
 20
458.3685138507
 30
0.0
 10
494.6952846907
 20
458.0795680125
 30
0.0
 10
494.8666894767
 20
457.7582067171
 30
0.0
 10
494.9640583305
 20
457.5061179573
 30
0.0
  0
SPLINE
  5
33B
100
AcDbEntity
  8
0
100
AcDbSpline
 62
7
  6
CONTINUOUS
 70
0
 71
3
 72
9
 73
5
 74
0
 42
0.0000001
 43
0.0000001
 44
0.0000000001
 40
0.0
 40
0.0
 40
0.0
 40
0.0
 40
0.2584260039
 40
1.0
 40
1.0
 40
1.0
 40
1.0
 10
494.9503627827
 20
423.368532227
 30
0.0
 10
494.9313198806
 20
423.3412809923
 30
0.0
 10
494.851396312
 20
423.2403448924
 30
0.0
 10
494.7438197343
 20
423.161181796
 30
0.0
 10
494.65678207
 20
423.1221214566
 30
0.0
  0
SPLINE
  5
33C
100
AcDbEntity
  8
0
100
AcDbSpline
 62
7
  6
CONTINUOUS
 70
0
 71
3
 72
9
 73
5
 74
0
 42
0.0000001
 43
0.0000001
 44
0.0000000001
 40
0.0
 40
0.0
 40
0.0
 40
0.0
 40
0.2659060054
 40
1.0
 40
1.0
 40
1.0
 40
1.0
 10
495.2877637393
 20
424.1716561462
 30
0.0
 10
495.2703707669
 20
424.0961742526
 30
0.0
 10
495.1950277898
 20
423.8150379288
 30
0.0
 10
495.0728515981
 20
423.5438217779
 30
0.0
 10
494.9503627827
 20
423.368532227
 30
0.0
  0
SPLINE
  5
33D
100
AcDbEntity
  8
0
100
AcDbSpline
 62
7
  6
CONTINUOUS
 70
0
 71
3
 72
11
 73
7
 74
0
 42
0.0000001
 43
0.0000001
 44
0.0000000001
 40
0.0
 40
0.0
 40
0.0
 40
0.0
 40
0.2708641213
 40
0.5284568661
 40
0.7716654736
 40
1.0
 40
1.0
 40
1.0
 40
1.0
 10
495.3006516141
 20
456.3138874375
 30
0.0
 10
495.8217842473
 20
453.4403984001
 30
0.0
 10
496.6161830392
 20
447.7903804782
 30
0.0
 10
497.0376431815
 20
439.469175694
 30
0.0
 10
496.6557045912
 20
431.6036664314
 30
0.0
 10
495.8405455674
 20
426.5706156829
 30
0.0
 10
495.2877637393
 20
424.1716561462
 30
0.0
  0
SPLINE
  5
33E
100
AcDbEntity
  8
0
100
AcDbSpline
 62
7
  6
CONTINUOUS
 70
0
 71
3
 72
9
 73
5
 74
0
 42
0.0000001
 43
0.0000001
 44
0.0000000001
 40
0.0
 40
0.0
 40
0.0
 40
0.0
 40
0.2573213711
 40
1.0
 40
1.0
 40
1.0
 40
1.0
 10
494.9640583305
 20
457.5061179573
 30
0.0
 10
495.0023766874
 20
457.4069116277
 30
0.0
 10
495.142285554
 20
457.0179660881
 30
0.0
 10
495.2458779635
 20
456.6159054237
 30
0.0
 10
495.3006516141
 20
456.3138874375
 30
0.0
  0
SPLINE
  5
33F
100
AcDbEntity
  8
0
100
AcDbSpline
 62
7
  6
CONTINUOUS
 70
0
 71
3
 72
12
 73
8
 74
0
 42
0.0000001
 43
0.0000001
 44
0.0000000001
 40
0.0
 40
0.0
 40
0.0
 40
0.0
 40
0.2673742867
 40
0.5222764902
 40
0.764697998
 40
0.8829010613
 40
1.0
 40
1.0
 40
1.0
 40
1.0
 10
474.3637971212
 20
432.809952961
 30
0.0
 10
475.5506701776
 20
431.3229013312
 30
0.0
 10
478.0999017516
 20
428.5907892051
 30
0.0
 10
482.4762332042
 20
425.3065164142
 30
0.0
 10
486.5006693021
 20
423.4600870938
 30
0.0
 10
489.8215510693
 20
422.6888594366
 30
0.0
 10
491.4989257351
 20
422.5554609408
 30
0.0
 10
492.3321956489
 20
422.5575123637
 30
0.0
  0
SPLINE
  5
340
100
AcDbEntity
  8
0
100
AcDbSpline
 62
7
  6
CONTINUOUS
 70
0
 71
3
 72
9
 73
5
 74
0
 42
0.0000001
 43
0.0000001
 44
0.0000000001
 40
0.0
 40
0.0
 40
0.0
 40
0.0
 40
0.4776127099
 40
1.0
 40
1.0
 40
1.0
 40
1.0
 10
481.0391876567
 20
456.6096076665
 30
0.0
 10
480.8021303571
 20
456.4048939402
 30
0.0
 10
480.3761769627
 20
455.8908360223
 30
0.0
 10
480.1125940229
 20
455.2820599951
 30
0.0
 10
480.0105239936
 20
454.9550407672
 30
0.0
  0
SPLINE
  5
341
100
AcDbEntity
  8
0
100
AcDbSpline
 62
7
  6
CONTINUOUS
 70
0
 71
3
 72
9
 73
5
 74
0
 42
0.0000001
 43
0.0000001
 44
0.0000000001
 40
0.0
 40
0.0
 40
0.0
 40
0.0
 40
0.2456102518
 40
1.0
 40
1.0
 40
1.0
 40
1.0
 10
480.0105239936
 20
454.9550407672
 30
0.0
 10
479.9987617387
 20
454.9173560173
 30
0.0
 10
479.9527779525
 20
454.7633320002
 30
0.0
 10
479.9143080582
 20
454.6070844399
 30
0.0
 10
479.8892257601
 20
454.4884515014
 30
0.0
  0
SPLINE
  5
342
100
AcDbEntity
  8
0
100
AcDbSpline
 62
7
  6
CONTINUOUS
 70
0
 71
3
 72
9
 73
5
 74
0
 42
0.0000001
 43
0.0000001
 44
0.0000000001
 40
0.0
 40
0.0
 40
0.0
 40
0.0
 40
0.2437234849
 40
1.0
 40
1.0
 40
1.0
 40
1.0
 10
486.668471291
 20
454.0627416687
 30
0.0
 10
486.6623027528
 20
454.1253127078
 30
0.0
 10
486.6355927768
 20
454.3818901425
 30
0.0
 10
486.6021660172
 20
454.6378683879
 30
0.0
 10
486.570192361
 20
454.8303303882
 30
0.0
  0
SPLINE
  5
343
100
AcDbEntity
  8
0
100
AcDbSpline
 62
7
  6
CONTINUOUS
 70
0
 71
3
 72
9
 73
5
 74
0
 42
0.0000001
 43
0.0000001
 44
0.0000000001
 40
0.0
 40
0.0
 40
0.0
 40
0.0
 40
0.4893243558
 40
1.0
 40
1.0
 40
1.0
 40
1.0
 10
486.6272443164
 20
454.0687491945
 30
0.0
 10
486.6276930955
 20
454.0705715059
 30
0.0
 10
486.6281726977
 20
454.076635138
 30
0.0
 10
486.6330209581
 20
454.0723415276
 30
0.0
 10
486.6340246948
 20
454.0706596183
 30
0.0
  0
SPLINE
  5
344
100
AcDbEntity
  8
0
100
AcDbSpline
 62
7
  6
CONTINUOUS
 70
0
 71
3
 72
19
 73
15
 74
0
 42
0.0000001
 43
0.0000001
 44
0.0000000001
 40
0.0
 40
0.0
 40
0.0
 40
0.0
 40
0.0534513358
 40
0.1044532274
 40
0.1546625859
 40
0.2061377091
 40
0.2608131148
 40
0.3192869378
 40
0.3818229339
 40
0.4476736108
 40
0.5856391926
 40
0.7275338199
 40
0.8677898757
 40
1.0
 40
1.0
 40
1.0
 40
1.0
 10
483.1780808145
 20
457.2359567444
 30
0.0
 10
483.2036221003
 20
457.3487282658
 30
0.0
 10
483.2726145364
 20
457.5667970333
 30
0.0
 10
483.4723993573
 20
457.8436823083
 30
0.0
 10
483.7533966868
 20
458.0301100333
 30
0.0
 10
484.0893010441
 20
458.1110406446
 30
0.0
 10
484.4486947575
 20
458.0689219789
 30
0.0
 10
484.8059072294
 20
457.9288907059
 30
0.0
 10
485.1389463388
 20
457.694374269
 30
0.0
 10
485.5475005863
 20
457.2852683763
 30
0.0
 10
485.9578212694
 20
456.6505772769
 30
0.0
 10
486.3006513637
 20
455.805594956
 30
0.0
 10
486.5258790719
 20
454.9357456539
 30
0.0
 10
486.6060158525
 20
454.3502129771
 30
0.0
 10
486.6272422584
 20
454.0650003454
 30
0.0
  0
SPLINE
  5
345
100
AcDbEntity
  8
0
100
AcDbSpline
 62
7
  6
CONTINUOUS
 70
0
 71
3
 72
9
 73
5
 74
0
 42
0.0000001
 43
0.0000001
 44
0.0000000001
 40
0.0
 40
0.0
 40
0.0
 40
0.0
 40
0.5021949996
 40
1.0
 40
1.0
 40
1.0
 40
1.0
 10
476.3182279081
 20
467.8387952521
 30
0.0
 10
475.6247603871
 20
467.0005824367
 30
0.0
 10
474.4996202718
 20
465.1109626508
 30
0.0
 10
473.9224184176
 20
462.9885986005
 30
0.0
 10
473.8045129682
 20
461.9166866242
 30
0.0
  0
SPLINE
  5
346
100
AcDbEntity
  8
0
100
AcDbSpline
 62
7
  6
CONTINUOUS
 70
0
 71
3
 72
13
 73
9
 74
0
 42
0.0000001
 43
0.0000001
 44
0.0000000001
 40
0.0
 40
0.0
 40
0.0
 40
0.0
 40
0.2906422981
 40
0.4275320302
 40
0.5574330598
 40
0.6797196365
 40
0.7941308613
 40
1.0
 40
1.0
 40
1.0
 40
1.0
 10
492.6401396544
 20
458.4155521014
 30
0.0
 10
491.4271463605
 20
459.8528268332
 30
0.0
 10
489.4868376604
 20
461.846423334
 30
0.0
 10
486.6574130204
 20
464.0898860532
 30
0.0
 10
484.5445538591
 20
465.4661613619
 30
0.0
 10
482.4272688313
 20
466.5493628127
 30
0.0
 10
479.740218271
 20
467.5457609876
 30
0.0
 10
477.6497929051
 20
467.8786481853
 30
0.0
 10
476.3182279081
 20
467.8387952521
 30
0.0
  0
SPLINE
  5
347
100
AcDbEntity
  8
0
100
AcDbSpline
 62
7
  6
CONTINUOUS
 70
0
 71
3
 72
9
 73
5
 74
0
 42
0.0000001
 43
0.0000001
 44
0.0000000001
 40
0.0
 40
0.0
 40
0.0
 40
0.0
 40
0.488627872
 40
1.0
 40
1.0
 40
1.0
 40
1.0
 10
489.3953345118
 20
452.9155814443
 30
0.0
 10
489.7349110027
 20
453.9045418616
 30
0.0
 10
490.6297837195
 20
455.8621022394
 30
0.0
 10
491.8882078728
 20
457.620500149
 30
0.0
 10
492.6401396544
 20
458.4155521014
 30
0.0
  0
SPLINE
  5
348
100
AcDbEntity
  8
0
100
AcDbSpline
 62
7
  6
CONTINUOUS
 70
0
 71
3
 72
15
 73
11
 74
0
 42
0.0000001
 43
0.0000001
 44
0.0000000001
 40
0.0
 40
0.0
 40
0.0
 40
0.0
 40
0.1517801752
 40
0.3117699875
 40
0.4625476168
 40
0.5902848302
 40
0.6986951387
 40
0.7987615199
 40
0.8980714042
 40
1.0
 40
1.0
 40
1.0
 40
1.0
 10
476.0538898102
 20
460.1825585784
 30
0.0
 10
476.0373546594
 20
460.3634707329
 30
0.0
 10
475.9807566558
 20
460.7334804583
 30
0.0
 10
475.8184288687
 20
461.2654236221
 30
0.0
 10
475.563444008
 20
461.7305648639
 30
0.0
 10
475.2225513567
 20
462.0583957864
 30
0.0
 10
474.8392833146
 20
462.2113993345
 30
0.0
 10
474.4638104561
 20
462.2131792188
 30
0.0
 10
474.1148904946
 20
462.1076347237
 30
0.0
 10
473.9044926905
 20
461.9865989785
 30
0.0
 10
473.8045129682
 20
461.9166866242
 30
0.0
  0
SPLINE
  5
349
100
AcDbEntity
  8
0
100
AcDbSpline
 62
7
  6
CONTINUOUS
 70
0
 71
3
 72
8
 73
4
 74
0
 42
0.0000001
 43
0.0000001
 44
0.0000000001
 40
0.0
 40
0.0
 40
0.0
 40
0.0
 40
1.0
 40
1.0
 40
1.0
 40
1.0
 10
473.8045127097
 20
461.9166865869
 30
0.0
 10
473.8125478483
 20
461.8925291945
 30
0.0
 10
473.8245106105
 20
461.8694064881
 30
0.0
 10
473.8393435984
 20
461.8487152936
 30
0.0
  0
SPLINE
  5
34A
100
AcDbEntity
  8
0
100
AcDbSpline
 62
7
  6
CONTINUOUS
 70
0
 71
3
 72
9
 73
5
 74
0
 42
0.0000001
 43
0.0000001
 44
0.0000000001
 40
0.0
 40
0.0
 40
0.0
 40
0.0
 40
0.2218981575
 40
1.0
 40
1.0
 40
1.0
 40
1.0
 10
476.0204231369
 20
460.2014415389
 30
0.0
 10
476.0253604914
 20
460.1959181077
 30
0.0
 10
476.0500704704
 20
460.1732188802
 30
0.0
 10
476.0816295743
 20
460.1591438133
 30
0.0
 10
476.1065273329
 20
460.1517289975
 30
0.0
  0
SPLINE
  5
34B
100
AcDbEntity
  8
0
100
AcDbSpline
 62
7
  6
CONTINUOUS
 70
0
 71
3
 72
8
 73
4
 74
0
 42
0.0000001
 43
0.0000001
 44
0.0000000001
 40
0.0
 40
0.0
 40
0.0
 40
0.0
 40
1.0
 40
1.0
 40
1.0
 40
1.0
 10
476.0538906081
 20
460.1825494202
 30
0.0
 10
476.0420249371
 20
460.1873114184
 30
0.0
 10
476.0303949682
 20
460.1933153306
 30
0.0
 10
476.0204758583
 20
460.2013826742
 30
0.0
  0
SPLINE
  5
34C
100
AcDbEntity
  8
0
100
AcDbSpline
 62
7
  6
CONTINUOUS
 70
0
 71
3
 72
8
 73
4
 74
0
 42
0.0000001
 43
0.0000001
 44
0.0000000001
 40
0.0
 40
0.0
 40
0.0
 40
0.0
 40
1.0
 40
1.0
 40
1.0
 40
1.0
 10
476.1065339873
 20
460.1517269592
 30
0.0
 10
476.0878887522
 20
460.159841051
 30
0.0
 10
476.0699302941
 20
460.1700509505
 30
0.0
 10
476.0538906081
 20
460.1825494202
 30
0.0
  0
SPLINE
  5
34D
100
AcDbEntity
  8
0
100
AcDbSpline
 62
7
  6
CONTINUOUS
 70
0
 71
3
 72
16
 73
12
 74
0
 42
0.0000001
 43
0.0000001
 44
0.0000000001
 40
0.0
 40
0.0
 40
0.0
 40
0.0
 40
0.1518007504
 40
0.3064934219
 40
0.4414916998
 40
0.5007358686
 40
0.55615599
 40
0.6617331592
 40
0.7687221849
 40
0.8808276089
 40
1.0
 40
1.0
 40
1.0
 40
1.0
 10
479.5919709883
 20
459.3075264272
 30
0.0
 10
479.5653345321
 20
459.6085900996
 30
0.0
 10
479.4503713982
 20
460.2124668323
 30
0.0
 10
479.1060421017
 20
461.0307421939
 30
0.0
 10
478.6246633731
 20
461.5635651496
 30
0.0
 10
478.1743815127
 20
461.7863950516
 30
0.0
 10
477.7408625501
 20
461.8770570989
 30
0.0
 10
477.1941436113
 20
461.7835319061
 30
0.0
 10
476.646042276
 20
461.4133334848
 30
0.0
 10
476.2388774224
 20
460.8631123697
 30
0.0
 10
476.0912657726
 20
460.4168720221
 30
0.0
 10
476.0538898102
 20
460.1825585784
 30
0.0
  0
SPLINE
  5
34E
100
AcDbEntity
  8
0
100
AcDbSpline
 62
7
  6
CONTINUOUS
 70
0
 71
3
 72
19
 73
15
 74
0
 42
0.0000001
 43
0.0000001
 44
0.0000000001
 40
0.0
 40
0.0
 40
0.0
 40
0.0
 40
0.1189020564
 40
0.2307078117
 40
0.2848061411
 40
0.3379048664
 40
0.4433478846
 40
0.4985702981
 40
0.5575981732
 40
0.6924000833
 40
0.7687486071
 40
0.8477569646
 40
0.9259128979
 40
1.0
 40
1.0
 40
1.0
 40
1.0
 10
476.106525939
 20
460.1517276904
 30
0.0
 10
476.1461119563
 20
460.3787493426
 30
0.0
 10
476.2856686864
 20
460.8124165626
 30
0.0
 10
476.6227966792
 20
461.2629157677
 30
0.0
 10
476.9543603838
 20
461.5308004819
 30
0.0
 10
477.3163111492
 20
461.731690975
 30
0.0
 10
477.7410613395
 20
461.808674307
 30
0.0
 10
478.1632897368
 20
461.7285846763
 30
0.0
 10
478.6037868229
 20
461.5187518838
 30
0.0
 10
478.9726078017
 20
461.12060254
 30
0.0
 10
479.2389861333
 20
460.6248106432
 30
0.0
 10
479.3969568524
 20
460.1990583353
 30
0.0
 10
479.5036243398
 20
459.762839072
 30
0.0
 10
479.5421498614
 20
459.4698372011
 30
0.0
 10
479.5564385703
 20
459.3269597866
 30
0.0
  0
SPLINE
  5
34F
100
AcDbEntity
  8
0
100
AcDbSpline
 62
7
  6
CONTINUOUS
 70
0
 71
3
 72
9
 73
5
 74
0
 42
0.0000001
 43
0.0000001
 44
0.0000000001
 40
0.0
 40
0.0
 40
0.0
 40
0.0
 40
0.2218948931
 40
1.0
 40
1.0
 40
1.0
 40
1.0
 10
479.5564385693
 20
459.3269569132
 30
0.0
 10
479.5613747027
 20
459.3214323775
 30
0.0
 10
479.5860871121
 20
459.298734333
 30
0.0
 10
479.6176455914
 20
459.2846584889
 30
0.0
 10
479.6425437714
 20
459.2772432456
 30
0.0
  0
SPLINE
  5
350
100
AcDbEntity
  8
0
100
AcDbSpline
 62
7
  6
CONTINUOUS
 70
0
 71
3
 72
9
 73
5
 74
0
 42
0.0000001
 43
0.0000001
 44
0.0000000001
 40
0.0
 40
0.0
 40
0.0
 40
0.0
 40
0.2744416153
 40
1.0
 40
1.0
 40
1.0
 40
1.0
 10
479.5919711637
 20
459.3075248124
 30
0.0
 10
479.5885042883
 20
459.3088449824
 30
0.0
 10
479.5760342892
 20
459.3140344515
 30
0.0
 10
479.5641084032
 20
459.3207927489
 30
0.0
 10
479.5564612567
 20
459.3269336674
 30
0.0
  0
SPLINE
  5
351
100
AcDbEntity
  8
0
100
AcDbSpline
 62
7
  6
CONTINUOUS
 70
0
 71
3
 72
13
 73
9
 74
0
 42
0.0000001
 43
0.0000001
 44
0.0000000001
 40
0.0
 40
0.0
 40
0.0
 40
0.0
 40
0.2699120397
 40
0.5454747796
 40
0.6735336029
 40
0.791198429
 40
0.8990130705
 40
1.0
 40
1.0
 40
1.0
 40
1.0
 10
483.1295885574
 20
457.2651432681
 30
0.0
 10
483.0974466913
 20
457.6680073856
 30
0.0
 10
482.9382441671
 20
458.4748730969
 30
0.0
 10
482.5232226565
 20
459.4129680948
 30
0.0
 10
482.0134477447
 20
460.0117815384
 30
0.0
 10
481.5778347601
 20
460.3246944252
 30
0.0
 10
481.1051542229
 20
460.4784855563
 30
0.0
 10
480.7850451232
 20
460.4710125964
 30
0.0
 10
480.6371044494
 20
460.4397412358
 30
0.0
  0
SPLINE
  5
352
100
AcDbEntity
  8
0
100
AcDbSpline
 62
7
  6
CONTINUOUS
 70
0
 71
3
 72
11
 73
7
 74
0
 42
0.0000001
 43
0.0000001
 44
0.0000000001
 40
0.0
 40
0.0
 40
0.0
 40
0.0
 40
0.2430738133
 40
0.4868926827
 40
0.7373986651
 40
1.0
 40
1.0
 40
1.0
 40
1.0
 10
480.6371044494
 20
460.4397412358
 30
0.0
 10
480.5080184288
 20
460.4124553287
 30
0.0
 10
480.2567546475
 20
460.3150349104
 30
0.0
 10
479.9404022776
 20
460.0604865048
 30
0.0
 10
479.7059877755
 20
459.7162823696
 30
0.0
 10
479.6182516992
 20
459.4476203871
 30
0.0
 10
479.5919709883
 20
459.3075264272
 30
0.0
  0
SPLINE
  5
353
100
AcDbEntity
  8
0
100
AcDbSpline
 62
7
  6
CONTINUOUS
 70
0
 71
3
 72
11
 73
7
 74
0
 42
0.0000001
 43
0.0000001
 44
0.0000000001
 40
0.0
 40
0.0
 40
0.0
 40
0.0
 40
0.2624563451
 40
0.5120146569
 40
0.7552277725
 40
1.0
 40
1.0
 40
1.0
 40
1.0
 10
479.6425442126
 20
459.2772426394
 30
0.0
 10
479.6706278836
 20
459.4249293009
 30
0.0
 10
479.7666811818
 20
459.7073857925
 30
0.0
 10
480.0268351042
 20
460.0616055174
 30
0.0
 10
480.3793011949
 20
460.3088071229
 30
0.0
 10
480.6560354311
 20
460.3816470796
 30
0.0
 10
480.7956331108
 20
460.394669559
 30
0.0
  0
SPLINE
  5
354
100
AcDbEntity
  8
0
100
AcDbSpline
 62
7
  6
CONTINUOUS
 70
0
 71
3
 72
13
 73
9
 74
0
 42
0.0000001
 43
0.0000001
 44
0.0000000001
 40
0.0
 40
0.0
 40
0.0
 40
0.0
 40
0.1014826649
 40
0.2104523143
 40
0.3298110743
 40
0.4586259495
 40
0.7328657829
 40
1.0
 40
1.0
 40
1.0
 40
1.0
 10
480.7956331108
 20
460.394669559
 30
0.0
 10
480.9383172539
 20
460.4079799615
 30
0.0
 10
481.2407859107
 20
460.3853292373
 30
0.0
 10
481.6774305232
 20
460.2036770682
 30
0.0
 10
482.0720297706
 20
459.8806242058
 30
0.0
 10
482.5323577731
 20
459.2987305479
 30
0.0
 10
482.9132044341
 20
458.4170553972
 30
0.0
 10
483.0605673686
 20
457.6616546527
 30
0.0
 10
483.0919883164
 20
457.285745421
 30
0.0
  0
SPLINE
  5
355
100
AcDbEntity
  8
0
100
AcDbSpline
 62
7
  6
CONTINUOUS
 70
0
 71
3
 72
8
 73
4
 74
0
 42
0.0000001
 43
0.0000001
 44
0.0000000001
 40
0.0
 40
0.0
 40
0.0
 40
0.0
 40
1.0
 40
1.0
 40
1.0
 40
1.0
 10
479.5919753615
 20
459.3075272964
 30
0.0
 10
479.6074366031
 20
459.2954034599
 30
0.0
 10
479.6246514537
 20
459.2853597666
 30
0.0
 10
479.6425450815
 20
459.2772446272
 30
0.0
  0
SPLINE
  5
356
100
AcDbEntity
  8
0
100
AcDbSpline
 62
7
  6
CONTINUOUS
 70
0
 71
3
 72
9
 73
5
 74
0
 42
0.0000001
 43
0.0000001
 44
0.0000000001
 40
0.0
 40
0.0
 40
0.0
 40
0.0
 40
0.2218974939
 40
1.0
 40
1.0
 40
1.0
 40
1.0
 10
483.0919907563
 20
457.2857491539
 30
0.0
 10
483.0969258768
 20
457.2802252939
 30
0.0
 10
483.121635556
 20
457.2575326077
 30
0.0
 10
483.1531872893
 20
457.2434578159
 30
0.0
 10
483.1780808492
 20
457.2360429125
 30
0.0
  0
SPLINE
  5
357
100
AcDbEntity
  8
0
100
AcDbSpline
 62
7
  6
CONTINUOUS
 70
0
 71
3
 72
9
 73
5
 74
0
 42
0.0000001
 43
0.0000001
 44
0.0000000001
 40
0.0
 40
0.0
 40
0.0
 40
0.0
 40
0.2745840763
 40
1.0
 40
1.0
 40
1.0
 40
1.0
 10
483.1295924156
 20
457.2651411935
 30
0.0
 10
483.1259124533
 20
457.2665273896
 30
0.0
 10
483.1126881404
 20
457.2719912251
 30
0.0
 10
483.1000458681
 20
457.2791728491
 30
0.0
 10
483.0920013463
 20
457.2857465916
 30
0.0
  0
SPLINE
  5
358
100
AcDbEntity
  8
0
100
AcDbSpline
 62
7
  6
CONTINUOUS
 70
0
 71
3
 72
8
 73
4
 74
0
 42
0.0000001
 43
0.0000001
 44
0.0000000001
 40
0.0
 40
0.0
 40
0.0
 40
0.0
 40
1.0
 40
1.0
 40
1.0
 40
1.0
 10
483.1780836349
 20
457.2360316111
 30
0.0
 10
483.160959589
 20
457.2439198273
 30
0.0
 10
483.1444957229
 20
457.2535977387
 30
0.0
 10
483.1295877657
 20
457.26513939
 30
0.0
  0
SPLINE
  5
359
100
AcDbEntity
  8
0
100
AcDbSpline
 62
7
  6
CONTINUOUS
 70
0
 71
3
 72
11
 73
7
 74
0
 42
0.0000001
 43
0.0000001
 44
0.0000000001
 40
0.0
 40
0.0
 40
0.0
 40
0.0
 40
0.2217219797
 40
0.4721964705
 40
0.7344965357
 40
1.0
 40
1.0
 40
1.0
 40
1.0
 10
480.3704920607
 20
446.9687179633
 30
0.0
 10
480.4205079116
 20
447.0011817835
 30
0.0
 10
480.5680408266
 20
446.9845436435
 30
0.0
 10
480.7287836776
 20
446.8731541141
 30
0.0
 10
480.8780209696
 20
446.7232822421
 30
0.0
 10
480.958290252
 20
446.6059314278
 30
0.0
 10
480.9975249826
 20
446.5462749692
 30
0.0
  0
LINE
  5
35A
100
AcDbEntity
  8
0
100
AcDbLine
 62
7
  6
CONTINUOUS
 10
477.3454291606
 20
454.6915944887
 11
480.4116508831
 21
456.3751908292
  0
SPLINE
  5
35B
100
AcDbEntity
  8
0
100
AcDbSpline
 62
7
  6
CONTINUOUS
 70
0
 71
3
 72
9
 73
5
 74
0
 42
0.0000001
 43
0.0000001
 44
0.0000000001
 40
0.0
 40
0.0
 40
0.0
 40
0.0
 40
0.2443878496
 40
1.0
 40
1.0
 40
1.0
 40
1.0
 10
476.1012524788
 20
447.2529211617
 30
0.0
 10
476.1871265401
 20
447.0813174698
 30
0.0
 10
476.5543347905
 20
446.3870139116
 30
0.0
 10
476.9722530216
 20
445.720831635
 30
0.0
 10
477.2995012002
 20
445.2259446938
 30
0.0
  0
SPLINE
  5
35C
100
AcDbEntity
  8
0
100
AcDbSpline
 62
7
  6
CONTINUOUS
 70
0
 71
3
 72
9
 73
5
 74
0
 42
0.0000001
 43
0.0000001
 44
0.0000000001
 40
0.0
 40
0.0
 40
0.0
 40
0.0
 40
0.2535176331
 40
1.0
 40
1.0
 40
1.0
 40
1.0
 10
476.0153359256
 20
447.5047840034
 30
0.0
 10
476.0199738999
 20
447.4827419095
 30
0.0
 10
476.0408645533
 20
447.3963935877
 30
0.0
 10
476.0715867749
 20
447.3121855387
 30
0.0
 10
476.1012523493
 20
447.2528657034
 30
0.0
  0
SPLINE
  5
35D
100
AcDbEntity
  8
0
100
AcDbSpline
 62
7
  6
CONTINUOUS
 70
0
 71
3
 72
10
 73
6
 74
0
 42
0.0000001
 43
0.0000001
 44
0.0000000001
 40
0.0
 40
0.0
 40
0.0
 40
0.0
 40
0.1949885584
 40
0.4321730107
 40
1.0
 40
1.0
 40
1.0
 40
1.0
 10
476.0176644156
 20
453.3212310428
 30
0.0
 10
475.8757204598
 20
452.9659067786
 30
0.0
 10
475.6629521724
 20
452.1373035336
 30
0.0
 10
475.5268071326
 20
450.1716848987
 30
0.0
 10
475.7859108034
 20
448.5951584205
 30
0.0
 10
476.0153359256
 20
447.5047839749
 30
0.0
  0
SPLINE
  5
35E
100
AcDbEntity
  8
0
100
AcDbSpline
 62
7
  6
CONTINUOUS
 70
0
 71
3
 72
9
 73
5
 74
0
 42
0.0000001
 43
0.0000001
 44
0.0000000001
 40
0.0
 40
0.0
 40
0.0
 40
0.0
 40
0.2772814446
 40
1.0
 40
1.0
 40
1.0
 40
1.0
 10
476.1038497722
 20
453.473931536
 30
0.0
 10
476.0944182077
 20
453.4607272941
 30
0.0
 10
476.0616387508
 20
453.4122753045
 30
0.0
 10
476.0333538311
 20
453.3605073824
 30
0.0
 10
476.0176644157
 20
453.3212310842
 30
0.0
  0
SPLINE
  5
35F
100
AcDbEntity
  8
0
100
AcDbSpline
 62
7
  6
CONTINUOUS
 70
0
 71
3
 72
9
 73
5
 74
0
 42
0.0000001
 43
0.0000001
 44
0.0000000001
 40
0.0
 40
0.0
 40
0.0
 40
0.0
 40
0.2395500001
 40
1.0
 40
1.0
 40
1.0
 40
1.0
 10
477.3032659764
 20
454.6234159378
 30
0.0
 10
477.1904820877
 20
454.5526795304
 30
0.0
 10
476.7360186934
 20
454.2316720801
 30
0.0
 10
476.3494925757
 20
453.8178325112
 30
0.0
 10
476.1038483779
 20
453.4739293268
 30
0.0
  0
SPLINE
  5
360
100
AcDbEntity
  8
0
100
AcDbSpline
 62
7
  6
CONTINUOUS
 70
0
 71
3
 72
9
 73
5
 74
0
 42
0.0000001
 43
0.0000001
 44
0.0000000001
 40
0.0
 40
0.0
 40
0.0
 40
0.0
 40
0.2358375588
 40
1.0
 40
1.0
 40
1.0
 40
1.0
 10
480.76880171
 20
456.745272059
 30
0.0
 10
480.7613701148
 20
456.7363231642
 30
0.0
 10
480.7297439685
 20
456.698473566
 30
0.0
 10
480.6978706502
 20
456.6608288051
 30
0.0
 10
480.6732474211
 20
456.6322924771
 30
0.0
  0
SPLINE
  5
361
100
AcDbEntity
  8
0
100
AcDbSpline
 62
7
  6
CONTINUOUS
 70
0
 71
3
 72
9
 73
5
 74
0
 42
0.0000001
 43
0.0000001
 44
0.0000000001
 40
0.0
 40
0.0
 40
0.0
 40
0.0
 40
0.2162371511
 40
1.0
 40
1.0
 40
1.0
 40
1.0
 10
480.6732474211
 20
456.6322924771
 30
0.0
 10
480.6559629418
 20
456.6122611656
 30
0.0
 10
480.5753813241
 20
456.5205514235
 30
0.0
 10
480.4914257134
 20
456.4284240586
 30
0.0
 10
480.4116578594
 20
456.3751949103
 30
0.0
  0
SPLINE
  5
362
100
AcDbEntity
  8
0
100
AcDbSpline
 62
7
  6
CONTINUOUS
 70
0
 71
3
 72
9
 73
5
 74
0
 42
0.0000001
 43
0.0000001
 44
0.0000000001
 40
0.0
 40
0.0
 40
0.0
 40
0.0
 40
0.4886405756
 40
1.0
 40
1.0
 40
1.0
 40
1.0
 10
472.7191046887
 20
461.9073278624
 30
0.0
 10
472.6752404227
 20
461.6495005482
 30
0.0
 10
472.7050859113
 20
461.0964101954
 30
0.0
 10
472.9437068708
 20
460.6042316759
 30
0.0
 10
473.0965569127
 20
460.3771986293
 30
0.0
  0
SPLINE
  5
363
100
AcDbEntity
  8
0
100
AcDbSpline
 62
7
  6
CONTINUOUS
 70
0
 71
3
 72
9
 73
5
 74
0
 42
0.0000001
 43
0.0000001
 44
0.0000000001
 40
0.0
 40
0.0
 40
0.0
 40
0.0
 40
0.2464264888
 40
1.0
 40
1.0
 40
1.0
 40
1.0
 10
480.3742314677
 20
456.3093510279
 30
0.0
 10
480.405451989
 20
456.3264111902
 30
0.0
 10
480.5311127975
 20
456.3975101085
 30
0.0
 10
480.6560629844
 20
456.4698654111
 30
0.0
 10
480.7514462827
 20
456.5221984245
 30
0.0
  0
SPLINE
  5
364
100
AcDbEntity
  8
0
100
AcDbSpline
 62
7
  6
CONTINUOUS
 70
0
 71
3
 72
9
 73
5
 74
0
 42
0.0000001
 43
0.0000001
 44
0.0000000001
 40
0.0
 40
0.0
 40
0.0
 40
0.0
 40
0.2681306204
 40
1.0
 40
1.0
 40
1.0
 40
1.0
 10
480.4116510261
 20
456.3751897523
 30
0.0
 10
480.4106149598
 20
456.3684037781
 30
0.0
 10
480.4050397039
 20
456.3435759463
 30
0.0
 10
480.390104692
 20
456.3194373983
 30
0.0
 10
480.3742874489
 20
456.3093927545
 30
0.0
  0
SPLINE
  5
365
100
AcDbEntity
  8
0
100
AcDbSpline
 62
7
  6
CONTINUOUS
 70
0
 71
3
 72
9
 73
5
 74
0
 42
0.0000001
 43
0.0000001
 44
0.0000000001
 40
0.0
 40
0.0
 40
0.0
 40
0.0
 40
0.2721705148
 40
1.0
 40
1.0
 40
1.0
 40
1.0
 10
477.3454291606
 20
454.6915944887
 30
0.0
 10
477.3442084919
 20
454.6842933368
 30
0.0
 10
477.3377414869
 20
454.6578956089
 30
0.0
 10
477.3199906936
 20
454.6338559803
 30
0.0
 10
477.3031985295
 20
454.6233733829
 30
0.0
  0
SPLINE
  5
366
100
AcDbEntity
  8
0
100
AcDbSpline
 62
7
  6
CONTINUOUS
 70
0
 71
3
 72
12
 73
8
 74
0
 42
0.0000001
 43
0.0000001
 44
0.0000000001
 40
0.0
 40
0.0
 40
0.0
 40
0.0
 40
0.2353717918
 40
0.4793525765
 40
0.7341903271
 40
0.8656007309
 40
1.0
 40
1.0
 40
1.0
 40
1.0
 10
473.1583246979
 20
436.2519674326
 30
0.0
 10
473.1803097466
 20
436.0812932868
 30
0.0
 10
473.2312275835
 20
435.7342452212
 30
0.0
 10
473.3602752326
 20
435.2120774469
 30
0.0
 10
473.5221080291
 20
434.7795430465
 30
0.0
 10
473.6794472644
 20
434.4331014796
 30
0.0
 10
473.7724083413
 20
434.2614918998
 30
0.0
 10
473.8282491175
 20
434.1806392817
 30
0.0
  0
SPLINE
  5
367
100
AcDbEntity
  8
0
100
AcDbSpline
 62
7
  6
CONTINUOUS
 70
0
 71
3
 72
13
 73
9
 74
0
 42
0.0000001
 43
0.0000001
 44
0.0000000001
 40
0.0
 40
0.0
 40
0.0
 40
0.0
 40
0.2439791308
 40
0.3679518591
 40
0.4926536098
 40
0.6179603291
 40
0.7439927109
 40
1.0
 40
1.0
 40
1.0
 40
1.0
 10
473.1677449182
 20
460.3225276626
 30
0.0
 10
472.943423852
 20
458.3751603478
 30
0.0
 10
472.7469471466
 20
455.4216748969
 30
0.0
 10
472.6463804011
 20
451.4649231751
 30
0.0
 10
472.6224032019
 20
448.4600774268
 30
0.0
 10
472.6442578605
 20
445.4387118967
 30
0.0
 10
472.7431881127
 20
441.3636829227
 30
0.0
 10
472.942202862
 20
438.2975514866
 30
0.0
 10
473.1580936483
 20
436.2520281301
 30
0.0
  0
SPLINE
  5
368
100
AcDbEntity
  8
0
100
AcDbSpline
 62
7
  6
CONTINUOUS
 70
0
 71
3
 72
13
 73
9
 74
0
 42
0.0000001
 43
0.0000001
 44
0.0000000001
 40
0.0
 40
0.0
 40
0.0
 40
0.0
 40
0.1130559397
 40
0.2309780578
 40
0.3513174902
 40
0.4748482706
 40
0.7320132122
 40
1.0
 40
1.0
 40
1.0
 40
1.0
 10
473.8393423981
 20
461.8487144107
 30
0.0
 10
473.7824260322
 20
461.8185578399
 30
0.0
 10
473.684308573
 20
461.7254478448
 30
0.0
 10
473.5689184597
 20
461.5624337522
 30
0.0
 10
473.4637514996
 20
461.3845918237
 30
0.0
 10
473.3441952265
 20
461.1249534258
 30
0.0
 10
473.2367745145
 20
460.7693730968
 30
0.0
 10
473.1895908946
 20
460.4735631457
 30
0.0
 10
473.1679760186
 20
460.3224195166
 30
0.0
  0
SPLINE
  5
369
100
AcDbEntity
  8
0
100
AcDbSpline
 62
7
  6
CONTINUOUS
 70
0
 71
3
 72
15
 73
11
 74
0
 42
0.0000001
 43
0.0000001
 44
0.0000000001
 40
0.0
 40
0.0
 40
0.0
 40
0.0
 40
0.1521952897
 40
0.3129176726
 40
0.4640367211
 40
0.5912949146
 40
0.6991307828
 40
0.7988550488
 40
0.8979954375
 40
1.0
 40
1.0
 40
1.0
 40
1.0
 10
476.0204231325
 20
460.2014308641
 30
0.0
 10
476.001901996
 20
460.3768854008
 30
0.0
 10
475.9534826661
 20
460.737330267
 30
0.0
 10
475.7942329712
 20
461.2542669466
 30
0.0
 10
475.5445213516
 20
461.7044531814
 30
0.0
 10
475.2086183111
 20
462.0154536681
 30
0.0
 10
474.8351804962
 20
462.1540412317
 30
0.0
 10
474.4732333529
 20
462.1456404529
 30
0.0
 10
474.1372314157
 20
462.0373447772
 30
0.0
 10
473.9386573141
 20
461.912892654
 30
0.0
 10
473.8393423981
 20
461.8487144107
 30
0.0
  0
SPLINE
  5
36A
100
AcDbEntity
  8
0
100
AcDbSpline
 62
7
  6
CONTINUOUS
 70
0
 71
3
 72
9
 73
5
 74
0
 42
0.0000001
 43
0.0000001
 44
0.0000000001
 40
0.0
 40
0.0
 40
0.0
 40
0.0
 40
0.5679773206
 40
1.0
 40
1.0
 40
1.0
 40
1.0
 10
476.0831473756
 20
432.7386770768
 30
0.0
 10
476.0849301445
 20
432.7373963924
 30
0.0
 10
476.0890431436
 20
432.7347521424
 30
0.0
 10
476.0925570394
 20
432.7390686544
 30
0.0
 10
476.0923119347
 20
432.7407202248
 30
0.0
  0
SPLINE
  5
36B
100
AcDbEntity
  8
0
100
AcDbSpline
 62
7
  6
CONTINUOUS
 70
0
 71
3
 72
9
 73
5
 74
0
 42
0.0000001
 43
0.0000001
 44
0.0000000001
 40
0.0
 40
0.0
 40
0.0
 40
0.0
 40
0.2289705517
 40
1.0
 40
1.0
 40
1.0
 40
1.0
 10
479.5013713989
 20
429.1866985274
 30
0.0
 10
479.5107272104
 20
429.2127056963
 30
0.0
 10
479.54611508
 20
429.3282616356
 30
0.0
 10
479.5664707738
 20
429.4477117219
 30
0.0
 10
479.5800369952
 20
429.5397879047
 30
0.0
  0
SPLINE
  5
36C
100
AcDbEntity
  8
0
100
AcDbSpline
 62
7
  6
CONTINUOUS
 70
0
 71
3
 72
15
 73
11
 74
0
 42
0.0000001
 43
0.0000001
 44
0.0000000001
 40
0.0
 40
0.0
 40
0.0
 40
0.0
 40
0.3407195387
 40
0.4980153345
 40
0.6372430916
 40
0.7515925249
 40
0.8392429683
 40
0.8768919079
 40
0.914343764
 40
1.0
 40
1.0
 40
1.0
 40
1.0
 10
477.2349189356
 20
430.3247409841
 30
0.0
 10
477.4451398274
 20
430.0631182004
 30
0.0
 10
477.7768934407
 20
429.6988715454
 30
0.0
 10
478.2493631965
 20
429.2849053374
 30
0.0
 10
478.5805251897
 20
429.0499125471
 30
0.0
 10
478.8812673904
 20
428.8978579056
 30
0.0
 10
479.123092063
 20
428.8562246431
 30
0.0
 10
479.2794594646
 20
428.9028988876
 30
0.0
 10
479.4107856379
 20
428.9958258785
 30
0.0
 10
479.4716584302
 20
429.1077298295
 30
0.0
 10
479.5013713989
 20
429.1866985274
 30
0.0
  0
SPLINE
  5
36D
100
AcDbEntity
  8
0
100
AcDbSpline
 62
7
  6
CONTINUOUS
 70
0
 71
3
 72
9
 73
5
 74
0
 42
0.0000001
 43
0.0000001
 44
0.0000000001
 40
0.0
 40
0.0
 40
0.0
 40
0.0
 40
0.4986069278
 40
1.0
 40
1.0
 40
1.0
 40
1.0
 10
476.8725012615
 20
430.8138881771
 30
0.0
 10
476.9293049179
 20
430.7301130355
 30
0.0
 10
477.0437075199
 20
430.5622535231
 30
0.0
 10
477.1710558276
 20
430.4039953054
 30
0.0
 10
477.2349189356
 20
430.3247409841
 30
0.0
  0
SPLINE
  5
36E
100
AcDbEntity
  8
0
100
AcDbSpline
 62
7
  6
CONTINUOUS
 70
0
 71
3
 72
9
 73
5
 74
0
 42
0.0000001
 43
0.0000001
 44
0.0000000001
 40
0.0
 40
0.0
 40
0.0
 40
0.0
 40
0.2442227208
 40
1.0
 40
1.0
 40
1.0
 40
1.0
 10
476.232602979
 20
432.0282781587
 30
0.0
 10
476.2506046425
 20
431.9780792782
 30
0.0
 10
476.3285483147
 20
431.7740503402
 30
0.0
 10
476.4234390489
 20
431.5767122272
 30
0.0
 10
476.5016644187
 20
431.4313960733
 30
0.0
  0
SPLINE
  5
36F
100
AcDbEntity
  8
0
100
AcDbSpline
 62
7
  6
CONTINUOUS
 70
0
 71
3
 72
20
 73
16
 74
0
 42
0.0000001
 43
0.0000001
 44
0.0000000001
 40
0.0
 40
0.0
 40
0.0
 40
0.0
 40
0.0511215299
 40
0.0919936435
 40
0.1094606734
 40
0.1262343577
 40
0.1624944434
 40
0.2088366768
 40
0.2661014214
 40
0.3326796316
 40
0.4054156698
 40
0.4816120422
 40
0.5593449018
 40
0.7139819904
 40
1.0
 40
1.0
 40
1.0
 40
1.0
 10
479.54450714
 20
429.576460311
 30
0.0
 10
479.5322622783
 20
429.4763734164
 30
0.0
 10
479.5022460098
 20
429.2971763198
 30
0.0
 10
479.4128441975
 20
429.0942302636
 30
0.0
 10
479.3061016967
 20
428.9888518801
 30
0.0
 10
479.1813685623
 20
428.9226898056
 30
0.0
 10
478.976070831
 20
428.9164429722
 30
0.0
 10
478.7169491305
 20
429.0196316712
 30
0.0
 10
478.4278696449
 20
429.1915864308
 30
0.0
 10
478.1243563577
 20
429.4344247829
 30
0.0
 10
477.8133096173
 20
429.7244363813
 30
0.0
 10
477.5066484591
 20
430.0501485388
 30
0.0
 10
477.1171289697
 20
430.5186719831
 30
0.0
 10
476.5381059417
 20
431.360062558
 30
0.0
 10
476.182458342
 20
432.1828411037
 30
0.0
 10
476.0955739096
 20
432.7402581507
 30
0.0
  0
SPLINE
  5
370
100
AcDbEntity
  8
0
100
AcDbSpline
 62
7
  6
CONTINUOUS
 70
0
 71
3
 72
8
 73
4
 74
0
 42
0.0000001
 43
0.0000001
 44
0.0000000001
 40
0.0
 40
0.0
 40
0.0
 40
0.0
 40
1.0
 40
1.0
 40
1.0
 40
1.0
 10
476.0335605201
 20
432.7633432757
 30
0.0
 10
476.048736808
 20
432.7528319052
 30
0.0
 10
476.0657309197
 20
432.7447988158
 30
0.0
 10
476.0831473756
 20
432.7386770768
 30
0.0
  0
SPLINE
  5
371
100
AcDbEntity
  8
0
100
AcDbSpline
 62
7
  6
CONTINUOUS
 70
0
 71
3
 72
9
 73
5
 74
0
 42
0.0000001
 43
0.0000001
 44
0.0000000001
 40
0.0
 40
0.0
 40
0.0
 40
0.0
 40
0.4393197785
 40
1.0
 40
1.0
 40
1.0
 40
1.0
 10
476.0420279048
 20
432.7427532511
 30
0.0
 10
476.0468699619
 20
432.7464128776
 30
0.0
 10
476.0628095256
 20
432.7413217737
 30
0.0
 10
476.0754331151
 20
432.7393674595
 30
0.0
 10
476.0831473778
 20
432.738665551
 30
0.0
  0
SPLINE
  5
372
100
AcDbEntity
  8
0
100
AcDbSpline
 62
7
  6
CONTINUOUS
 70
0
 71
3
 72
8
 73
4
 74
0
 42
0.0000001
 43
0.0000001
 44
0.0000000001
 40
0.0
 40
0.0
 40
0.0
 40
0.0
 40
1.0
 40
1.0
 40
1.0
 40
1.0
 10
476.0335605201
 20
432.7633432757
 30
0.0
 10
476.024798136
 20
432.7694122608
 30
0.0
 10
476.0165350024
 20
432.7763802415
 30
0.0
 10
476.0094335435
 20
432.7843289041
 30
0.0
  0
SPLINE
  5
373
100
AcDbEntity
  8
0
100
AcDbSpline
 62
7
  6
CONTINUOUS
 70
0
 71
3
 72
8
 73
4
 74
0
 42
0.0000001
 43
0.0000001
 44
0.0000000001
 40
0.0
 40
0.0
 40
0.0
 40
0.0
 40
1.0
 40
1.0
 40
1.0
 40
1.0
 10
479.5445243088
 20
429.5764296567
 30
0.0
 10
479.5542489326
 20
429.5624733675
 30
0.0
 10
479.5665588766
 20
429.5501601393
 30
0.0
 10
479.5800377067
 20
429.5397838465
 30
0.0
  0
SPLINE
  5
374
100
AcDbEntity
  8
0
100
AcDbSpline
 62
7
  6
CONTINUOUS
 70
0
 71
3
 72
9
 73
5
 74
0
 42
0.0000001
 43
0.0000001
 44
0.0000000001
 40
0.0
 40
0.0
 40
0.0
 40
0.0
 40
0.2789303431
 40
1.0
 40
1.0
 40
1.0
 40
1.0
 10
479.6306148684
 20
429.5267326361
 30
0.0
 10
479.6216986494
 20
429.5293881069
 30
0.0
 10
479.5903475436
 20
429.5404708553
 30
0.0
 10
479.5605302313
 20
429.5585140889
 30
0.0
 10
479.5445071358
 20
429.5764491368
 30
0.0
  0
SPLINE
  5
375
100
AcDbEntity
  8
0
100
AcDbSpline
 62
7
  6
CONTINUOUS
 70
0
 71
3
 72
8
 73
4
 74
0
 42
0.0000001
 43
0.0000001
 44
0.0000000001
 40
0.0
 40
0.0
 40
0.0
 40
0.0
 40
1.0
 40
1.0
 40
1.0
 40
1.0
 10
479.5800377067
 20
429.5397838465
 30
0.0
 10
479.5961667333
 20
429.5332277336
 30
0.0
 10
479.6133749593
 20
429.5291766286
 30
0.0
 10
479.6306138172
 20
429.5267373886
 30
0.0
  0
SPLINE
  5
376
100
AcDbEntity
  8
0
100
AcDbSpline
 62
7
  6
CONTINUOUS
 70
0
 71
3
 72
9
 73
5
 74
0
 42
0.0000001
 43
0.0000001
 44
0.0000000001
 40
0.0
 40
0.0
 40
0.0
 40
0.0
 40
0.5399008166
 40
1.0
 40
1.0
 40
1.0
 40
1.0
 10
480.9816005969
 20
429.4390151094
 30
0.0
 10
480.9816355051
 20
429.5260756722
 30
0.0
 10
481.0093758878
 20
429.692236279
 30
0.0
 10
481.1287753957
 20
429.818842964
 30
0.0
 10
481.1952476766
 20
429.8517965225
 30
0.0
  0
SPLINE
  5
377
100
AcDbEntity
  8
0
100
AcDbSpline
 62
7
  6
CONTINUOUS
 70
0
 71
3
 72
19
 73
15
 74
0
 42
0.0000001
 43
0.0000001
 44
0.0000000001
 40
0.0
 40
0.0
 40
0.0
 40
0.0
 40
0.055431562
 40
0.1025660815
 40
0.1428092765
 40
0.179638034
 40
0.2622001432
 40
0.3157709994
 40
0.3785364427
 40
0.4496960447
 40
0.526934605
 40
0.689805628
 40
0.8509184746
 40
1.0
 40
1.0
 40
1.0
 40
1.0
 10
483.080061878
 20
427.5352274141
 30
0.0
 10
483.0697195687
 20
427.4357415006
 30
0.0
 10
483.0399126055
 20
427.2523390581
 30
0.0
 10
482.9552798627
 20
427.0071290792
 30
0.0
 10
482.8294845163
 20
426.8173974987
 30
0.0
 10
482.5864129689
 20
426.6469107459
 30
0.0
 10
482.2488653038
 20
426.6589237954
 30
0.0
 10
481.9105267741
 20
426.7716403676
 30
0.0
 10
481.6061723629
 20
426.9239659543
 30
0.0
 10
481.2889957658
 20
427.1359280255
 30
0.0
 10
480.8512873866
 20
427.4887198191
 30
0.0
 10
480.3434053525
 20
428.0102550852
 30
0.0
 10
479.8690445766
 20
428.7260733075
 30
0.0
 10
479.6757044062
 20
429.2615342958
 30
0.0
 10
479.6306151509
 20
429.5267348825
 30
0.0
  0
SPLINE
  5
378
100
AcDbEntity
  8
0
100
AcDbSpline
 62
7
  6
CONTINUOUS
 70
0
 71
3
 72
8
 73
4
 74
0
 42
0.0000001
 43
0.0000001
 44
0.0000000001
 40
0.0
 40
0.0
 40
0.0
 40
0.0
 40
1.0
 40
1.0
 40
1.0
 40
1.0
 10
483.1176213037
 20
427.4974013884
 30
0.0
 10
483.1033521328
 20
427.5079903217
 30
0.0
 10
483.0902866804
 20
427.5206964485
 30
0.0
 10
483.0800622436
 20
427.5352290201
 30
0.0
  0
SPLINE
  5
379
100
AcDbEntity
  8
0
100
AcDbSpline
 62
7
  6
CONTINUOUS
 70
0
 71
3
 72
9
 73
5
 74
0
 42
0.0000001
 43
0.0000001
 44
0.0000000001
 40
0.0
 40
0.0
 40
0.0
 40
0.0
 40
0.2789267962
 40
1.0
 40
1.0
 40
1.0
 40
1.0
 10
483.1661702647
 20
427.4855136306
 30
0.0
 10
483.1572544768
 20
427.4881694831
 30
0.0
 10
483.1259037918
 20
427.4992504382
 30
0.0
 10
483.096084028
 20
427.5172899496
 30
0.0
 10
483.080061848
 20
427.5352253294
 30
0.0
  0
SPLINE
  5
37A
100
AcDbEntity
  8
0
100
AcDbSpline
 62
7
  6
CONTINUOUS
 70
0
 71
3
 72
8
 73
4
 74
0
 42
0.0000001
 43
0.0000001
 44
0.0000000001
 40
0.0
 40
0.0
 40
0.0
 40
0.0
 40
1.0
 40
1.0
 40
1.0
 40
1.0
 10
483.1176213037
 20
427.4974013884
 30
0.0
 10
483.1331620437
 20
427.4914315819
 30
0.0
 10
483.1496343459
 20
427.4877537974
 30
0.0
 10
483.1661323446
 20
427.4855246205
 30
0.0
  0
SPLINE
  5
37B
100
AcDbEntity
  8
0
100
AcDbSpline
 62
7
  6
CONTINUOUS
 70
0
 71
3
 72
9
 73
5
 74
0
 42
0.0000001
 43
0.0000001
 44
0.0000000001
 40
0.0
 40
0.0
 40
0.0
 40
0.0
 40
0.1957600904
 40
1.0
 40
1.0
 40
1.0
 40
1.0
 10
483.0841685785
 20
437.7773514707
 30
0.0
 10
483.0894469942
 20
437.7753101277
 30
0.0
 10
483.1176637326
 20
437.7682269054
 30
0.0
 10
483.1471934912
 20
437.7698452756
 30
0.0
 10
483.1702949718
 20
437.7724730721
 30
0.0
  0
SPLINE
  5
37C
100
AcDbEntity
  8
0
100
AcDbSpline
 62
7
  6
CONTINUOUS
 70
0
 71
3
 72
11
 73
7
 74
0
 42
0.0000001
 43
0.0000001
 44
0.0000000001
 40
0.0
 40
0.0
 40
0.0
 40
0.0
 40
0.3091092612
 40
0.5903069934
 40
0.8245530941
 40
1.0
 40
1.0
 40
1.0
 40
1.0
 10
479.6347218751
 20
439.7688454032
 30
0.0
 10
479.9752330681
 20
439.5387747087
 30
0.0
 10
480.6330522671
 20
439.110523908
 30
0.0
 10
481.5708555967
 20
438.5422703026
 30
0.0
 10
482.3742838219
 20
438.0971220811
 30
0.0
 10
482.8666197111
 20
437.8614850601
 30
0.0
 10
483.0841686077
 20
437.7773514924
 30
0.0
  0
SPLINE
  5
37D
100
AcDbEntity
  8
0
100
AcDbSpline
 62
7
  6
CONTINUOUS
 70
0
 71
3
 72
9
 73
5
 74
0
 42
0.0000001
 43
0.0000001
 44
0.0000000001
 40
0.0
 40
0.0
 40
0.0
 40
0.0
 40
0.2415293902
 40
1.0
 40
1.0
 40
1.0
 40
1.0
 10
479.5486318384
 20
439.8633974541
 30
0.0
 10
479.5534180224
 20
439.8542151926
 30
0.0
 10
479.5758533252
 20
439.8175895522
 30
0.0
 10
479.607778252
 20
439.7870500313
 30
0.0
 10
479.6347215935
 20
439.768845423
 30
0.0
  0
SPLINE
  5
37E
100
AcDbEntity
  8
0
100
AcDbSpline
 62
7
  6
CONTINUOUS
 70
0
 71
3
 72
11
 73
7
 74
0
 42
0.0000001
 43
0.0000001
 44
0.0000000001
 40
0.0
 40
0.0
 40
0.0
 40
0.0
 40
0.2373675671
 40
0.4913908979
 40
0.7513936381
 40
1.0
 40
1.0
 40
1.0
 40
1.0
 10
477.3415917501
 20
445.1202661295
 30
0.0
 10
477.4069210282
 20
444.6717607007
 30
0.0
 10
477.642038862
 20
443.7572835064
 30
0.0
 10
478.1941090898
 20
442.4304648012
 30
0.0
 10
478.8621325081
 20
441.1357772803
 30
0.0
 10
479.3291919886
 20
440.2843305124
 30
0.0
 10
479.5486318382
 20
439.8633976308
 30
0.0
  0
LINE
  5
37F
100
AcDbEntity
  8
0
100
AcDbLine
 62
7
  6
CONTINUOUS
 10
480.4078412154
 20
446.8597132658
 11
477.3415913607
 21
445.120266272
  0
SPLINE
  5
380
100
AcDbEntity
  8
0
100
AcDbSpline
 62
7
  6
CONTINUOUS
 70
0
 71
3
 72
14
 73
10
 74
0
 42
0.0000001
 43
0.0000001
 44
0.0000000001
 40
0.0
 40
0.0
 40
0.0
 40
0.0
 40
0.0536501179
 40
0.1087387854
 40
0.166862083
 40
0.2267868642
 40
0.3503200715
 40
0.4770505655
 40
1.0
 40
1.0
 40
1.0
 40
1.0
 10
480.4078422246
 20
446.8597132152
 30
0.0
 10
480.4179523353
 20
446.863974625
 30
0.0
 10
480.4412395806
 20
446.8682446169
 30
0.0
 10
480.473349091
 20
446.8536355381
 30
0.0
 10
480.5018788745
 20
446.8328114487
 30
0.0
 10
480.5380670367
 20
446.798926421
 30
0.0
 10
480.577480669
 20
446.7489474966
 30
0.0
 10
480.6648563428
 20
446.6171177213
 30
0.0
 10
480.722948512
 20
446.4966626298
 30
0.0
 10
480.7646528993
 20
446.3981857157
 30
0.0
  0
SPLINE
  5
381
100
AcDbEntity
  8
0
100
AcDbSpline
 62
7
  6
CONTINUOUS
 70
0
 71
3
 72
9
 73
5
 74
0
 42
0.0000001
 43
0.0000001
 44
0.0000000001
 40
0.0
 40
0.0
 40
0.0
 40
0.0
 40
0.2781175234
 40
1.0
 40
1.0
 40
1.0
 40
1.0
 10
483.1702949717
 20
437.7724729424
 30
0.0
 10
483.3165401471
 20
437.7891060347
 30
0.0
 10
483.8389955209
 20
437.8655523762
 30
0.0
 10
484.3584957479
 20
438.0287030919
 30
0.0
 10
484.6852587609
 20
438.2266467004
 30
0.0
  0
SPLINE
  5
382
100
AcDbEntity
  8
0
100
AcDbSpline
 62
7
  6
CONTINUOUS
 70
0
 71
3
 72
9
 73
5
 74
0
 42
0.0000001
 43
0.0000001
 44
0.0000000001
 40
0.0
 40
0.0
 40
0.0
 40
0.0
 40
0.2619775817
 40
1.0
 40
1.0
 40
1.0
 40
1.0
 10
477.2994324327
 20
445.2260513118
 30
0.0
 10
477.3049484054
 20
445.217725665
 30
0.0
 10
477.3243853172
 20
445.1849491544
 30
0.0
 10
477.3375622394
 20
445.1481111677
 30
0.0
 10
477.3415913607
 20
445.120266272
 30
0.0
  0
SPLINE
  5
383
100
AcDbEntity
  8
0
100
AcDbSpline
 62
7
  6
CONTINUOUS
 70
0
 71
3
 72
9
 73
5
 74
0
 42
0.0000001
 43
0.0000001
 44
0.0000000001
 40
0.0
 40
0.0
 40
0.0
 40
0.0
 40
0.2226166769
 40
1.0
 40
1.0
 40
1.0
 40
1.0
 10
480.4078373393
 20
446.8597089014
 30
0.0
 10
480.4067298422
 20
446.8682049557
 30
0.0
 10
480.399519749
 20
446.9060540876
 30
0.0
 10
480.3850226908
 20
446.9424227093
 30
0.0
 10
480.3705502438
 20
446.9686090003
 30
0.0
  0
SPLINE
  5
384
100
AcDbEntity
  8
0
100
AcDbSpline
 62
7
  6
CONTINUOUS
 70
0
 71
3
 72
9
 73
5
 74
0
 42
0.0000001
 43
0.0000001
 44
0.0000000001
 40
0.0
 40
0.0
 40
0.0
 40
0.0
 40
0.1936448358
 40
1.0
 40
1.0
 40
1.0
 40
1.0
 10
480.7646528518
 20
446.3981861862
 30
0.0
 10
480.7790884496
 20
446.4086285317
 30
0.0
 10
480.8551562817
 20
446.4604151858
 30
0.0
 10
480.9333065847
 20
446.5091249844
 30
0.0
 10
480.9975249811
 20
446.5462748661
 30
0.0
  0
SPLINE
  5
385
100
AcDbEntity
  8
0
100
AcDbSpline
 62
7
  6
CONTINUOUS
 70
0
 71
3
 72
13
 73
9
 74
0
 42
0.0000001
 43
0.0000001
 44
0.0000000001
 40
0.0
 40
0.0
 40
0.0
 40
0.0
 40
0.2561805986
 40
0.5277959132
 40
0.6597920681
 40
0.7841516456
 40
0.8980623517
 40
1.0
 40
1.0
 40
1.0
 40
1.0
 10
480.4078422106
 20
446.8597133274
 30
0.0
 10
480.5059341231
 20
446.0747409021
 30
0.0
 10
480.9732782262
 20
444.4885810585
 30
0.0
 10
482.0038078633
 20
442.7089079129
 30
0.0
 10
483.0678672851
 20
441.4683151779
 30
0.0
 10
483.9261599916
 20
440.706533667
 30
0.0
 10
484.8146919613
 20
440.1375229835
 30
0.0
 10
485.4402257272
 20
439.8893692209
 30
0.0
 10
485.7453254328
 20
439.8119046296
 30
0.0
  0
SPLINE
  5
386
100
AcDbEntity
  8
0
100
AcDbSpline
 62
7
  6
CONTINUOUS
 70
0
 71
3
 72
9
 73
5
 74
0
 42
0.0000001
 43
0.0000001
 44
0.0000000001
 40
0.0
 40
0.0
 40
0.0
 40
0.0
 40
0.4736687386
 40
1.0
 40
1.0
 40
1.0
 40
1.0
 10
484.8267345572
 20
442.3090025419
 30
0.0
 10
484.0269991431
 20
442.7573784355
 30
0.0
 10
482.4990920221
 20
443.9919970348
 30
0.0
 10
481.303820517
 20
445.5337629651
 30
0.0
 10
480.7646529058
 20
446.398185723
 30
0.0
  0
SPLINE
  5
387
100
AcDbEntity
  8
0
100
AcDbSpline
 62
7
  6
CONTINUOUS
 70
0
 71
3
 72
9
 73
5
 74
0
 42
0.0000001
 43
0.0000001
 44
0.0000000001
 40
0.0
 40
0.0
 40
0.0
 40
0.0
 40
0.2326778815
 40
1.0
 40
1.0
 40
1.0
 40
1.0
 10
486.8151129391
 20
441.5886873935
 30
0.0
 10
486.652407328
 20
441.6132273418
 30
0.0
 10
485.9590044943
 20
441.7577111384
 30
0.0
 10
485.3000563756
 20
442.0436321588
 30
0.0
 10
484.8267345572
 20
442.3090025419
 30
0.0
  0
SPLINE
  5
388
100
AcDbEntity
  8
0
100
AcDbSpline
 62
7
  6
CONTINUOUS
 70
0
 71
3
 72
12
 73
8
 74
0
 42
0.0000001
 43
0.0000001
 44
0.0000000001
 40
0.0
 40
0.0
 40
0.0
 40
0.0
 40
0.2612457557
 40
0.5322455696
 40
0.6629147776
 40
0.7859813741
 40
1.0
 40
1.0
 40
1.0
 40
1.0
 10
480.7646529058
 20
446.398185723
 30
0.0
 10
480.9054888575
 20
445.6780429547
 30
0.0
 10
481.4013491025
 20
444.2490320085
 30
0.0
 10
482.3917322985
 20
442.654145983
 30
0.0
 10
483.3802295634
 20
441.5546611393
 30
0.0
 10
484.377641975
 20
440.6997282261
 30
0.0
 10
485.2337922182
 20
440.2326480222
 30
0.0
 10
485.8150672081
 20
440.0794122194
 30
0.0
  0
SPLINE
  5
389
100
AcDbEntity
  8
0
100
AcDbSpline
 62
7
  6
CONTINUOUS
 70
0
 71
3
 72
9
 73
5
 74
0
 42
0.0000001
 43
0.0000001
 44
0.0000000001
 40
0.0
 40
0.0
 40
0.0
 40
0.0
 40
0.4746033772
 40
1.0
 40
1.0
 40
1.0
 40
1.0
 10
484.8792691222
 20
442.6016743322
 30
0.0
 10
484.1156415634
 20
443.0425449349
 30
0.0
 10
482.6584425219
 20
444.2365456219
 30
0.0
 10
481.5141138616
 20
445.7180516606
 30
0.0
 10
480.9975249826
 20
446.5462749692
 30
0.0
  0
SPLINE
  5
38A
100
AcDbEntity
  8
0
100
AcDbSpline
 62
7
  6
CONTINUOUS
 70
0
 71
3
 72
14
 73
10
 74
0
 42
0.0000001
 43
0.0000001
 44
0.0000000001
 40
0.0
 40
0.0
 40
0.0
 40
0.0
 40
0.0813956541
 40
0.1774828215
 40
0.2948417194
 40
0.4308613813
 40
0.5782181472
 40
0.7278770128
 40
1.0
 40
1.0
 40
1.0
 40
1.0
 10
482.052813865
 20
428.35943846
 30
0.0
 10
482.0141984422
 20
428.3336136255
 30
0.0
 10
481.9113225832
 20
428.3037026174
 30
0.0
 10
481.7426780247
 20
428.3380873743
 30
0.0
 10
481.5647977891
 20
428.4319063311
 30
0.0
 10
481.3873099735
 20
428.5780945102
 30
0.0
 10
481.2246174537
 20
428.7660216769
 30
0.0
 10
481.0551884586
 20
429.0430793442
 30
0.0
 10
480.9815383234
 20
429.283705961
 30
0.0
 10
480.9816005969
 20
429.4390151094
 30
0.0
  0
SPLINE
  5
38B
100
AcDbEntity
  8
0
100
AcDbSpline
 62
7
  6
CONTINUOUS
 70
0
 71
3
 72
18
 73
14
 74
0
 42
0.0000001
 43
0.0000001
 44
0.0000000001
 40
0.0
 40
0.0
 40
0.0
 40
0.0
 40
0.1588204233
 40
0.3303369104
 40
0.4901651183
 40
0.5584040475
 40
0.617451963
 40
0.7119997052
 40
0.7530967864
 40
0.7940126606
 40
0.837522399
 40
0.8856157804
 40
1.0
 40
1.0
 40
1.0
 40
1.0
 10
483.1176217617
 20
427.4974044009
 30
0.0
 10
483.169129023
 20
427.2133395197
 30
0.0
 10
483.4072456015
 20
426.6438221216
 30
0.0
 10
484.0027031918
 20
425.9667517138
 30
0.0
 10
484.6100520713
 20
425.5528677491
 30
0.0
 10
485.094452388
 20
425.3528976694
 30
0.0
 10
485.4861603176
 20
425.2569750527
 30
0.0
 10
485.855685564
 20
425.2664860674
 30
0.0
 10
486.1469171402
 20
425.4116367205
 30
0.0
 10
486.3165163095
 20
425.5682879254
 30
0.0
 10
486.4495003341
 20
425.7714602381
 30
0.0
 10
486.591330515
 20
426.1196889257
 30
0.0
 10
486.6389881348
 20
426.4151488682
 30
0.0
 10
486.6556946473
 20
426.6223992333
 30
0.0
  0
SPLINE
  5
38C
100
AcDbEntity
  8
0
100
AcDbSpline
 62
7
  6
CONTINUOUS
 70
0
 71
3
 72
18
 73
14
 74
0
 42
0.0000001
 43
0.0000001
 44
0.0000000001
 40
0.0
 40
0.0
 40
0.0
 40
0.0
 40
0.1144969016
 40
0.2060817939
 40
0.2473705504
 40
0.2887118901
 40
0.3830357998
 40
0.5088897984
 40
0.6681727453
 40
0.7545499295
 40
0.8403340648
 40
0.9225776765
 40
1.0
 40
1.0
 40
1.0
 40
1.0
 10
486.6160790055
 20
426.6607404954
 30
0.0
 10
486.596949395
 20
426.4587789611
 30
0.0
 10
486.5384412094
 20
426.0957992276
 30
0.0
 10
486.3391625849
 20
425.691661496
 30
0.0
 10
486.1114121415
 20
425.4787312628
 30
0.0
 10
485.8309433407
 20
425.3290684831
 30
0.0
 10
485.347678366
 20
425.3101900078
 30
0.0
 10
484.7052951553
 20
425.5341323854
 30
0.0
 10
484.1520624129
 20
425.9057800486
 30
0.0
 10
483.7364257561
 20
426.3228977045
 30
0.0
 10
483.4672547632
 20
426.6866588062
 30
0.0
 10
483.2685302628
 20
427.0765622016
 30
0.0
 10
483.1937762479
 20
427.3511434834
 30
0.0
 10
483.1661702647
 20
427.485513793
 30
0.0
  0
SPLINE
  5
38D
100
AcDbEntity
  8
0
100
AcDbSpline
 62
7
  6
CONTINUOUS
 70
0
 71
3
 72
18
 73
14
 74
0
 42
0.0000001
 43
0.0000001
 44
0.0000000001
 40
0.0
 40
0.0
 40
0.0
 40
0.0
 40
0.0555290704
 40
0.1025603187
 40
0.1426077091
 40
0.1792242909
 40
0.2614030724
 40
0.3151262017
 40
0.3781282335
 40
0.5263644286
 40
0.6895559052
 40
0.8509024826
 40
1.0
 40
1.0
 40
1.0
 40
1.0
 10
483.1176217617
 20
427.4974044009
 30
0.0
 10
483.1074918773
 20
427.3951869656
 30
0.0
 10
483.0779844739
 20
427.2070184936
 30
0.0
 10
482.9925173475
 20
426.9555635765
 30
0.0
 10
482.8646268029
 20
426.761460036
 30
0.0
 10
482.6173011508
 20
426.5868674155
 30
0.0
 10
482.2716443495
 20
426.5974705509
 30
0.0
 10
481.9258108764
 20
426.716798986
 30
0.0
 10
481.4870265118
 20
426.9406144208
 30
0.0
 10
480.928336734
 20
427.3563763205
 30
0.0
 10
480.3154816746
 20
427.9859420846
 30
0.0
 10
479.8255283305
 20
428.7185950133
 30
0.0
 10
479.6259002421
 20
429.2678260816
 30
0.0
 10
479.5800369952
 20
429.5397879047
 30
0.0
  0
SPLINE
  5
38E
100
AcDbEntity
  8
0
100
AcDbSpline
 62
7
  6
CONTINUOUS
 70
0
 71
3
 72
9
 73
5
 74
0
 42
0.0000001
 43
0.0000001
 44
0.0000000001
 40
0.0
 40
0.0
 40
0.0
 40
0.0
 40
0.4685976907
 40
1.0
 40
1.0
 40
1.0
 40
1.0
 10
480.9917268394
 20
456.6442128327
 30
0.0
 10
480.9542442242
 20
456.6275496941
 30
0.0
 10
480.8546509754
 20
456.6345162904
 30
0.0
 10
480.7906523273
 20
456.7042061393
 30
0.0
 10
480.7688018835
 20
456.7452721621
 30
0.0
  0
SPLINE
  5
38F
100
AcDbEntity
  8
0
100
AcDbSpline
 62
7
  6
CONTINUOUS
 70
0
 71
3
 72
11
 73
7
 74
0
 42
0.0000001
 43
0.0000001
 44
0.0000000001
 40
0.0
 40
0.0
 40
0.0
 40
0.0
 40
0.2363808692
 40
0.4726344915
 40
0.7241737805
 40
1.0
 40
1.0
 40
1.0
 40
1.0
 10
492.3350708015
 20
422.5757681139
 30
0.0
 10
492.0110262797
 20
422.6056541278
 30
0.0
 10
491.3666269912
 20
422.7707224482
 30
0.0
 10
490.5254178844
 20
423.3360059653
 30
0.0
 10
489.8509444886
 20
424.1573079508
 30
0.0
 10
489.5251079746
 20
424.8120321104
 30
0.0
 10
489.3842283596
 20
425.1646546526
 30
0.0
  0
SPLINE
  5
390
100
AcDbEntity
  8
0
100
AcDbSpline
 62
7
  6
CONTINUOUS
 70
0
 71
3
 72
9
 73
5
 74
0
 42
0.0000001
 43
0.0000001
 44
0.0000000001
 40
0.0
 40
0.0
 40
0.0
 40
0.0
 40
0.5200596807
 40
1.0
 40
1.0
 40
1.0
 40
1.0
 10
473.7934197925
 20
434.1657673174
 30
0.0
 10
473.8361476862
 20
433.9122597424
 30
0.0
 10
473.9667916483
 20
433.4307163481
 30
0.0
 10
474.215953462
 20
432.9952067934
 30
0.0
 10
474.3639291469
 20
432.8097582884
 30
0.0
  0
SPLINE
  5
391
100
AcDbEntity
  8
0
100
AcDbSpline
 62
7
  6
CONTINUOUS
 70
0
 71
3
 72
20
 73
16
 74
0
 42
0.0000001
 43
0.0000001
 44
0.0000000001
 40
0.0
 40
0.0
 40
0.0
 40
0.0
 40
0.1634983858
 40
0.3261706368
 40
0.4835397502
 40
0.5577844469
 40
0.6270915018
 40
0.6894485422
 40
0.742688298
 40
0.7859511764
 40
0.8216317258
 40
0.8563905028
 40
0.8966006331
 40
0.9447169199
 40
1.0
 40
1.0
 40
1.0
 40
1.0
 10
473.7934197925
 20
434.1657673174
 30
0.0
 10
473.8963053854
 20
434.0037233577
 30
0.0
 10
474.1068116575
 20
433.6836717808
 30
0.0
 10
474.4439678526
 20
433.2266160937
 30
0.0
 10
474.7416347516
 20
432.8715111113
 30
0.0
 10
474.9860298119
 20
432.6162001271
 30
0.0
 10
475.163536424
 20
432.451838223
 30
0.0
 10
475.334943939
 20
432.3179589257
 30
0.0
 10
475.4965112629
 20
432.2233414009
 30
0.0
 10
475.6461894256
 20
432.1747229256
 30
0.0
 10
475.7848480337
 20
432.1871593764
 30
0.0
 10
475.892799625
 20
432.2688021642
 30
0.0
 10
475.9661921907
 20
432.3957755667
 30
0.0
 10
476.0141576826
 20
432.5582831949
 30
0.0
 10
476.0331334862
 20
432.6783281818
 30
0.0
 10
476.0418519447
 20
432.7426422674
 30
0.0
  0
SPLINE
  5
392
100
AcDbEntity
  8
0
100
AcDbSpline
 62
7
  6
CONTINUOUS
 70
0
 71
3
 72
9
 73
5
 74
0
 42
0.0000001
 43
0.0000001
 44
0.0000000001
 40
0.0
 40
0.0
 40
0.0
 40
0.0
 40
0.3120552393
 40
1.0
 40
1.0
 40
1.0
 40
1.0
 10
473.8282496666
 20
434.1806396727
 30
0.0
 10
473.824712352
 20
434.1789021232
 30
0.0
 10
473.8133186772
 20
434.1734780825
 30
0.0
 10
473.801729623
 20
434.1683029886
 30
0.0
 10
473.793419673
 20
434.1657672374
 30
0.0
  0
SPLINE
  5
393
100
AcDbEntity
  8
0
100
AcDbSpline
 62
7
  6
CONTINUOUS
 70
0
 71
3
 72
20
 73
16
 74
0
 42
0.0000001
 43
0.0000001
 44
0.0000000001
 40
0.0
 40
0.0
 40
0.0
 40
0.0
 40
0.0552456389
 40
0.1039861048
 40
0.1446365599
 40
0.1794937317
 40
0.2151524792
 40
0.2585995124
 40
0.3122289851
 40
0.3748653229
 40
0.44439386
 40
0.5187293751
 40
0.6757439595
 40
0.8375528153
 40
1.0
 40
1.0
 40
1.0
 40
1.0
 10
476.0094335452
 20
432.7843330812
 30
0.0
 10
476.0013257376
 20
432.7212863492
 30
0.0
 10
475.9831423183
 20
432.6028955601
 30
0.0
 10
475.9386248915
 20
432.4418565406
 30
0.0
 10
475.8694425759
 20
432.3142834074
 30
0.0
 10
475.7642508594
 20
432.2320110468
 30
0.0
 10
475.6278255078
 20
432.2192579415
 30
0.0
 10
475.480793271
 20
432.2683971246
 30
0.0
 10
475.3226568727
 20
432.3633366196
 30
0.0
 10
475.1548300484
 20
432.4963990241
 30
0.0
 10
474.9816091183
 20
432.6592924779
 30
0.0
 10
474.7440785574
 20
432.9113575372
 30
0.0
 10
474.456660941
 20
433.2612386143
 30
0.0
 10
474.1296656979
 20
433.7085046577
 30
0.0
 10
473.9282777987
 20
434.0227450729
 30
0.0
 10
473.8282491175
 20
434.1806392817
 30
0.0
  0
SPLINE
  5
394
100
AcDbEntity
  8
0
100
AcDbSpline
 62
7
  6
CONTINUOUS
 70
0
 71
3
 72
9
 73
5
 74
0
 42
0.0000001
 43
0.0000001
 44
0.0000000001
 40
0.0
 40
0.0
 40
0.0
 40
0.0
 40
0.2842903984
 40
1.0
 40
1.0
 40
1.0
 40
1.0
 10
476.0420279048
 20
432.7427532511
 30
0.0
 10
476.0392392583
 20
432.7469152811
 30
0.0
 10
476.0299978119
 20
432.7619737035
 30
0.0
 10
476.0173845697
 20
432.774503914
 30
0.0
 10
476.0094513231
 20
432.784309028
 30
0.0
  0
SPLINE
  5
395
100
AcDbEntity
  8
0
100
AcDbSpline
 62
7
  6
CONTINUOUS
 70
0
 71
3
 72
8
 73
4
 74
0
 42
0.0000001
 43
0.0000001
 44
0.0000000001
 40
0.0
 40
0.0
 40
0.0
 40
0.0
 40
1.0
 40
1.0
 40
1.0
 40
1.0
 10
473.1687767487
 20
435.772871705
 30
0.0
 10
473.1345950767
 20
435.9435041617
 30
0.0
 10
473.107825446
 20
436.1157188632
 30
0.0
 10
473.0868983778
 20
436.2884784644
 30
0.0
  0
SPLINE
  5
396
100
AcDbEntity
  8
0
100
AcDbSpline
 62
7
  6
CONTINUOUS
 70
0
 71
3
 72
12
 73
8
 74
0
 42
0.0000001
 43
0.0000001
 44
0.0000000001
 40
0.0
 40
0.0
 40
0.0
 40
0.0
 40
0.1320540456
 40
0.2616394099
 40
0.5157151666
 40
0.7627918571
 40
1.0
 40
1.0
 40
1.0
 40
1.0
 10
473.7934090447
 20
434.1657601273
 30
0.0
 10
473.7496784876
 20
434.2282596299
 30
0.0
 10
473.6754105615
 20
434.3603833043
 30
0.0
 10
473.5393788085
 20
434.6253162777
 30
0.0
 10
473.3982712587
 20
434.9618314464
 30
0.0
 10
473.2609170511
 20
435.3660621302
 30
0.0
 10
473.1963785311
 20
435.6386601815
 30
0.0
 10
473.1687767487
 20
435.772871705
 30
0.0
  0
SPLINE
  5
397
100
AcDbEntity
  8
0
100
AcDbSpline
 62
7
  6
CONTINUOUS
 70
0
 71
3
 72
9
 73
5
 74
0
 42
0.0000001
 43
0.0000001
 44
0.0000000001
 40
0.0
 40
0.0
 40
0.0
 40
0.0
 40
0.4522778848
 40
1.0
 40
1.0
 40
1.0
 40
1.0
 10
478.6092368462
 20
456.7543032439
 30
0.0
 10
478.2817175368
 20
456.574563208
 30
0.0
 10
477.690209063
 20
455.9394923331
 30
0.0
 10
477.4205889612
 20
455.1377461012
 30
0.0
 10
477.3454295492
 20
454.691594278
 30
0.0
  0
SPLINE
  5
398
100
AcDbEntity
  8
0
100
AcDbSpline
 62
7
  6
CONTINUOUS
 70
0
 71
3
 72
9
 73
5
 74
0
 42
0.0000001
 43
0.0000001
 44
0.0000000001
 40
0.0
 40
0.0
 40
0.0
 40
0.0
 40
0.2450028786
 40
1.0
 40
1.0
 40
1.0
 40
1.0
 10
480.4952159582
 20
456.7937120656
 30
0.0
 10
480.4865585767
 20
456.7599410336
 30
0.0
 10
480.4531445718
 20
456.6216132745
 30
0.0
 10
480.4272801148
 20
456.4814854313
 30
0.0
 10
480.4116577103
 20
456.375193896
 30
0.0
  0
SPLINE
  5
399
100
AcDbEntity
  8
0
100
AcDbSpline
 62
7
  6
CONTINUOUS
 70
0
 71
3
 72
9
 73
5
 74
0
 42
0.0000001
 43
0.0000001
 44
0.0000000001
 40
0.0
 40
0.0
 40
0.0
 40
0.0
 40
0.2326208504
 40
1.0
 40
1.0
 40
1.0
 40
1.0
 10
486.9114767068
 20
441.8493643262
 30
0.0
 10
486.752128926
 20
441.8731568617
 30
0.0
 10
486.0728377118
 20
442.0138393762
 30
0.0
 10
485.4273098646
 20
442.2937080307
 30
0.0
 10
484.9637109975
 20
442.5536271897
 30
0.0
  0
SPLINE
  5
39A
100
AcDbEntity
  8
0
100
AcDbSpline
 62
7
  6
CONTINUOUS
 70
0
 71
3
 72
9
 73
5
 74
0
 42
0.0000001
 43
0.0000001
 44
0.0000000001
 40
0.0
 40
0.0
 40
0.0
 40
0.0
 40
0.2575489906
 40
1.0
 40
1.0
 40
1.0
 40
1.0
 10
489.5512356095
 20
425.3332796657
 30
0.0
 10
489.5397323575
 20
425.3163584931
 30
0.0
 10
489.4936108624
 20
425.2523430568
 30
0.0
 10
489.4373440915
 20
425.1902780831
 30
0.0
 10
489.3842207845
 20
425.1646456369
 30
0.0
  0
SPLINE
  5
39B
100
AcDbEntity
  8
0
100
AcDbSpline
 62
7
  6
CONTINUOUS
 70
0
 71
3
 72
11
 73
7
 74
0
 42
0.0000001
 43
0.0000001
 44
0.0000000001
 40
0.0
 40
0.0
 40
0.0
 40
0.0
 40
0.2793149033
 40
0.5415903618
 40
0.781424363
 40
1.0
 40
1.0
 40
1.0
 40
1.0
 10
489.8899169314
 20
426.5874722549
 30
0.0
 10
489.8761661542
 20
426.4661107293
 30
0.0
 10
489.8508059541
 20
426.230738682
 30
0.0
 10
489.79707171
 20
425.8925720292
 30
0.0
 10
489.6965384854
 20
425.5918896287
 30
0.0
 10
489.6000278903
 20
425.4154654105
 30
0.0
 10
489.5512356095
 20
425.3332796657
 30
0.0
  0
SPLINE
  5
39C
100
AcDbEntity
  8
0
100
AcDbSpline
 62
7
  6
CONTINUOUS
 70
0
 71
3
 72
11
 73
7
 74
0
 42
0.0000001
 43
0.0000001
 44
0.0000000001
 40
0.0
 40
0.0
 40
0.0
 40
0.0
 40
0.2207530195
 40
0.4754759239
 40
0.7438983538
 40
1.0
 40
1.0
 40
1.0
 40
1.0
 10
494.3731820937
 20
426.5869477198
 30
0.0
 10
494.0732295925
 20
426.4275022204
 30
0.0
 10
493.3746450174
 20
426.179894995
 30
0.0
 10
492.2275321841
 20
426.0581266759
 30
0.0
 10
491.0267061593
 20
426.1838610324
 30
0.0
 10
490.2506797326
 20
426.4288565505
 30
0.0
 10
489.8899168655
 20
426.5874722839
 30
0.0
  0
SPLINE
  5
39D
100
AcDbEntity
  8
0
100
AcDbSpline
 62
7
  6
CONTINUOUS
 70
0
 71
3
 72
10
 73
6
 74
0
 42
0.0000001
 43
0.0000001
 44
0.0000000001
 40
0.0
 40
0.0
 40
0.0
 40
0.0
 40
0.2141665102
 40
0.461555212
 40
1.0
 40
1.0
 40
1.0
 40
1.0
 10
492.6545584365
 20
422.5632527564
 30
0.0
 10
492.8032133607
 20
422.5694586851
 30
0.0
 10
493.1223171382
 20
422.6142958567
 30
0.0
 10
493.7932973456
 20
422.7987295179
 30
0.0
 10
494.2943661209
 20
423.0235364533
 30
0.0
 10
494.6271529243
 20
423.1943508098
 30
0.0
  0
SPLINE
  5
39E
100
AcDbEntity
  8
0
100
AcDbSpline
 62
7
  6
CONTINUOUS
 70
0
 71
3
 72
9
 73
5
 74
0
 42
0.0000001
 43
0.0000001
 44
0.0000000001
 40
0.0
 40
0.0
 40
0.0
 40
0.0
 40
0.2673586395
 40
1.0
 40
1.0
 40
1.0
 40
1.0
 10
489.8899159966
 20
426.5874709077
 30
0.0
 10
489.8820522364
 20
426.5904040188
 30
0.0
 10
489.8532758109
 20
426.60285743
 30
0.0
 10
489.8264785527
 20
426.6209645569
 30
0.0
 10
489.8108568724
 20
426.63784431
 30
0.0
  0
SPLINE
  5
39F
100
AcDbEntity
  8
0
100
AcDbSpline
 62
7
  6
CONTINUOUS
 70
0
 71
3
 72
14
 73
10
 74
0
 42
0.0000001
 43
0.0000001
 44
0.0000000001
 40
0.0
 40
0.0
 40
0.0
 40
0.0
 40
0.1443736227
 40
0.300257951
 40
0.4584740692
 40
0.6027245993
 40
0.8267927082
 40
0.9168404559
 40
1.0
 40
1.0
 40
1.0
 40
1.0
 10
486.6556946473
 20
426.6223992333
 30
0.0
 10
486.6866596545
 20
426.4517262495
 30
0.0
 10
486.7976946991
 20
426.1034450296
 30
0.0
 10
487.1025166829
 20
425.6367842943
 30
0.0
 10
487.5196444331
 20
425.2667111949
 30
0.0
 10
488.0833208497
 20
424.9722937913
 30
0.0
 10
488.6530166283
 20
424.8822755052
 30
0.0
 10
489.1199751747
 20
425.0024125584
 30
0.0
 10
489.3036959512
 20
425.1055181886
 30
0.0
 10
489.3842283596
 20
425.1646546526
 30
0.0
  0
SPLINE
  5
3A0
100
AcDbEntity
  8
0
100
AcDbSpline
 62
7
  6
CONTINUOUS
 70
0
 71
3
 72
9
 73
5
 74
0
 42
0.0000001
 43
0.0000001
 44
0.0000000001
 40
0.0
 40
0.0
 40
0.0
 40
0.0
 40
0.27892511
 40
1.0
 40
1.0
 40
1.0
 40
1.0
 10
486.702184883
 20
426.6110284208
 30
0.0
 10
486.6932696423
 20
426.6136852716
 30
0.0
 10
486.6619193751
 20
426.6247648511
 30
0.0
 10
486.6320997067
 20
426.6428040785
 30
0.0
 10
486.6160782864
 20
426.6607395776
 30
0.0
  0
SPLINE
  5
3A1
100
AcDbEntity
  8
0
100
AcDbSpline
 62
7
  6
CONTINUOUS
 70
0
 71
3
 72
8
 73
4
 74
0
 42
0.0000001
 43
0.0000001
 44
0.0000000001
 40
0.0
 40
0.0
 40
0.0
 40
0.0
 40
1.0
 40
1.0
 40
1.0
 40
1.0
 10
486.6556931056
 20
426.6224079625
 30
0.0
 10
486.6706004594
 20
426.616822899
 30
0.0
 10
486.6863181746
 20
426.613272755
 30
0.0
 10
486.7020827025
 20
426.6110587569
 30
0.0
  0
SPLINE
  5
3A2
100
AcDbEntity
  8
0
100
AcDbSpline
 62
7
  6
CONTINUOUS
 70
0
 71
3
 72
8
 73
4
 74
0
 42
0.0000001
 43
0.0000001
 44
0.0000000001
 40
0.0
 40
0.0
 40
0.0
 40
0.0
 40
1.0
 40
1.0
 40
1.0
 40
1.0
 10
486.6160748554
 20
426.660743475
 30
0.0
 10
486.6268270369
 20
426.6458410792
 30
0.0
 10
486.6406641709
 20
426.6329825513
 30
0.0
 10
486.6556931056
 20
426.6224079625
 30
0.0
  0
SPLINE
  5
3A3
100
AcDbEntity
  8
0
100
AcDbSpline
 62
7
  6
CONTINUOUS
 70
0
 71
3
 72
12
 73
8
 74
0
 42
0.0000001
 43
0.0000001
 44
0.0000000001
 40
0.0
 40
0.0
 40
0.0
 40
0.0
 40
0.2355786656
 40
0.480989443
 40
0.736658161
 40
0.8675404194
 40
1.0
 40
1.0
 40
1.0
 40
1.0
 10
489.8205059392
 20
450.7082948246
 30
0.0
 10
489.8066472259
 20
450.8841568595
 30
0.0
 10
489.7742419289
 20
451.2430012868
 30
0.0
 10
489.6901909269
 20
451.7886823032
 30
0.0
 10
489.5790638236
 20
452.2494379612
 30
0.0
 10
489.4640853014
 20
452.6205860785
 30
0.0
 10
489.3934983979
 20
452.8054483614
 30
0.0
 10
489.3492943087
 20
452.8942429102
 30
0.0
  0
SPLINE
  5
3A4
100
AcDbEntity
  8
0
100
AcDbSpline
 62
7
  6
CONTINUOUS
 70
0
 71
3
 72
11
 73
7
 74
0
 42
0.0000001
 43
0.0000001
 44
0.0000000001
 40
0.0
 40
0.0
 40
0.0
 40
0.0
 40
0.2395313658
 40
0.4872414279
 40
0.7399238778
 40
1.0
 40
1.0
 40
1.0
 40
1.0
 10
489.8110007274
 20
426.6376855705
 30
0.0
 10
489.953911493
 20
428.5551333534
 30
0.0
 10
490.0952462097
 20
432.465987981
 30
0.0
 10
490.1369283419
 20
438.4052051697
 30
0.0
 10
490.0979398144
 20
444.5096537279
 30
0.0
 10
489.9557895747
 20
448.6248806073
 30
0.0
 10
489.8206521729
 20
450.7081852043
 30
0.0
  0
SPLINE
  5
3A5
100
AcDbEntity
  8
0
100
AcDbSpline
 62
7
  6
CONTINUOUS
 70
0
 71
3
 72
13
 73
9
 74
0
 42
0.0000001
 43
0.0000001
 44
0.0000000001
 40
0.0
 40
0.0
 40
0.0
 40
0.0
 40
0.1010366296
 40
0.2113473007
 40
0.3267182744
 40
0.4485215687
 40
0.713141636
 40
1.0
 40
1.0
 40
1.0
 40
1.0
 10
489.3382008894
 20
425.2261677012
 30
0.0
 10
489.3838093688
 20
425.2497401008
 30
0.0
 10
489.4596386958
 20
425.3321351779
 30
0.0
 10
489.542133649
 20
425.4752751629
 30
0.0
 10
489.6165471709
 20
425.6360412603
 30
0.0
 10
489.6989638919
 20
425.8776333676
 30
0.0
 10
489.7683992692
 20
426.2138848637
 30
0.0
 10
489.7973498094
 20
426.4927077224
 30
0.0
 10
489.810854589
 20
426.6378427236
 30
0.0
  0
SPLINE
  5
3A6
100
AcDbEntity
  8
0
100
AcDbSpline
 62
7
  6
CONTINUOUS
 70
0
 71
3
 72
15
 73
11
 74
0
 42
0.0000001
 43
0.0000001
 44
0.0000000001
 40
0.0
 40
0.0
 40
0.0
 40
0.0
 40
0.1445082236
 40
0.3008002357
 40
0.4592441089
 40
0.6028856471
 40
0.7242678376
 40
0.8265955825
 40
0.9164238486
 40
1.0
 40
1.0
 40
1.0
 40
1.0
 10
486.7021848872
 20
426.6110390955
 30
0.0
 10
486.7379871156
 20
426.4464580382
 30
0.0
 10
486.8333414745
 20
426.1052819536
 30
0.0
 10
487.1316662635
 20
425.6507977091
 30
0.0
 10
487.5355711759
 20
425.2921077405
 30
0.0
 10
487.9806442803
 20
425.0670865804
 30
0.0
 10
488.401779155
 20
424.9687216316
 30
0.0
 10
488.7706713155
 20
424.9766133539
 30
0.0
 10
489.0844245805
 20
425.0641911418
 30
0.0
 10
489.2571027613
 20
425.1722040926
 30
0.0
 10
489.3382008894
 20
425.2261677012
 30
0.0
  0
SPLINE
  5
3A7
100
AcDbEntity
  8
0
100
AcDbSpline
 62
7
  6
CONTINUOUS
 70
0
 71
3
 72
9
 73
5
 74
0
 42
0.0000001
 43
0.0000001
 44
0.0000000001
 40
0.0
 40
0.0
 40
0.0
 40
0.0
 40
0.2461952512
 40
1.0
 40
1.0
 40
1.0
 40
1.0
 10
483.279589662
 20
457.6593944452
 30
0.0
 10
483.2622346153
 20
457.6293574899
 30
0.0
 10
483.1977578659
 20
457.5038641794
 30
0.0
 10
483.154369738
 20
457.3684272773
 30
0.0
 10
483.1295885574
 20
457.2651432681
 30
0.0
  0
SPLINE
  5
3A8
100
AcDbEntity
  8
0
100
AcDbSpline
 62
7
  6
CONTINUOUS
 70
0
 71
3
 72
14
 73
10
 74
0
 42
0.0000001
 43
0.0000001
 44
0.0000000001
 40
0.0
 40
0.0
 40
0.0
 40
0.0
 40
0.2897851267
 40
0.4263842285
 40
0.554783053
 40
0.6741824043
 40
0.7855652762
 40
0.8925372508
 40
1.0
 40
1.0
 40
1.0
 40
1.0
 10
485.9293014404
 20
456.7424620631
 30
0.0
 10
485.77267386
 20
457.0318662065
 30
0.0
 10
485.4954004712
 20
457.4387936327
 30
0.0
 10
485.0191116703
 20
457.8563792337
 30
0.0
 10
484.6334317855
 20
458.0695887649
 30
0.0
 10
484.2310915289
 20
458.1672954723
 30
0.0
 10
483.8408049013
 20
458.1289198551
 30
0.0
 10
483.5045753531
 20
457.954116809
 30
0.0
 10
483.3418728109
 20
457.7643342274
 30
0.0
 10
483.279589662
 20
457.6593944452
 30
0.0
  0
SPLINE
  5
3A9
100
AcDbEntity
  8
0
100
AcDbSpline
 62
7
  6
CONTINUOUS
 70
0
 71
3
 72
9
 73
5
 74
0
 42
0.0000001
 43
0.0000001
 44
0.0000000001
 40
0.0
 40
0.0
 40
0.0
 40
0.0
 40
0.5020120241
 40
1.0
 40
1.0
 40
1.0
 40
1.0
 10
486.1867190492
 20
456.1926511404
 30
0.0
 10
486.1489105056
 20
456.2870452722
 30
0.0
 10
486.0763275203
 20
456.4765721227
 30
0.0
 10
485.9775961338
 20
456.6539055181
 30
0.0
 10
485.9293014404
 20
456.7424620631
 30
0.0
  0
SPLINE
  5
3AA
100
AcDbEntity
  8
0
100
AcDbSpline
 62
7
  6
CONTINUOUS
 70
0
 71
3
 72
8
 73
4
 74
0
 42
0.0000001
 43
0.0000001
 44
0.0000000001
 40
0.0
 40
0.0
 40
0.0
 40
0.0
 40
1.0
 40
1.0
 40
1.0
 40
1.0
 10
486.4186416048
 20
455.4949654378
 30
0.0
 10
486.3496191902
 20
455.7301194223
 30
0.0
 10
486.2732322654
 20
455.9633544907
 30
0.0
 10
486.1867190492
 20
456.1926511404
 30
0.0
  0
SPLINE
  5
3AB
100
AcDbEntity
  8
0
100
AcDbSpline
 62
7
  6
CONTINUOUS
 70
0
 71
3
 72
9
 73
5
 74
0
 42
0.0000001
 43
0.0000001
 44
0.0000000001
 40
0.0
 40
0.0
 40
0.0
 40
0.0
 40
0.2534420528
 40
1.0
 40
1.0
 40
1.0
 40
1.0
 10
489.8465824663
 20
451.2084606768
 30
0.0
 10
489.8516359715
 20
451.1635549313
 30
0.0
 10
489.8706693458
 20
450.986268391
 30
0.0
 10
489.8870100606
 20
450.8087107892
 30
0.0
 10
489.8995754477
 20
450.6761924762
 30
0.0
  0
SPLINE
  5
3AC
100
AcDbEntity
  8
0
100
AcDbSpline
 62
7
  6
CONTINUOUS
 70
0
 71
3
 72
14
 73
10
 74
0
 42
0.0000001
 43
0.0000001
 44
0.0000000001
 40
0.0
 40
0.0
 40
0.0
 40
0.0
 40
0.0648378489
 40
0.1298936236
 40
0.258623006
 40
0.3862810543
 40
0.5127653865
 40
0.7605884592
 40
1.0
 40
1.0
 40
1.0
 40
1.0
 10
489.3953269355
 20
452.9155780649
 30
0.0
 10
489.4155205257
 20
452.8830175919
 30
0.0
 10
489.4478191531
 20
452.812959537
 30
0.0
 10
489.502837176
 20
452.6705119004
 30
0.0
 10
489.5662424893
 20
452.4912998246
 30
0.0
 10
489.6297447075
 20
452.2740941606
 30
0.0
 10
489.7080802828
 20
451.988041749
 30
0.0
 10
489.7913597528
 20
451.634579864
 30
0.0
 10
489.8290330254
 20
451.3488412471
 30
0.0
 10
489.8465824663
 20
451.2084606768
 30
0.0
  0
SPLINE
  5
3AD
100
AcDbEntity
  8
0
100
AcDbSpline
 62
7
  6
CONTINUOUS
 70
0
 71
3
 72
12
 73
8
 74
0
 42
0.0000001
 43
0.0000001
 44
0.0000000001
 40
0.0
 40
0.0
 40
0.0
 40
0.0
 40
0.2318230107
 40
0.4798445513
 40
0.7395629012
 40
0.8706790394
 40
1.0
 40
1.0
 40
1.0
 40
1.0
 10
494.964100866
 20
457.505996998
 30
0.0
 10
494.7663490231
 20
457.5031404605
 30
0.0
 10
494.3548048909
 20
457.524306684
 30
0.0
 10
493.7424820344
 20
457.6940779817
 30
0.0
 10
493.250188896
 20
457.9364063664
 30
0.0
 10
492.8861529944
 20
458.1910785511
 30
0.0
 10
492.7173876175
 20
458.3367798592
 30
0.0
 10
492.6401308223
 20
458.4155404687
 30
0.0
  0
SPLINE
  5
3AE
100
AcDbEntity
  8
0
100
AcDbSpline
 62
7
  6
CONTINUOUS
 70
0
 71
3
 72
11
 73
7
 74
0
 42
0.0000001
 43
0.0000001
 44
0.0000000001
 40
0.0
 40
0.0
 40
0.0
 40
0.0
 40
0.2443605318
 40
0.5129485969
 40
0.7742667448
 40
1.0
 40
1.0
 40
1.0
 40
1.0
 10
489.8995753715
 20
450.6761924861
 30
0.0
 10
490.2723080949
 20
450.6278040506
 30
0.0
 10
491.0645316383
 20
450.596857535
 30
0.0
 10
492.2526592063
 20
450.7222607853
 30
0.0
 10
493.3836723273
 20
451.0060050439
 30
0.0
 10
494.0783305613
 20
451.2978183599
 30
0.0
 10
494.3831567639
 20
451.4640567182
 30
0.0
  0
SPLINE
  5
3AF
100
AcDbEntity
  8
0
100
AcDbSpline
 62
7
  6
CONTINUOUS
 70
0
 71
3
 72
9
 73
5
 74
0
 42
0.0000001
 43
0.0000001
 44
0.0000000001
 40
0.0
 40
0.0
 40
0.0
 40
0.0
 40
0.2778723405
 40
1.0
 40
1.0
 40
1.0
 40
1.0
 10
489.8995872654
 20
450.6762017346
 30
0.0
 10
489.8918260928
 20
450.6777756497
 30
0.0
 10
489.8642305215
 20
450.6846404234
 30
0.0
 10
489.83716301
 20
450.6959019386
 30
0.0
 10
489.8206520413
 20
450.7081872318
 30
0.0
  0
SPLINE
  5
3B0
100
AcDbEntity
  8
0
100
AcDbSpline
 62
7
  6
CONTINUOUS
 70
0
 71
3
 72
18
 73
14
 74
0
 42
0.0000001
 43
0.0000001
 44
0.0000000001
 40
0.0
 40
0.0
 40
0.0
 40
0.0
 40
0.06595251
 40
0.1312420228
 40
0.2600219268
 40
0.5125897949
 40
0.6371609643
 40
0.7603750489
 40
0.8212897291
 40
0.8815983082
 40
0.9411894022
 40
0.970689184
 40
1.0
 40
1.0
 40
1.0
 40
1.0
 10
489.8995871623
 20
450.6762028456
 30
0.0
 10
489.9299967439
 20
450.147269482
 30
0.0
 10
489.9902516354
 20
449.0946792444
 30
0.0
 10
490.0758935852
 20
447.0075610656
 30
0.0
 10
490.1633952144
 20
443.4205332986
 30
0.0
 10
490.1846715322
 20
439.3562134484
 30
0.0
 10
490.1718675623
 20
435.3368205477
 30
0.0
 10
490.1406921633
 20
432.8571143326
 30
0.0
 10
490.0959217511
 20
430.8940026147
 30
0.0
 10
490.0484261439
 20
429.4422355381
 30
0.0
 10
489.992759985
 20
428.2433315575
 30
0.0
 10
489.9374332013
 20
427.2937880375
 30
0.0
 10
489.9048354435
 20
426.8224738317
 30
0.0
 10
489.8899286163
 20
426.5874878227
 30
0.0
  0
SPLINE
  5
3B1
100
AcDbEntity
  8
0
100
AcDbSpline
 62
7
  6
CONTINUOUS
 70
0
 71
3
 72
9
 73
5
 74
0
 42
0.0000001
 43
0.0000001
 44
0.0000000001
 40
0.0
 40
0.0
 40
0.0
 40
0.0
 40
0.4778728153
 40
1.0
 40
1.0
 40
1.0
 40
1.0
 10
494.3731820175
 20
426.5869365297
 30
0.0
 10
495.0444505265
 20
430.5043505315
 30
0.0
 10
495.6551604035
 20
438.8454645273
 30
0.0
 10
494.995262643
 20
447.1648459266
 30
0.0
 10
494.383156679
 20
451.4640679762
 30
0.0
  0
SPLINE
  5
3B2
100
AcDbEntity
  8
0
100
AcDbSpline
 62
7
  6
CONTINUOUS
 70
0
 71
3
 72
14
 73
10
 74
0
 42
0.0000001
 43
0.0000001
 44
0.0000000001
 40
0.0
 40
0.0
 40
0.0
 40
0.0
 40
0.3260909198
 40
0.4658872557
 40
0.5895762131
 40
0.6986666365
 40
0.7974559362
 40
0.8943845938
 40
1.0
 40
1.0
 40
1.0
 40
1.0
 10
494.3731795231
 20
426.586937405
 30
0.0
 10
494.3189229232
 20
426.270292401
 30
0.0
 10
494.2676970714
 20
425.8107840086
 30
0.0
 10
494.3021631639
 20
425.2295402142
 30
0.0
 10
494.3788555039
 20
424.8686639574
 30
0.0
 10
494.5126902947
 20
424.567155719
 30
0.0
 10
494.7123887795
 20
424.3351019072
 30
0.0
 10
494.9812595853
 20
424.1935192766
 30
0.0
 10
495.1837325293
 20
424.1696943813
 30
0.0
 10
495.2877646884
 20
424.1716573067
 30
0.0
  0
SPLINE
  5
3B3
100
AcDbEntity
  8
0
100
AcDbSpline
 62
7
  6
CONTINUOUS
 70
0
 71
3
 72
11
 73
7
 74
0
 42
0.0000001
 43
0.0000001
 44
0.0000000001
 40
0.0
 40
0.0
 40
0.0
 40
0.0
 40
0.2368535864
 40
0.4900891529
 40
0.7473479563
 40
1.0
 40
1.0
 40
1.0
 40
1.0
 10
495.3006525916
 20
456.3138869251
 30
0.0
 10
495.0645297654
 20
455.9933966232
 30
0.0
 10
494.6848197267
 20
455.2490780588
 30
0.0
 10
494.3689952866
 20
454.0267593681
 30
0.0
 10
494.2643502218
 20
452.7429366139
 30
0.0
 10
494.3233025858
 20
451.8844619017
 30
0.0
 10
494.3831541813
 20
451.4640681442
 30
0.0
  0
SPLINE
  5
3B4
100
AcDbEntity
  8
0
100
AcDbSpline
 62
7
  6
CONTINUOUS
 70
0
 71
3
 72
15
 73
11
 74
0
 42
0.0000001
 43
0.0000001
 44
0.0000000001
 40
0.0
 40
0.0
 40
0.0
 40
0.0
 40
0.1443571805
 40
0.2873538945
 40
0.4270785208
 40
0.5602914155
 40
0.6823042795
 40
0.7904261171
 40
0.8927537637
 40
1.0
 40
1.0
 40
1.0
 40
1.0
 10
489.3953345118
 20
452.9155814443
 30
0.0
 10
489.3136816607
 20
453.0891661173
 30
0.0
 10
489.1441414817
 20
453.4318143744
 30
0.0
 10
488.8362314916
 20
453.9104242427
 30
0.0
 10
488.4707346107
 20
454.3285513028
 30
0.0
 10
488.0508571903
 20
454.6508396607
 30
0.0
 10
487.5883070246
 20
454.8255671188
 30
0.0
 10
487.1253253087
 20
454.7706430806
 30
0.0
 10
486.7935453474
 20
454.4720358675
 30
0.0
 10
486.7001733751
 20
454.2016859394
 30
0.0
 10
486.668471291
 20
454.0627416687
 30
0.0
  0
SPLINE
  5
3B5
100
AcDbEntity
  8
0
100
AcDbSpline
 62
7
  6
CONTINUOUS
 70
0
 71
3
 72
17
 73
13
 74
0
 42
0.0000001
 43
0.0000001
 44
0.0000000001
 40
0.0
 40
0.0
 40
0.0
 40
0.0
 40
0.1072766268
 40
0.1588167712
 40
0.2101341261
 40
0.2629130146
 40
0.3187581027
 40
0.4406707046
 40
0.5739625837
 40
0.7135581256
 40
0.8561721899
 40
1.0
 40
1.0
 40
1.0
 40
1.0
 10
486.7131710009
 20
454.0281348414
 30
0.0
 10
486.7447830977
 20
454.1639218743
 30
0.0
 10
486.8099397432
 20
454.3661957766
 30
0.0
 10
486.9866918532
 20
454.5788833156
 30
0.0
 10
487.1570054961
 20
454.693469905
 30
0.0
 10
487.3595793239
 20
454.7528478403
 30
0.0
 10
487.6627852585
 20
454.7512880915
 30
0.0
 10
488.0502402501
 20
454.599683791
 30
0.0
 10
488.4555571924
 20
454.2789492287
 30
0.0
 10
488.8073442805
 20
453.8659585117
 30
0.0
 10
489.1067072534
 20
453.3986243696
 30
0.0
 10
489.2712268746
 20
453.0640805147
 30
0.0
 10
489.3492943087
 20
452.8942429102
 30
0.0
  0
SPLINE
  5
3B6
100
AcDbEntity
  8
0
100
AcDbSpline
 62
7
  6
CONTINUOUS
 70
0
 71
3
 72
9
 73
5
 74
0
 42
0.0000001
 43
0.0000001
 44
0.0000000001
 40
0.0
 40
0.0
 40
0.0
 40
0.0
 40
0.2616731454
 40
1.0
 40
1.0
 40
1.0
 40
1.0
 10
486.6686372551
 20
454.062827911
 30
0.0
 10
486.6711490188
 20
454.058470877
 30
0.0
 10
486.6812566265
 20
454.0418356778
 30
0.0
 10
486.6999797664
 20
454.032858456
 30
0.0
 10
486.7133333692
 20
454.0280582715
 30
0.0
  0
SPLINE
  5
3B7
100
AcDbEntity
  8
0
100
AcDbSpline
 62
7
  6
CONTINUOUS
 70
0
 71
3
 72
8
 73
4
 74
0
 42
0.0000001
 43
0.0000001
 44
0.0000000001
 40
0.0
 40
0.0
 40
0.0
 40
0.0
 40
1.0
 40
1.0
 40
1.0
 40
1.0
 10
486.6767805449
 20
454.042050956
 30
0.0
 10
486.6613280751
 20
454.049485925
 30
0.0
 10
486.6464747339
 20
454.0588674976
 30
0.0
 10
486.6340246948
 20
454.0706596183
 30
0.0
  0
SPLINE
  5
3B8
100
AcDbEntity
  8
0
100
AcDbSpline
 62
7
  6
CONTINUOUS
 70
0
 71
3
 72
9
 73
5
 74
0
 42
0.0000001
 43
0.0000001
 44
0.0000000001
 40
0.0
 40
0.0
 40
0.0
 40
0.0
 40
0.7611424286
 40
1.0
 40
1.0
 40
1.0
 40
1.0
 10
486.6686372551
 20
454.062827911
 30
0.0
 10
486.6612458918
 20
454.0575721288
 30
0.0
 10
486.647000314
 20
454.0648687062
 30
0.0
 10
486.6365503177
 20
454.0693590035
 30
0.0
 10
486.6340246956
 20
454.0706711465
 30
0.0
  0
SPLINE
  5
3B9
100
AcDbEntity
  8
0
100
AcDbSpline
 62
7
  6
CONTINUOUS
 70
0
 71
3
 72
8
 73
4
 74
0
 42
0.0000001
 43
0.0000001
 44
0.0000000001
 40
0.0
 40
0.0
 40
0.0
 40
0.0
 40
1.0
 40
1.0
 40
1.0
 40
1.0
 10
486.6767805449
 20
454.042050956
 30
0.0
 10
486.6884827756
 20
454.0364204177
 30
0.0
 10
486.7007236174
 20
454.0318414522
 30
0.0
 10
486.7131710026
 20
454.0281390519
 30
0.0
  0
SPLINE
  5
3BA
100
AcDbEntity
  8
0
100
AcDbSpline
 62
7
  6
CONTINUOUS
 70
0
 71
3
 72
9
 73
5
 74
0
 42
0.0000001
 43
0.0000001
 44
0.0000000001
 40
0.0
 40
0.0
 40
0.0
 40
0.0
 40
0.2773521769
 40
1.0
 40
1.0
 40
1.0
 40
1.0
 10
485.0051665186
 20
465.8967101141
 30
0.0
 10
484.3151419453
 20
466.2950869748
 30
0.0
 10
481.7652405744
 20
467.6029874639
 30
0.0
 10
478.8620138665
 20
468.3599533494
 30
0.0
 10
476.786946678
 20
468.2978479597
 30
0.0
  0
SPLINE
  5
3BB
100
AcDbEntity
  8
0
100
AcDbSpline
 62
7
  6
CONTINUOUS
 70
0
 71
3
 72
9
 73
5
 74
0
 42
0.0000001
 43
0.0000001
 44
0.0000000001
 40
0.0
 40
0.0
 40
0.0
 40
0.0
 40
0.521668112
 40
1.0
 40
1.0
 40
1.0
 40
1.0
 10
493.2215001518
 20
458.8095731666
 30
0.0
 10
492.0001361183
 20
460.2567661203
 30
0.0
 10
489.4576491224
 20
462.8690125608
 30
0.0
 10
486.5089287779
 20
465.0285322097
 30
0.0
 10
485.0051665186
 20
465.8967101141
 30
0.0
  0
SPLINE
  5
3BC
100
AcDbEntity
  8
0
100
AcDbSpline
 62
7
  6
CONTINUOUS
 70
0
 71
3
 72
9
 73
5
 74
0
 42
0.0000001
 43
0.0000001
 44
0.0000000001
 40
0.0
 40
0.0
 40
0.0
 40
0.0
 40
0.2642667654
 40
1.0
 40
1.0
 40
1.0
 40
1.0
 10
492.6401563671
 20
458.4155265588
 30
0.0
 10
492.6895322529
 20
458.4528278506
 30
0.0
 10
492.878144141
 20
458.591584997
 30
0.0
 10
493.0733415152
 20
458.721646564
 30
0.0
 10
493.221491503
 20
458.8095831464
 30
0.0
  0
SPLINE
  5
3BD
100
AcDbEntity
  8
0
100
AcDbSpline
 62
7
  6
CONTINUOUS
 70
0
 71
3
 72
9
 73
5
 74
0
 42
0.0000001
 43
0.0000001
 44
0.0000000001
 40
0.0
 40
0.0
 40
0.0
 40
0.0
 40
0.2603498518
 40
1.0
 40
1.0
 40
1.0
 40
1.0
 10
476.318219603
 20
467.8387833942
 30
0.0
 10
476.3506606388
 20
467.8858307738
 30
0.0
 10
476.4835817921
 20
468.0605099799
 30
0.0
 10
476.6497227543
 20
468.2110958687
 30
0.0
 10
476.7869583216
 20
468.2978480352
 30
0.0
  0
SPLINE
  5
3BE
100
AcDbEntity
  8
0
100
AcDbSpline
 62
7
  6
CONTINUOUS
 70
0
 71
3
 72
9
 73
5
 74
0
 42
0.0000001
 43
0.0000001
 44
0.0000000001
 40
0.0
 40
0.0
 40
0.0
 40
0.0
 40
0.5101968471
 40
1.0
 40
1.0
 40
1.0
 40
1.0
 10
473.5879924582
 20
461.7195017651
 30
0.0
 10
473.6195491198
 20
461.7583466653
 30
0.0
 10
473.6839902726
 20
461.8320897044
 30
0.0
 10
473.7614482015
 20
461.8953575965
 30
0.0
 10
473.8045022275
 20
461.916685075
 30
0.0
  0
SPLINE
  5
3BF
100
AcDbEntity
  8
0
100
AcDbSpline
 62
7
  6
CONTINUOUS
 70
0
 71
3
 72
11
 73
7
 74
0
 42
0.0000001
 43
0.0000001
 44
0.0000000001
 40
0.0
 40
0.0
 40
0.0
 40
0.0
 40
0.2641139041
 40
0.5220510774
 40
0.765485254
 40
1.0
 40
1.0
 40
1.0
 40
1.0
 10
473.0965568802
 20
460.3771986776
 30
0.0
 10
473.1140312065
 20
460.5033438213
 30
0.0
 10
473.1554379184
 20
460.7518045698
 30
0.0
 10
473.2480572447
 20
461.1100731231
 30
0.0
 10
473.3912519877
 20
461.4368507363
 30
0.0
 10
473.5203184739
 20
461.6289104196
 30
0.0
 10
473.5879924582
 20
461.7195017651
 30
0.0
  0
SPLINE
  5
3C0
100
AcDbEntity
  8
0
100
AcDbSpline
 62
7
  6
CONTINUOUS
 70
0
 71
3
 72
15
 73
11
 74
0
 42
0.0000001
 43
0.0000001
 44
0.0000000001
 40
0.0
 40
0.0
 40
0.0
 40
0.0
 40
0.2141322209
 40
0.3897126613
 40
0.5285664608
 40
0.634266405
 40
0.7161562011
 40
0.7928080512
 40
0.8835874319
 40
1.0
 40
1.0
 40
1.0
 40
1.0
 10
476.3182224025
 20
467.8387818241
 30
0.0
 10
476.2741813353
 20
467.8416585579
 30
0.0
 10
476.1941728996
 20
467.8505770245
 30
0.0
 10
476.087711856
 20
467.8748719221
 30
0.0
 10
476.0062810727
 20
467.9052605464
 30
0.0
 10
475.9486138673
 20
467.9414493137
 30
0.0
 10
475.9158106179
 20
467.9880473049
 30
0.0
 10
475.9153141181
 20
468.04216504
 30
0.0
 10
475.9424727176
 20
468.0954070117
 30
0.0
 10
475.9708489774
 20
468.1275855584
 30
0.0
 10
475.987806323
 20
468.1445606564
 30
0.0
  0
SPLINE
  5
3C1
100
AcDbEntity
  8
0
100
AcDbSpline
 62
7
  6
CONTINUOUS
 70
0
 71
3
 72
9
 73
5
 74
0
 42
0.0000001
 43
0.0000001
 44
0.0000000001
 40
0.0
 40
0.0
 40
0.0
 40
0.0
 40
0.2277494214
 40
1.0
 40
1.0
 40
1.0
 40
1.0
 10
473.0965549531
 20
460.3771983776
 30
0.0
 10
473.1006873623
 20
460.3717086756
 30
0.0
 10
473.1208754654
 20
460.3491594921
 30
0.0
 10
473.1468927978
 20
460.3323336044
 30
0.0
 10
473.1679773294
 20
460.3224200069
 30
0.0
  0
SPLINE
  5
3C2
100
AcDbEntity
  8
0
100
AcDbSpline
 62
7
  6
CONTINUOUS
 70
0
 71
3
 72
9
 73
5
 74
0
 42
0.0000001
 43
0.0000001
 44
0.0000000001
 40
0.0
 40
0.0
 40
0.0
 40
0.0
 40
0.2186804303
 40
1.0
 40
1.0
 40
1.0
 40
1.0
 10
473.0869210161
 20
436.2884890805
 30
0.0
 10
473.0910948162
 20
436.2843655738
 30
0.0
 10
473.1120998959
 20
436.2674676428
 30
0.0
 10
473.1378093842
 20
436.2573156055
 30
0.0
 10
473.1580938575
 20
436.2520261474
 30
0.0
  0
SPLINE
  5
3C3
100
AcDbEntity
  8
0
100
AcDbSpline
 62
7
  6
CONTINUOUS
 70
0
 71
3
 72
16
 73
12
 74
0
 42
0.0000001
 43
0.0000001
 44
0.0000000001
 40
0.0
 40
0.0
 40
0.0
 40
0.0
 40
0.1286890353
 40
0.2556396071
 40
0.3815395786
 40
0.5067652638
 40
0.6314987261
 40
0.7555689548
 40
0.8786252797
 40
0.9395538502
 40
1.0
 40
1.0
 40
1.0
 40
1.0
 10
473.0869210628
 20
436.2884879371
 30
0.0
 10
472.9799106572
 20
437.3177423812
 30
0.0
 10
472.8010812465
 20
439.3661442997
 30
0.0
 10
472.6504741045
 20
442.4309654013
 30
0.0
 10
472.5772626395
 20
445.4704373348
 30
0.0
 10
472.5588159681
 20
448.4928122433
 30
0.0
 10
472.5795478946
 20
451.5004565683
 30
0.0
 10
472.6541912703
 20
454.4899004269
 30
0.0
 10
472.7818422664
 20
456.964199241
 30
0.0
 10
472.9401857187
 20
458.9234802404
 30
0.0
 10
473.0429259135
 20
459.8941193526
 30
0.0
 10
473.0965795915
 20
460.37720295
 30
0.0
  0
SPLINE
  5
3C4
100
AcDbEntity
  8
0
100
AcDbSpline
 62
7
  6
CONTINUOUS
 70
0
 71
3
 72
14
 73
10
 74
0
 42
0.0000001
 43
0.0000001
 44
0.0000000001
 40
0.0
 40
0.0
 40
0.0
 40
0.0
 40
0.3480473959
 40
0.4707478152
 40
0.5593116773
 40
0.6294373778
 40
0.7147736003
 40
0.8369994935
 40
1.0
 40
1.0
 40
1.0
 40
1.0
 10
476.7694714947
 20
468.6312841073
 30
0.0
 10
476.7171553917
 20
468.5878215431
 30
0.0
 10
476.6468599841
 20
468.5265295985
 30
0.0
 10
476.582282973
 20
468.4388310292
 30
0.0
 10
476.5602788617
 20
468.3856749667
 30
0.0
 10
476.576623825
 20
468.3360567632
 30
0.0
 10
476.6278909342
 20
468.3097343952
 30
0.0
 10
476.6990157526
 20
468.297701467
 30
0.0
 10
476.7551207011
 20
468.2969074873
 30
0.0
 10
476.7869596966
 20
468.2978558513
 30
0.0
  0
SPLINE
  5
3C5
100
AcDbEntity
  8
0
100
AcDbSpline
 62
7
  6
CONTINUOUS
 70
0
 71
3
 72
11
 73
7
 74
0
 42
0.0000001
 43
0.0000001
 44
0.0000000001
 40
0.0
 40
0.0
 40
0.0
 40
0.0
 40
0.2514070335
 40
0.5017391183
 40
0.7498400121
 40
1.0
 40
1.0
 40
1.0
 40
1.0
 10
493.2215133814
 20
458.8095809206
 30
0.0
 10
493.2930693121
 20
458.7248279969
 30
0.0
 10
493.4603616776
 20
458.5744666875
 30
0.0
 10
493.764917587
 20
458.4329762773
 30
0.0
 10
494.0965828816
 20
458.3879004221
 30
0.0
 10
494.3167857484
 20
458.414987952
 30
0.0
 10
494.4246698537
 20
458.438281223
 30
0.0
  0
SPLINE
  5
3C6
100
AcDbEntity
  8
0
100
AcDbSpline
 62
7
  6
CONTINUOUS
 70
0
 71
3
 72
8
 73
4
 74
0
 42
0.0000001
 43
0.0000001
 44
0.0000000001
 40
0.0
 40
0.0
 40
0.0
 40
0.0
 40
1.0
 40
1.0
 40
1.0
 40
1.0
 10
517.5194300314
 20
108.4037648504
 30
0.0
 10
517.1228848415
 20
108.3586480262
 30
0.0
 10
516.7181593104
 20
108.3564683008
 30
0.0
 10
516.3221212842
 20
108.4058393174
 30
0.0
  0
SPLINE
  5
3C7
100
AcDbEntity
  8
0
100
AcDbSpline
 62
7
  6
CONTINUOUS
 70
0
 71
3
 72
8
 73
4
 74
0
 42
0.0000001
 43
0.0000001
 44
0.0000000001
 40
0.0
 40
0.0
 40
0.0
 40
0.0
 40
1.0
 40
1.0
 40
1.0
 40
1.0
 10
516.3221212842
 20
108.4058393174
 30
0.0
 10
515.766528139
 20
108.4751008443
 30
0.0
 10
515.2123973543
 20
108.6536846695
 30
0.0
 10
514.7275188575
 20
108.9336377824
 30
0.0
  0
SPLINE
  5
3C8
100
AcDbEntity
  8
0
100
AcDbSpline
 62
7
  6
CONTINUOUS
 70
0
 71
3
 72
9
 73
5
 74
0
 42
0.0000001
 43
0.0000001
 44
0.0000000001
 40
0.0
 40
0.0
 40
0.0
 40
0.0
 40
0.3016561041
 40
1.0
 40
1.0
 40
1.0
 40
1.0
 10
106.5854978046
 20
345.6512808921
 30
0.0
 10
106.5518258181
 20
345.5865941296
 30
0.0
 10
106.4474948333
 20
345.3691684987
 30
0.0
 10
106.3642639044
 20
345.1368075403
 30
0.0
 10
106.3446642853
 20
344.9691233276
 30
0.0
  0
SPLINE
  5
3C9
100
AcDbEntity
  8
0
100
AcDbSpline
 62
7
  6
CONTINUOUS
 70
0
 71
3
 72
9
 73
5
 74
0
 42
0.0000001
 43
0.0000001
 44
0.0000000001
 40
0.0
 40
0.0
 40
0.0
 40
0.0
 40
0.5117320736
 40
1.0
 40
1.0
 40
1.0
 40
1.0
 10
106.3446642853
 20
344.9691233276
 30
0.0
 10
106.3435122418
 20
344.9592670392
 30
0.0
 10
106.3415737722
 20
344.9399681734
 30
0.0
 10
106.340328302
 20
344.9206112447
 30
0.0
 10
106.3399083874
 20
344.9111521842
 30
0.0
  0
SPLINE
  5
3CA
100
AcDbEntity
  8
0
100
AcDbSpline
 62
7
  6
CONTINUOUS
 70
0
 71
3
 72
8
 73
4
 74
0
 42
0.0000001
 43
0.0000001
 44
0.0000000001
 40
0.0
 40
0.0
 40
0.0
 40
0.0
 40
1.0
 40
1.0
 40
1.0
 40
1.0
 10
106.3399083874
 20
344.9111521842
 30
0.0
 10
106.3376278544
 20
344.8597805428
 30
0.0
 10
106.3401945702
 20
344.8066869449
 30
0.0
 10
106.3558758751
 20
344.7577140642
 30
0.0
  0
SPLINE
  5
3CB
100
AcDbEntity
  8
0
100
AcDbSpline
 62
7
  6
CONTINUOUS
 70
0
 71
3
 72
8
 73
4
 74
0
 42
0.0000001
 43
0.0000001
 44
0.0000000001
 40
0.0
 40
0.0
 40
0.0
 40
0.0
 40
1.0
 40
1.0
 40
1.0
 40
1.0
 10
513.1609238388
 20
110.9201595529
 30
0.0
 10
513.4702931518
 20
110.5047763755
 30
0.0
 10
513.8400578462
 20
110.1307061714
 30
0.0
 10
514.2422078652
 20
109.8043200225
 30
0.0
  0
SPLINE
  5
3CC
100
AcDbEntity
  8
0
100
AcDbSpline
 62
7
  6
CONTINUOUS
 70
0
 71
3
 72
8
 73
4
 74
0
 42
0.0000001
 43
0.0000001
 44
0.0000000001
 40
0.0
 40
0.0
 40
0.0
 40
0.0
 40
1.0
 40
1.0
 40
1.0
 40
1.0
 10
106.3446642853
 20
992.5656933035
 30
0.0
 10
106.3547406528
 20
992.328163211
 30
0.0
 10
106.3790606411
 20
992.0906915808
 30
0.0
 10
106.4193004417
 20
991.8563780377
 30
0.0
  0
SPLINE
  5
3CD
100
AcDbEntity
  8
0
100
AcDbSpline
 62
7
  6
CONTINUOUS
 70
0
 71
3
 72
8
 73
4
 74
0
 42
0.0000001
 43
0.0000001
 44
0.0000000001
 40
0.0
 40
0.0
 40
0.0
 40
0.0
 40
1.0
 40
1.0
 40
1.0
 40
1.0
 10
106.4193004417
 20
991.8563780377
 30
0.0
 10
106.4587007001
 20
991.6269530902
 30
0.0
 10
106.5135230374
 20
991.3994689734
 30
0.0
 10
106.5854978046
 20
991.1780918748
 30
0.0
  0
SPLINE
  5
3CE
100
AcDbEntity
  8
0
100
AcDbSpline
 62
7
  6
CONTINUOUS
 70
0
 71
3
 72
8
 73
4
 74
0
 42
0.0000001
 43
0.0000001
 44
0.0000000001
 40
0.0
 40
0.0
 40
0.0
 40
0.0
 40
1.0
 40
1.0
 40
1.0
 40
1.0
 10
106.75245617
 20
996.307249162
 30
0.0
 10
106.6822831723
 20
996.101655566
 30
0.0
 10
106.6225307718
 20
995.892318277
 30
0.0
 10
106.5714832577
 20
995.6811616346
 30
0.0
  0
SPLINE
  5
3CF
100
AcDbEntity
  8
0
100
AcDbSpline
 62
7
  6
CONTINUOUS
 70
0
 71
3
 72
9
 73
5
 74
0
 42
0.0000001
 43
0.0000001
 44
0.0000000001
 40
0.0
 40
0.0
 40
0.0
 40
0.0
 40
0.1499638367
 40
1.0
 40
1.0
 40
1.0
 40
1.0
 10
105.6968475875
 20
345.5789598315
 30
0.0
 10
105.7229179772
 20
345.5748476249
 30
0.0
 10
105.8988401481
 20
345.5623296696
 30
0.0
 10
106.0753106574
 20
345.5777776937
 30
0.0
 10
106.2238745865
 20
345.5953636068
 30
0.0
  0
SPLINE
  5
3D0
100
AcDbEntity
  8
0
100
AcDbSpline
 62
7
  6
CONTINUOUS
 70
0
 71
3
 72
8
 73
4
 74
0
 42
0.0000001
 43
0.0000001
 44
0.0000000001
 40
0.0
 40
0.0
 40
0.0
 40
0.0
 40
1.0
 40
1.0
 40
1.0
 40
1.0
 10
527.0745620179
 20
108.5764162851
 30
0.0
 10
526.8160674395
 20
108.4271752615
 30
0.0
 10
526.5347081141
 20
108.3150705677
 30
0.0
 10
526.2480619758
 20
108.2318460428
 30
0.0
  0
SPLINE
  5
3D1
100
AcDbEntity
  8
0
100
AcDbSpline
 62
7
  6
CONTINUOUS
 70
0
 71
3
 72
8
 73
4
 74
0
 42
0.0000001
 43
0.0000001
 44
0.0000000001
 40
0.0
 40
0.0
 40
0.0
 40
0.0
 40
1.0
 40
1.0
 40
1.0
 40
1.0
 10
526.2480619758
 20
108.2318460428
 30
0.0
 10
525.9316155587
 20
108.1399693378
 30
0.0
 10
525.6038528428
 20
108.0824693494
 30
0.0
 10
525.2755020348
 20
108.0548032921
 30
0.0
  0
SPLINE
  5
3D2
100
AcDbEntity
  8
0
100
AcDbSpline
 62
7
  6
CONTINUOUS
 70
0
 71
3
 72
9
 73
5
 74
0
 42
0.0000001
 43
0.0000001
 44
0.0000000001
 40
0.0
 40
0.0
 40
0.0
 40
0.0
 40
0.3253131708
 40
1.0
 40
1.0
 40
1.0
 40
1.0
 10
533.3281019945
 20
762.9329451932
 30
0.0
 10
533.4590062636
 20
762.857250369
 30
0.0
 10
533.3554285141
 20
762.2316477313
 30
0.0
 10
533.1115322748
 20
761.9056287362
 30
0.0
 10
532.9111596574
 20
761.6643755673
 30
0.0
  0
SPLINE
  5
3D3
100
AcDbEntity
  8
0
100
AcDbSpline
 62
7
  6
CONTINUOUS
 70
0
 71
3
 72
9
 73
5
 74
0
 42
0.0000001
 43
0.0000001
 44
0.0000000001
 40
0.0
 40
0.0
 40
0.0
 40
0.0
 40
0.2288360724
 40
1.0
 40
1.0
 40
1.0
 40
1.0
 10
526.0138974302
 20
757.4916966178
 30
0.0
 10
525.9124647968
 20
757.4331348091
 30
0.0
 10
525.4418283771
 20
757.2259879648
 30
0.0
 10
524.9092879704
 20
757.1791612533
 30
0.0
 10
524.5166159656
 20
757.2191346728
 30
0.0
  0
SPLINE
  5
3D4
100
AcDbEntity
  8
0
100
AcDbSpline
 62
7
  6
CONTINUOUS
 70
0
 71
3
 72
9
 73
5
 74
0
 42
0.0000001
 43
0.0000001
 44
0.0000000001
 40
0.0
 40
0.0
 40
0.0
 40
0.0
 40
0.3248529276
 40
1.0
 40
1.0
 40
1.0
 40
1.0
 10
534.3832758321
 20
761.1053097716
 30
0.0
 10
534.3832250167
 20
761.260444459
 30
0.0
 10
533.7676729156
 20
761.4829594702
 30
0.0
 10
533.354498531
 20
761.4300715321
 30
0.0
 10
533.0374065221
 20
761.3717051988
 30
0.0
  0
SPLINE
  5
3D5
100
AcDbEntity
  8
0
100
AcDbSpline
 62
7
  6
CONTINUOUS
 70
0
 71
3
 72
8
 73
4
 74
0
 42
0.0000001
 43
0.0000001
 44
0.0000000001
 40
0.0
 40
0.0
 40
0.0
 40
0.0
 40
1.0
 40
1.0
 40
1.0
 40
1.0
 10
517.5194300315
 20
757.931437677
 30
0.0
 10
516.9963773538
 20
757.9664847703
 30
0.0
 10
516.4653996596
 20
757.9238110268
 30
0.0
 10
515.9502436957
 20
757.8267196512
 30
0.0
  0
SPLINE
  5
3D6
100
AcDbEntity
  8
0
100
AcDbSpline
 62
7
  6
CONTINUOUS
 70
0
 71
3
 72
8
 73
4
 74
0
 42
0.0000001
 43
0.0000001
 44
0.0000000001
 40
0.0
 40
0.0
 40
0.0
 40
0.0
 40
1.0
 40
1.0
 40
1.0
 40
1.0
 10
515.9502436957
 20
757.8267196512
 30
0.0
 10
515.6890986862
 20
757.7775016862
 30
0.0
 10
515.4304081995
 20
757.7141609438
 30
0.0
 10
515.1750264519
 20
757.6406811023
 30
0.0
  0
SPLINE
  5
3D7
100
AcDbEntity
  8
0
100
AcDbSpline
 62
7
  6
CONTINUOUS
 70
0
 71
3
 72
8
 73
4
 74
0
 42
0.0000001
 43
0.0000001
 44
0.0000000001
 40
0.0
 40
0.0
 40
0.0
 40
0.0
 40
1.0
 40
1.0
 40
1.0
 40
1.0
 10
514.460329037
 20
757.2614769932
 30
0.0
 10
514.5727585414
 20
757.3558395281
 30
0.0
 10
514.6850981672
 20
757.4503271174
 30
0.0
 10
514.796011738
 20
757.546466918
 30
0.0
  0
SPLINE
  5
3D8
100
AcDbEntity
  8
0
100
AcDbSpline
 62
7
  6
CONTINUOUS
 70
0
 71
3
 72
8
 73
4
 74
0
 42
0.0000001
 43
0.0000001
 44
0.0000000001
 40
0.0
 40
0.0
 40
0.0
 40
0.0
 40
1.0
 40
1.0
 40
1.0
 40
1.0
 10
104.9300561052
 20
1000.5990659346
 30
0.0
 10
104.7912575752
 20
1000.5189310443
 30
0.0
 10
104.6581454726
 20
1000.4271816508
 30
0.0
 10
104.536585978
 20
1000.3227310796
 30
0.0
  0
SPLINE
  5
3D9
100
AcDbEntity
  8
0
100
AcDbSpline
 62
7
  6
CONTINUOUS
 70
0
 71
3
 72
9
 73
5
 74
0
 42
0.0000001
 43
0.0000001
 44
0.0000000001
 40
0.0
 40
0.0
 40
0.0
 40
0.0
 40
0.2814824226
 40
1.0
 40
1.0
 40
1.0
 40
1.0
 10
104.536585978
 20
1000.3227310796
 30
0.0
 10
104.4523005609
 20
1000.2503084361
 30
0.0
 10
104.1716448534
 20
999.9748078218
 30
0.0
 10
103.9930511676
 20
999.5763597301
 30
0.0
 10
103.9930428465
 20
999.2926963605
 30
0.0
  0
SPLINE
  5
3DA
100
AcDbEntity
  8
0
100
AcDbSpline
 62
7
  6
CONTINUOUS
 70
0
 71
3
 72
8
 73
4
 74
0
 42
0.0000001
 43
0.0000001
 44
0.0000000001
 40
0.0
 40
0.0
 40
0.0
 40
0.0
 40
1.0
 40
1.0
 40
1.0
 40
1.0
 10
106.5854978046
 20
991.1780918748
 30
0.0
 10
106.4334407442
 20
991.3822554497
 30
0.0
 10
106.2951054048
 20
991.5976009006
 30
0.0
 10
106.1746758388
 20
991.8218793761
 30
0.0
  0
SPLINE
  5
3DB
100
AcDbEntity
  8
0
100
AcDbSpline
 62
7
  6
CONTINUOUS
 70
0
 71
3
 72
8
 73
4
 74
0
 42
0.0000001
 43
0.0000001
 44
0.0000000001
 40
0.0
 40
0.0
 40
0.0
 40
0.0
 40
1.0
 40
1.0
 40
1.0
 40
1.0
 10
106.1746758388
 20
991.8218793761
 30
0.0
 10
105.9740461093
 20
992.1955162779
 30
0.0
 10
105.8213338006
 20
992.6004836944
 30
0.0
 10
105.7344957826
 20
993.015593296
 30
0.0
  0
SPLINE
  5
3DC
100
AcDbEntity
  8
0
100
AcDbSpline
 62
7
  6
CONTINUOUS
 70
0
 71
3
 72
8
 73
4
 74
0
 42
0.0000001
 43
0.0000001
 44
0.0000000001
 40
0.0
 40
0.0
 40
0.0
 40
0.0
 40
1.0
 40
1.0
 40
1.0
 40
1.0
 10
513.7718668854
 20
109.7462396839
 30
0.0
 10
513.6379831748
 20
109.9175508626
 30
0.0
 10
513.5207037957
 20
110.1028372152
 30
0.0
 10
513.4206147831
 20
110.2958516122
 30
0.0
  0
SPLINE
  5
3DD
100
AcDbEntity
  8
0
100
AcDbSpline
 62
7
  6
CONTINUOUS
 70
0
 71
3
 72
8
 73
4
 74
0
 42
0.0000001
 43
0.0000001
 44
0.0000000001
 40
0.0
 40
0.0
 40
0.0
 40
0.0
 40
1.0
 40
1.0
 40
1.0
 40
1.0
 10
513.4206147831
 20
110.2958516122
 30
0.0
 10
513.3168584812
 20
110.4959381101
 30
0.0
 10
513.230612114
 20
110.7058151545
 30
0.0
 10
513.1609238388
 20
110.9201595529
 30
0.0
  0
SPLINE
  5
3DE
100
AcDbEntity
  8
0
100
AcDbSpline
 62
7
  6
CONTINUOUS
 70
0
 71
3
 72
8
 73
4
 74
0
 42
0.0000001
 43
0.0000001
 44
0.0000000001
 40
0.0
 40
0.0
 40
0.0
 40
0.0
 40
1.0
 40
1.0
 40
1.0
 40
1.0
 10
515.196866501
 20
758.4198010866
 30
0.0
 10
515.5579040685
 20
758.6074838203
 30
0.0
 10
515.9349291435
 20
758.7679192736
 30
0.0
 10
516.3221167605
 20
758.8930539328
 30
0.0
  0
SPLINE
  5
3DF
100
AcDbEntity
  8
0
100
AcDbSpline
 62
7
  6
CONTINUOUS
 70
0
 71
3
 72
8
 73
4
 74
0
 42
0.0000001
 43
0.0000001
 44
0.0000000001
 40
0.0
 40
0.0
 40
0.0
 40
0.0
 40
1.0
 40
1.0
 40
1.0
 40
1.0
 10
516.3221167605
 20
758.8930539328
 30
0.0
 10
516.7109435465
 20
759.0187183528
 30
0.0
 10
517.1134202263
 20
759.1099976436
 30
0.0
 10
517.5194300315
 20
759.1561913027
 30
0.0
  0
SPLINE
  5
3E0
100
AcDbEntity
  8
0
100
AcDbSpline
 62
7
  6
CONTINUOUS
 70
0
 71
3
 72
9
 73
5
 74
0
 42
0.0000001
 43
0.0000001
 44
0.0000000001
 40
0.0
 40
0.0
 40
0.0
 40
0.0
 40
0.2211724821
 40
1.0
 40
1.0
 40
1.0
 40
1.0
 10
513.1609238388
 20
756.4469705356
 30
0.0
 10
513.2010946349
 20
756.5241420666
 30
0.0
 10
513.3951992163
 20
756.8665185061
 30
0.0
 10
513.6327889906
 20
757.1833571005
 30
0.0
 10
513.8333759384
 20
757.41492115
 30
0.0
  0
SPLINE
  5
3E1
100
AcDbEntity
  8
0
100
AcDbSpline
 62
7
  6
CONTINUOUS
 70
0
 71
3
 72
8
 73
4
 74
0
 42
0.0000001
 43
0.0000001
 44
0.0000000001
 40
0.0
 40
0.0
 40
0.0
 40
0.0
 40
1.0
 40
1.0
 40
1.0
 40
1.0
 10
525.2755020348
 20
756.357722493
 30
0.0
 10
525.6038528428
 20
756.3853885502
 30
0.0
 10
525.9316155587
 20
756.4428885387
 30
0.0
 10
526.2480619758
 20
756.5347652437
 30
0.0
  0
SPLINE
  5
3E2
100
AcDbEntity
  8
0
100
AcDbSpline
 62
7
  6
CONTINUOUS
 70
0
 71
3
 72
8
 73
4
 74
0
 42
0.0000001
 43
0.0000001
 44
0.0000000001
 40
0.0
 40
0.0
 40
0.0
 40
0.0
 40
1.0
 40
1.0
 40
1.0
 40
1.0
 10
526.3998074098
 20
756.5818326555
 30
0.0
 10
526.6331993911
 20
756.6589727612
 30
0.0
 10
526.8616842482
 20
756.7564311819
 30
0.0
 10
527.0745620179
 20
756.879335486
 30
0.0
  0
SPLINE
  5
3E3
100
AcDbEntity
  8
0
100
AcDbSpline
 62
7
  6
CONTINUOUS
 70
0
 71
3
 72
9
 73
5
 74
0
 42
0.0000001
 43
0.0000001
 44
0.0000000001
 40
0.0
 40
0.0
 40
0.0
 40
0.0
 40
0.2997969707
 40
1.0
 40
1.0
 40
1.0
 40
1.0
 10
805.1439097979
 20
918.9695039612
 30
0.0
 10
805.1383898874
 20
918.9726909557
 30
0.0
 10
805.1158059085
 20
918.9565585506
 30
0.0
 10
805.1044786039
 20
918.9423477277
 30
0.0
 10
805.0952776764
 20
918.9306447792
 30
0.0
  0
SPLINE
  5
3E4
100
AcDbEntity
  8
0
100
AcDbSpline
 62
7
  6
CONTINUOUS
 70
0
 71
3
 72
8
 73
4
 74
0
 42
0.0000001
 43
0.0000001
 44
0.0000000001
 40
0.0
 40
0.0
 40
0.0
 40
0.0
 40
1.0
 40
1.0
 40
1.0
 40
1.0
 10
805.0952776764
 20
918.9306447792
 30
0.0
 10
805.0614384636
 20
918.887603622
 30
0.0
 10
805.0341935591
 20
918.8395321396
 30
0.0
 10
805.0085305478
 20
918.7911684818
 30
0.0
  0
SPLINE
  5
3E5
100
AcDbEntity
  8
0
100
AcDbSpline
 62
7
  6
CONTINUOUS
 70
0
 71
3
 72
8
 73
4
 74
0
 42
0.0000001
 43
0.0000001
 44
0.0000000001
 40
0.0
 40
0.0
 40
0.0
 40
0.0
 40
1.0
 40
1.0
 40
1.0
 40
1.0
 10
805.0085305478
 20
918.7911684818
 30
0.0
 10
804.9652142228
 20
918.7095359758
 30
0.0
 10
804.9281067547
 20
918.6245243534
 30
0.0
 10
804.8949360571
 20
918.5382696442
 30
0.0
  0
SPLINE
  5
3E6
100
AcDbEntity
  8
0
100
AcDbSpline
 62
7
  6
CONTINUOUS
 70
0
 71
3
 72
9
 73
5
 74
0
 42
0.0000001
 43
0.0000001
 44
0.0000000001
 40
0.0
 40
0.0
 40
0.0
 40
0.0
 40
0.2630529381
 40
1.0
 40
1.0
 40
1.0
 40
1.0
 10
805.7434677272
 20
266.8060528362
 30
0.0
 10
805.8446515088
 20
266.9080739572
 30
0.0
 10
806.2061124336
 20
267.3169705168
 30
0.0
 10
806.4635690224
 20
267.8271509359
 30
0.0
 10
806.5451045088
 20
268.2213534377
 30
0.0
  0
SPLINE
  5
3E7
100
AcDbEntity
  8
0
100
AcDbSpline
 62
7
  6
CONTINUOUS
 70
0
 71
3
 72
9
 73
5
 74
0
 42
0.0000001
 43
0.0000001
 44
0.0000000001
 40
0.0
 40
0.0
 40
0.0
 40
0.0
 40
0.2630522969
 40
1.0
 40
1.0
 40
1.0
 40
1.0
 10
542.0644397647
 20
114.571786847
 30
0.0
 10
541.925495806
 20
114.5351699116
 30
0.0
 10
541.3906522841
 20
114.4265843473
 30
0.0
 10
540.8200972019
 20
114.4587106368
 30
0.0
 10
540.4379405761
 20
114.5851982835
 30
0.0
  0
SPLINE
  5
3E8
100
AcDbEntity
  8
0
100
AcDbSpline
 62
7
  6
CONTINUOUS
 70
0
 71
3
 72
9
 73
5
 74
0
 42
0.0000001
 43
0.0000001
 44
0.0000000001
 40
0.0
 40
0.0
 40
0.0
 40
0.0
 40
0.7369484639
 40
1.0
 40
1.0
 40
1.0
 40
1.0
 10
383.9526638026
 20
1163.4693361233
 30
0.0
 10
383.5705069718
 20
1163.595824566
 30
0.0
 10
382.9999516199
 20
1163.6279483991
 30
0.0
 10
382.465107876
 20
1163.5193642782
 30
0.0
 10
382.3261643092
 20
1163.4827474461
 30
0.0
  0
SPLINE
  5
3E9
100
AcDbEntity
  8
0
100
AcDbSpline
 62
7
  6
CONTINUOUS
 70
0
 71
3
 72
9
 73
5
 74
0
 42
0.0000001
 43
0.0000001
 44
0.0000000001
 40
0.0
 40
0.0
 40
0.0
 40
0.0
 40
0.3328659064
 40
1.0
 40
1.0
 40
1.0
 40
1.0
 10
804.894936057
 20
918.5382696442
 30
0.0
 10
804.9432836898
 20
918.5306419984
 30
0.0
 10
805.088823542
 20
918.512380271
 30
0.0
 10
805.2377080762
 20
918.5016395303
 30
0.0
 10
805.3348131274
 20
918.5155578402
 30
0.0
  0
SPLINE
  5
3EA
100
AcDbEntity
  8
0
100
AcDbSpline
 62
7
  6
CONTINUOUS
 70
0
 71
3
 72
9
 73
5
 74
0
 42
0.0000001
 43
0.0000001
 44
0.0000000001
 40
0.0
 40
0.0
 40
0.0
 40
0.0
 40
0.7002895887
 40
1.0
 40
1.0
 40
1.0
 40
1.0
 10
805.3348131274
 20
918.5155578402
 30
0.0
 10
805.3495760767
 20
918.5176738506
 30
0.0
 10
805.367571634
 20
918.5203790185
 30
0.0
 10
805.3928930606
 20
918.5318729403
 30
0.0
 10
805.3928931763
 20
918.5382557692
 30
0.0
  0
SPLINE
  5
3EB
100
AcDbEntity
  8
0
100
AcDbSpline
 62
7
  6
CONTINUOUS
 70
0
 71
3
 72
9
 73
5
 74
0
 42
0.0000001
 43
0.0000001
 44
0.0000000001
 40
0.0
 40
0.0
 40
0.0
 40
0.0
 40
0.2142050985
 40
1.0
 40
1.0
 40
1.0
 40
1.0
 10
539.6602767086
 20
765.4058577621
 30
0.0
 10
539.7160256222
 20
765.4146532782
 30
0.0
 10
539.9750183395
 20
765.463447438
 30
0.0
 10
540.2285979352
 20
765.5403176222
 30
0.0
 10
540.4219476737
 20
765.6143550154
 30
0.0
  0
SPLINE
  5
3EC
100
AcDbEntity
  8
0
100
AcDbSpline
 62
7
  6
CONTINUOUS
 70
0
 71
3
 72
9
 73
5
 74
0
 42
0.0000001
 43
0.0000001
 44
0.0000000001
 40
0.0
 40
0.0
 40
0.0
 40
0.0
 40
0.237137844
 40
1.0
 40
1.0
 40
1.0
 40
1.0
 10
540.4219476737
 20
765.6143550154
 30
0.0
 10
540.5721531924
 20
765.6718716438
 30
0.0
 10
541.1901567577
 20
765.949364688
 30
0.0
 10
541.7508555845
 20
766.3823508531
 30
0.0
 10
542.0644397646
 20
766.7939176502
 30
0.0
  0
SPLINE
  5
3ED
100
AcDbEntity
  8
0
100
AcDbSpline
 62
7
  6
CONTINUOUS
 70
0
 71
3
 72
8
 73
4
 74
0
 42
0.0000001
 43
0.0000001
 44
0.0000000001
 40
0.0
 40
0.0
 40
0.0
 40
0.0
 40
1.0
 40
1.0
 40
1.0
 40
1.0
 10
538.811752104
 20
116.4497450932
 30
0.0
 10
538.9195911096
 20
116.3410150971
 30
0.0
 10
539.03445912
 20
116.2389545369
 30
0.0
 10
539.1541990202
 20
116.1434882103
 30
0.0
  0
SPLINE
  5
3EE
100
AcDbEntity
  8
0
100
AcDbSpline
 62
7
  6
CONTINUOUS
 70
0
 71
3
 72
8
 73
4
 74
0
 42
0.0000001
 43
0.0000001
 44
0.0000000001
 40
0.0
 40
0.0
 40
0.0
 40
0.0
 40
1.0
 40
1.0
 40
1.0
 40
1.0
 10
539.1541990202
 20
116.1434882103
 30
0.0
 10
539.6546875494
 20
115.7444583022
 30
0.0
 10
540.2496844082
 20
115.4520575264
 30
0.0
 10
540.8619695326
 20
115.2654548419
 30
0.0
  0
SPLINE
  5
3EF
100
AcDbEntity
  8
0
100
AcDbSpline
 62
7
  6
CONTINUOUS
 70
0
 71
3
 72
9
 73
5
 74
0
 42
0.0000001
 43
0.0000001
 44
0.0000000001
 40
0.0
 40
0.0
 40
0.0
 40
0.0
 40
0.2641949578
 40
1.0
 40
1.0
 40
1.0
 40
1.0
 10
540.8619695326
 20
115.2654548419
 30
0.0
 10
540.9780163846
 20
115.2300878973
 30
0.0
 10
541.4213721186
 20
115.1104003441
 30
0.0
 10
541.8795157414
 20
115.0430304669
 30
0.0
 10
542.2171341693
 20
115.0298249582
 30
0.0
  0
SPLINE
  5
3F0
100
AcDbEntity
  8
0
100
AcDbSpline
 62
7
  6
CONTINUOUS
 70
0
 71
3
 72
8
 73
4
 74
0
 42
0.0000001
 43
0.0000001
 44
0.0000000001
 40
0.0
 40
0.0
 40
0.0
 40
0.0
 40
1.0
 40
1.0
 40
1.0
 40
1.0
 10
542.2171341693
 20
115.0298249582
 30
0.0
 10
542.4491457587
 20
115.0207501245
 30
0.0
 10
542.6832319899
 20
115.0280628029
 30
0.0
 10
542.9129714348
 20
115.0617008422
 30
0.0
  0
SPLINE
  5
3F1
100
AcDbEntity
  8
0
100
AcDbSpline
 62
7
  6
CONTINUOUS
 70
0
 71
3
 72
9
 73
5
 74
0
 42
0.0000001
 43
0.0000001
 44
0.0000000001
 40
0.0
 40
0.0
 40
0.0
 40
0.0
 40
0.7369478186
 40
1.0
 40
1.0
 40
1.0
 40
1.0
 10
117.8454993268
 20
1009.8331806517
 30
0.0
 10
117.9270342309
 20
1010.2273837245
 30
0.0
 10
118.1844930405
 20
1010.737563169
 30
0.0
 10
118.5459528491
 20
1011.1464606223
 30
0.0
 10
118.6471363466
 20
1011.2484814569
 30
0.0
  0
SPLINE
  5
3F2
100
AcDbEntity
  8
0
100
AcDbSpline
 62
7
  6
CONTINUOUS
 70
0
 71
3
 72
9
 73
5
 74
0
 42
0.0000001
 43
0.0000001
 44
0.0000000001
 40
0.0
 40
0.0
 40
0.0
 40
0.0
 40
0.2789297194
 40
1.0
 40
1.0
 40
1.0
 40
1.0
 10
542.0644397647
 20
766.7939176501
 30
0.0
 10
541.8048301176
 20
766.7606382082
 30
0.0
 10
540.8936985066
 20
766.5117761188
 30
0.0
 10
540.0857587639
 20
765.9319525249
 30
0.0
 10
539.6602767086
 20
765.4058577622
 30
0.0
  0
SPLINE
  5
3F3
100
AcDbEntity
  8
0
100
AcDbSpline
 62
7
  6
CONTINUOUS
 70
0
 71
3
 72
8
 73
4
 74
0
 42
0.0000001
 43
0.0000001
 44
0.0000000001
 40
0.0
 40
0.0
 40
0.0
 40
0.0
 40
1.0
 40
1.0
 40
1.0
 40
1.0
 10
119.4956680168
 20
1011.7383954521
 30
0.0
 10
119.3516406162
 20
1011.5562246804
 30
0.0
 10
119.2282452099
 20
1011.3571206206
 30
0.0
 10
119.1200849672
 20
1011.1516177153
 30
0.0
  0
SPLINE
  5
3F4
100
AcDbEntity
  8
0
100
AcDbSpline
 62
7
  6
CONTINUOUS
 70
0
 71
3
 72
9
 73
5
 74
0
 42
0.0000001
 43
0.0000001
 44
0.0000000001
 40
0.0
 40
0.0
 40
0.0
 40
0.0
 40
0.2338030803
 40
1.0
 40
1.0
 40
1.0
 40
1.0
 10
119.1200849672
 20
1011.1516177153
 30
0.0
 10
119.0701164846
 20
1011.0566783172
 30
0.0
 10
118.8706665115
 20
1010.6432137748
 30
0.0
 10
118.7262502555
 20
1010.2036043199
 30
0.0
 10
118.6468092495
 20
1009.8611085538
 30
0.0
  0
SPLINE
  5
3F5
100
AcDbEntity
  8
0
100
AcDbSpline
 62
7
  6
CONTINUOUS
 70
0
 71
3
 72
8
 73
4
 74
0
 42
0.0000001
 43
0.0000001
 44
0.0000000001
 40
0.0
 40
0.0
 40
0.0
 40
0.0
 40
1.0
 40
1.0
 40
1.0
 40
1.0
 10
118.5586452838
 20
1009.3926327591
 30
0.0
 10
118.4893042257
 20
1008.9142029031
 30
0.0
 10
118.4811491807
 20
1008.4203950862
 30
0.0
 10
118.5531421581
 20
1007.9423570954
 30
0.0
  0
SPLINE
  5
3F6
100
AcDbEntity
  8
0
100
AcDbSpline
 62
7
  6
CONTINUOUS
 70
0
 71
3
 72
8
 73
4
 74
0
 42
0.0000001
 43
0.0000001
 44
0.0000000001
 40
0.0
 40
0.0
 40
0.0
 40
0.0
 40
1.0
 40
1.0
 40
1.0
 40
1.0
 10
118.5531421581
 20
1007.9423570954
 30
0.0
 10
118.5759498404
 20
1007.7909126216
 30
0.0
 10
118.6069055182
 20
1007.6403902756
 30
0.0
 10
118.6471534217
 20
1007.4926211134
 30
0.0
  0
SPLINE
  5
3F7
100
AcDbEntity
  8
0
100
AcDbSpline
 62
7
  6
CONTINUOUS
 70
0
 71
3
 72
9
 73
5
 74
0
 42
0.0000001
 43
0.0000001
 44
0.0000000001
 40
0.0
 40
0.0
 40
0.0
 40
0.0
 40
0.2997719376
 40
1.0
 40
1.0
 40
1.0
 40
1.0
 10
805.3928931763
 20
918.5382557692
 30
0.0
 10
805.3928932918
 20
918.5446297063
 30
0.0
 10
805.3676237836
 20
918.5561184065
 30
0.0
 10
805.3496530967
 20
918.5588222419
 30
0.0
 10
805.3349155552
 20
918.5609383197
 30
0.0
  0
SPLINE
  5
3F8
100
AcDbEntity
  8
0
100
AcDbSpline
 62
7
  6
CONTINUOUS
 70
0
 71
3
 72
9
 73
5
 74
0
 42
0.0000001
 43
0.0000001
 44
0.0000000001
 40
0.0
 40
0.0
 40
0.0
 40
0.0
 40
0.4351893319
 40
1.0
 40
1.0
 40
1.0
 40
1.0
 10
805.3349155552
 20
918.5609383197
 30
0.0
 10
805.3174594279
 20
918.5634447435
 30
0.0
 10
805.2770117923
 20
918.5667842801
 30
0.0
 10
805.2364766385
 20
918.5674480176
 30
0.0
 10
805.2135895377
 20
918.5672706137
 30
0.0
  0
SPLINE
  5
3F9
100
AcDbEntity
  8
0
100
AcDbSpline
 62
7
  6
CONTINUOUS
 70
0
 71
3
 72
8
 73
4
 74
0
 42
0.0000001
 43
0.0000001
 44
0.0000000001
 40
0.0
 40
0.0
 40
0.0
 40
0.0
 40
1.0
 40
1.0
 40
1.0
 40
1.0
 10
805.2135895377
 20
918.5672706137
 30
0.0
 10
805.1069316984
 20
918.5664438809
 30
0.0
 10
805.0002838969
 20
918.5548622061
 30
0.0
 10
804.8949260475
 20
918.5382398793
 30
0.0
  0
SPLINE
  5
3FA
100
AcDbEntity
  8
0
100
AcDbSpline
 62
7
  6
CONTINUOUS
 70
0
 71
3
 72
9
 73
5
 74
0
 42
0.0000001
 43
0.0000001
 44
0.0000000001
 40
0.0
 40
0.0
 40
0.0
 40
0.0
 40
0.2928899434
 40
1.0
 40
1.0
 40
1.0
 40
1.0
 10
804.8949360571
 20
919.5180725447
 30
0.0
 10
804.9348786182
 20
919.5685932592
 30
0.0
 10
805.076975402
 20
919.7357247101
 30
0.0
 10
805.2427179345
 20
919.8879966179
 30
0.0
 10
805.3783830377
 20
919.9639611329
 30
0.0
  0
SPLINE
  5
3FB
100
AcDbEntity
  8
0
100
AcDbSpline
 62
7
  6
CONTINUOUS
 70
0
 71
3
 72
9
 73
5
 74
0
 42
0.0000001
 43
0.0000001
 44
0.0000000001
 40
0.0
 40
0.0
 40
0.0
 40
0.0
 40
0.3132299406
 40
1.0
 40
1.0
 40
1.0
 40
1.0
 10
805.3783830377
 20
919.9639611329
 30
0.0
 10
805.4126685289
 20
919.9831590007
 30
0.0
 10
805.5233298433
 20
920.0375182829
 30
0.0
 10
805.6692655203
 20
920.0517792946
 30
0.0
 10
805.7438779881
 20
920.0087023934
 30
0.0
  0
SPLINE
  5
3FC
100
AcDbEntity
  8
0
100
AcDbSpline
 62
7
  6
CONTINUOUS
 70
0
 71
3
 72
8
 73
4
 74
0
 42
0.0000001
 43
0.0000001
 44
0.0000000001
 40
0.0
 40
0.0
 40
0.0
 40
0.0
 40
1.0
 40
1.0
 40
1.0
 40
1.0
 10
542.9129714348
 20
766.3040287447
 30
0.0
 10
542.8051322931
 20
766.1952971876
 30
0.0
 10
542.6902639374
 20
766.0932351745
 30
0.0
 10
542.5705235614
 20
765.9977675133
 30
0.0
  0
SPLINE
  5
3FD
100
AcDbEntity
  8
0
100
AcDbSpline
 62
7
  6
CONTINUOUS
 70
0
 71
3
 72
8
 73
4
 74
0
 42
0.0000001
 43
0.0000001
 44
0.0000000001
 40
0.0
 40
0.0
 40
0.0
 40
0.0
 40
1.0
 40
1.0
 40
1.0
 40
1.0
 10
542.5705235614
 20
765.9977675133
 30
0.0
 10
542.0700369063
 20
765.5987351066
 30
0.0
 10
541.475040873
 20
765.3063320476
 30
0.0
 10
540.8627563155
 20
765.1197271868
 30
0.0
  0
SPLINE
  5
3FE
100
AcDbEntity
  8
0
100
AcDbSpline
 62
7
  6
CONTINUOUS
 70
0
 71
3
 72
9
 73
5
 74
0
 42
0.0000001
 43
0.0000001
 44
0.0000000001
 40
0.0
 40
0.0
 40
0.0
 40
0.0
 40
0.7641925885
 40
1.0
 40
1.0
 40
1.0
 40
1.0
 10
540.8627563155
 20
765.1197271868
 30
0.0
 10
540.5512966572
 20
765.0248041883
 30
0.0
 10
540.131851597
 20
764.9343410489
 30
0.0
 10
539.7074531434
 20
764.8951043587
 30
0.0
 10
539.6071641016
 20
764.8890500895
 30
0.0
  0
SPLINE
  5
3FF
100
AcDbEntity
  8
0
100
AcDbSpline
 62
7
  6
CONTINUOUS
 70
0
 71
3
 72
9
 73
5
 74
0
 42
0.0000001
 43
0.0000001
 44
0.0000000001
 40
0.0
 40
0.0
 40
0.0
 40
0.0
 40
0.2717775561
 40
1.0
 40
1.0
 40
1.0
 40
1.0
 10
539.6071641016
 20
764.8890500895
 30
0.0
 10
539.5351279389
 20
764.8847013958
 30
0.0
 10
539.2698155646
 20
764.8747951181
 30
0.0
 10
539.0030830699
 20
764.8879515922
 30
0.0
 10
538.811752104
 20
764.9159647775
 30
0.0
  0
SPLINE
  5
400
100
AcDbEntity
  8
0
100
AcDbSpline
 62
7
  6
CONTINUOUS
 70
0
 71
3
 72
9
 73
5
 74
0
 42
0.0000001
 43
0.0000001
 44
0.0000000001
 40
0.0
 40
0.0
 40
0.0
 40
0.0
 40
0.3328618437
 40
1.0
 40
1.0
 40
1.0
 40
1.0
 10
804.8949260475
 20
918.5382398794
 30
0.0
 10
804.92570533
 20
918.5762974639
 30
0.0
 10
805.0142903244
 20
918.6932126963
 30
0.0
 10
805.0980335046
 20
918.8167859266
 30
0.0
 10
805.134529764
 20
918.9078450516
 30
0.0
  0
SPLINE
  5
401
100
AcDbEntity
  8
0
100
AcDbSpline
 62
7
  6
CONTINUOUS
 70
0
 71
3
 72
9
 73
5
 74
0
 42
0.0000001
 43
0.0000001
 44
0.0000000001
 40
0.0
 40
0.0
 40
0.0
 40
0.0
 40
0.7002753608
 40
1.0
 40
1.0
 40
1.0
 40
1.0
 10
805.134529764
 20
918.9078450516
 30
0.0
 10
805.1400789899
 20
918.9216905161
 30
0.0
 10
805.1467351408
 20
918.9386316783
 30
0.0
 10
805.1494386857
 20
918.9663117835
 30
0.0
 10
805.1439097979
 20
918.9695039612
 30
0.0
  0
SPLINE
  5
402
100
AcDbEntity
  8
0
100
AcDbSpline
 62
7
  6
CONTINUOUS
 70
0
 71
3
 72
9
 73
5
 74
0
 42
0.0000001
 43
0.0000001
 44
0.0000000001
 40
0.0
 40
0.0
 40
0.0
 40
0.0
 40
0.2630531368
 40
1.0
 40
1.0
 40
1.0
 40
1.0
 10
118.6471534216
 20
1007.4926211134
 30
0.0
 10
118.5459676435
 20
1007.5946429115
 30
0.0
 10
118.1844996705
 20
1008.0035422229
 30
0.0
 10
117.9270374209
 20
1008.5137282258
 30
0.0
 10
117.8455003148
 20
1008.9079353687
 30
0.0
  0
SPLINE
  5
403
100
AcDbEntity
  8
0
100
AcDbSpline
 62
7
  6
CONTINUOUS
 70
0
 71
3
 72
9
 73
5
 74
0
 42
0.0000001
 43
0.0000001
 44
0.0000000001
 40
0.0
 40
0.0
 40
0.0
 40
0.0
 40
0.2270923235
 40
1.0
 40
1.0
 40
1.0
 40
1.0
 10
538.8117521039
 20
764.9159647775
 30
0.0
 10
538.8340202759
 20
764.9720093206
 30
0.0
 10
538.9398933499
 20
765.2156745079
 30
0.0
 10
539.0730022449
 20
765.4470484625
 30
0.0
 10
539.1861519835
 20
765.6182960976
 30
0.0
  0
SPLINE
  5
404
100
AcDbEntity
  8
0
100
AcDbSpline
 62
7
  6
CONTINUOUS
 70
0
 71
3
 72
9
 73
5
 74
0
 42
0.0000001
 43
0.0000001
 44
0.0000000001
 40
0.0
 40
0.0
 40
0.0
 40
0.0
 40
0.235812361
 40
1.0
 40
1.0
 40
1.0
 40
1.0
 10
539.1861519835
 20
765.6182960976
 30
0.0
 10
539.2415042081
 20
765.7020694909
 30
0.0
 10
539.4875143017
 20
766.0497710718
 30
0.0
 10
539.7753591609
 20
766.3676084832
 30
0.0
 10
540.0131051973
 20
766.5897687008
 30
0.0
  0
SPLINE
  5
405
100
AcDbEntity
  8
0
100
AcDbSpline
 62
7
  6
CONTINUOUS
 70
0
 71
3
 72
8
 73
4
 74
0
 42
0.0000001
 43
0.0000001
 44
0.0000000001
 40
0.0
 40
0.0
 40
0.0
 40
0.0
 40
1.0
 40
1.0
 40
1.0
 40
1.0
 10
540.0131051973
 20
766.5897687008
 30
0.0
 10
540.4809707189
 20
767.0269625555
 30
0.0
 10
541.0318948855
 20
767.3962464478
 30
0.0
 10
541.6279419508
 20
767.6302646282
 30
0.0
  0
SPLINE
  5
406
100
AcDbEntity
  8
0
100
AcDbSpline
 62
7
  6
CONTINUOUS
 70
0
 71
3
 72
8
 73
4
 74
0
 42
0.0000001
 43
0.0000001
 44
0.0000000001
 40
0.0
 40
0.0
 40
0.0
 40
0.0
 40
1.0
 40
1.0
 40
1.0
 40
1.0
 10
541.6279419508
 20
767.6302646282
 30
0.0
 10
541.7705034734
 20
767.6862366983
 30
0.0
 10
541.916340656
 20
767.7346908905
 30
0.0
 10
542.0644397647
 20
767.7737205507
 30
0.0
  0
SPLINE
  5
407
100
AcDbEntity
  8
0
100
AcDbSpline
 62
7
  6
CONTINUOUS
 70
0
 71
3
 72
9
 73
5
 74
0
 42
0.0000001
 43
0.0000001
 44
0.0000000001
 40
0.0
 40
0.0
 40
0.0
 40
0.0
 40
0.7369478653
 40
1.0
 40
1.0
 40
1.0
 40
1.0
 10
539.636655119
 20
115.0478125187
 30
0.0
 10
539.3360193631
 20
115.3155313763
 30
0.0
 10
539.0229062132
 20
115.7936024968
 30
0.0
 10
538.8495142288
 20
116.3111024046
 30
0.0
 10
538.8117521039
 20
116.4497450932
 30
0.0
  0
SPLINE
  5
408
100
AcDbEntity
  8
0
100
AcDbSpline
 62
7
  6
CONTINUOUS
 70
0
 71
3
 72
9
 73
5
 74
0
 42
0.0000001
 43
0.0000001
 44
0.0000000001
 40
0.0
 40
0.0
 40
0.0
 40
0.0
 40
0.6867594245
 40
1.0
 40
1.0
 40
1.0
 40
1.0
 10
806.5928495241
 20
918.5382555496
 30
0.0
 10
806.5928491742
 20
918.452097851
 30
0.0
 10
806.5075193578
 20
918.3328404788
 30
0.0
 10
806.4051034882
 20
918.2641874149
 30
0.0
 10
806.3713309467
 20
918.2440944533
 30
0.0
  0
SPLINE
  5
409
100
AcDbEntity
  8
0
100
AcDbSpline
 62
7
  6
CONTINUOUS
 70
0
 71
3
 72
9
 73
5
 74
0
 42
0.0000001
 43
0.0000001
 44
0.0000000001
 40
0.0
 40
0.0
 40
0.0
 40
0.0
 40
0.2071857777
 40
1.0
 40
1.0
 40
1.0
 40
1.0
 10
806.3713309467
 20
918.2440944533
 30
0.0
 10
806.3321579421
 20
918.2207884881
 30
0.0
 10
806.1342120658
 20
918.1233238205
 30
0.0
 10
805.9160499429
 20
918.0736499186
 30
0.0
 10
805.7434677272
 20
918.0483807388
 30
0.0
  0
ENDSEC
  0
SECTION
  2
OBJECTS
  0
DICTIONARY
  5
C
100
AcDbDictionary
280
0
281
1
  3
ACAD_GROUP
350
D
  3
ACAD_MLINESTYLE
350
17
  3
ACAD_LAYOUT
350
1A
  3
ACAD_PLOTSETTINGS
350
19
  3
ACAD_PLOTSTYLENAME
350
E
  0
DICTIONARY
  5
D
102
{ACAD_REACTORS
330
C
102
}
100
AcDbDictionary
280
0
281
1
  0
ACDBDICTIONARYWDFLT
  5
E
102
{ACAD_REACTORS
330
C
102
}
100
AcDbDictionary
281
1
  3
Normal
350
F
100
AcDbDictionaryWithDefault
340
F
  0
DICTIONARY
  5
17
102
{ACAD_REACTORS
330
C
102
}
100
AcDbDictionary
280
0
281
1
  3
Standard
350
18
  0
DICTIONARY
  5
19
102
{ACAD_REACTORS
330
C
102
}
100
AcDbDictionary
281
1
  0
DICTIONARY
  5
1A
102
{ACAD_REACTORS
330
C
102
}
100
AcDbDictionary
281
1
  3
Model
350
40A
  3
Layout1
350
40B
  0
ACDBPLACEHOLDER
  5
F
102
{ACAD_REACTORS
330
E
102
}
  0
MLINESTYLE
  5
18
102
{ACAD_REACTORS
330
17
102
}
100
AcDbMlineStyle
  2
STANDARD
 70
0
  3

 62
256
 51
90.0
 52
90.0
 71
2
 49
0.5
 62
256
  6
BYLAYER
 49
-0.5
 62
256
  6
BYLAYER
  0
LAYOUT
  5
40A
102
{ACAD_REACTORS
330
1A
102
}
100
AcDbPlotSettings
  1

  2
none_device
  4

  6

 40
0.0
 41
0.0
 42
0.0
 43
0.0
 44
210.0
 45
297.0
 46
0.0
 47
0.0
 48
0.0
 49
0.0
140
0.0
141
0.0
142
1.0
143
1.0
 70
1024
 72
1
 73
0
 74
0
  7

 75
0
147
1.0
148
0.0
149
0.0
100
AcDbLayout
  1
Model
 70
0
 71
0
 10
0.0
 20
0.0
 11
210.0
 21
297.0
 12
0.0
 22
0.0
 32
0.0
 14
0.0
 24
0.0
 34
0.0
 15
0.0
 25
0.0
 35
0.0
146
0.0
 13
0.0
 23
0.0
 33
0.0
 16
1.0
 26
0.0
 36
0.0
 17
0.0
 27
1.0
 37
0.0
 76
0
330
210
345
0
346
0
  0
LAYOUT
  5
40B
102
{ACAD_REACTORS
330
1A
102
}
100
AcDbPlotSettings
  1

  2
none_device
  4

  6

 40
0.0
 41
0.0
 42
0.0
 43
0.0
 44
210.0
 45
297.0
 46
0.0
 47
0.0
 48
0.0
 49
0.0
140
0.0
141
0.0
142
1.0
143
1.0
 70
0
 72
1
 73
0
 74
0
  7

 75
0
147
1.0
148
0.0
149
0.0
100
AcDbLayout
  1
Layout1
 70
0
 71
1
 10
0.0
 20
0.0
 11
210.0
 21
297.0
 12
0.0
 22
0.0
 32
0.0
 14
0.0
 24
0.0
 34
0.0
 15
0.0
 25
0.0
 35
0.0
146
0.0
 13
0.0
 23
0.0
 33
0.0
 16
1.0
 26
0.0
 36
0.0
 17
0.0
 27
1.0
 37
0.0
 76
0
330
211
345
0
346
0
  0
ENDSEC
  0
EOF
