999
DXF file: C:\Users\sesa63760\Dev\_Creo\CAD\MCADID0000371_3D-CAD\drw0001_1.dxf
999
Pro/ENGINEER 2019471 by Parametric Technology Corporation
  0
SECTION
  2
HEADER
  9
$ACADVER
  1
AC1024
  9
$DWGCODEPAGE
  3
ANSI_1252
  9
$EXTMAX
 10
271.8413805657
 20
384.4613810858
 30
0.0
  9
$EXTMIN
 10
0.0
 20
0.0
 30
0.0
  9
$LIMMIN
 10
0.0
 20
0.0
  9
$LIMMAX
 10
271.8413805657
 20
384.4613810858
  9
$VIEWCTR
 10
135.9206902829
 20
192.2306905429
  9
$VIEWSIZE
 40
384.4613810858
  9
$CLAYER
  8
0
  9
$LTSCALE
 40
25.0611863226
  9
$CELTYPE
  6
BYLAYER
  9
$DIMSCALE
 40
1.0
  9
$DIMASZ
 40
3.2362069115
  9
$DIMEXO
 40
1.0
  9
$DIMDLI
 40
17.3150014593
  9
$DIMEXE
 40
1.0
  9
$DIMCEN
 40
4.1009213982
  9
$DIMLFAC
 40
1.0
  9
$DIMBLK
  1
_FILLED
  9
$DIMALT
 70
0
  9
$DIMALTF
 40
0.0393700787
  9
$DIMTXT
 40
4.5306896761
  9
$DIMTOL
 70
1
  9
$DIMLIM
 70
0
  9
$DIMTFAC
 40
1.0
  9
$DIMTP
 40
0.01
  9
$DIMTM
 40
0.01
  9
$DIMGAP
 40
0.625
  9
$DIMDSEP
 70
46
  9
$AUNITS
 70
0
  9
$PDMODE
 70
3
  9
$PDSIZE
 40
0.3125
  9
$HANDSEED
  5
3D3
  9
$TILEMODE
 70
1
  9
$MEASUREMENT
 70
1
  9
$INSUNITS
 70
4
  0
ENDSEC
  0
SECTION
  2
CLASSES
  0
CLASS
  1
ACDBDICTIONARYWDFLT
  2
AcDbDictionaryWithDefault
  3
AutoCAD 2000
 90
0
 91
1
280
0
281
0
  0
CLASS
  1
ACDBPLACEHOLDER
  2
AcDbPlaceHolder
  3
AutoCAD 2000
 90
0
 91
1
280
0
281
0
  0
CLASS
  1
LAYOUT
  2
AcDbLayout
  3
AutoCAD 2000
 90
0
 91
0
280
0
281
0
  0
ENDSEC
  0
SECTION
  2
TABLES
  0
TABLE
  2
VPORT
  5
8
100
AcDbSymbolTable
 70
2
  0
VPORT
  5
1F4
100
AcDbSymbolTableRecord
100
AcDbViewportTableRecord
  2
*ACTIVE
 70
0
 10
0.0
 20
0.0
 11
1.0
 21
1.0
 12
135.9206902829
 22
192.2306905429
 13
0.0
 23
0.0
 14
1.0
 24
1.0
 15
0.0
 25
0.0
 16
0.0
 26
0.0
 36
1.0
 17
0.0
 27
0.0
 37
0.0
 40
384.4613810858
 41
0.7070707071
 42
50.0
 43
0.0
 44
0.0
 50
0.0
 51
0.0
 71
0
 72
100
 73
1
 74
1
 75
0
 76
0
 77
0
 78
0
  0
ENDTAB
  0
TABLE
  2
LTYPE
  5
5
100
AcDbSymbolTable
 70
6
  0
LTYPE
  5
14
100
AcDbSymbolTableRecord
100
AcDbLinetypeTableRecord
  2
BYBLOCK
 70
0
  3

 72
65
 73
0
 40
0.0
  0
LTYPE
  5
15
100
AcDbSymbolTableRecord
100
AcDbLinetypeTableRecord
  2
BYLAYER
 70
0
  3

 72
65
 73
0
 40
0.0
  0
LTYPE
  5
16
100
AcDbSymbolTableRecord
100
AcDbLinetypeTableRecord
  2
CONTINUOUS
 70
64
  3
Solid line
 72
65
 73
0
 40
0.0
  0
LTYPE
  5
1F5
100
AcDbSymbolTableRecord
100
AcDbLinetypeTableRecord
  2
CENTER
 70
64
  3
____ _ ____ _ ____ _ ____ _ ____ _ ____ _ ____
 72
65
 73
4
 40
0.6
 49
0.375
 74
0
 49
-0.075
 74
0
 49
0.075
 74
0
 49
-0.075
 74
0
  0
LTYPE
  5
1F6
100
AcDbSymbolTableRecord
100
AcDbLinetypeTableRecord
  2
HIDDEN
 70
64
  3
- - - - - - - - - - - - - - - - - - - -
 72
65
 73
2
 40
0.2
 49
0.1
 74
0
 49
-0.1
 74
0
  0
LTYPE
  5
1F7
100
AcDbSymbolTableRecord
100
AcDbLinetypeTableRecord
  2
PHANTOM
 70
64
  3
_____ _ _ _____ _ _ _____ _ _ _____
 72
65
 73
6
 40
0.8
 49
0.45
 74
0
 49
-0.05
 74
0
 49
0.1
 74
0
 49
-0.05
 74
0
 49
0.1
 74
0
 49
-0.05
 74
0
  0
LTYPE
  5
1F8
100
AcDbSymbolTableRecord
100
AcDbLinetypeTableRecord
  2
DOT
 70
64
  3
. . . . . . . . . . . . . . . . . . . .
 72
65
 73
2
 40
0.2
 49
0.1
 74
0
 49
-0.1
 74
0
  0
LTYPE
  5
1F9
100
AcDbSymbolTableRecord
100
AcDbLinetypeTableRecord
  2
DASHED
 70
64
  3
- - - - - - - - - - - - - - - - - - - -
 72
65
 73
2
 40
0.2
 49
0.1
 74
0
 49
-0.1
 74
0
  0
ENDTAB
  0
TABLE
  2
LAYER
  5
2
100
AcDbSymbolTable
 70
36
  0
LAYER
  5
10
100
AcDbSymbolTableRecord
100
AcDbLayerTableRecord
  2
0
 70
0
 62
7
  6
CONTINUOUS
370
-3
390
F
  0
LAYER
  5
1FA
100
AcDbSymbolTableRecord
100
AcDbLayerTableRecord
  2
DEFAULT_1
 70
0
 62
7
  6
CENTER
370
-3
390
F
  0
LAYER
  5
1FB
100
AcDbSymbolTableRecord
100
AcDbLayerTableRecord
  2
DEFAULT_2
 70
0
 62
8
  6
HIDDEN
370
-3
390
F
  0
LAYER
  5
1FC
100
AcDbSymbolTableRecord
100
AcDbLayerTableRecord
  2
DEFAULT_3
 70
0
 62
7
  6
PHANTOM
370
-3
390
F
  0
LAYER
  5
1FD
100
AcDbSymbolTableRecord
100
AcDbLayerTableRecord
  2
00_COMPONENTS
 70
0
 62
7
  6
CONTINUOUS
370
-3
390
F
  0
LAYER
  5
1FE
100
AcDbSymbolTableRecord
100
AcDbLayerTableRecord
  2
01_1_DEFAULT_DATUMS
 70
0
 62
7
  6
CONTINUOUS
370
-3
390
F
  0
LAYER
  5
1FF
100
AcDbSymbolTableRecord
100
AcDbLayerTableRecord
  2
01_PLANES
 70
0
 62
7
  6
CONTINUOUS
370
-3
390
F
  0
LAYER
  5
200
100
AcDbSymbolTableRecord
100
AcDbLayerTableRecord
  2
02_COORD_SYS
 70
0
 62
7
  6
CONTINUOUS
370
-3
390
F
  0
LAYER
  5
201
100
AcDbSymbolTableRecord
100
AcDbLayerTableRecord
  2
03_AXES
 70
0
 62
7
  6
CONTINUOUS
370
-3
390
F
  0
LAYER
  5
202
100
AcDbSymbolTableRecord
100
AcDbLayerTableRecord
  2
04_POINTS
 70
0
 62
7
  6
CONTINUOUS
370
-3
390
F
  0
LAYER
  5
203
100
AcDbSymbolTableRecord
100
AcDbLayerTableRecord
  2
05_CURVES
 70
0
 62
7
  6
CONTINUOUS
370
-3
390
F
  0
LAYER
  5
204
100
AcDbSymbolTableRecord
100
AcDbLayerTableRecord
  2
06_SURFS
 70
0
 62
7
  6
CONTINUOUS
370
-3
390
F
  0
LAYER
  5
205
100
AcDbSymbolTableRecord
100
AcDbLayerTableRecord
  2
07_COSMETICS
 70
0
 62
7
  6
CONTINUOUS
370
-3
390
F
  0
LAYER
  5
206
100
AcDbSymbolTableRecord
100
AcDbLayerTableRecord
  2
10_NOTES
 70
0
 62
7
  6
CONTINUOUS
370
-3
390
F
  0
LAYER
  5
207
100
AcDbSymbolTableRecord
100
AcDbLayerTableRecord
  2
11_NOTES_PUB
 70
0
 62
7
  6
CONTINUOUS
370
-3
390
F
  0
LAYER
  5
208
100
AcDbSymbolTableRecord
100
AcDbLayerTableRecord
  2
13_REF_GTOL
 70
0
 62
7
  6
CONTINUOUS
370
-3
390
F
  0
LAYER
  5
209
100
AcDbSymbolTableRecord
100
AcDbLayerTableRecord
  2
16_MISC
 70
0
 62
7
  6
CONTINUOUS
370
-3
390
F
  0
LAYER
  5
20A
100
AcDbSymbolTableRecord
100
AcDbLayerTableRecord
  2
17_NO_PRINT
 70
0
 62
7
  6
CONTINUOUS
370
-3
390
F
  0
LAYER
  5
20B
100
AcDbSymbolTableRecord
100
AcDbLayerTableRecord
  2
18_DATUM_CAMS_JOINTS
 70
0
 62
7
  6
CONTINUOUS
370
-3
390
F
  0
LAYER
  5
20C
100
AcDbSymbolTableRecord
100
AcDbLayerTableRecord
  2
19_DATUM_FUNCTIONAL
 70
0
 62
7
  6
CONTINUOUS
370
-3
390
F
  0
LAYER
  5
20D
100
AcDbSymbolTableRecord
100
AcDbLayerTableRecord
  2
20_DATUM_KINEMATIC_SCHEME
 70
0
 62
7
  6
CONTINUOUS
370
-3
390
F
  0
ENDTAB
  0
TABLE
  2
STYLE
  5
3
100
AcDbSymbolTable
 70
1
  0
STYLE
  5
11
100
AcDbSymbolTableRecord
100
AcDbTextStyleTableRecord
  2
STANDARD
 70
0
 40
0.0
 41
0.8
 50
0.0
 71
0
 42
0.2
  3
txt
  4

  0
STYLE
  5
20E
100
AcDbSymbolTableRecord
100
AcDbTextStyleTableRecord
  2
TEXTSTYLE_1
 70
0
 40
0.0
 41
0.8
 50
0.0
 71
0
 42
0.2
  3
gdt
  4

  0
ENDTAB
  0
TABLE
  2
VIEW
  5
6
100
AcDbSymbolTable
 70
0
  0
ENDTAB
  0
TABLE
  2
UCS
  5
7
100
AcDbSymbolTable
 70
0
  0
ENDTAB
  0
TABLE
  2
APPID
  5
9
100
AcDbSymbolTable
 70
1
  0
APPID
  5
20F
100
AcDbSymbolTableRecord
100
AcDbRegAppTableRecord
  2
ACAD
 70
0
  0
ENDTAB
  0
TABLE
  2
BLOCK_RECORD
  5
1
100
AcDbSymbolTable
 70
0
  0
BLOCK_RECORD
  5
210
100
AcDbSymbolTableRecord
100
AcDbBlockTableRecord
  2
*Model_Space
  0
BLOCK_RECORD
  5
211
100
AcDbSymbolTableRecord
100
AcDbBlockTableRecord
  2
*Paper_Space
  0
BLOCK_RECORD
  5
212
100
AcDbSymbolTableRecord
100
AcDbBlockTableRecord
  2
_FILLED
  0
ENDTAB
  0
TABLE
  2
DIMSTYLE
  5
A
100
AcDbSymbolTable
 70
1
100
AcDbDimStyleTable
 71
0
  0
DIMSTYLE
105
213
100
AcDbSymbolTableRecord
100
AcDbDimStyleTableRecord
  2
STANDARD
 70
0
  3

  4

 40
1.0
 41
3.2362069115
 42
1.0
 43
0.38
 44
1.0
 45
0.0
 46
0.0
 47
0.01
 48
0.01
140
4.5306896761
141
0.09
142
0.0
143
25.4
144
1.0
145
0.0
146
1.0
147
0.625
 71
1
 72
0
 73
0
 74
0
 75
0
 76
0
 77
1
 78
8
 79
2
170
0
171
1
172
0
173
0
174
0
175
0
176
0
177
0
178
0
270
2
179
2
271
2
272
2
273
2
274
2
275
0
280
0
281
0
282
0
283
1
284
8
285
0
286
0
287
3
288
0
340
11
278
46
341
212
342
212
343
212
344
212
  0
ENDTAB
  0
ENDSEC
  0
SECTION
  2
BLOCKS
  0
BLOCK
  5
20
100
AcDbEntity
  8
0
100
AcDbBlockBegin
  2
*Model_Space
 70
0
 10
0.0
 20
0.0
 30
0.0
  3
*Model_Space
  1

  0
ENDBLK
  5
21
100
AcDbEntity
  8
0
100
AcDbBlockEnd
  0
BLOCK
  5
1C
100
AcDbEntity
  8
0
100
AcDbBlockBegin
  2
*Paper_Space
 70
0
 10
0.0
 20
0.0
 30
0.0
  3
*Paper_Space
  1

  0
ENDBLK
  5
1D
100
AcDbEntity
  8
0
100
AcDbBlockEnd
  0
BLOCK
  5
214
100
AcDbEntity
  8
0
100
AcDbBlockBegin
  2
_FILLED
 70
64
 10
0.0
 20
0.0
  3
_FILLED
  1

  0
SOLID
  5
215
100
AcDbEntity
  8
0
  6
BYBLOCK
 62
0
100
AcDbTrace
 10
0.0
 20
0.0
 11
-1.0
 21
0.25
 12
-1.0
 22
-0.25
 13
-1.0
 23
-0.25
  0
ENDBLK
  5
216
100
AcDbEntity
  8
0
  6
BYBLOCK
 62
0
100
AcDbBlockEnd
  0
ENDSEC
  0
SECTION
  2
ENTITIES
  0
LINE
  5
217
100
AcDbEntity
  8
0
100
AcDbLine
 62
7
  6
CONTINUOUS
 10
40.8895059437
 20
210.5858331667
 11
42.8261299585
 21
224.6074889254
  0
LINE
  5
218
100
AcDbEntity
  8
0
100
AcDbLine
 62
7
  6
CONTINUOUS
 10
40.8795689592
 20
189.1723344753
 11
40.8795689592
 21
200.8869962851
  0
LINE
  5
219
100
AcDbEntity
  8
0
100
AcDbLine
 62
7
  6
CONTINUOUS
 10
41.6489351774
 20
263.8601991542
 11
41.6489351774
 21
251.6235052228
  0
LINE
  5
21A
100
AcDbEntity
  8
0
100
AcDbLine
 62
7
  6
CONTINUOUS
 10
43.1776387664
 20
228.0231530477
 11
43.1776387664
 21
235.6045326218
  0
LINE
  5
21B
100
AcDbEntity
  8
0
100
AcDbLine
 62
7
  6
CONTINUOUS
 10
44.4151175849
 20
198.8457925125
 11
44.4151175849
 21
187.1311307027
  0
LINE
  5
21C
100
AcDbEntity
  8
0
100
AcDbLine
 62
7
  6
CONTINUOUS
 10
48.8345165675
 20
236.4211186713
 11
48.8345165675
 21
225.432281711
  0
LINE
  5
21D
100
AcDbEntity
  8
0
100
AcDbLine
 62
7
  6
CONTINUOUS
 10
46.3616785843
 20
222.5662851528
 11
44.4250545695
 21
208.5446293941
  0
LINE
  5
21E
100
AcDbEntity
  8
0
100
AcDbLine
 62
7
  6
CONTINUOUS
 10
46.7131579524
 20
241.7282654768
 11
48.9508950072
 21
243.0202158558
  0
LINE
  5
21F
100
AcDbEntity
  8
0
100
AcDbLine
 62
7
  6
CONTINUOUS
 10
50.7842640358
 20
236.421130569
 11
50.7842640358
 21
240.1770416878
  0
LINE
  5
220
100
AcDbEntity
  8
0
100
AcDbLine
 62
7
  6
CONTINUOUS
 10
51.6629525242
 20
235.1963981074
 11
51.6629525242
 21
238.9523092262
  0
LINE
  5
221
100
AcDbEntity
  8
0
100
AcDbLine
 62
7
  6
CONTINUOUS
 10
51.8842640358
 20
240.1770416878
 11
51.8842640358
 21
241.204113279
  0
LINE
  5
222
100
AcDbEntity
  8
0
100
AcDbLine
 62
7
  6
CONTINUOUS
 10
58.0269459384
 20
251.5241280307
 11
58.0269459384
 21
237.4010662288
  0
LINE
  5
223
100
AcDbEntity
  8
0
100
AcDbLine
 62
7
  6
CONTINUOUS
 10
50.7842640358
 20
237.5467991775
 11
48.8345165675
 21
236.4211186713
  0
LINE
  5
224
100
AcDbEntity
  8
0
100
AcDbLine
 62
7
  6
CONTINUOUS
 10
63.8733326053
 20
275.0396031277
 11
63.8733326053
 21
274.6770904506
  0
LINE
  5
225
100
AcDbEntity
  8
0
100
AcDbLine
 62
7
  6
CONTINUOUS
 10
65.8051470271
 20
230.7874941358
 11
65.8051470271
 21
227.031583017
  0
LINE
  5
226
100
AcDbEntity
  8
0
100
AcDbLine
 62
7
  6
CONTINUOUS
 10
66.0264585387
 20
232.0122265974
 11
66.0264585387
 21
233.2369802231
  0
LINE
  5
227
100
AcDbEntity
  8
0
100
AcDbLine
 62
7
  6
CONTINUOUS
 10
66.5122596962
 20
225.8068485997
 11
66.5122596962
 21
219.5046589823
  0
LINE
  5
228
100
AcDbEntity
  8
0
100
AcDbLine
 62
7
  6
CONTINUOUS
 10
66.5328647997
 20
225.9560799918
 11
66.5328647997
 21
219.6879369018
  0
LINE
  5
229
100
AcDbEntity
  8
0
100
AcDbLine
 62
7
  6
CONTINUOUS
 10
69.8264585387
 20
232.0122265974
 11
69.8264585387
 21
233.2369802231
  0
LINE
  5
22A
100
AcDbEntity
  8
0
100
AcDbLine
 62
7
  6
CONTINUOUS
 10
70.0477877142
 20
227.031593215
 11
70.0477877142
 21
230.7875043338
  0
LINE
  5
22B
100
AcDbEntity
  8
0
100
AcDbLine
 62
7
  6
CONTINUOUS
 10
74.6460675902
 20
206.236654972
 11
72.7094435753
 21
192.2149992133
  0
LINE
  5
22C
100
AcDbEntity
  8
0
100
AcDbLine
 62
7
  6
CONTINUOUS
 10
80.5403269395
 20
216.8118274055
 11
80.4837454292
 21
216.7289791312
  0
LINE
  5
22D
100
AcDbEntity
  8
0
100
AcDbLine
 62
7
  6
CONTINUOUS
 10
80.5429932845
 20
216.809347231
 11
80.4837454292
 21
216.7289791312
  0
LINE
  5
22E
100
AcDbEntity
  8
0
100
AcDbLine
 62
7
  6
CONTINUOUS
 10
70.0477877142
 20
230.7875043338
 11
84.1898644585
 21
238.9523874113
  0
LINE
  5
22F
100
AcDbEntity
  8
0
100
AcDbLine
 62
7
  6
CONTINUOUS
 10
90.907350912
 20
242.830706873
 11
105.0494276563
 21
250.9955899505
  0
LINE
  5
230
100
AcDbEntity
  8
0
100
AcDbLine
 62
7
  6
CONTINUOUS
 10
105.0494276563
 20
247.2396788317
 11
90.907350912
 21
239.0747957543
  0
LINE
  5
231
100
AcDbEntity
  8
0
100
AcDbLine
 62
7
  6
CONTINUOUS
 10
84.1898644585
 20
235.1964762925
 11
70.0477877142
 21
227.031593215
  0
LINE
  5
232
100
AcDbEntity
  8
0
100
AcDbLine
 62
7
  6
CONTINUOUS
 10
195.5043805176
 20
90.1733658721
 11
189.4939478539
 21
93.6434122856
  0
LINE
  5
233
100
AcDbEntity
  8
0
100
AcDbLine
 62
7
  6
CONTINUOUS
 10
194.6759312347
 20
92.0045104634
 11
188.665498571
 21
95.4745568768
  0
LINE
  5
234
100
AcDbEntity
  8
0
100
AcDbLine
 62
7
  6
CONTINUOUS
 10
42.313062844
 20
187.4666975792
 11
42.2755137235
 21
187.496008808
  0
LINE
  5
235
100
AcDbEntity
  8
0
100
AcDbLine
 62
7
  6
CONTINUOUS
 10
45.8110623492
 20
185.4548050354
 11
45.8486114697
 21
185.4254938066
  0
LINE
  5
236
100
AcDbEntity
  8
0
100
AcDbLine
 62
7
  6
CONTINUOUS
 10
74.6460675902
 20
170.669772835
 11
72.7094435753
 21
182.4552211495
  0
LINE
  5
237
100
AcDbEntity
  8
0
100
AcDbLine
 62
7
  6
CONTINUOUS
 10
80.4837454292
 20
216.706395803
 11
80.4837454292
 21
216.7289791312
  0
LINE
  5
238
100
AcDbEntity
  8
0
100
AcDbLine
 62
7
  6
CONTINUOUS
 10
81.9263996594
 20
243.116484383
 11
81.9263996594
 21
266.0605875571
  0
LINE
  5
239
100
AcDbEntity
  8
0
100
AcDbLine
 62
7
  6
CONTINUOUS
 10
83.968535283
 20
240.1771096748
 11
83.968535283
 21
241.4018633005
  0
LINE
  5
23A
100
AcDbEntity
  8
0
100
AcDbLine
 62
7
  6
CONTINUOUS
 10
84.1898644585
 20
238.9523874113
 11
84.1898644585
 21
235.1964762925
  0
LINE
  5
23B
100
AcDbEntity
  8
0
100
AcDbLine
 62
7
  6
CONTINUOUS
 10
85.068535283
 20
236.421198556
 11
85.068535283
 21
240.1771096748
  0
LINE
  5
23C
100
AcDbEntity
  8
0
100
AcDbLine
 62
7
  6
CONTINUOUS
 10
86.6647102249
 20
242.830696675
 11
86.6647102249
 21
239.0747855562
  0
LINE
  5
23D
100
AcDbEntity
  8
0
100
AcDbLine
 62
7
  6
CONTINUOUS
 10
86.8860217365
 20
244.0554291366
 11
86.8860217365
 21
245.2801827623
  0
LINE
  5
23E
100
AcDbEntity
  8
0
100
AcDbLine
 62
7
  6
CONTINUOUS
 10
104.6195161169
 20
235.9688786154
 11
89.5696618325
 21
227.2798930593
  0
LINE
  5
23F
100
AcDbEntity
  8
0
100
AcDbLine
 62
7
  6
CONTINUOUS
 10
84.3226023754
 20
221.8010127008
 11
109.866575574
 21
236.5487444711
  0
LINE
  5
240
100
AcDbEntity
  8
0
100
AcDbLine
 62
7
  6
CONTINUOUS
 10
199.5925413251
 20
94.8954197842
 11
196.8425175652
 21
96.4831108239
  0
LINE
  5
241
100
AcDbEntity
  8
0
100
AcDbLine
 62
7
  6
CONTINUOUS
 10
45.8077017709
 20
185.4489842114
 11
42.3130071855
 21
187.4666014265
  0
LINE
  5
242
100
AcDbEntity
  8
0
100
AcDbLine
 62
7
  6
CONTINUOUS
 10
45.8485558112
 20
185.4253976539
 11
65.5327517374
 21
174.0609789346
  0
LINE
  5
243
100
AcDbEntity
  8
0
100
AcDbLine
 62
7
  6
CONTINUOUS
 10
42.2755137235
 20
187.496008808
 11
65.4570315088
 21
174.1124560508
  0
LINE
  5
244
100
AcDbEntity
  8
0
100
AcDbLine
 62
7
  6
CONTINUOUS
 10
58.5909570288
 20
178.946891136
 11
40.8795689592
 21
189.1723344753
  0
LINE
  5
245
100
AcDbEntity
  8
0
100
AcDbLine
 62
7
  6
CONTINUOUS
 10
188.665498571
 20
104.4719067175
 11
75.5135210776
 21
169.7979085122
  0
LINE
  5
246
100
AcDbEntity
  8
0
100
AcDbLine
 62
7
  6
CONTINUOUS
 10
75.482844834
 20
169.820622706
 11
188.665498571
 21
104.4769214925
  0
LINE
  5
247
100
AcDbEntity
  8
0
100
AcDbLine
 62
7
  6
CONTINUOUS
 10
188.665498571
 20
104.8433057212
 11
74.6460675902
 21
170.669772835
  0
LINE
  5
248
100
AcDbEntity
  8
0
100
AcDbLine
 62
7
  6
CONTINUOUS
 10
198.5925102793
 20
99.5142039435
 11
201.3425340392
 21
97.9265129038
  0
LINE
  5
249
100
AcDbEntity
  8
0
100
AcDbLine
 62
7
  6
CONTINUOUS
 10
65.5327261565
 20
174.0609940001
 11
65.4570315088
 21
174.1124560508
  0
LINE
  5
24A
100
AcDbEntity
  8
0
100
AcDbLine
 62
7
  6
CONTINUOUS
 10
75.5137016437
 20
169.7982209319
 11
75.482844834
 21
169.820622706
  0
LINE
  5
24B
100
AcDbEntity
  8
0
100
AcDbLine
 62
7
  6
CONTINUOUS
 10
90.6860217365
 20
244.0554291366
 11
90.6860217365
 21
245.2801827623
  0
LINE
  5
24C
100
AcDbEntity
  8
0
100
AcDbLine
 62
7
  6
CONTINUOUS
 10
90.907350912
 20
239.0747957543
 11
90.907350912
 21
242.830706873
  0
LINE
  5
24D
100
AcDbEntity
  8
0
100
AcDbLine
 62
7
  6
CONTINUOUS
 10
75.8704603625
 20
208.3408801227
 11
76.5946743245
 21
208.7590027528
  0
LINE
  5
24E
100
AcDbEntity
  8
0
100
AcDbLine
 62
7
  6
CONTINUOUS
 10
74.6546064204
 20
170.1487908275
 11
75.482844834
 21
169.820622706
  0
LINE
  5
24F
100
AcDbEntity
  8
0
100
AcDbLine
 62
7
  6
CONTINUOUS
 10
194.6759312347
 20
110.1447238147
 11
188.665498571
 21
113.6147702281
  0
LINE
  5
250
100
AcDbEntity
  8
0
100
AcDbLine
 62
7
  6
CONTINUOUS
 10
203.7177162054
 20
105.2154775754
 11
205.4854905183
 21
104.1948756891
  0
LINE
  5
251
100
AcDbEntity
  8
0
100
AcDbLine
 62
7
  6
CONTINUOUS
 10
72.7094435753
 20
182.4552211495
 11
179.4830120725
 21
120.810867217
  0
LINE
  5
252
100
AcDbEntity
  8
0
100
AcDbLine
 62
7
  6
CONTINUOUS
 10
179.4823931867
 20
120.8146352818
 11
194.3316974148
 21
112.2415794368
  0
LINE
  5
253
100
AcDbEntity
  8
0
100
AcDbLine
 62
7
  6
CONTINUOUS
 10
40.8795689592
 20
200.8869962851
 11
72.6995065908
 21
182.5161623317
  0
LINE
  5
254
100
AcDbEntity
  8
0
100
AcDbLine
 62
7
  6
CONTINUOUS
 10
182.2872688311
 20
108.1538647282
 11
182.2539882131
 21
108.1785249821
  0
LINE
  5
255
100
AcDbEntity
  8
0
100
AcDbLine
 62
7
  6
CONTINUOUS
 10
102.7859628572
 20
255.1596869222
 11
102.7859628572
 21
278.1037900963
  0
LINE
  5
256
100
AcDbEntity
  8
0
100
AcDbLine
 62
7
  6
CONTINUOUS
 10
104.8280984808
 20
252.220312214
 11
104.8280984808
 21
253.4450658397
  0
LINE
  5
257
100
AcDbEntity
  8
0
100
AcDbLine
 62
7
  6
CONTINUOUS
 10
105.0494276563
 20
250.9955899505
 11
105.0494276563
 21
247.2396788317
  0
LINE
  5
258
100
AcDbEntity
  8
0
100
AcDbLine
 62
7
  6
CONTINUOUS
 10
105.9280984808
 20
248.4644010952
 11
105.9280984808
 21
252.220312214
  0
LINE
  5
259
100
AcDbEntity
  8
0
100
AcDbLine
 62
7
  6
CONTINUOUS
 10
72.6173693034
 20
182.494916413
 11
72.7094435753
 21
182.4552211495
  0
LINE
  5
25A
100
AcDbEntity
  8
0
100
AcDbLine
 62
7
  6
CONTINUOUS
 10
194.3316974148
 20
121.9931067475
 11
179.4823931867
 21
130.5661625924
  0
LINE
  5
25B
100
AcDbEntity
  8
0
100
AcDbLine
 62
7
  6
CONTINUOUS
 10
179.4830120725
 20
130.5706452807
 11
40.8895059437
 21
210.5858331667
  0
LINE
  5
25C
100
AcDbEntity
  8
0
100
AcDbLine
 62
7
  6
CONTINUOUS
 10
188.665498571
 20
127.9574933876
 11
194.6759312347
 21
124.4874469741
  0
LINE
  5
25D
100
AcDbEntity
  8
0
100
AcDbLine
 62
7
  6
CONTINUOUS
 10
77.0437277675
 20
209.1736993123
 11
77.1189055734
 21
209.1026515301
  0
LINE
  5
25E
100
AcDbEntity
  8
0
100
AcDbLine
 62
7
  6
CONTINUOUS
 10
77.0437225906
 20
209.1736835171
 11
77.1189055734
 21
209.1026515301
  0
LINE
  5
25F
100
AcDbEntity
  8
0
100
AcDbLine
 62
7
  6
CONTINUOUS
 10
214.4675338099
 20
123.8351290617
 11
213.7604240847
 21
124.2433698162
  0
LINE
  5
260
100
AcDbEntity
  8
0
100
AcDbLine
 62
7
  6
CONTINUOUS
 10
181.417380012
 20
144.5872006123
 11
188.665498571
 21
140.4025920797
  0
LINE
  5
261
100
AcDbEntity
  8
0
100
AcDbLine
 62
7
  6
CONTINUOUS
 10
42.8261299585
 20
224.6074889254
 11
181.4196360874
 21
144.5923010394
  0
LINE
  5
262
100
AcDbEntity
  8
0
100
AcDbLine
 62
7
  6
CONTINUOUS
 10
236.0772579764
 20
113.0910722559
 11
215.2175210846
 21
125.1341745142
  0
LINE
  5
263
100
AcDbEntity
  8
0
100
AcDbLine
 62
7
  6
CONTINUOUS
 10
182.2539882131
 20
146.4026160578
 11
188.665498571
 21
142.7010125683
  0
LINE
  5
264
100
AcDbEntity
  8
0
100
AcDbLine
 62
7
  6
CONTINUOUS
 10
43.6629072024
 20
226.4228604209
 11
182.2564133312
 21
146.4076725349
  0
LINE
  5
265
100
AcDbEntity
  8
0
100
AcDbLine
 62
7
  6
CONTINUOUS
 10
182.6063484571
 20
146.7617909515
 11
75.8327799599
 21
208.406144884
  0
LINE
  5
266
100
AcDbEntity
  8
0
100
AcDbLine
 62
7
  6
CONTINUOUS
 10
44.0128423283
 20
226.7769788375
 11
75.5937660217
 21
208.5441365238
  0
LINE
  5
267
100
AcDbEntity
  8
0
100
AcDbLine
 62
7
  6
CONTINUOUS
 10
188.665498571
 20
143.3542750339
 11
182.7846874682
 21
146.7494860971
  0
LINE
  5
268
100
AcDbEntity
  8
0
100
AcDbLine
 62
7
  6
CONTINUOUS
 10
43.1776387664
 20
228.0231530477
 11
44.7448105255
 21
227.1183664797
  0
LINE
  5
269
100
AcDbEntity
  8
0
100
AcDbLine
 62
7
  6
CONTINUOUS
 10
77.1189055734
 20
209.1026515301
 11
45.2989679418
 21
227.4734854836
  0
LINE
  5
26A
100
AcDbEntity
  8
0
100
AcDbLine
 62
7
  6
CONTINUOUS
 10
188.665498571
 20
145.2812043217
 11
194.6759312347
 21
141.8111579083
  0
LINE
  5
26B
100
AcDbEntity
  8
0
100
AcDbLine
 62
7
  6
CONTINUOUS
 10
198.5925454885
 20
139.6403954516
 11
196.8425527745
 21
140.6507831041
  0
LINE
  5
26C
100
AcDbEntity
  8
0
100
AcDbLine
 62
7
  6
CONTINUOUS
 10
199.5925413251
 20
145.4139294349
 11
201.3425340392
 21
144.4035417824
  0
LINE
  5
26D
100
AcDbEntity
  8
0
100
AcDbLine
 62
7
  6
CONTINUOUS
 10
197.5043465836
 20
146.7101441923
 11
191.4939139198
 21
150.1801906057
  0
LINE
  5
26E
100
AcDbEntity
  8
0
100
AcDbLine
 62
7
  6
CONTINUOUS
 10
232.8596709228
 20
126.3289365498
 11
222.2530250456
 21
132.4525478676
  0
LINE
  5
26F
100
AcDbEntity
  8
0
100
AcDbLine
 62
7
  6
CONTINUOUS
 10
193.1625132633
 20
151.1435511354
 11
187.2817843111
 21
154.5387147701
  0
LINE
  5
270
100
AcDbEntity
  8
0
100
AcDbLine
 62
7
  6
CONTINUOUS
 10
187.1819537431
 20
154.6870158147
 11
80.4083852459
 21
216.3313697473
  0
LINE
  5
271
100
AcDbEntity
  8
0
100
AcDbLine
 62
7
  6
CONTINUOUS
 10
222.2530250456
 20
134.4624923366
 11
232.8596709228
 21
128.3388810188
  0
LINE
  5
272
100
AcDbEntity
  8
0
100
AcDbLine
 62
7
  6
CONTINUOUS
 10
187.3136612851
 20
155.1671315623
 11
80.5400927879
 21
216.8114854949
  0
LINE
  5
273
100
AcDbEntity
  8
0
100
AcDbLine
 62
7
  6
CONTINUOUS
 10
187.3168277351
 20
155.171760019
 11
193.7282759342
 21
151.4701924159
  0
LINE
  5
274
100
AcDbEntity
  8
0
100
AcDbLine
 62
7
  6
CONTINUOUS
 10
48.8345165675
 20
236.0128674627
 11
66.5122596962
 21
225.8068485997
  0
LINE
  5
275
100
AcDbEntity
  8
0
100
AcDbLine
 62
7
  6
CONTINUOUS
 10
48.6431233902
 20
236.5316170739
 11
48.8345165675
 21
236.4211186713
  0
LINE
  5
276
100
AcDbEntity
  8
0
100
AcDbLine
 62
7
  6
CONTINUOUS
 10
67.3793681782
 20
226.1227265727
 11
49.1880684861
 21
236.6252407482
  0
LINE
  5
277
100
AcDbEntity
  8
0
100
AcDbLine
 62
7
  6
CONTINUOUS
 10
243.0771392072
 20
125.2154964795
 11
237.1274305158
 21
128.6504846843
  0
LINE
  5
278
100
AcDbEntity
  8
0
100
AcDbLine
 62
7
  6
CONTINUOUS
 10
223.0452853915
 20
136.7806310341
 11
222.2174023154
 21
137.2585987379
  0
LINE
  5
279
100
AcDbEntity
  8
0
100
AcDbLine
 62
7
  6
CONTINUOUS
 10
236.3951901088
 20
130.3801017882
 11
225.7885442316
 21
136.503713106
  0
LINE
  5
27A
100
AcDbEntity
  8
0
100
AcDbLine
 62
7
  6
CONTINUOUS
 10
222.9673895901
 20
138.5576441904
 11
222.260279865
 21
138.9658849449
  0
LINE
  5
27B
100
AcDbEntity
  8
0
100
AcDbLine
 62
7
  6
CONTINUOUS
 10
51.6629525242
 20
238.9523092262
 11
65.8051470271
 21
230.7874941358
  0
LINE
  5
27C
100
AcDbEntity
  8
0
100
AcDbLine
 62
7
  6
CONTINUOUS
 10
199.935042437
 20
155.0536493368
 11
84.3226023754
 21
221.8010127008
  0
LINE
  5
27D
100
AcDbEntity
  8
0
100
AcDbLine
 62
7
  6
CONTINUOUS
 10
58.0269459384
 20
237.4010662288
 11
45.0610207526
 21
245.4285083646
  0
LINE
  5
27E
100
AcDbEntity
  8
0
100
AcDbLine
 62
7
  6
CONTINUOUS
 10
81.9086944429
 20
266.086600471
 11
81.9254926481
 21
266.0610522919
  0
LINE
  5
27F
100
AcDbEntity
  8
0
100
AcDbLine
 62
7
  6
CONTINUOUS
 10
113.7054325202
 20
235.9094146243
 11
113.6854617237
 21
235.946465937
  0
LINE
  5
280
100
AcDbEntity
  8
0
100
AcDbLine
 62
7
  6
CONTINUOUS
 10
72.6447946851
 20
182.5019053913
 11
58.5909570288
 21
178.946891136
  0
LINE
  5
281
100
AcDbEntity
  8
0
100
AcDbLine
 62
7
  6
CONTINUOUS
 10
80.4837454292
 20
215.4951088933
 11
66.5328647997
 21
219.6879369018
  0
LINE
  5
282
100
AcDbEntity
  8
0
100
AcDbLine
 62
7
  6
CONTINUOUS
 10
33.8921082139
 20
263.530607669
 11
41.6489351774
 21
259.0523028464
  0
LINE
  5
283
100
AcDbEntity
  8
0
100
AcDbLine
 62
7
  6
CONTINUOUS
 10
220.4574756805
 20
174.2669841057
 11
220.4194872087
 21
174.2834752954
  0
LINE
  5
284
100
AcDbEntity
  8
0
100
AcDbLine
 62
7
  6
CONTINUOUS
 10
86.6647102249
 20
239.0747855562
 11
85.068535283
 21
239.9963167408
  0
LINE
  5
285
100
AcDbEntity
  8
0
100
AcDbLine
 62
7
  6
CONTINUOUS
 10
84.1898467947
 20
241.4018421364
 11
83.9232309412
 21
241.5557693889
  0
LINE
  5
286
100
AcDbEntity
  8
0
100
AcDbLine
 62
7
  6
CONTINUOUS
 10
81.9935016138
 20
242.6698739311
 11
81.874490487
 21
242.7385834828
  0
LINE
  5
287
100
AcDbEntity
  8
0
100
AcDbLine
 62
7
  6
CONTINUOUS
 10
233.7172071946
 20
157.1772956767
 11
235.4849815074
 21
156.1566937904
  0
LINE
  5
288
100
AcDbEntity
  8
0
100
AcDbLine
 62
7
  6
CONTINUOUS
 10
81.9263996594
 20
245.5662996679
 11
86.6647102249
 21
242.830696675
  0
LINE
  5
289
100
AcDbEntity
  8
0
100
AcDbLine
 62
7
  6
CONTINUOUS
 10
102.7682576408
 20
278.1298030102
 11
102.7850558459
 21
278.1042548311
  0
LINE
  5
28A
100
AcDbEntity
  8
0
100
AcDbLine
 62
7
  6
CONTINUOUS
 10
113.6490851615
 20
235.9268570511
 11
113.6839084952
 21
235.911340308
  0
LINE
  5
28B
100
AcDbEntity
  8
0
100
AcDbLine
 62
7
  6
CONTINUOUS
 10
109.866575574
 20
236.5487444711
 11
225.4790156355
 21
169.801381107
  0
LINE
  5
28C
100
AcDbEntity
  8
0
100
AcDbLine
 62
7
  6
CONTINUOUS
 10
238.8423779114
 20
162.878508323
 11
236.0923541515
 21
164.4661993627
  0
LINE
  5
28D
100
AcDbEntity
  8
0
100
AcDbLine
 62
7
  6
CONTINUOUS
 10
226.8309354079
 20
170.5819076924
 11
113.6490851615
 21
235.9268570511
  0
LINE
  5
28E
100
AcDbEntity
  8
0
100
AcDbLine
 62
7
  6
CONTINUOUS
 10
113.6840874628
 20
235.9116506351
 11
226.8352767088
 21
170.5844141287
  0
LINE
  5
28F
100
AcDbEntity
  8
0
100
AcDbLine
 62
7
  6
CONTINUOUS
 10
237.8423468656
 20
167.4972924823
 11
240.5923706255
 21
165.9096014426
  0
LINE
  5
290
100
AcDbEntity
  8
0
100
AcDbLine
 62
7
  6
CONTINUOUS
 10
106.6231467443
 20
248.9497350351
 11
106.7046152129
 21
248.896918422
  0
LINE
  5
291
100
AcDbEntity
  8
0
100
AcDbLine
 62
7
  6
CONTINUOUS
 10
179.4830120725
 20
120.810867217
 11
181.4196360874
 21
109.0254189025
  0
LINE
  5
292
100
AcDbEntity
  8
0
100
AcDbLine
 62
7
  6
CONTINUOUS
 10
181.417380012
 20
109.0279142538
 11
179.4823931867
 21
120.8146352818
  0
LINE
  5
293
100
AcDbEntity
  8
0
100
AcDbLine
 62
7
  6
CONTINUOUS
 10
113.7054325202
 20
235.9094146243
 11
113.6479077539
 21
235.9210219188
  0
LINE
  5
294
100
AcDbEntity
  8
0
100
AcDbLine
 62
7
  6
CONTINUOUS
 10
113.7054325202
 20
235.9094146243
 11
113.6504984223
 21
235.9264225107
  0
LINE
  5
295
100
AcDbEntity
  8
0
100
AcDbLine
 62
7
  6
CONTINUOUS
 10
45.3919130931
 20
283.4493046078
 11
54.8476182372
 21
277.9901741995
  0
LINE
  5
296
100
AcDbEntity
  8
0
100
AcDbLine
 62
7
  6
CONTINUOUS
 10
233.9201441527
 20
174.674839838
 11
239.9305768164
 21
171.2047934246
  0
LINE
  5
297
100
AcDbEntity
  8
0
100
AcDbLine
 62
7
  6
CONTINUOUS
 10
105.9280984808
 20
249.1818339982
 11
106.6236311436
 21
248.7802771126
  0
LINE
  5
298
100
AcDbEntity
  8
0
100
AcDbLine
 62
7
  6
CONTINUOUS
 10
105.9280984808
 20
249.3509297936
 11
106.6231596699
 21
248.9496451073
  0
LINE
  5
299
100
AcDbEntity
  8
0
100
AcDbLine
 62
7
  6
CONTINUOUS
 10
241.9305428823
 20
171.4029049628
 11
235.9201102186
 21
174.8729513763
  0
LINE
  5
29A
100
AcDbEntity
  8
0
100
AcDbLine
 62
7
  6
CONTINUOUS
 10
105.0494099925
 20
253.4450446757
 11
104.782794139
 21
253.5989719281
  0
LINE
  5
29B
100
AcDbEntity
  8
0
100
AcDbLine
 62
7
  6
CONTINUOUS
 10
102.8530648116
 20
254.7130764703
 11
102.7340392952
 21
254.7817943297
  0
LINE
  5
29C
100
AcDbEntity
  8
0
100
AcDbLine
 62
7
  6
CONTINUOUS
 10
188.665498571
 20
95.4745568768
 11
188.665498571
 21
113.6147702281
  0
LINE
  5
29D
100
AcDbEntity
  8
0
100
AcDbLine
 62
7
  6
CONTINUOUS
 10
188.665498571
 20
127.9574933876
 11
188.665498571
 21
145.2812043217
  0
LINE
  5
29E
100
AcDbEntity
  8
0
100
AcDbLine
 62
7
  6
CONTINUOUS
 10
179.4823931867
 20
130.5661625924
 11
181.417380012
 21
144.5872006123
  0
LINE
  5
29F
100
AcDbEntity
  8
0
100
AcDbLine
 62
7
  6
CONTINUOUS
 10
181.4196360874
 20
144.5923010394
 11
179.4830120725
 21
130.5706452807
  0
LINE
  5
2A0
100
AcDbEntity
  8
0
100
AcDbLine
 62
7
  6
CONTINUOUS
 10
57.6145516746
 20
277.6582335513
 11
81.9105283709
 21
266.0857270033
  0
LINE
  5
2A1
100
AcDbEntity
  8
0
100
AcDbLine
 62
7
  6
CONTINUOUS
 10
194.3316974148
 20
112.2415794368
 11
194.6759312347
 21
110.1447238147
  0
LINE
  5
2A2
100
AcDbEntity
  8
0
100
AcDbLine
 62
7
  6
CONTINUOUS
 10
194.6759312347
 20
141.8111579083
 11
194.6759312347
 21
124.4874469741
  0
LINE
  5
2A3
100
AcDbEntity
  8
0
100
AcDbLine
 62
7
  6
CONTINUOUS
 10
194.6759312347
 20
110.1447238147
 11
194.6759312347
 21
92.0045104634
  0
LINE
  5
2A4
100
AcDbEntity
  8
0
100
AcDbLine
 62
7
  6
CONTINUOUS
 10
216.6401440712
 20
174.9043905385
 11
191.0961708726
 21
160.1566587683
  0
LINE
  5
2A5
100
AcDbEntity
  8
0
100
AcDbLine
 62
7
  6
CONTINUOUS
 10
67.3121408786
 20
294.8801460153
 11
76.8728812496
 21
289.3603748623
  0
LINE
  5
2A6
100
AcDbEntity
  8
0
100
AcDbLine
 62
7
  6
CONTINUOUS
 10
194.6759312347
 20
124.4874469741
 11
194.3316974148
 21
121.9931067475
  0
LINE
  5
2A7
100
AcDbEntity
  8
0
100
AcDbLine
 62
7
  6
CONTINUOUS
 10
191.4939139198
 20
150.1801906057
 11
199.935042437
 21
155.0536493368
  0
LINE
  5
2A8
100
AcDbEntity
  8
0
100
AcDbLine
 62
7
  6
CONTINUOUS
 10
225.4790156355
 20
169.801381107
 11
233.9201441527
 21
174.674839838
  0
LINE
  5
2A9
100
AcDbEntity
  8
0
100
AcDbLine
 62
7
  6
CONTINUOUS
 10
239.9305768164
 20
171.2047934246
 11
197.5043465836
 21
146.7101441923
  0
LINE
  5
2AA
100
AcDbEntity
  8
0
100
AcDbLine
 62
7
  6
CONTINUOUS
 10
79.8883343227
 20
289.027823992
 11
102.7700915687
 21
278.1289295425
  0
LINE
  5
2AB
100
AcDbEntity
  8
0
100
AcDbLine
 62
7
  6
CONTINUOUS
 10
221.5207846386
 20
133.6648420725
 11
221.5207846386
 21
135.4831027213
  0
LINE
  5
2AC
100
AcDbEntity
  8
0
100
AcDbLine
 62
7
  6
CONTINUOUS
 10
222.2530250456
 20
132.4525478676
 11
222.2530250456
 21
134.4624923366
  0
LINE
  5
2AD
100
AcDbEntity
  8
0
100
AcDbLine
 62
7
  6
CONTINUOUS
 10
232.8596709228
 20
128.3388810188
 11
232.8596709228
 21
126.3289365498
  0
LINE
  5
2AE
100
AcDbEntity
  8
0
100
AcDbLine
 62
7
  6
CONTINUOUS
 10
237.1274305158
 20
127.5412307547
 11
237.1274305158
 21
129.3594914035
  0
LINE
  5
2AF
100
AcDbEntity
  8
0
100
AcDbLine
 62
7
  6
CONTINUOUS
 10
196.8425527745
 20
96.4831718095
 11
198.5925454885
 21
99.5142649291
  0
LINE
  5
2B0
100
AcDbEntity
  8
0
100
AcDbLine
 62
7
  6
CONTINUOUS
 10
236.0923893608
 20
164.4662603483
 11
237.8423820748
 21
167.4973534679
  0
LINE
  5
2B1
100
AcDbEntity
  8
0
100
AcDbLine
 62
7
  6
CONTINUOUS
 10
243.1032259851
 20
150.1511938153
 11
242.7589921653
 21
152.2480494374
  0
LINE
  5
2B2
100
AcDbEntity
  8
0
100
AcDbLine
 62
7
  6
CONTINUOUS
 10
242.7589921653
 20
125.3991746045
 11
242.7589921653
 21
137.905326278
  0
LINE
  5
2B3
100
AcDbEntity
  8
0
100
AcDbLine
 62
7
  6
CONTINUOUS
 10
242.7589921653
 20
152.2480494374
 11
242.7589921653
 21
169.5717603716
  0
LINE
  5
2B4
100
AcDbEntity
  8
0
100
AcDbLine
 62
7
  6
CONTINUOUS
 10
244.5269283961
 20
121.6027951838
 11
244.5269254521
 21
122.0110410375
  0
LINE
  5
2B5
100
AcDbEntity
  8
0
100
AcDbLine
 62
7
  6
CONTINUOUS
 10
240.5923706255
 20
165.9096014426
 11
238.8423779114
 21
162.878508323
  0
LINE
  5
2B6
100
AcDbEntity
  8
0
100
AcDbLine
 62
7
  6
CONTINUOUS
 10
201.3425340392
 20
97.9265129038
 11
199.5925413251
 21
94.8954197842
  0
LINE
  5
2B7
100
AcDbEntity
  8
0
100
AcDbLine
 62
7
  6
CONTINUOUS
 10
239.9307534544
 20
122.2559987798
 11
240.9525694684
 21
122.6282744226
  0
LINE
  5
2B8
100
AcDbEntity
  8
0
100
AcDbLine
 62
7
  6
CONTINUOUS
 10
242.7589921653
 20
137.905326278
 11
243.1032259851
 21
140.3996665046
  0
LINE
  5
2B9
100
AcDbEntity
  8
0
100
AcDbLine
 62
7
  6
CONTINUOUS
 10
197.5043465836
 20
90.3714774104
 11
236.5331942566
 21
112.9046586156
  0
LINE
  5
2BA
100
AcDbEntity
  8
0
100
AcDbLine
 62
7
  6
CONTINUOUS
 10
239.9307534544
 20
113.6418982791
 11
239.5771985918
 21
113.4377674478
  0
ARC
  5
2BB
100
AcDbEntity
  8
0
100
AcDbCircle
 62
7
  6
CONTINUOUS
 10
134.1992282183
 20
179.8867619502
 40
65.1221606142
100
AcDbArc
 50
154.3737468961
 51
156.1325252575
  0
ARC
  5
2BC
100
AcDbEntity
  8
0
100
AcDbCircle
 62
7
  6
CONTINUOUS
 10
134.0364508712
 20
179.9617925322
 40
64.9429443627
100
AcDbArc
 50
154.3713199464
 51
156.1349522072
  0
ARC
  5
2BD
100
AcDbEntity
  8
0
100
AcDbCircle
 62
7
  6
CONTINUOUS
 10
133.4174200054
 20
180.6675143991
 40
64.049967477
100
AcDbArc
 50
141.5865786331
 51
145.6453109003
  0
ARC
  5
2BE
100
AcDbEntity
  8
0
100
AcDbCircle
 62
7
  6
CONTINUOUS
 10
132.1138334869
 20
181.6886204423
 40
62.3941005479
100
AcDbArc
 50
141.2651362317
 51
141.5775117936
  0
ARC
  5
2BF
100
AcDbEntity
  8
0
100
AcDbCircle
 62
7
  6
CONTINUOUS
 10
131.462762558
 20
182.215111377
 40
61.556798331
100
AcDbArc
 50
139.9664351172
 51
141.2682103439
  0
ARC
  5
2C0
100
AcDbEntity
  8
0
100
AcDbCircle
 62
7
  6
CONTINUOUS
 10
107.4085837149
 20
187.0911029454
 40
35.0629648143
100
AcDbArc
 50
177.2163081056
 51
179.023717139
  0
ARC
  5
2C1
100
AcDbEntity
  8
0
100
AcDbCircle
 62
7
  6
CONTINUOUS
 10
104.736172577
 20
187.1333482138
 40
32.3902219907
100
AcDbArc
 50
179.017888876
 51
182.8256145499
  0
ARC
  5
2C2
100
AcDbEntity
  8
0
100
AcDbCircle
 62
7
  6
CONTINUOUS
 10
101.7052320748
 20
187.0093002042
 40
29.3568624926
100
AcDbArc
 50
182.8754159373
 51
185.3155627668
  0
ARC
  5
2C3
100
AcDbEntity
  8
0
100
AcDbCircle
 62
7
  6
CONTINUOUS
 10
99.2153524047
 20
186.7795491919
 40
26.8564060653
100
AcDbArc
 50
185.3196206621
 51
189.1342031275
  0
ARC
  5
2C4
100
AcDbEntity
  8
0
100
AcDbCircle
 62
7
  6
CONTINUOUS
 10
97.4595393836
 20
186.5222181383
 40
25.0820195962
100
AcDbArc
 50
189.190541741
 51
189.3315904866
  0
ARC
  5
2C5
100
AcDbEntity
  8
0
100
AcDbCircle
 62
7
  6
CONTINUOUS
 10
76.0216362278
 20
184.3065603782
 40
14.6809937771
100
AcDbArc
 50
221.3553501603
 51
223.1061247899
  0
ARC
  5
2C6
100
AcDbEntity
  8
0
100
AcDbCircle
 62
7
  6
CONTINUOUS
 10
75.8740490061
 20
184.1691719308
 40
14.4793573003
100
AcDbArc
 50
223.1082939386
 51
223.9917993495
  0
ARC
  5
2C7
100
AcDbEntity
  8
0
100
AcDbCircle
 62
7
  6
CONTINUOUS
 10
85.0485674153
 20
180.0762923439
 40
14.0247856269
100
AcDbArc
 50
222.1216417409
 51
223.7541279602
  0
ARC
  5
2C8
100
AcDbEntity
  8
0
100
AcDbCircle
 62
7
  6
CONTINUOUS
 10
84.8852940417
 20
179.9200547905
 40
13.7988025219
100
AcDbArc
 50
223.7543836241
 51
225.404653248
  0
ARC
  5
2C9
100
AcDbEntity
  8
0
100
AcDbCircle
 62
7
  6
CONTINUOUS
 10
84.8354500512
 20
179.8716281931
 40
13.7293093655
100
AcDbArc
 50
223.7522613545
 51
227.0613751573
  0
ARC
  5
2CA
100
AcDbEntity
  8
0
100
AcDbCircle
 62
7
  6
CONTINUOUS
 10
84.743679157
 20
179.7765178291
 40
13.597165148
100
AcDbArc
 50
225.4049269203
 51
227.0714605804
  0
ARC
  5
2CB
100
AcDbEntity
  8
0
100
AcDbCircle
 62
7
  6
CONTINUOUS
 10
70.6980194709
 20
190.0848864492
 40
7.8288910746
100
AcDbArc
 50
284.3985581616
 51
284.8123396638
  0
ARC
  5
2CC
100
AcDbEntity
  8
0
100
AcDbCircle
 62
7
  6
CONTINUOUS
 10
105.914839212
 20
196.2163921312
 40
65.1221606138
100
AcDbArc
 50
154.3737468961
 51
156.1325252575
  0
ARC
  5
2CD
100
AcDbEntity
  8
0
100
AcDbCircle
 62
7
  6
CONTINUOUS
 10
102.2165132397
 20
198.3326264855
 40
64.9429443629
100
AcDbArc
 50
154.3713199464
 51
156.1349522072
  0
ARC
  5
2CE
100
AcDbEntity
  8
0
100
AcDbCircle
 62
7
  6
CONTINUOUS
 10
105.7520618652
 20
196.291422713
 40
64.9429443627
100
AcDbArc
 50
154.3713199464
 51
156.1349522072
  0
ARC
  5
2CF
100
AcDbEntity
  8
0
100
AcDbCircle
 62
7
  6
CONTINUOUS
 10
92.5717939895
 20
212.4264781956
 40
45.9176268941
100
AcDbArc
 50
247.0328798681
 51
247.8507077679
  0
ARC
  5
2D0
100
AcDbEntity
  8
0
100
AcDbCircle
 62
7
  6
CONTINUOUS
 10
84.8723874021
 20
193.5570464516
 40
25.5378380465
100
AcDbArc
 50
247.8889596926
 51
248.4170065696
  0
ARC
  5
2D1
100
AcDbEntity
  8
0
100
AcDbCircle
 62
7
  6
CONTINUOUS
 10
67.8963965531
 20
253.5390178796
 40
20.2889995223
100
AcDbArc
 50
264.7080697438
 51
264.8226151373
  0
ARC
  5
2D2
100
AcDbEntity
  8
0
100
AcDbCircle
 62
7
  6
CONTINUOUS
 10
88.7559599431
 20
265.582217408
 40
20.2889965508
100
AcDbArc
 50
264.7080756383
 51
264.8226120737
  0
ARC
  5
2D3
100
AcDbEntity
  8
0
100
AcDbCircle
 62
7
  6
CONTINUOUS
 10
109.2787638283
 20
220.2636367165
 40
16.2957275062
100
AcDbArc
 50
87.8557281878
 51
88.2252448576
  0
ARC
  5
2D4
100
AcDbEntity
  8
0
100
AcDbCircle
 62
7
  6
CONTINUOUS
 10
109.3038591334
 20
220.7907774375
 40
15.7680178454
100
AcDbArc
 50
84.7529466064
 51
87.8751839693
  0
ARC
  5
2D5
100
AcDbEntity
  8
0
100
AcDbCircle
 62
7
  6
CONTINUOUS
 10
109.3402744412
 20
221.2040886621
 40
15.3531084289
100
AcDbArc
 50
83.9517178539
 51
84.7472190649
  0
ARC
  5
2D6
100
AcDbEntity
  8
0
100
AcDbCircle
 62
7
  6
CONTINUOUS
 10
71.0998258197
 20
216.4218453993
 40
9.5201457832
100
AcDbArc
 50
329.6955131265
 51
330.5372930933
  0
ARC
  5
2D7
100
AcDbEntity
  8
0
100
AcDbCircle
 62
7
  6
CONTINUOUS
 10
72.63822411
 20
215.0876324308
 40
7.47858673
100
AcDbArc
 50
312.1202516292
 51
313.3290768449
  0
ARC
  5
2D8
100
AcDbEntity
  8
0
100
AcDbCircle
 62
7
  6
CONTINUOUS
 10
76.260897157
 20
207.6786683495
 40
0.8629957715
100
AcDbArc
 50
147.032630147
 51
154.3653983411
  0
ARC
  5
2D9
100
AcDbEntity
  8
0
100
AcDbCircle
 62
7
  6
CONTINUOUS
 10
47.9720289707
 20
224.0107599825
 40
0.8578926178
100
AcDbArc
 50
142.0165098764
 51
154.3841884889
  0
ARC
  5
2DA
100
AcDbEntity
  8
0
100
AcDbCircle
 62
7
  6
CONTINUOUS
 10
47.9031503874
 20
224.0647760828
 40
0.7703599932
100
AcDbArc
 50
135.4052457776
 51
142.0302395909
  0
ARC
  5
2DB
100
AcDbEntity
  8
0
100
AcDbCircle
 62
7
  6
CONTINUOUS
 10
241.2770266259
 20
118.0978393549
 40
65.4589905847
100
AcDbArc
 50
154.3748244016
 51
154.6695435922
  0
ARC
  5
2DC
100
AcDbEntity
  8
0
100
AcDbCircle
 62
7
  6
CONTINUOUS
 10
241.132404549
 20
118.1662887193
 40
65.2989878954
100
AcDbArc
 50
154.6695378382
 51
154.9622792216
  0
ARC
  5
2DD
100
AcDbEntity
  8
0
100
AcDbCircle
 62
7
  6
CONTINUOUS
 10
241.1525843084
 20
118.3390071745
 40
65.2299040183
100
AcDbArc
 50
144.5142069658
 51
145.6262038416
  0
ARC
  5
2DE
100
AcDbEntity
  8
0
100
AcDbCircle
 62
7
  6
CONTINUOUS
 10
240.977202024
 20
118.2387834102
 40
65.1276890221
100
AcDbArc
 50
154.9622777319
 51
155.2555347218
  0
ARC
  5
2DF
100
AcDbEntity
  8
0
100
AcDbCircle
 62
7
  6
CONTINUOUS
 10
240.8143245724
 20
118.31384627
 40
64.9483471778
100
AcDbArc
 50
155.2555302376
 51
155.5493268662
  0
ARC
  5
2E0
100
AcDbEntity
  8
0
100
AcDbCircle
 62
7
  6
CONTINUOUS
 10
240.8072108847
 20
118.3187250268
 40
64.93985541
100
AcDbArc
 50
154.376219342
 51
156.1399082845
  0
ARC
  5
2E1
100
AcDbEntity
  8
0
100
AcDbCircle
 62
7
  6
CONTINUOUS
 10
240.6439289033
 20
118.3913210339
 40
64.7611653863
100
AcDbArc
 50
155.5493253178
 51
155.8436851375
  0
ARC
  5
2E2
100
AcDbEntity
  8
0
100
AcDbCircle
 62
7
  6
CONTINUOUS
 10
240.6850658081
 20
118.6718445493
 40
64.6560101943
100
AcDbArc
 50
143.7699054639
 51
144.5138711088
  0
ARC
  5
2E3
100
AcDbEntity
  8
0
100
AcDbCircle
 62
7
  6
CONTINUOUS
 10
240.4631027622
 20
118.4724151628
 40
64.5629878118
100
AcDbArc
 50
155.8436797119
 51
156.1361674472
  0
ARC
  5
2E4
100
AcDbEntity
  8
0
100
AcDbCircle
 62
7
  6
CONTINUOUS
 10
240.0935428226
 20
119.106652524
 40
63.9218738821
100
AcDbArc
 50
142.5212545631
 51
143.7709186402
  0
ARC
  5
2E5
100
AcDbEntity
  8
0
100
AcDbCircle
 62
7
  6
CONTINUOUS
 10
239.4851221156
 20
119.5716087434
 40
63.1561333743
100
AcDbArc
 50
141.8903863908
 51
142.520143751
  0
ARC
  5
2E6
100
AcDbEntity
  8
0
100
AcDbCircle
 62
7
  6
CONTINUOUS
 10
238.4660447442
 20
120.3799020439
 40
61.8554389372
100
AcDbArc
 50
139.9796259327
 51
141.8969155588
  0
ARC
  5
2E7
100
AcDbEntity
  8
0
100
AcDbCircle
 62
7
  6
CONTINUOUS
 10
218.9607382119
 20
125.1069474048
 40
39.8540193156
100
AcDbArc
 50
172.1203479388
 51
175.8651038069
  0
ARC
  5
2E8
100
AcDbEntity
  8
0
100
AcDbCircle
 62
7
  6
CONTINUOUS
 10
215.8297447648
 20
125.3650422097
 40
36.7125794284
100
AcDbArc
 50
175.9145188442
 51
177.2329698179
  0
ARC
  5
2E9
100
AcDbEntity
  8
0
100
AcDbCircle
 62
7
  6
CONTINUOUS
 10
208.7647532922
 20
125.3811394671
 40
29.6432672946
100
AcDbArc
 50
182.9198276776
 51
184.4402467416
  0
ARC
  5
2EA
100
AcDbEntity
  8
0
100
AcDbCircle
 62
7
  6
CONTINUOUS
 10
216.0906794859
 20
159.3466198306
 40
15.5674705951
100
AcDbArc
 50
83.1610911757
 51
87.9772859157
  0
ARC
  5
2EB
100
AcDbEntity
  8
0
100
AcDbCircle
 62
7
  6
CONTINUOUS
 10
216.1629079745
 20
159.9744907677
 40
14.9354665093
100
AcDbArc
 50
81.5026157893
 51
83.1493860942
  0
ARC
  5
2EC
100
AcDbEntity
  8
0
100
AcDbCircle
 62
7
  6
CONTINUOUS
 10
216.2429731321
 20
160.4862505773
 40
14.417494159
100
AcDbArc
 50
78.1402119694
 51
81.5167889948
  0
ARC
  5
2ED
100
AcDbEntity
  8
0
100
AcDbCircle
 62
7
  6
CONTINUOUS
 10
191.8659721846
 20
118.472139179
 40
14.0842629143
100
AcDbArc
 50
222.1233362104
 51
222.9304585121
  0
ARC
  5
2EE
100
AcDbEntity
  8
0
100
AcDbCircle
 62
7
  6
CONTINUOUS
 10
216.3214093517
 20
160.8622683878
 40
14.0333830287
100
AcDbArc
 50
76.0782241584
 51
78.1381039292
  0
ARC
  5
2EF
100
AcDbEntity
  8
0
100
AcDbCircle
 62
7
  6
CONTINUOUS
 10
191.7794217272
 20
118.39162979
 40
13.966056555
100
AcDbArc
 50
222.9304706553
 51
223.7490065687
  0
ARC
  5
2F0
100
AcDbEntity
  8
0
100
AcDbCircle
 62
7
  6
CONTINUOUS
 10
191.7118502398
 20
118.3286417964
 40
13.8737035464
100
AcDbArc
 50
222.0968129061
 51
225.3885887704
  0
ARC
  5
2F1
100
AcDbEntity
  8
0
100
AcDbCircle
 62
7
  6
CONTINUOUS
 10
191.6975872922
 20
118.3133056594
 40
13.8527801492
100
AcDbArc
 50
223.7490441523
 51
224.572043527
  0
ARC
  5
2F2
100
AcDbEntity
  8
0
100
AcDbCircle
 62
7
  6
CONTINUOUS
 10
191.6210834073
 20
118.2379435532
 40
13.7453916422
100
AcDbArc
 50
224.572065434
 51
225.4062899832
  0
ARC
  5
2F3
100
AcDbEntity
  8
0
100
AcDbCircle
 62
7
  6
CONTINUOUS
 10
216.4051343248
 20
161.1965098766
 40
13.6888158993
100
AcDbArc
 50
72.9330360007
 51
76.0817738597
  0
ARC
  5
2F4
100
AcDbEntity
  8
0
100
AcDbCircle
 62
7
  6
CONTINUOUS
 10
191.5504004323
 20
118.1662703318
 40
13.6447281761
100
AcDbArc
 50
225.4063470867
 51
226.2307054145
  0
ARC
  5
2F5
100
AcDbEntity
  8
0
100
AcDbCircle
 62
7
  6
CONTINUOUS
 10
191.5183510817
 20
118.1333155439
 40
13.5987600351
100
AcDbArc
 50
225.3910019735
 51
227.0574053385
  0
ARC
  5
2F6
100
AcDbEntity
  8
0
100
AcDbCircle
 62
7
  6
CONTINUOUS
 10
191.4845552924
 20
118.0975373643
 40
13.5495451772
100
AcDbArc
 50
226.2307153877
 51
227.0729568098
  0
ARC
  5
2F7
100
AcDbEntity
  8
0
100
AcDbCircle
 62
7
  6
CONTINUOUS
 10
238.6947783109
 20
121.6048078365
 40
5.8321370162
100
AcDbArc
 50
359.9801512262
 51
3.995519612
  0
ARC
  5
2F8
100
AcDbEntity
  8
0
100
AcDbCircle
 62
7
  6
CONTINUOUS
 10
237.0729653697
 20
118.5797642626
 40
5.7052145629
100
AcDbArc
 50
295.8735678615
 51
300.0600964364
  0
ARC
  5
2F9
100
AcDbEntity
  8
0
100
AcDbCircle
 62
7
  6
CONTINUOUS
 10
239.1394495841
 20
121.6298296923
 40
5.3868063982
100
AcDbArc
 50
4.0595818659
 51
4.3766735977
  0
ARC
  5
2FA
100
AcDbEntity
  8
0
100
AcDbCircle
 62
7
  6
CONTINUOUS
 10
181.2958233297
 20
150.5273651561
 40
3.9871644265
100
AcDbArc
 50
290.9782616078
 51
291.5286938902
  0
ARC
  5
2FB
100
AcDbEntity
  8
0
100
AcDbCircle
 62
7
  6
CONTINUOUS
 10
183.41156953
 20
153.9629351885
 40
3.8392824678
100
AcDbArc
 50
9.013072638
 51
10.8709707795
  0
ARC
  5
2FC
100
AcDbEntity
  8
0
100
AcDbCircle
 62
7
  6
CONTINUOUS
 10
181.3483113231
 20
150.3889331691
 40
3.8391168382
100
AcDbArc
 50
289.128579344
 51
290.9864946042
  0
ARC
  5
2FD
100
AcDbEntity
  8
0
100
AcDbCircle
 62
7
  6
CONTINUOUS
 10
182.8538205226
 20
146.2036045979
 40
0.614555679
100
AcDbArc
 50
127.9894325558
 51
130.6232474291
  0
ARC
  5
2FE
100
AcDbEntity
  8
0
100
AcDbCircle
 62
7
  6
CONTINUOUS
 10
187.7842960468
 20
154.752534664
 40
0.6097015583
100
AcDbArc
 50
169.9097653995
 51
172.0138085831
  0
ARC
  5
2FF
100
AcDbEntity
  8
0
100
AcDbCircle
 62
7
  6
CONTINUOUS
 10
187.5357502408
 20
154.7546581031
 40
0.3602047209
100
AcDbArc
 50
186.38220879
 51
190.8237490707
  0
SPLINE
  5
300
100
AcDbEntity
  8
0
100
AcDbSpline
 62
7
  6
CONTINUOUS
 70
0
 71
3
 72
15
 73
11
 74
0
 42
0.0000001
 43
0.0000001
 44
0.0000000001
 40
0.0
 40
0.0
 40
0.0
 40
0.0
 40
0.1141570308
 40
0.2373234948
 40
0.3669733493
 40
0.499997873
 40
0.633024052
 40
0.7626747981
 40
0.8858462081
 40
1.0
 40
1.0
 40
1.0
 40
1.0
 10
239.9307534544
 20
113.6418982791
 30
0.0
 10
240.2454071567
 20
113.8235625944
 30
0.0
 10
240.8668899387
 20
114.2592074669
 30
0.0
 10
241.7219955142
 20
115.0592629562
 30
0.0
 10
242.5100474243
 20
116.0049501694
 30
0.0
 10
243.2013316144
 20
117.0608618241
 30
0.0
 10
243.7701293463
 20
118.187492821
 30
0.0
 10
244.1951042849
 20
119.3428319524
 30
0.0
 10
244.4603795079
 20
120.4834209383
 30
0.0
 10
244.5269182724
 20
121.2394674813
 30
0.0
 10
244.5269149771
 20
121.60278743
 30
0.0
  0
SPLINE
  5
301
100
AcDbEntity
  8
0
100
AcDbSpline
 62
7
  6
CONTINUOUS
 70
0
 71
3
 72
17
 73
13
 74
0
 42
0.0000001
 43
0.0000001
 44
0.0000000001
 40
0.0
 40
0.0
 40
0.0
 40
0.0
 40
0.1286890167
 40
0.2702764127
 40
0.4174313733
 40
0.5617800349
 40
0.695451499
 40
0.8127141218
 40
0.8646787142
 40
0.9125122476
 40
0.9571409188
 40
1.0
 40
1.0
 40
1.0
 40
1.0
 10
225.7885442316
 20
136.503713106
 30
0.0
 10
225.6034838614
 20
136.6105553435
 30
0.0
 10
225.184480147
 20
136.7834282049
 30
0.0
 10
224.5015946941
 20
136.9200640338
 30
0.0
 10
223.7793042032
 20
136.9400533238
 30
0.0
 10
223.0765733847
 20
136.8413041352
 30
0.0
 10
222.4503587286
 20
136.6321567972
 30
0.0
 10
222.0148642859
 20
136.3670237375
 30
0.0
 10
221.7592544626
 20
136.1105376903
 30
0.0
 10
221.6234877334
 20
135.9108174742
 30
0.0
 10
221.5398395026
 20
135.7001607487
 30
0.0
 10
221.5207875202
 20
135.5542702218
 30
0.0
 10
221.5207946149
 20
135.4831027217
 30
0.0
  0
SPLINE
  5
302
100
AcDbEntity
  8
0
100
AcDbSpline
 62
7
  6
CONTINUOUS
 70
0
 71
3
 72
11
 73
7
 74
0
 42
0.0000001
 43
0.0000001
 44
0.0000000001
 40
0.0
 40
0.0
 40
0.0
 40
0.0
 40
0.2662299508
 40
0.5190218853
 40
0.7620774572
 40
1.0
 40
1.0
 40
1.0
 40
1.0
 10
224.3326192958
 20
136.9134257793
 30
0.0
 10
224.2596324642
 20
137.0920734256
 30
0.0
 10
224.0939339971
 20
137.4315385385
 30
0.0
 10
223.7774306674
 20
137.8871314512
 30
0.0
 10
223.4032844353
 20
138.2688229408
 30
0.0
 10
223.11673903
 20
138.4713993489
 30
0.0
 10
222.9673849789
 20
138.5576362158
 30
0.0
  0
SPLINE
  5
303
100
AcDbEntity
  8
0
100
AcDbSpline
 62
7
  6
CONTINUOUS
 70
0
 71
3
 72
23
 73
19
 74
0
 42
0.0000001
 43
0.0000001
 44
0.0000000001
 40
0.0
 40
0.0
 40
0.0
 40
0.0
 40
0.0428143019
 40
0.0873961152
 40
0.135178868
 40
0.1870881092
 40
0.2435348785
 40
0.3044926302
 40
0.3695909219
 40
0.4381992925
 40
0.5094972386
 40
0.5825332086
 40
0.6562765409
 40
0.7296653287
 40
0.8016532595
 40
0.8712570838
 40
0.9376068536
 40
1.0
 40
1.0
 40
1.0
 40
1.0
 10
213.7604287286
 20
124.2433778361
 30
0.0
 10
213.5508736792
 20
124.3643746886
 30
0.0
 10
213.1536178715
 20
124.6684088867
 30
0.0
 10
212.6755679462
 20
125.2729083913
 30
0.0
 10
212.3183444077
 20
126.0121790546
 30
0.0
 10
212.0870413271
 20
126.8681813109
 30
0.0
 10
211.9840552205
 20
127.8228654583
 30
0.0
 10
212.0103632427
 20
128.8566081039
 30
0.0
 10
212.1648577553
 20
129.9480793809
 30
0.0
 10
212.4440797416
 20
131.0744706495
 30
0.0
 10
212.8420465036
 20
132.2120152869
 30
0.0
 10
213.3502807186
 20
133.336560222
 30
0.0
 10
213.9579479206
 20
134.4241449614
 30
0.0
 10
214.652088298
 20
135.4515728737
 30
0.0
 10
215.4178907006
 20
136.3969246585
 30
0.0
 10
216.2391423033
 20
137.2401296975
 30
0.0
 10
217.0982801693
 20
137.9631503051
 30
0.0
 10
217.7049611809
 20
138.3685815215
 30
0.0
 10
218.0103519748
 20
138.5448979262
 30
0.0
  0
SPLINE
  5
304
100
AcDbEntity
  8
0
100
AcDbSpline
 62
7
  6
CONTINUOUS
 70
0
 71
3
 72
14
 73
10
 74
0
 42
0.0000001
 43
0.0000001
 44
0.0000000001
 40
0.0
 40
0.0
 40
0.0
 40
0.0
 40
0.2892795933
 40
0.4225374294
 40
0.548494845
 40
0.6678935757
 40
0.7818676656
 40
0.891951877
 40
1.0
 40
1.0
 40
1.0
 40
1.0
 10
218.0103519748
 20
138.5448979262
 30
0.0
 10
218.3834578784
 20
138.7603094342
 30
0.0
 10
218.9562648618
 20
139.0329369187
 30
0.0
 10
219.7418211176
 20
139.261995604
 30
0.0
 10
220.2994050941
 20
139.3555144866
 30
0.0
 10
220.8359224746
 20
139.374192453
 30
0.0
 10
221.3462891241
 20
139.3172815387
 30
0.0
 10
221.8250292852
 20
139.1848743221
 30
0.0
 10
222.1209204771
 20
139.0463401994
 30
0.0
 10
222.2602752211
 20
138.9658769251
 30
0.0
  0
SPLINE
  5
305
100
AcDbEntity
  8
0
100
AcDbSpline
 62
7
  6
CONTINUOUS
 70
0
 71
3
 72
11
 73
7
 74
0
 42
0.0000001
 43
0.0000001
 44
0.0000000001
 40
0.0
 40
0.0
 40
0.0
 40
0.0
 40
0.2288984565
 40
0.4672179204
 40
0.722612601
 40
1.0
 40
1.0
 40
1.0
 40
1.0
 10
214.467538421
 20
123.8351370363
 30
0.0
 10
214.6767703002
 20
123.7143267764
 30
0.0
 10
215.137914345
 20
123.5225678885
 30
0.0
 10
215.8991289996
 20
123.4105826949
 30
0.0
 10
216.716339058
 20
123.4700715811
 30
0.0
 10
217.263010174
 20
123.6147939276
 30
0.0
 10
217.539652406
 20
123.7106724419
 30
0.0
  0
SPLINE
  5
306
100
AcDbEntity
  8
0
100
AcDbSpline
 62
7
  6
CONTINUOUS
 70
0
 71
3
 72
11
 73
7
 74
0
 42
0.0000001
 43
0.0000001
 44
0.0000000001
 40
0.0
 40
0.0
 40
0.0
 40
0.0
 40
0.2177679687
 40
0.4509386846
 40
0.7102092654
 40
1.0
 40
1.0
 40
1.0
 40
1.0
 10
237.1274205395
 20
129.3594914032
 30
0.0
 10
237.1274110474
 20
129.4547077433
 30
0.0
 10
237.0922760301
 20
129.6532052123
 30
0.0
 10
236.9417682752
 20
129.9296812066
 30
0.0
 10
236.7039760191
 20
130.1797236176
 30
0.0
 10
236.5049225573
 20
130.3167491627
 30
0.0
 10
236.3951901088
 20
130.3801017882
 30
0.0
  0
SPLINE
  5
307
100
AcDbEntity
  8
0
100
AcDbSpline
 62
7
  6
CONTINUOUS
 70
0
 71
3
 72
16
 73
12
 74
0
 42
0.0000001
 43
0.0000001
 44
0.0000000001
 40
0.0
 40
0.0
 40
0.0
 40
0.0
 40
0.0992134392
 40
0.1542130389
 40
0.2126434384
 40
0.3384381239
 40
0.4731073354
 40
0.6117978283
 40
0.7491622952
 40
0.8800101443
 40
1.0
 40
1.0
 40
1.0
 40
1.0
 10
237.2555212234
 20
116.2246473885
 30
0.0
 10
237.1674091728
 20
116.4401330568
 30
0.0
 10
237.086047858
 20
116.7987841359
 30
0.0
 10
237.0600589227
 20
117.2973467126
 30
0.0
 10
237.0893366491
 20
117.8589714445
 30
0.0
 10
237.2344443529
 20
118.5970656795
 30
0.0
 10
237.5552014977
 20
119.4804060861
 30
0.0
 10
238.009149807
 20
120.3340656788
 30
0.0
 10
238.5709294118
 20
121.1101020548
 30
0.0
 10
239.2087158942
 20
121.7650176434
 30
0.0
 10
239.6869183882
 20
122.1152213791
 30
0.0
 10
239.9307534544
 20
122.2559987798
 30
0.0
  0
SPLINE
  5
308
100
AcDbEntity
  8
0
100
AcDbSpline
 62
7
  6
CONTINUOUS
 70
0
 71
3
 72
14
 73
10
 74
0
 42
0.0000001
 43
0.0000001
 44
0.0000000001
 40
0.0
 40
0.0
 40
0.0
 40
0.0
 40
0.2892707544
 40
0.4225372455
 40
0.5484966612
 40
0.6678939361
 40
0.7818682813
 40
0.8919523447
 40
1.0
 40
1.0
 40
1.0
 40
1.0
 10
244.5269254521
 20
122.0110410375
 30
0.0
 10
244.5269228883
 20
122.3658367036
 30
0.0
 10
244.485485702
 20
122.8866313291
 30
0.0
 10
244.3253891792
 20
123.5412281239
 30
0.0
 10
244.1624830749
 20
123.977424734
 30
0.0
 10
243.9548814818
 20
124.3677719549
 30
0.0
 10
243.7041196593
 20
124.7083253903
 30
0.0
 10
243.4125569032
 20
124.9952537224
 30
0.0
 10
243.1919076948
 20
125.1492366335
 30
0.0
 10
243.0771392072
 20
125.2154964794
 30
0.0
  0
SPLINE
  5
309
100
AcDbEntity
  8
0
100
AcDbSpline
 62
7
  6
CONTINUOUS
 70
0
 71
3
 72
14
 73
10
 74
0
 42
0.0000001
 43
0.0000001
 44
0.0000000001
 40
0.0
 40
0.0
 40
0.0
 40
0.0
 40
0.1080482432
 40
0.2181322873
 40
0.3321068339
 40
0.4515071146
 40
0.5774612857
 40
0.7107200697
 40
1.0
 40
1.0
 40
1.0
 40
1.0
 10
236.0772579765
 20
113.091072256
 30
0.0
 10
236.1920240422
 20
113.0248138082
 30
0.0
 10
236.4356982248
 20
112.9107254586
 30
0.0
 10
236.8299577612
 20
112.8016945258
 30
0.0
 10
237.2502602032
 20
112.7548084977
 30
0.0
 10
237.6920965519
 20
112.7702092415
 30
0.0
 10
238.151283538
 20
112.8472129469
 30
0.0
 10
238.7982098798
 20
113.0358527066
 30
0.0
 10
239.2699344827
 20
113.2603694906
 30
0.0
 10
239.5771985918
 20
113.4377674478
 30
0.0
  0
SPLINE
  5
30A
100
AcDbEntity
  8
0
100
AcDbSpline
 62
7
  6
CONTINUOUS
 70
0
 71
3
 72
14
 73
10
 74
0
 42
0.0000001
 43
0.0000001
 44
0.0000000001
 40
0.0
 40
0.0
 40
0.0
 40
0.0
 40
0.1080475558
 40
0.2181313655
 40
0.332105354
 40
0.4515042826
 40
0.5774618133
 40
0.7107200407
 40
1.0
 40
1.0
 40
1.0
 40
1.0
 10
222.9673849789
 20
138.5576362158
 30
0.0
 10
222.8280309753
 20
138.6380990663
 30
0.0
 10
222.5321408801
 20
138.7766320701
 30
0.0
 10
222.0534025577
 20
138.9090394193
 30
0.0
 10
221.5430364915
 20
138.9659517971
 30
0.0
 10
221.0065188345
 20
138.9472733109
 30
0.0
 10
220.4489336378
 20
138.8537557472
 30
0.0
 10
219.6633761162
 20
138.6246966465
 30
0.0
 10
219.0905680562
 20
138.352068941
 30
0.0
 10
218.7174617
 20
138.1366571717
 30
0.0
  0
SPLINE
  5
30B
100
AcDbEntity
  8
0
100
AcDbSpline
 62
7
  6
CONTINUOUS
 70
0
 71
3
 72
17
 73
13
 74
0
 42
0.0000001
 43
0.0000001
 44
0.0000000001
 40
0.0
 40
0.0
 40
0.0
 40
0.0
 40
0.1286890167
 40
0.2702764127
 40
0.4174313733
 40
0.5617800349
 40
0.695451499
 40
0.8127141218
 40
0.8646787142
 40
0.9125122476
 40
0.9571409188
 40
1.0
 40
1.0
 40
1.0
 40
1.0
 10
232.8596709228
 20
128.3388810188
 30
0.0
 10
233.044731293
 20
128.2320387813
 30
0.0
 10
233.4637350074
 20
128.05916592
 30
0.0
 10
234.1466204603
 20
127.922530091
 30
0.0
 10
234.8689109512
 20
127.9025408011
 30
0.0
 10
235.5716417697
 20
128.0012899897
 30
0.0
 10
236.1978564257
 20
128.2104373276
 30
0.0
 10
236.6333508684
 20
128.4755703873
 30
0.0
 10
236.8889606918
 20
128.7320564345
 30
0.0
 10
237.024727421
 20
128.9317766506
 30
0.0
 10
237.1083756518
 20
129.1424333761
 30
0.0
 10
237.1274276341
 20
129.2883239031
 30
0.0
 10
237.1274205395
 20
129.3594914032
 30
0.0
  0
SPLINE
  5
30C
100
AcDbEntity
  8
0
100
AcDbSpline
 62
7
  6
CONTINUOUS
 70
0
 71
3
 72
15
 73
11
 74
0
 42
0.0000001
 43
0.0000001
 44
0.0000000001
 40
0.0
 40
0.0
 40
0.0
 40
0.0
 40
0.1514586206
 40
0.290722028
 40
0.4184570247
 40
0.5368510465
 40
0.6494869958
 40
0.7610740778
 40
0.8765317853
 40
1.0
 40
1.0
 40
1.0
 40
1.0
 10
239.9307534544
 20
115.6423292011
 30
0.0
 10
239.7925131096
 20
115.5625165772
 30
0.0
 10
239.5171132313
 20
115.4255920122
 30
0.0
 10
239.0951894838
 20
115.2906664764
 30
0.0
 10
238.6897129861
 20
115.2384190123
 30
0.0
 10
238.3096484467
 20
115.2716609808
 30
0.0
 10
237.9648420125
 20
115.3918236193
 30
0.0
 10
237.6660956208
 20
115.5966426963
 30
0.0
 10
237.4224349981
 20
115.8790841646
 30
0.0
 10
237.3047715543
 20
116.1042014292
 30
0.0
 10
237.2555212234
 20
116.2246473885
 30
0.0
  0
SPLINE
  5
30D
100
AcDbEntity
  8
0
100
AcDbSpline
 62
7
  6
CONTINUOUS
 70
0
 71
3
 72
23
 73
19
 74
0
 42
0.0000001
 43
0.0000001
 44
0.0000000001
 40
0.0
 40
0.0
 40
0.0
 40
0.0
 40
0.0623929899
 40
0.1287423661
 40
0.198345887
 40
0.2703336247
 40
0.3437225368
 40
0.4174661558
 40
0.490502321
 40
0.5618003338
 40
0.6304087604
 40
0.6955071367
 40
0.756464968
 40
0.8129118028
 40
0.8648211189
 40
0.9126039454
 40
0.9571857674
 40
1.0
 40
1.0
 40
1.0
 40
1.0
 10
218.7174617
 20
138.1366571717
 30
0.0
 10
218.4120716672
 20
137.9603412065
 30
0.0
 10
217.8053930625
 20
137.5549119801
 30
0.0
 10
216.9462586767
 20
136.8318947525
 30
0.0
 10
216.1250094
 20
135.9886944773
 30
0.0
 10
215.3592073391
 20
135.0433450908
 30
0.0
 10
214.6650649836
 20
134.0159170008
 30
0.0
 10
214.0573952378
 20
132.9283297106
 30
0.0
 10
213.5491590205
 20
131.8037822488
 30
0.0
 10
213.151191063
 20
130.6662361005
 30
0.0
 10
212.8719682415
 20
129.5398438093
 30
0.0
 10
212.7174730753
 20
128.4483713442
 30
0.0
 10
212.691164633
 20
127.4146273873
 30
0.0
 10
212.794150596
 20
126.4599419496
 30
0.0
 10
213.0254538824
 20
125.6039384622
 30
0.0
 10
213.3826779421
 20
124.86466702
 30
0.0
 10
213.8607281382
 20
124.2601676131
 30
0.0
 10
214.2579837097
 20
123.9561336991
 30
0.0
 10
214.467538421
 20
123.8351370363
 30
0.0
  0
SPLINE
  5
30E
100
AcDbEntity
  8
0
100
AcDbSpline
 62
7
  6
CONTINUOUS
 70
0
 71
3
 72
11
 73
7
 74
0
 42
0.0000001
 43
0.0000001
 44
0.0000000001
 40
0.0
 40
0.0
 40
0.0
 40
0.0
 40
0.2850359784
 40
0.5447133711
 40
0.7810780081
 40
1.0
 40
1.0
 40
1.0
 40
1.0
 10
238.2161034957
 20
117.775363805
 30
0.0
 10
238.1168278272
 20
117.7180473132
 30
0.0
 10
237.9191890616
 20
117.6212264445
 30
0.0
 10
237.6160129901
 20
117.5323100867
 30
0.0
 10
237.3270292531
 20
117.5095589007
 30
0.0
 10
237.144057284
 20
117.5412824653
 30
0.0
 10
237.0603858652
 20
117.5686848852
 30
0.0
  0
SPLINE
  5
30F
100
AcDbEntity
  8
0
100
AcDbSpline
 62
7
  6
CONTINUOUS
 70
0
 71
3
 72
14
 73
10
 74
0
 42
0.0000001
 43
0.0000001
 44
0.0000000001
 40
0.0
 40
0.0
 40
0.0
 40
0.0
 40
0.2892790064
 40
0.4225379356
 40
0.5484925163
 40
0.6678924675
 40
0.7818658697
 40
0.8919501133
 40
1.0
 40
1.0
 40
1.0
 40
1.0
 10
218.7174617
 20
136.911903546
 30
0.0
 10
219.0247247109
 20
137.0893008691
 30
0.0
 10
219.4964482874
 20
137.31381698
 30
0.0
 10
220.1433738043
 20
137.5024571271
 30
0.0
 10
220.6025610519
 20
137.5794600928
 30
0.0
 10
221.0443957686
 20
137.5948611213
 30
0.0
 10
221.4646968568
 20
137.5479771369
 30
0.0
 10
221.8589563245
 20
137.4389434712
 30
0.0
 10
222.102633046
 20
137.3248555679
 30
0.0
 10
222.2174007433
 20
137.2585960152
 30
0.0
  0
SPLINE
  5
310
100
AcDbEntity
  8
0
100
AcDbSpline
 62
7
  6
CONTINUOUS
 70
0
 71
3
 72
22
 73
18
 74
0
 42
0.0000001
 43
0.0000001
 44
0.0000000001
 40
0.0
 40
0.0
 40
0.0
 40
0.0
 40
0.0624002863
 40
0.1287598616
 40
0.198371778
 40
0.2703697238
 40
0.4173878314
 40
0.4904336723
 40
0.5617412658
 40
0.6303588829
 40
0.6954659213
 40
0.756431874
 40
0.8128862891
 40
0.8648026495
 40
0.9125920112
 40
0.957179933
 40
1.0
 40
1.0
 40
1.0
 40
1.0
 10
239.5771985918
 20
124.8688012876
 30
0.0
 10
239.3257050856
 20
124.7236023108
 30
0.0
 10
238.8260849527
 20
124.389713313
 30
0.0
 10
238.1185756815
 20
123.794307524
 30
0.0
 10
237.4421909183
 20
123.0998495449
 30
0.0
 10
236.5959240019
 20
122.0550195778
 30
0.0
 10
235.8800130193
 20
120.8902959453
 30
0.0
 10
235.3209695546
 20
119.6535655019
 30
0.0
 10
234.9932114342
 20
118.7166748386
 30
0.0
 10
234.7632672571
 20
117.7890799167
 30
0.0
 10
234.6360334916
 20
116.8902149633
 30
0.0
 10
234.6143663045
 20
116.0388978827
 30
0.0
 10
234.6991760372
 20
115.2526850407
 30
0.0
 10
234.8896592983
 20
114.5477394535
 30
0.0
 10
235.1838417249
 20
113.9389234167
 30
0.0
 10
235.5775326055
 20
113.4411025054
 30
0.0
 10
235.9046782445
 20
113.1907085472
 30
0.0
 10
236.0772579765
 20
113.091072256
 30
0.0
  0
SPLINE
  5
311
100
AcDbEntity
  8
0
100
AcDbSpline
 62
7
  6
CONTINUOUS
 70
0
 71
3
 72
11
 73
7
 74
0
 42
0.0000001
 43
0.0000001
 44
0.0000000001
 40
0.0
 40
0.0
 40
0.0
 40
0.0
 40
0.240758434
 40
0.5010693093
 40
0.7608157854
 40
1.0
 40
1.0
 40
1.0
 40
1.0
 10
237.2884891326
 20
118.5366081625
 30
0.0
 10
237.5186769899
 20
118.6960510874
 30
0.0
 10
237.9511891928
 20
119.0964570346
 30
0.0
 10
238.4648555735
 20
119.8234807092
 30
0.0
 10
238.8283308164
 20
120.6340665743
 30
0.0
 10
238.9512836131
 20
121.208109505
 30
0.0
 10
238.9700100633
 20
121.485662756
 30
0.0
  0
SPLINE
  5
312
100
AcDbEntity
  8
0
100
AcDbSpline
 62
7
  6
CONTINUOUS
 70
0
 71
3
 72
11
 73
7
 74
0
 42
0.0000001
 43
0.0000001
 44
0.0000000001
 40
0.0
 40
0.0
 40
0.0
 40
0.0
 40
0.2177679687
 40
0.4509386846
 40
0.7102092654
 40
1.0
 40
1.0
 40
1.0
 40
1.0
 10
221.5207946149
 20
135.4831027217
 30
0.0
 10
221.520804107
 20
135.3878863815
 30
0.0
 10
221.5559391243
 20
135.1893889125
 30
0.0
 10
221.7064468792
 20
134.9129129182
 30
0.0
 10
221.9442391352
 20
134.6628705073
 30
0.0
 10
222.143292597
 20
134.5258449621
 30
0.0
 10
222.2530250456
 20
134.4624923366
 30
0.0
  0
SPLINE
  5
313
100
AcDbEntity
  8
0
100
AcDbSpline
 62
7
  6
CONTINUOUS
 70
0
 71
3
 72
11
 73
7
 74
0
 42
0.0000001
 43
0.0000001
 44
0.0000000001
 40
0.0
 40
0.0
 40
0.0
 40
0.0
 40
0.2395745514
 40
0.4833497281
 40
0.7353113905
 40
1.0
 40
1.0
 40
1.0
 40
1.0
 10
221.5207846388
 20
133.6648418762
 30
0.0
 10
221.5207841714
 20
133.5466203683
 30
0.0
 10
221.5530932471
 20
133.306915154
 30
0.0
 10
221.6968892326
 20
132.9691853695
 30
0.0
 10
221.9327590898
 20
132.6717774358
 30
0.0
 10
222.1399090165
 20
132.51785396
 30
0.0
 10
222.2530250456
 20
132.4525478676
 30
0.0
  0
SPLINE
  5
314
100
AcDbEntity
  8
0
100
AcDbSpline
 62
7
  6
CONTINUOUS
 70
0
 71
3
 72
23
 73
19
 74
0
 42
0.0000001
 43
0.0000001
 44
0.0000000001
 40
0.0
 40
0.0
 40
0.0
 40
0.0
 40
0.0490305528
 40
0.094636479
 40
0.139132878
 40
0.1851317509
 40
0.2348467176
 40
0.2896607684
 40
0.3500869894
 40
0.4159253773
 40
0.4864461849
 40
0.5605450981
 40
0.6368696432
 40
0.7139241134
 40
0.7901696154
 40
0.8641162154
 40
0.9344256998
 40
1.0
 40
1.0
 40
1.0
 40
1.0
 10
240.9525703293
 20
122.6282775221
 30
0.0
 10
241.1000970176
 20
122.6483806518
 30
0.0
 10
241.3907759277
 20
122.6567191705
 30
0.0
 10
241.8065125606
 20
122.5537102453
 30
0.0
 10
242.1650394917
 20
122.3351918048
 30
0.0
 10
242.4502046607
 20
122.0112693311
 30
0.0
 10
242.6540324488
 20
121.5972153497
 30
0.0
 10
242.773799539
 20
121.1075460141
 30
0.0
 10
242.808381887
 20
120.5563936208
 30
0.0
 10
242.7578391684
 20
119.9591304589
 30
0.0
 10
242.6240057008
 20
119.332683577
 30
0.0
 10
242.4108855409
 20
118.695135238
 30
0.0
 10
242.124739437
 20
118.0651128083
 30
0.0
 10
241.7739879431
 20
117.4611221656
 30
0.0
 10
241.3689548977
 20
116.9009645925
 30
0.0
 10
240.9214997005
 20
116.4010399182
 30
0.0
 10
240.4448247368
 20
115.9761336826
 30
0.0
 10
240.1032037543
 20
115.7418928338
 30
0.0
 10
239.9307534544
 20
115.6423292011
 30
0.0
  0
SPLINE
  5
315
100
AcDbEntity
  8
0
100
AcDbSpline
 62
7
  6
CONTINUOUS
 70
0
 71
3
 72
26
 73
22
 74
0
 42
0.0000001
 43
0.0000001
 44
0.0000000001
 40
0.0
 40
0.0
 40
0.0
 40
0.0
 40
0.0664781131
 40
0.1381068683
 40
0.2135025701
 40
0.2909579129
 40
0.368612936
 40
0.4445895738
 40
0.5171384488
 40
0.5847890855
 40
0.6465275235
 40
0.7020168277
 40
0.7518650249
 40
0.7752518692
 40
0.7979969163
 40
0.8204856744
 40
0.8431260234
 40
0.8663127079
 40
0.8903952729
 40
0.9421928748
 40
1.0
 40
1.0
 40
1.0
 40
1.0
 10
239.9307534544
 20
124.2564297018
 30
0.0
 10
239.6244536057
 20
124.0795884573
 30
0.0
 10
239.0190611131
 20
123.6572756133
 30
0.0
 10
238.1834529794
 20
122.8836415037
 30
0.0
 10
237.4100641531
 20
121.9699348133
 30
0.0
 10
236.7266127609
 20
120.9486928257
 30
0.0
 10
236.1572737585
 20
119.8562106604
 30
0.0
 10
235.7223555118
 20
118.7313785367
 30
0.0
 10
235.4373211614
 20
117.6140173203
 30
0.0
 10
235.3123287063
 20
116.5432382179
 30
0.0
 10
235.352679308
 20
115.5555085775
 30
0.0
 10
235.5587708242
 20
114.6842365574
 30
0.0
 10
235.8757737222
 20
114.0666423155
 30
0.0
 10
236.2063956718
 20
113.6750029617
 30
0.0
 10
236.4842667575
 20
113.4356862224
 30
0.0
 10
236.7944858345
 20
113.2475976053
 30
0.0
 10
237.1337157502
 20
113.112613911
 30
0.0
 10
237.4984091324
 20
113.0320892526
 30
0.0
 10
238.0260636895
 20
112.9970151519
 30
0.0
 10
238.7378897106
 20
113.1012406662
 30
0.0
 10
239.2858729912
 20
113.3123364842
 30
0.0
 10
239.5626454157
 20
113.446445017
 30
0.0
  0
SPLINE
  5
316
100
AcDbEntity
  8
0
100
AcDbSpline
 62
7
  6
CONTINUOUS
 70
0
 71
3
 72
18
 73
14
 74
0
 42
0.0000001
 43
0.0000001
 44
0.0000000001
 40
0.0
 40
0.0
 40
0.0
 40
0.0
 40
0.1400474479
 40
0.2659591118
 40
0.3245824612
 40
0.38102147
 40
0.4360597185
 40
0.4905885465
 40
0.5455413977
 40
0.6018174796
 40
0.7211022604
 40
0.8532220929
 40
1.0
 40
1.0
 40
1.0
 40
1.0
 10
244.5105475358
 20
122.040913583
 30
0.0
 10
244.4877774982
 20
122.3384021025
 30
0.0
 10
244.397941164
 20
122.9016706926
 30
0.0
 10
244.1428502296
 20
123.5523441764
 30
0.0
 10
243.8616440397
 20
123.9837424459
 30
0.0
 10
243.6209110526
 20
124.256464258
 30
0.0
 10
243.3475214306
 20
124.4831564361
 30
0.0
 10
243.0439548431
 20
124.6613978581
 30
0.0
 10
242.7132492701
 20
124.7894981357
 30
0.0
 10
242.231591919
 20
124.8939309954
 30
0.0
 10
241.5672285957
 20
124.8866053242
 30
0.0
 10
240.7403070454
 20
124.6717162755
 30
0.0
 10
240.2015576751
 20
124.4127776583
 30
0.0
 10
239.9307534544
 20
124.2564297018
 30
0.0
  0
SPLINE
  5
317
100
AcDbEntity
  8
0
100
AcDbSpline
 62
7
  6
CONTINUOUS
 70
0
 71
3
 72
17
 73
13
 74
0
 42
0.0000001
 43
0.0000001
 44
0.0000000001
 40
0.0
 40
0.0
 40
0.0
 40
0.0
 40
0.0435786036
 40
0.0900039961
 40
0.1401365979
 40
0.1944096642
 40
0.3151228324
 40
0.4496806076
 40
0.5924477987
 40
0.7364002249
 40
0.874319848
 40
1.0
 40
1.0
 40
1.0
 40
1.0
 10
239.7155803523
 20
122.1024009962
 30
0.0
 10
239.7685532769
 20
122.0513731534
 30
0.0
 10
239.8656490603
 20
121.9326284254
 30
0.0
 10
239.9747456626
 20
121.7212071119
 30
0.0
 10
240.0495823842
 20
121.4766279325
 30
0.0
 10
240.1042116135
 20
121.099417478
 30
0.0
 10
240.0746654149
 20
120.5726282599
 30
0.0
 10
239.9058677813
 20
119.9190093406
 30
0.0
 10
239.614889343
 20
119.2668257967
 30
0.0
 10
239.2225872523
 20
118.6633703668
 30
0.0
 10
238.7577339938
 20
118.1523132201
 30
0.0
 10
238.399808994
 20
117.8814255908
 30
0.0
 10
238.2161034957
 20
117.775363805
 30
0.0
  0
SPLINE
  5
318
100
AcDbEntity
  8
0
100
AcDbSpline
 62
7
  6
CONTINUOUS
 70
0
 71
3
 72
14
 73
10
 74
0
 42
0.0000001
 43
0.0000001
 44
0.0000000001
 40
0.0
 40
0.0
 40
0.0
 40
0.0
 40
0.1080482432
 40
0.2181322873
 40
0.3321068339
 40
0.4515071146
 40
0.5774612857
 40
0.7107200697
 40
1.0
 40
1.0
 40
1.0
 40
1.0
 10
243.0771392072
 20
125.2154964794
 30
0.0
 10
242.9623731414
 20
125.2817549272
 30
0.0
 10
242.7186989589
 20
125.3958432768
 30
0.0
 10
242.3244394224
 20
125.5048742096
 30
0.0
 10
241.9041369804
 20
125.5517602377
 30
0.0
 10
241.4623006318
 20
125.536359494
 30
0.0
 10
241.0031136457
 20
125.4593557885
 30
0.0
 10
240.3561873039
 20
125.2707160288
 30
0.0
 10
239.8844627009
 20
125.0461992448
 30
0.0
 10
239.5771985918
 20
124.8688012876
 30
0.0
  0
SPLINE
  5
319
100
AcDbEntity
  8
0
100
AcDbSpline
 62
7
  6
CONTINUOUS
 70
0
 71
3
 72
13
 73
9
 74
0
 42
0.0000001
 43
0.0000001
 44
0.0000000001
 40
0.0
 40
0.0
 40
0.0
 40
0.0
 40
0.3242789748
 40
0.5946150031
 40
0.7100475348
 40
0.8141101805
 40
0.9094744455
 40
1.0
 40
1.0
 40
1.0
 40
1.0
 10
236.3952048287
 20
126.705884683
 30
0.0
 10
236.5034209442
 20
126.7683629135
 30
0.0
 10
236.6963934188
 20
126.8928015139
 30
0.0
 10
236.9037463731
 20
127.0742200052
 30
0.0
 10
237.0213281723
 20
127.2225597242
 30
0.0
 10
237.0819759523
 20
127.3283007121
 30
0.0
 10
237.1190024848
 20
127.4344846786
 30
0.0
 10
237.1274302803
 20
127.5063475645
 30
0.0
 10
237.1274305156
 20
127.5412305031
 30
0.0
  0
SPLINE
  5
31A
100
AcDbEntity
  8
0
100
AcDbSpline
 62
7
  6
CONTINUOUS
 70
0
 71
3
 72
15
 73
11
 74
0
 42
0.0000001
 43
0.0000001
 44
0.0000000001
 40
0.0
 40
0.0
 40
0.0
 40
0.0
 40
0.1127416547
 40
0.2327855647
 40
0.3594985961
 40
0.4911064907
 40
0.6248947564
 40
0.7572758333
 40
0.8838758619
 40
1.0
 40
1.0
 40
1.0
 40
1.0
 10
232.8596709228
 20
126.3289365498
 30
0.0
 10
232.979855254
 20
126.2595496635
 30
0.0
 10
233.246239293
 20
126.1465660495
 30
0.0
 10
233.6823140224
 20
126.0589447399
 30
0.0
 10
234.149484118
 20
126.042915502
 30
0.0
 10
234.6309722396
 20
126.0895981487
 30
0.0
 10
235.1112967705
 20
126.1885314258
 30
0.0
 10
235.5745875367
 20
126.3288908
 30
0.0
 10
236.0040903751
 20
126.4997030768
 30
0.0
 10
236.2714152336
 20
126.6344151536
 30
0.0
 10
236.3952048287
 20
126.705884683
 30
0.0
  0
SPLINE
  5
31B
100
AcDbEntity
  8
0
100
AcDbSpline
 62
7
  6
CONTINUOUS
 70
0
 71
3
 72
22
 73
18
 74
0
 42
0.0000001
 43
0.0000001
 44
0.0000000001
 40
0.0
 40
0.0
 40
0.0
 40
0.0
 40
0.0428206627
 40
0.0874091124
 40
0.1351989135
 40
0.1871155609
 40
0.243570073
 40
0.3045359312
 40
0.3696427071
 40
0.4382599438
 40
0.5095671443
 40
0.582612712
 40
0.7296304001
 40
0.8016271821
 40
0.8712391129
 40
0.9375992464
 40
1.0
 40
1.0
 40
1.0
 40
1.0
 10
215.2175226567
 20
125.1341772369
 30
0.0
 10
215.0449407121
 20
125.2338150507
 30
0.0
 10
214.7177919209
 20
125.4842135624
 30
0.0
 10
214.3240997257
 20
125.9820424426
 30
0.0
 10
214.0299188804
 20
126.5908654116
 30
0.0
 10
213.8394388509
 20
127.2958154556
 30
0.0
 10
213.7546327432
 20
128.0820296266
 30
0.0
 10
213.7763029605
 20
128.9333449747
 30
0.0
 10
213.9035385394
 20
129.8322057324
 30
0.0
 10
214.1334830508
 20
130.7597951033
 30
0.0
 10
214.4612404844
 20
131.6966803334
 30
0.0
 10
215.0202823903
 20
132.9334051525
 30
0.0
 10
215.7361876088
 20
134.0981214915
 30
0.0
 10
216.5824502792
 20
135.1429445539
 30
0.0
 10
217.2588307319
 20
135.8374022222
 30
0.0
 10
217.966343058
 20
136.4328112837
 30
0.0
 10
218.4659664298
 20
136.7667035507
 30
0.0
 10
218.7174617
 20
136.911903546
 30
0.0
  0
SPLINE
  5
31C
100
AcDbEntity
  8
0
100
AcDbSpline
 62
7
  6
CONTINUOUS
 70
0
 71
3
 72
13
 73
9
 74
0
 42
0.0000001
 43
0.0000001
 44
0.0000000001
 40
0.0
 40
0.0
 40
0.0
 40
0.0
 40
0.2894093789
 40
0.5482893175
 40
0.6677436567
 40
0.7817682692
 40
0.8919016979
 40
1.0
 40
1.0
 40
1.0
 40
1.0
 10
61.5622384391
 20
294.3105753428
 30
0.0
 10
62.0670282009
 20
294.6020141081
 30
0.0
 10
63.0701142803
 20
295.0798389654
 30
0.0
 10
64.390997218
 20
295.397891209
 30
0.0
 10
65.3850441876
 20
295.43258847
 30
0.0
 10
66.0755528083
 20
295.3555271222
 30
0.0
 10
66.7232785092
 20
295.1764595202
 30
0.0
 10
67.1235768608
 20
294.98897049
 30
0.0
 10
67.3121305494
 20
294.8801278896
 30
0.0
  0
SPLINE
  5
31D
100
AcDbEntity
  8
0
100
AcDbSpline
 62
7
  6
CONTINUOUS
 70
0
 71
3
 72
11
 73
7
 74
0
 42
0.0000001
 43
0.0000001
 44
0.0000000001
 40
0.0
 40
0.0
 40
0.0
 40
0.0
 40
0.2451117305
 40
0.4911314743
 40
0.741116646
 40
1.0
 40
1.0
 40
1.0
 40
1.0
 10
90.6860217365
 20
245.2801827623
 30
0.0
 10
90.6860217365
 20
245.3828512498
 30
0.0
 10
90.6523460376
 20
245.5899604491
 30
0.0
 10
90.5101895595
 20
245.8706076929
 30
0.0
 10
90.2956266912
 20
246.1070747548
 30
0.0
 10
90.1198725299
 20
246.2305221859
 30
0.0
 10
90.0259628669
 20
246.2847397286
 30
0.0
  0
SPLINE
  5
31E
100
AcDbEntity
  8
0
100
AcDbSpline
 62
7
  6
CONTINUOUS
 70
0
 71
3
 72
16
 73
12
 74
0
 42
0.0000001
 43
0.0000001
 44
0.0000000001
 40
0.0
 40
0.0
 40
0.0
 40
0.0
 40
0.1255556452
 40
0.2585414488
 40
0.3947881623
 40
0.5285480428
 40
0.6552674168
 40
0.7738681319
 40
0.8873393665
 40
0.9435556912
 40
1.0
 40
1.0
 40
1.0
 40
1.0
 10
90.0259628669
 20
246.2847397286
 30
0.0
 10
89.8870451092
 20
246.3649421189
 30
0.0
 10
89.57878535
 20
246.4928380321
 30
0.0
 10
89.0809460992
 20
246.5889580731
 30
0.0
 10
88.5634088249
 20
246.5953641769
 30
0.0
 10
88.0606218357
 20
246.5116342168
 30
0.0
 10
87.6042751651
 20
246.3385778132
 30
0.0
 10
87.222472117
 20
246.0748083449
 30
0.0
 10
86.997179125
 20
245.7716940906
 30
0.0
 10
86.9022956339
 20
245.4967632583
 30
0.0
 10
86.8860217365
 20
245.3522949368
 30
0.0
 10
86.8860217365
 20
245.2801827623
 30
0.0
  0
SPLINE
  5
31F
100
AcDbEntity
  8
0
100
AcDbSpline
 62
7
  6
CONTINUOUS
 70
0
 71
3
 72
11
 73
7
 74
0
 42
0.0000001
 43
0.0000001
 44
0.0000000001
 40
0.0
 40
0.0
 40
0.0
 40
0.0
 40
0.2451117305
 40
0.4911314743
 40
0.741116646
 40
1.0
 40
1.0
 40
1.0
 40
1.0
 10
104.8280984808
 20
253.4450658397
 30
0.0
 10
104.8280984808
 20
253.5477343272
 30
0.0
 10
104.7944227819
 20
253.7548435265
 30
0.0
 10
104.6522663038
 20
254.0354907704
 30
0.0
 10
104.4377034354
 20
254.2719578323
 30
0.0
 10
104.2619492742
 20
254.3954052633
 30
0.0
 10
104.1680396112
 20
254.449622806
 30
0.0
  0
SPLINE
  5
320
100
AcDbEntity
  8
0
100
AcDbSpline
 62
7
  6
CONTINUOUS
 70
0
 71
3
 72
13
 73
9
 74
0
 42
0.0000001
 43
0.0000001
 44
0.0000000001
 40
0.0
 40
0.0
 40
0.0
 40
0.0
 40
0.1142483233
 40
0.2375469957
 40
0.4999994774
 40
0.7624522452
 40
0.8857512516
 40
1.0
 40
1.0
 40
1.0
 40
1.0
 10
90.907350912
 20
239.0747957543
 30
0.0
 10
90.7621404871
 20
238.9909589768
 30
0.0
 10
90.4445560569
 20
238.8430642783
 30
0.0
 10
89.7407272735
 20
238.6293021758
 30
0.0
 10
88.7860338917
 20
238.5254612344
 30
0.0
 10
87.8313395918
 20
238.6292977616
 30
0.0
 10
87.1275081709
 20
238.8430564019
 30
0.0
 10
86.8099217946
 20
238.990949514
 30
0.0
 10
86.6647102249
 20
239.0747855562
 30
0.0
  0
SPLINE
  5
321
100
AcDbEntity
  8
0
100
AcDbSpline
 62
7
  6
CONTINUOUS
 70
0
 71
3
 72
9
 73
5
 74
0
 42
0.0000001
 43
0.0000001
 44
0.0000000001
 40
0.0
 40
0.0
 40
0.0
 40
0.0
 40
0.4844455551
 40
1.0
 40
1.0
 40
1.0
 40
1.0
 10
104.1680396112
 20
254.449622806
 30
0.0
 10
103.9587898253
 20
254.5704304932
 30
0.0
 10
103.4776263804
 20
254.7358328133
 30
0.0
 10
102.9737658381
 20
254.7643425559
 30
0.0
 10
102.7173056713
 20
254.7457231477
 30
0.0
  0
SPLINE
  5
322
100
AcDbEntity
  8
0
100
AcDbSpline
 62
7
  6
CONTINUOUS
 70
0
 71
3
 72
11
 73
7
 74
0
 42
0.0000001
 43
0.0000001
 44
0.0000000001
 40
0.0
 40
0.0
 40
0.0
 40
0.0
 40
0.2177723091
 40
0.4509273687
 40
0.7102218233
 40
1.0
 40
1.0
 40
1.0
 40
1.0
 10
105.9280764285
 20
252.220312214
 30
0.0
 10
105.928076427
 20
252.3345733442
 30
0.0
 10
105.8858787422
 20
252.5727574509
 30
0.0
 10
105.7053092283
 20
252.9045486438
 30
0.0
 10
105.4199378702
 20
253.2045802225
 30
0.0
 10
105.1810823534
 20
253.3690253224
 30
0.0
 10
105.0494099925
 20
253.4450446757
 30
0.0
  0
SPLINE
  5
323
100
AcDbEntity
  8
0
100
AcDbSpline
 62
7
  6
CONTINUOUS
 70
0
 71
3
 72
11
 73
7
 74
0
 42
0.0000001
 43
0.0000001
 44
0.0000000001
 40
0.0
 40
0.0
 40
0.0
 40
0.0
 40
0.2177727701
 40
0.4509280213
 40
0.7102223029
 40
1.0
 40
1.0
 40
1.0
 40
1.0
 10
105.9280764285
 20
248.4644010952
 30
0.0
 10
105.9280764299
 20
248.3501411951
 30
0.0
 10
105.8858797087
 20
248.1119598366
 30
0.0
 10
105.705314101
 20
247.7801718562
 30
0.0
 10
105.4199485387
 20
247.4801425014
 30
0.0
 10
105.1810975549
 20
247.3156980293
 30
0.0
 10
105.0494276563
 20
247.2396788317
 30
0.0
  0
SPLINE
  5
324
100
AcDbEntity
  8
0
100
AcDbSpline
 62
7
  6
CONTINUOUS
 70
0
 71
3
 72
19
 73
15
 74
0
 42
0.0000001
 43
0.0000001
 44
0.0000000001
 40
0.0
 40
0.0
 40
0.0
 40
0.0
 40
0.0429243128
 40
0.0872526201
 40
0.134175073
 40
0.1845401061
 40
0.2388275144
 40
0.2971835654
 40
0.3594775705
 40
0.4253585087
 40
0.5655446176
 40
0.7123822201
 40
0.8593736143
 40
1.0
 40
1.0
 40
1.0
 40
1.0
 10
102.7859564139
 20
255.159686922
 30
0.0
 10
102.7859573311
 20
254.8071225008
 30
0.0
 10
102.7033104547
 20
254.0880074895
 30
0.0
 10
102.337629726
 20
253.0400864047
 30
0.0
 10
101.7401006953
 20
252.0340518337
 30
0.0
 10
100.9242604038
 20
251.0864939741
 30
0.0
 10
99.9054494734
 20
250.2111489728
 30
0.0
 10
98.70114073
 20
249.4211282164
 30
0.0
 10
97.33129666
 20
248.7284945331
 30
0.0
 10
95.2722080331
 20
247.9336202721
 30
0.0
 10
92.4366122053
 20
247.2640165354
 30
0.0
 10
88.8695499134
 20
246.9877065013
 30
0.0
 10
85.2974962028
 20
247.2395039908
 30
0.0
 10
82.9817915792
 20
247.7682677718
 30
0.0
 10
81.8839932495
 20
248.127414643
 30
0.0
  0
SPLINE
  5
325
100
AcDbEntity
  8
0
100
AcDbSpline
 62
7
  6
CONTINUOUS
 70
0
 71
3
 72
15
 73
11
 74
0
 42
0.0000001
 43
0.0000001
 44
0.0000000001
 40
0.0
 40
0.0
 40
0.0
 40
0.0
 40
0.1068035957
 40
0.2254288029
 40
0.3534964247
 40
0.4874913189
 40
0.6232803346
 40
0.7565511683
 40
0.883240787
 40
1.0
 40
1.0
 40
1.0
 40
1.0
 10
53.5649515378
 20
278.6035740253
 30
0.0
 10
53.4509569919
 20
279.2528697698
 30
0.0
 10
53.3759009388
 20
280.6539766083
 30
0.0
 10
53.6515612431
 20
282.8269808968
 30
0.0
 10
54.293364081
 20
285.0956423787
 30
0.0
 10
55.2718167434
 20
287.3552345386
 30
0.0
 10
56.5415405841
 20
289.5021020932
 30
0.0
 10
58.0441762055
 20
291.4368751247
 30
0.0
 10
59.7094825684
 20
293.0699036286
 30
0.0
 10
60.9381138506
 20
293.9502389946
 30
0.0
 10
61.5622384391
 20
294.3105753428
 30
0.0
  0
SPLINE
  5
326
100
AcDbEntity
  8
0
100
AcDbSpline
 62
7
  6
CONTINUOUS
 70
0
 71
3
 72
14
 73
10
 74
0
 42
0.0000001
 43
0.0000001
 44
0.0000000001
 40
0.0
 40
0.0
 40
0.0
 40
0.0
 40
0.4198448
 40
0.5840360543
 40
0.7191594594
 40
0.8265418279
 40
0.9076863151
 40
0.9644659903
 40
1.0
 40
1.0
 40
1.0
 40
1.0
 10
101.8186806606
 20
277.7639524815
 30
0.0
 10
101.9475198894
 20
277.8278168467
 30
0.0
 10
102.1277327766
 20
277.9147928583
 30
0.0
 10
102.3531644376
 20
278.01406813
 30
0.0
 10
102.4823517978
 20
278.0663398127
 30
0.0
 10
102.5867372116
 20
278.1034944973
 30
0.0
 10
102.6679319067
 20
278.1263973906
 30
0.0
 10
102.7261808254
 20
278.1360696685
 30
0.0
 10
102.7591407745
 20
278.1341655567
 30
0.0
 10
102.7701278822
 20
278.1289303994
 30
0.0
  0
SPLINE
  5
327
100
AcDbEntity
  8
0
100
AcDbSpline
 62
7
  6
CONTINUOUS
 70
0
 71
3
 72
16
 73
12
 74
0
 42
0.0000001
 43
0.0000001
 44
0.0000000001
 40
0.0
 40
0.0
 40
0.0
 40
0.0
 40
0.1367485098
 40
0.2821369949
 40
0.4293129016
 40
0.5710691651
 40
0.7010693443
 40
0.8151037172
 40
0.9127696571
 40
0.9571482174
 40
1.0
 40
1.0
 40
1.0
 40
1.0
 10
101.8356227878
 20
252.5476159314
 30
0.0
 10
101.9837297684
 20
252.4874965576
 30
0.0
 10
102.3026425228
 20
252.3952006372
 30
0.0
 10
102.8030336034
 20
252.3372379963
 30
0.0
 10
103.3124045195
 20
252.3572678207
 30
0.0
 10
103.7947297051
 20
252.4539636274
 30
0.0
 10
104.2167630257
 20
252.6211000395
 30
0.0
 10
104.5502576778
 20
252.8478904061
 30
0.0
 10
104.740939164
 20
253.0881240774
 30
0.0
 10
104.8157281442
 20
253.2926399882
 30
0.0
 10
104.828101814
 20
253.3949768947
 30
0.0
 10
104.8280984811
 20
253.4450658397
 30
0.0
  0
SPLINE
  5
328
100
AcDbEntity
  8
0
100
AcDbSpline
 62
7
  6
CONTINUOUS
 70
0
 71
3
 72
19
 73
15
 74
0
 42
0.0000001
 43
0.0000001
 44
0.0000000001
 40
0.0
 40
0.0
 40
0.0
 40
0.0
 40
0.1485941008
 40
0.3045047848
 40
0.4557154086
 40
0.5913796618
 40
0.6513301392
 40
0.7056852917
 40
0.755159505
 40
0.8013332785
 40
0.8465567119
 40
0.8934209384
 40
0.9441025552
 40
1.0
 40
1.0
 40
1.0
 40
1.0
 10
102.191677697
 20
253.1659043369
 30
0.0
 10
102.3348498272
 20
253.1147431008
 30
0.0
 10
102.6418756194
 20
253.0465329078
 30
0.0
 10
103.1107741313
 20
253.0366127818
 30
0.0
 10
103.5598941447
 20
253.1149829468
 30
0.0
 10
103.8918282808
 20
253.2529847805
 30
0.0
 10
104.0998442758
 20
253.4037501844
 30
0.0
 10
104.2159109481
 20
253.5262336617
 30
0.0
 10
104.2946710259
 20
253.6598018766
 30
0.0
 10
104.3323569746
 20
253.8010339206
 30
0.0
 10
104.3263154999
 20
253.9445564059
 30
0.0
 10
104.2771459961
 20
254.0841563083
 30
0.0
 10
104.187864203
 20
254.2150283664
 30
0.0
 10
104.1080674893
 20
254.2905040422
 30
0.0
 10
104.0634072184
 20
254.3262324541
 30
0.0
  0
SPLINE
  5
329
100
AcDbEntity
  8
0
100
AcDbSpline
 62
7
  6
CONTINUOUS
 70
0
 71
3
 72
9
 73
5
 74
0
 42
0.0000001
 43
0.0000001
 44
0.0000000001
 40
0.0
 40
0.0
 40
0.0
 40
0.0
 40
0.2423406373
 40
1.0
 40
1.0
 40
1.0
 40
1.0
 10
104.0634072184
 20
254.3262324541
 30
0.0
 10
104.0523205793
 20
254.3351018138
 30
0.0
 10
104.0058148963
 20
254.3707491883
 30
0.0
 10
103.9564856425
 20
254.4026649883
 30
0.0
 10
103.9180438529
 20
254.4248588637
 30
0.0
  0
SPLINE
  5
32A
100
AcDbEntity
  8
0
100
AcDbSpline
 62
7
  6
CONTINUOUS
 70
0
 71
3
 72
10
 73
6
 74
0
 42
0.0000001
 43
0.0000001
 44
0.0000000001
 40
0.0
 40
0.0
 40
0.0
 40
0.0
 40
0.2279665322
 40
0.4763133019
 40
1.0
 40
1.0
 40
1.0
 40
1.0
 10
103.9180438529
 20
254.4248588637
 30
0.0
 10
103.836073286
 20
254.472183522
 30
0.0
 10
103.6540610052
 20
254.553005973
 30
0.0
 10
103.2513018575
 20
254.6579130862
 30
0.0
 10
102.9255693841
 20
254.6714269759
 30
0.0
 10
102.709039651
 20
254.6516292497
 30
0.0
  0
SPLINE
  5
32B
100
AcDbEntity
  8
0
100
AcDbSpline
 62
7
  6
CONTINUOUS
 70
0
 71
3
 72
9
 73
5
 74
0
 42
0.0000001
 43
0.0000001
 44
0.0000000001
 40
0.0
 40
0.0
 40
0.0
 40
0.0
 40
0.5434719554
 40
1.0
 40
1.0
 40
1.0
 40
1.0
 10
93.8996089652
 20
273.1919015979
 30
0.0
 10
91.692714308
 20
271.8470513738
 30
0.0
 10
87.6580801954
 20
269.3295970822
 30
0.0
 10
83.6627228948
 20
266.7503925128
 30
0.0
 10
81.8509284422
 20
265.5544212978
 30
0.0
  0
SPLINE
  5
32C
100
AcDbEntity
  8
0
100
AcDbSpline
 62
7
  6
CONTINUOUS
 70
0
 71
3
 72
17
 73
13
 74
0
 42
0.0000001
 43
0.0000001
 44
0.0000000001
 40
0.0
 40
0.0
 40
0.0
 40
0.0
 40
0.1286888688
 40
0.2702719422
 40
0.4174318501
 40
0.5617773054
 40
0.6954483126
 40
0.8127138313
 40
0.8646770028
 40
0.9125122438
 40
0.9571395731
 40
1.0
 40
1.0
 40
1.0
 40
1.0
 10
87.4425244458
 20
244.5045188699
 30
0.0
 10
87.5831698904
 20
244.4233190217
 30
0.0
 10
87.9016034628
 20
244.2919278441
 30
0.0
 10
88.4206010051
 20
244.1881076703
 30
0.0
 10
88.9695352126
 20
244.1729023486
 30
0.0
 10
89.503614279
 20
244.2479532085
 30
0.0
 10
89.9795256488
 20
244.4069157925
 30
0.0
 10
90.3105268902
 20
244.6083880902
 30
0.0
 10
90.5047682812
 20
244.8033412749
 30
0.0
 10
90.6079743626
 20
244.9551121182
 30
0.0
 10
90.6715250595
 20
245.115221371
 30
0.0
 10
90.6860253359
 20
245.2260938696
 30
0.0
 10
90.6860217368
 20
245.2801827623
 30
0.0
  0
SPLINE
  5
32D
100
AcDbEntity
  8
0
100
AcDbSpline
 62
7
  6
CONTINUOUS
 70
0
 71
3
 72
19
 73
15
 74
0
 42
0.0000001
 43
0.0000001
 44
0.0000000001
 40
0.0
 40
0.0
 40
0.0
 40
0.0
 40
0.1375836963
 40
0.2899167886
 40
0.4437805641
 40
0.5854786553
 40
0.6486058176
 40
0.7056520357
 40
0.7569416396
 40
0.8038449932
 40
0.8488099759
 40
0.8948553567
 40
0.9446657068
 40
1.0
 40
1.0
 40
1.0
 40
1.0
 10
87.7960763644
 20
245.1168921554
 30
0.0
 10
87.9290070507
 20
245.0401463242
 30
0.0
 10
88.236660638
 20
244.9256090153
 30
0.0
 10
88.7311713853
 20
244.863033602
 30
0.0
 10
89.2326946532
 20
244.9036750532
 30
0.0
 10
89.6194611808
 20
245.0242552944
 30
0.0
 10
89.8730427767
 20
245.1717361322
 30
0.0
 10
90.0196893031
 20
245.2965005089
 30
0.0
 10
90.1248695555
 20
245.4362863313
 30
0.0
 10
90.1835600165
 20
245.5874164356
 30
0.0
 10
90.1912162622
 20
245.7439032705
 30
0.0
 10
90.1470708255
 20
245.8973761353
 30
0.0
 10
90.0549686397
 20
246.0409369728
 30
0.0
 10
89.9695359865
 20
246.1227847562
 30
0.0
 10
89.9213304741
 20
246.1613493767
 30
0.0
  0
SPLINE
  5
32E
100
AcDbEntity
  8
0
100
AcDbSpline
 62
7
  6
CONTINUOUS
 70
0
 71
3
 72
9
 73
5
 74
0
 42
0.0000001
 43
0.0000001
 44
0.0000000001
 40
0.0
 40
0.0
 40
0.0
 40
0.0
 40
0.2423406373
 40
1.0
 40
1.0
 40
1.0
 40
1.0
 10
89.9213304741
 20
246.1613493767
 30
0.0
 10
89.910243835
 20
246.1702187364
 30
0.0
 10
89.863738152
 20
246.2058661109
 30
0.0
 10
89.8144088982
 20
246.2377819108
 30
0.0
 10
89.7759671086
 20
246.2599757863
 30
0.0
  0
SPLINE
  5
32F
100
AcDbEntity
  8
0
100
AcDbSpline
 62
7
  6
CONTINUOUS
 70
0
 71
3
 72
19
 73
15
 74
0
 42
0.0000001
 43
0.0000001
 44
0.0000000001
 40
0.0
 40
0.0
 40
0.0
 40
0.0
 40
0.1382631925
 40
0.2913998958
 40
0.4445402274
 40
0.5827877966
 40
0.6432393188
 40
0.6973178778
 40
0.7459598308
 40
0.7913887291
 40
0.8368205906
 40
0.8854544311
 40
0.9395663131
 40
1.0
 40
1.0
 40
1.0
 40
1.0
 10
89.7759671086
 20
246.2599757863
 30
0.0
 10
89.635421279
 20
246.3411181232
 30
0.0
 10
89.3085795168
 20
246.4595162009
 30
0.0
 10
88.7860291259
 20
246.5162926417
 30
0.0
 10
88.2633777309
 20
246.4593798204
 30
0.0
 10
87.8690191352
 20
246.3168585659
 30
0.0
 10
87.6232088609
 20
246.147808059
 30
0.0
 10
87.4900303797
 20
246.0077702665
 30
0.0
 10
87.4057326276
 20
245.8528434057
 30
0.0
 10
87.3765138203
 20
245.6884561829
 30
0.0
 10
87.4057245905
 20
245.5240881208
 30
0.0
 10
87.4899839901
 20
245.3690825119
 30
0.0
 10
87.6231903952
 20
245.2291352197
 30
0.0
 10
87.7346449559
 20
245.1523587933
 30
0.0
 10
87.7960763644
 20
245.1168921554
 30
0.0
  0
SPLINE
  5
330
100
AcDbEntity
  8
0
100
AcDbSpline
 62
7
  6
CONTINUOUS
 70
0
 71
3
 72
12
 73
8
 74
0
 42
0.0000001
 43
0.0000001
 44
0.0000000001
 40
0.0
 40
0.0
 40
0.0
 40
0.0
 40
0.2855240763
 40
0.5494915843
 40
0.6721061525
 40
0.7880352494
 40
1.0
 40
1.0
 40
1.0
 40
1.0
 10
93.8996089652
 20
273.1919015979
 30
0.0
 10
94.7662860047
 20
273.388231998
 30
0.0
 10
96.4129443773
 20
273.8712627661
 30
0.0
 10
98.3219137722
 20
274.7499908909
 30
0.0
 10
99.6435213308
 20
275.5911170599
 30
0.0
 10
100.7471897671
 20
276.4573271557
 30
0.0
 10
101.447875282
 20
277.2183294076
 30
0.0
 10
101.8186806606
 20
277.7639524815
 30
0.0
  0
SPLINE
  5
331
100
AcDbEntity
  8
0
100
AcDbSpline
 62
7
  6
CONTINUOUS
 70
0
 71
3
 72
17
 73
13
 74
0
 42
0.0000001
 43
0.0000001
 44
0.0000000001
 40
0.0
 40
0.0
 40
0.0
 40
0.0
 40
0.0428584554
 40
0.0874839031
 40
0.1353177481
 40
0.1872794187
 40
0.3045395902
 40
0.4382053041
 40
0.582547581
 40
0.729712444
 40
0.8713059798
 40
1.0
 40
1.0
 40
1.0
 40
1.0
 10
104.8280920043
 20
252.2203122104
 30
0.0
 10
104.8280960939
 20
252.1662259759
 30
0.0
 10
104.8135982619
 20
252.0553582188
 30
0.0
 10
104.7500475314
 20
251.8952568967
 30
0.0
 10
104.6468500549
 20
251.7434886057
 30
0.0
 10
104.452618325
 20
251.548541378
 30
0.0
 10
104.1216369063
 20
251.3470698844
 30
0.0
 10
103.6457468038
 20
251.1881034034
 30
0.0
 10
103.1116760849
 20
251.1130386338
 30
0.0
 10
102.5627274896
 20
251.1282329233
 30
0.0
 10
102.0437041735
 20
251.2320496932
 30
0.0
 10
101.7252518222
 20
251.3634454784
 30
0.0
 10
101.5846011901
 20
251.4446483217
 30
0.0
  0
SPLINE
  5
332
100
AcDbEntity
  8
0
100
AcDbSpline
 62
7
  6
CONTINUOUS
 70
0
 71
3
 72
13
 73
9
 74
0
 42
0.0000001
 43
0.0000001
 44
0.0000000001
 40
0.0
 40
0.0
 40
0.0
 40
0.0
 40
0.1142487484
 40
0.2375477548
 40
0.5000005226
 40
0.7624530043
 40
0.8857516767
 40
1.0
 40
1.0
 40
1.0
 40
1.0
 10
86.6647102249
 20
242.830696675
 30
0.0
 10
86.8099217946
 20
242.7468606328
 30
0.0
 10
87.1275081709
 20
242.5989675207
 30
0.0
 10
87.8313395918
 20
242.3852088804
 30
0.0
 10
88.7860338917
 20
242.2813723532
 30
0.0
 10
89.7407272735
 20
242.3852132946
 30
0.0
 10
90.4445560569
 20
242.5989753971
 30
0.0
 10
90.7621404871
 20
242.7468700956
 30
0.0
 10
90.907350912
 20
242.830706873
 30
0.0
  0
SPLINE
  5
333
100
AcDbEntity
  8
0
100
AcDbSpline
 62
7
  6
CONTINUOUS
 70
0
 71
3
 72
11
 73
7
 74
0
 42
0.0000001
 43
0.0000001
 44
0.0000000001
 40
0.0
 40
0.0
 40
0.0
 40
0.0
 40
0.2897776971
 40
0.5490719787
 40
0.7822272299
 40
1.0
 40
1.0
 40
1.0
 40
1.0
 10
105.0494276563
 20
250.9955899505
 30
0.0
 10
105.1810975549
 20
251.0716091481
 30
0.0
 10
105.4199485387
 20
251.2360536202
 30
0.0
 10
105.705314101
 20
251.536082975
 30
0.0
 10
105.8858797087
 20
251.8678709554
 30
0.0
 10
105.9280764299
 20
252.1060523139
 30
0.0
 10
105.9280764285
 20
252.220312214
 30
0.0
  0
SPLINE
  5
334
100
AcDbEntity
  8
0
100
AcDbSpline
 62
7
  6
CONTINUOUS
 70
0
 71
3
 72
9
 73
5
 74
0
 42
0.0000001
 43
0.0000001
 44
0.0000000001
 40
0.0
 40
0.0
 40
0.0
 40
0.0
 40
0.2621744969
 40
1.0
 40
1.0
 40
1.0
 40
1.0
 10
101.5846011901
 20
251.4446483217
 30
0.0
 10
101.5580168298
 20
251.4599964621
 30
0.0
 10
101.4581856877
 20
251.5211497205
 30
0.0
 10
101.3646882338
 20
251.5931190474
 30
0.0
 10
101.302189609
 20
251.6527588751
 30
0.0
  0
SPLINE
  5
335
100
AcDbEntity
  8
0
100
AcDbSpline
 62
7
  6
CONTINUOUS
 70
0
 71
3
 72
11
 73
7
 74
0
 42
0.0000001
 43
0.0000001
 44
0.0000000001
 40
0.0
 40
0.0
 40
0.0
 40
0.0
 40
0.2211971357
 40
0.4596522008
 40
0.7188871808
 40
1.0
 40
1.0
 40
1.0
 40
1.0
 10
100.5392855933
 20
250.8228154206
 30
0.0
 10
100.418353035
 20
250.4837930527
 30
0.0
 10
100.0809611136
 20
249.8081566328
 30
0.0
 10
99.3521472826
 20
248.8848781449
 30
0.0
 10
98.403688236
 20
248.0364135477
 30
0.0
 10
97.667438375
 20
247.5501102001
 30
0.0
 10
97.271279559
 20
247.3213891663
 30
0.0
  0
SPLINE
  5
336
100
AcDbEntity
  8
0
100
AcDbSpline
 62
7
  6
CONTINUOUS
 70
0
 71
3
 72
11
 73
7
 74
0
 42
0.0000001
 43
0.0000001
 44
0.0000000001
 40
0.0
 40
0.0
 40
0.0
 40
0.0
 40
0.2897036169
 40
0.5490920547
 40
0.7822205729
 40
1.0
 40
1.0
 40
1.0
 40
1.0
 10
87.4425244458
 20
243.2797652443
 30
0.0
 10
87.3591538164
 20
243.3278982107
 30
0.0
 10
87.2078975717
 20
243.4320770501
 30
0.0
 10
87.027121605
 20
243.6220557448
 30
0.0
 10
86.9127708899
 20
243.8322242631
 30
0.0
 10
86.8860336849
 20
243.9830617477
 30
0.0
 10
86.8860282131
 20
244.0554291403
 30
0.0
  0
SPLINE
  5
337
100
AcDbEntity
  8
0
100
AcDbSpline
 62
7
  6
CONTINUOUS
 70
0
 71
3
 72
11
 73
7
 74
0
 42
0.0000001
 43
0.0000001
 44
0.0000000001
 40
0.0
 40
0.0
 40
0.0
 40
0.0
 40
0.230132502
 40
0.4756531159
 40
0.7335209377
 40
1.0
 40
1.0
 40
1.0
 40
1.0
 10
97.271279559
 20
247.3213891663
 30
0.0
 10
96.8099436649
 20
247.0550383536
 30
0.0
 10
95.8170870804
 20
246.5710733906
 30
0.0
 10
94.2115084819
 20
246.0090438911
 30
0.0
 10
92.4745362676
 20
245.5978530973
 30
0.0
 10
91.2699796745
 20
245.4327462409
 30
0.0
 10
90.6556846786
 20
245.3767932436
 30
0.0
  0
SPLINE
  5
338
100
AcDbEntity
  8
0
100
AcDbSpline
 62
7
  6
CONTINUOUS
 70
0
 71
3
 72
9
 73
5
 74
0
 42
0.0000001
 43
0.0000001
 44
0.0000000001
 40
0.0
 40
0.0
 40
0.0
 40
0.0
 40
0.5147163309
 40
1.0
 40
1.0
 40
1.0
 40
1.0
 10
86.8847008683
 20
245.3796984929
 30
0.0
 10
85.9989603932
 20
245.4617404139
 30
0.0
 10
84.2864020152
 20
245.7337791496
 30
0.0
 10
82.6281816193
 20
246.2486015019
 30
0.0
 10
81.8518695494
 20
246.5659357068
 30
0.0
  0
SPLINE
  5
339
100
AcDbEntity
  8
0
100
AcDbSpline
 62
7
  6
CONTINUOUS
 70
0
 71
3
 72
11
 73
7
 74
0
 42
0.0000001
 43
0.0000001
 44
0.0000000001
 40
0.0
 40
0.0
 40
0.0
 40
0.0
 40
0.2177836649
 40
0.4509127634
 40
0.7102976676
 40
1.0
 40
1.0
 40
1.0
 40
1.0
 10
86.8860217362
 20
245.2801827623
 30
0.0
 10
86.8860265517
 20
245.2078137374
 30
0.0
 10
86.9127684314
 20
245.0569744374
 30
0.0
 10
87.0271215961
 20
244.846806655
 30
0.0
 10
87.2078978616
 20
244.6568289397
 30
0.0
 10
87.3591539279
 20
244.552651772
 30
0.0
 10
87.4425244458
 20
244.5045188699
 30
0.0
  0
SPLINE
  5
33A
100
AcDbEntity
  8
0
100
AcDbSpline
 62
7
  6
CONTINUOUS
 70
0
 71
3
 72
17
 73
13
 74
0
 42
0.0000001
 43
0.0000001
 44
0.0000000001
 40
0.0
 40
0.0
 40
0.0
 40
0.0
 40
0.0428584554
 40
0.0874839031
 40
0.1353177481
 40
0.1872794187
 40
0.3045395902
 40
0.4382053041
 40
0.582547581
 40
0.729712444
 40
0.8713059798
 40
1.0
 40
1.0
 40
1.0
 40
1.0
 10
90.68601526
 20
244.055429133
 30
0.0
 10
90.6860193496
 20
244.0013428985
 30
0.0
 10
90.6715215176
 20
243.8904751414
 30
0.0
 10
90.6079707871
 20
243.7303738192
 30
0.0
 10
90.5047733106
 20
243.5786055283
 30
0.0
 10
90.3105415807
 20
243.3836583005
 30
0.0
 10
89.979560162
 20
243.182186807
 30
0.0
 10
89.5036700595
 20
243.0232203259
 30
0.0
 10
88.9695993406
 20
242.9481555564
 30
0.0
 10
88.4206507454
 20
242.9633498459
 30
0.0
 10
87.9016274293
 20
243.0671666158
 30
0.0
 10
87.5831750779
 20
243.198562401
 30
0.0
 10
87.4425244458
 20
243.2797652443
 30
0.0
  0
SPLINE
  5
33B
100
AcDbEntity
  8
0
100
AcDbSpline
 62
7
  6
CONTINUOUS
 70
0
 71
3
 72
13
 73
9
 74
0
 42
0.0000001
 43
0.0000001
 44
0.0000000001
 40
0.0
 40
0.0
 40
0.0
 40
0.0
 40
0.2894093637
 40
0.5482893222
 40
0.667743693
 40
0.7817683305
 40
0.8919017487
 40
1.0
 40
1.0
 40
1.0
 40
1.0
 10
39.6420106535
 20
282.8797339354
 30
0.0
 10
40.1468003884
 20
283.1711726851
 30
0.0
 10
41.1498864715
 20
283.6489975602
 30
0.0
 10
42.4707694808
 20
283.9670497972
 30
0.0
 10
43.4648166096
 20
284.0017470787
 30
0.0
 10
44.1553253093
 20
283.9246856012
 30
0.0
 10
44.8030509397
 20
283.7456180516
 30
0.0
 10
45.2033491938
 20
283.5581290956
 30
0.0
 10
45.3919027832
 20
283.4492865285
 30
0.0
  0
SPLINE
  5
33C
100
AcDbEntity
  8
0
100
AcDbSpline
 62
7
  6
CONTINUOUS
 70
0
 71
3
 72
11
 73
7
 74
0
 42
0.0000001
 43
0.0000001
 44
0.0000000001
 40
0.0
 40
0.0
 40
0.0
 40
0.0
 40
0.2884463769
 40
0.5471938033
 40
0.7809049901
 40
1.0
 40
1.0
 40
1.0
 40
1.0
 10
51.6125591976
 20
241.3719669777
 30
0.0
 10
51.4879130068
 20
241.2964342581
 30
0.0
 10
51.2619849553
 20
241.1339561816
 30
0.0
 10
50.9931884019
 20
240.8404308902
 30
0.0
 10
50.8237291444
 20
240.5180110932
 30
0.0
 10
50.7842860867
 20
240.2877457905
 30
0.0
 10
50.7842860882
 20
240.1770416878
 30
0.0
  0
SPLINE
  5
33D
100
AcDbEntity
  8
0
100
AcDbSpline
 62
7
  6
CONTINUOUS
 70
0
 71
3
 72
11
 73
7
 74
0
 42
0.0000001
 43
0.0000001
 44
0.0000000001
 40
0.0
 40
0.0
 40
0.0
 40
0.0
 40
0.2451117305
 40
0.4911314743
 40
0.741116646
 40
1.0
 40
1.0
 40
1.0
 40
1.0
 10
69.8264585387
 20
233.2369802231
 30
0.0
 10
69.8264585387
 20
233.3396487105
 30
0.0
 10
69.7927828398
 20
233.5467579099
 30
0.0
 10
69.6506263617
 20
233.8274051537
 30
0.0
 10
69.4360634933
 20
234.0638722156
 30
0.0
 10
69.2603093321
 20
234.1873196467
 30
0.0
 10
69.1663996691
 20
234.2415371894
 30
0.0
  0
SPLINE
  5
33E
100
AcDbEntity
  8
0
100
AcDbSpline
 62
7
  6
CONTINUOUS
 70
0
 71
3
 72
16
 73
12
 74
0
 42
0.0000001
 43
0.0000001
 44
0.0000000001
 40
0.0
 40
0.0
 40
0.0
 40
0.0
 40
0.1255556452
 40
0.2585414488
 40
0.3947881623
 40
0.5285480428
 40
0.6552674168
 40
0.7738681319
 40
0.8873393665
 40
0.9435556912
 40
1.0
 40
1.0
 40
1.0
 40
1.0
 10
69.1663996691
 20
234.2415371894
 30
0.0
 10
69.0274819114
 20
234.3217395797
 30
0.0
 10
68.7192221522
 20
234.4496354929
 30
0.0
 10
68.2213829014
 20
234.5457555339
 30
0.0
 10
67.7038456271
 20
234.5521616377
 30
0.0
 10
67.2010586379
 20
234.4684316776
 30
0.0
 10
66.7447119673
 20
234.295375274
 30
0.0
 10
66.3629089191
 20
234.0316058057
 30
0.0
 10
66.1376159272
 20
233.7284915514
 30
0.0
 10
66.0427324361
 20
233.4535607191
 30
0.0
 10
66.0264585387
 20
233.3090923976
 30
0.0
 10
66.0264585387
 20
233.2369802231
 30
0.0
  0
SPLINE
  5
33F
100
AcDbEntity
  8
0
100
AcDbSpline
 62
7
  6
CONTINUOUS
 70
0
 71
3
 72
11
 73
7
 74
0
 42
0.0000001
 43
0.0000001
 44
0.0000000001
 40
0.0
 40
0.0
 40
0.0
 40
0.0
 40
0.2897781767
 40
0.5490726313
 40
0.7822276909
 40
1.0
 40
1.0
 40
1.0
 40
1.0
 10
51.6629525242
 20
235.1963981074
 30
0.0
 10
51.5312801632
 20
235.2724174606
 30
0.0
 10
51.2924246465
 20
235.4368625605
 30
0.0
 10
51.0070532884
 20
235.7368941393
 30
0.0
 10
50.8264837744
 20
236.0686853322
 30
0.0
 10
50.7842860896
 20
236.3068694389
 30
0.0
 10
50.7842860882
 20
236.421130569
 30
0.0
  0
SPLINE
  5
340
100
AcDbEntity
  8
0
100
AcDbSpline
 62
7
  6
CONTINUOUS
 70
0
 71
3
 72
13
 73
9
 74
0
 42
0.0000001
 43
0.0000001
 44
0.0000000001
 40
0.0
 40
0.0
 40
0.0
 40
0.0
 40
0.1142483233
 40
0.2375469957
 40
0.4999994774
 40
0.7624522452
 40
0.8857512516
 40
1.0
 40
1.0
 40
1.0
 40
1.0
 10
70.0477877142
 20
227.031593215
 30
0.0
 10
69.9025772893
 20
226.9477564376
 30
0.0
 10
69.584992859
 20
226.7998617391
 30
0.0
 10
68.8811640757
 20
226.5860996366
 30
0.0
 10
67.9264706939
 20
226.4822586952
 30
0.0
 10
66.971776394
 20
226.5860952224
 30
0.0
 10
66.2679449731
 20
226.7998538627
 30
0.0
 10
65.9503585968
 20
226.9477469747
 30
0.0
 10
65.8051470271
 20
227.031583017
 30
0.0
  0
SPLINE
  5
341
100
AcDbEntity
  8
0
100
AcDbSpline
 62
7
  6
CONTINUOUS
 70
0
 71
3
 72
11
 73
7
 74
0
 42
0.0000001
 43
0.0000001
 44
0.0000000001
 40
0.0
 40
0.0
 40
0.0
 40
0.0
 40
0.2451117305
 40
0.4911314743
 40
0.741116646
 40
1.0
 40
1.0
 40
1.0
 40
1.0
 10
83.968535283
 20
241.4018633005
 30
0.0
 10
83.968535283
 20
241.504531788
 30
0.0
 10
83.9348595841
 20
241.7116409873
 30
0.0
 10
83.792703106
 20
241.9922882312
 30
0.0
 10
83.5781402376
 20
242.2287552931
 30
0.0
 10
83.4023860764
 20
242.3522027241
 30
0.0
 10
83.3084764134
 20
242.4064202668
 30
0.0
  0
SPLINE
  5
342
100
AcDbEntity
  8
0
100
AcDbSpline
 62
7
  6
CONTINUOUS
 70
0
 71
3
 72
9
 73
5
 74
0
 42
0.0000001
 43
0.0000001
 44
0.0000000001
 40
0.0
 40
0.0
 40
0.0
 40
0.0
 40
0.4844455046
 40
1.0
 40
1.0
 40
1.0
 40
1.0
 10
83.3084764134
 20
242.4064202668
 30
0.0
 10
83.0992293106
 20
242.5272264049
 30
0.0
 10
82.6180725658
 20
242.6926276673
 30
0.0
 10
82.114218699
 20
242.7211394634
 30
0.0
 10
81.8577616448
 20
242.7025220003
 30
0.0
  0
SPLINE
  5
343
100
AcDbEntity
  8
0
100
AcDbSpline
 62
7
  6
CONTINUOUS
 70
0
 71
3
 72
11
 73
7
 74
0
 42
0.0000001
 43
0.0000001
 44
0.0000000001
 40
0.0
 40
0.0
 40
0.0
 40
0.0
 40
0.2177723091
 40
0.4509273687
 40
0.7102218233
 40
1.0
 40
1.0
 40
1.0
 40
1.0
 10
85.0685132307
 20
240.1771096748
 30
0.0
 10
85.0685132292
 20
240.291370805
 30
0.0
 10
85.0263155444
 20
240.5295549117
 30
0.0
 10
84.8457460305
 20
240.8613461046
 30
0.0
 10
84.5603746723
 20
241.1613776833
 30
0.0
 10
84.3215191556
 20
241.3258227832
 30
0.0
 10
84.1898467947
 20
241.4018421364
 30
0.0
  0
SPLINE
  5
344
100
AcDbEntity
  8
0
100
AcDbSpline
 62
7
  6
CONTINUOUS
 70
0
 71
3
 72
11
 73
7
 74
0
 42
0.0000001
 43
0.0000001
 44
0.0000000001
 40
0.0
 40
0.0
 40
0.0
 40
0.0
 40
0.2177727701
 40
0.4509280213
 40
0.7102223029
 40
1.0
 40
1.0
 40
1.0
 40
1.0
 10
85.0685132307
 20
236.421198556
 30
0.0
 10
85.0685132321
 20
236.3069386559
 30
0.0
 10
85.0263165109
 20
236.0687572974
 30
0.0
 10
84.8457509032
 20
235.736969317
 30
0.0
 10
84.5603853409
 20
235.4369399622
 30
0.0
 10
84.3215343571
 20
235.2724954901
 30
0.0
 10
84.1898644585
 20
235.1964762925
 30
0.0
  0
SPLINE
  5
345
100
AcDbEntity
  8
0
100
AcDbSpline
 62
7
  6
CONTINUOUS
 70
0
 71
3
 72
23
 73
19
 74
0
 42
0.0000001
 43
0.0000001
 44
0.0000000001
 40
0.0
 40
0.0
 40
0.0
 40
0.0
 40
0.0428143767
 40
0.0873963266
 40
0.1351792644
 40
0.1870885817
 40
0.2435352511
 40
0.3044927548
 40
0.3695907094
 40
0.4381987331
 40
0.5094964487
 40
0.5825323633
 40
0.6562760996
 40
0.729664833
 40
0.8016523087
 40
0.8712553197
 40
0.9376070773
 40
1.0
 40
1.0
 40
1.0
 40
1.0
 10
81.926393239
 20
243.1164843829
 30
0.0
 10
81.9263941591
 20
242.7179353757
 30
0.0
 10
81.8198323131
 20
241.9009185742
 30
0.0
 10
81.3512543937
 20
240.7212274486
 30
0.0
 10
80.5909223026
 20
239.6029021087
 30
0.0
 10
79.5603968341
 20
238.5680645211
 30
0.0
 10
78.2834486023
 20
237.6349942052
 30
0.0
 10
76.78726558
 20
236.8212417361
 30
0.0
 10
75.103182309
 20
236.1427896359
 30
0.0
 10
73.2665783031
 20
235.6134845223
 30
0.0
 10
71.3162770495
 20
235.244365351
 30
0.0
 10
69.2937061193
 20
235.0432266472
 30
0.0
 10
67.2419691305
 20
235.0143560684
 30
0.0
 10
65.2048292497
 20
235.1583521453
 30
0.0
 10
63.225759923
 20
235.4721695271
 30
0.0
 10
61.3466996847
 20
235.9491657363
 30
0.0
 10
59.6078733375
 20
236.5792058177
 30
0.0
 10
58.5299372957
 20
237.1106706029
 30
0.0
 10
58.0269459384
 20
237.4010662288
 30
0.0
  0
SPLINE
  5
346
100
AcDbEntity
  8
0
100
AcDbSpline
 62
7
  6
CONTINUOUS
 70
0
 71
3
 72
21
 73
17
 74
0
 42
0.0000001
 43
0.0000001
 44
0.0000000001
 40
0.0
 40
0.0
 40
0.0
 40
0.0
 40
0.0428267842
 40
0.0874214681
 40
0.135217865
 40
0.1871416048
 40
0.2436038332
 40
0.3045781221
 40
0.3696940577
 40
0.4383210659
 40
0.5825526823
 40
0.7295909905
 40
0.8015985371
 40
0.8712194981
 40
0.9375916107
 40
1.0
 40
1.0
 40
1.0
 40
1.0
 10
33.8921185238
 20
263.5306257484
 30
0.0
 10
33.6085802656
 20
263.6942982194
 30
0.0
 10
33.0711408423
 20
264.1056985154
 30
0.0
 10
32.4243569375
 20
264.9235470173
 30
0.0
 10
31.9410586693
 20
265.9237528875
 30
0.0
 10
31.6281213003
 20
267.0818751998
 30
0.0
 10
31.4887875075
 20
268.3735091536
 30
0.0
 10
31.5243887276
 20
269.772079252
 30
0.0
 10
31.7333849042
 20
271.2488369692
 30
0.0
 10
32.245642079
 20
273.3142650739
 30
0.0
 10
33.2827017373
 20
275.8790880794
 30
0.0
 10
34.7440451609
 20
278.2568659391
 30
0.0
 10
36.1345153472
 20
279.9735988713
 30
0.0
 10
37.2456741579
 20
281.1144738112
 30
0.0
 10
38.4080377297
 20
282.0926474823
 30
0.0
 10
39.2288480781
 20
282.6411958352
 30
0.0
 10
39.6420106535
 20
282.8797339354
 30
0.0
  0
SPLINE
  5
347
100
AcDbEntity
  8
0
100
AcDbSpline
 62
7
  6
CONTINUOUS
 70
0
 71
3
 72
11
 73
7
 74
0
 42
0.0000001
 43
0.0000001
 44
0.0000000001
 40
0.0
 40
0.0
 40
0.0
 40
0.0
 40
0.2448197203
 40
0.5075829757
 40
0.7662618223
 40
1.0
 40
1.0
 40
1.0
 40
1.0
 10
54.9417669534
 20
239.3071768935
 30
0.0
 10
54.7494187445
 20
239.2218596435
 30
0.0
 10
54.3247488549
 20
239.101767257
 30
0.0
 10
53.6632852548
 20
239.0597641849
 30
0.0
 10
53.016136753
 20
239.1489444936
 30
0.0
 10
52.6147489314
 20
239.3009314058
 30
0.0
 10
52.4407667451
 20
239.4013777955
 30
0.0
  0
SPLINE
  5
348
100
AcDbEntity
  8
0
100
AcDbSpline
 62
7
  6
CONTINUOUS
 70
0
 71
3
 72
14
 73
10
 74
0
 42
0.0000001
 43
0.0000001
 44
0.0000000001
 40
0.0
 40
0.0
 40
0.0
 40
0.0
 40
0.4198448
 40
0.5840360543
 40
0.7191594594
 40
0.8265418279
 40
0.9076863151
 40
0.9644659903
 40
1.0
 40
1.0
 40
1.0
 40
1.0
 10
80.9591174628
 20
265.7207499423
 30
0.0
 10
81.0879566916
 20
265.7846143075
 30
0.0
 10
81.2681695788
 20
265.8715903191
 30
0.0
 10
81.4936012398
 20
265.9708655908
 30
0.0
 10
81.6227886
 20
266.0231372735
 30
0.0
 10
81.7271740138
 20
266.060291958
 30
0.0
 10
81.8083687088
 20
266.0831948514
 30
0.0
 10
81.8666176276
 20
266.0928671292
 30
0.0
 10
81.8995775767
 20
266.0909630174
 30
0.0
 10
81.9105646844
 20
266.0857278602
 30
0.0
  0
SPLINE
  5
349
100
AcDbEntity
  8
0
100
AcDbSpline
 62
7
  6
CONTINUOUS
 70
0
 71
3
 72
16
 73
12
 74
0
 42
0.0000001
 43
0.0000001
 44
0.0000000001
 40
0.0
 40
0.0
 40
0.0
 40
0.0
 40
0.1367484362
 40
0.2821368884
 40
0.4293127978
 40
0.5710690874
 40
0.7010693012
 40
0.8151037033
 40
0.9127696571
 40
0.9571482185
 40
1.0
 40
1.0
 40
1.0
 40
1.0
 10
80.9760569225
 20
240.504414475
 30
0.0
 10
81.1241638683
 20
240.4442948971
 30
0.0
 10
81.4430766745
 20
240.3519986021
 30
0.0
 10
81.9434680005
 20
240.2940355279
 30
0.0
 10
82.452839344
 20
240.314065028
 30
0.0
 10
82.9351650555
 20
240.4107606425
 30
0.0
 10
83.3571989127
 20
240.5778969966
 30
0.0
 10
83.6906940335
 20
240.8046874235
 30
0.0
 10
83.8813758231
 20
241.0449212499
 30
0.0
 10
83.9561649262
 20
241.2494373251
 30
0.0
 10
83.9685386162
 20
241.3517743159
 30
0.0
 10
83.9685352833
 20
241.4018633005
 30
0.0
  0
SPLINE
  5
34A
100
AcDbEntity
  8
0
100
AcDbSpline
 62
7
  6
CONTINUOUS
 70
0
 71
3
 72
19
 73
15
 74
0
 42
0.0000001
 43
0.0000001
 44
0.0000000001
 40
0.0
 40
0.0
 40
0.0
 40
0.0
 40
0.1488209978
 40
0.3047464555
 40
0.4559393371
 40
0.5917126449
 40
0.6517829177
 40
0.7062947806
 40
0.7559171753
 40
0.8021895
 40
0.8473984566
 40
0.8940974602
 40
0.9444851007
 40
1.0
 40
1.0
 40
1.0
 40
1.0
 10
81.3402407644
 20
241.1198332942
 30
0.0
 10
81.4828456173
 20
241.069636574
 30
0.0
 10
81.7880794419
 20
241.0028651766
 30
0.0
 10
82.2538350971
 20
240.9938072233
 30
0.0
 10
82.6997741437
 20
241.0718691306
 30
0.0
 10
83.0296055917
 20
241.208588572
 30
0.0
 10
83.2369404456
 20
241.3577781558
 30
0.0
 10
83.353176695
 20
241.4789998495
 30
0.0
 10
83.4326666259
 20
241.6112696304
 30
0.0
 10
83.471919274
 20
241.75118602
 30
0.0
 10
83.468075014
 20
241.8936474761
 30
0.0
 10
83.4216995059
 20
242.0325660133
 30
0.0
 10
83.3355552428
 20
242.1631630767
 30
0.0
 10
83.2578632691
 20
242.2387153864
 30
0.0
 10
83.2143000067
 20
242.274530036
 30
0.0
  0
SPLINE
  5
34B
100
AcDbEntity
  8
0
100
AcDbSpline
 62
7
  6
CONTINUOUS
 70
0
 71
3
 72
9
 73
5
 74
0
 42
0.0000001
 43
0.0000001
 44
0.0000000001
 40
0.0
 40
0.0
 40
0.0
 40
0.0
 40
0.2417316218
 40
1.0
 40
1.0
 40
1.0
 40
1.0
 10
83.2143000067
 20
242.274530036
 30
0.0
 10
83.2025228305
 20
242.2842124016
 30
0.0
 10
83.1528938022
 20
242.3231556749
 30
0.0
 10
83.0998984926
 20
242.3577442659
 30
0.0
 10
83.0584806551
 20
242.3816563245
 30
0.0
  0
SPLINE
  5
34C
100
AcDbEntity
  8
0
100
AcDbSpline
 62
7
  6
CONTINUOUS
 70
0
 71
3
 72
10
 73
6
 74
0
 42
0.0000001
 43
0.0000001
 44
0.0000000001
 40
0.0
 40
0.0
 40
0.0
 40
0.0
 40
0.2279407193
 40
0.4763313067
 40
1.0
 40
1.0
 40
1.0
 40
1.0
 10
83.0584806551
 20
242.3816563245
 30
0.0
 10
82.9765393198
 20
242.4289641063
 30
0.0
 10
82.7945595803
 20
242.5097575421
 30
0.0
 10
82.3919128289
 20
242.6146788638
 30
0.0
 10
82.0662471518
 20
242.6282457109
 30
0.0
 10
81.8497773092
 20
242.6084562969
 30
0.0
  0
SPLINE
  5
34D
100
AcDbEntity
  8
0
100
AcDbSpline
 62
7
  6
CONTINUOUS
 70
0
 71
3
 72
17
 73
13
 74
0
 42
0.0000001
 43
0.0000001
 44
0.0000000001
 40
0.0
 40
0.0
 40
0.0
 40
0.0
 40
0.1286888688
 40
0.2702719422
 40
0.4174318501
 40
0.5617773054
 40
0.6954483126
 40
0.8127138313
 40
0.8646770028
 40
0.9125122438
 40
0.9571395731
 40
1.0
 40
1.0
 40
1.0
 40
1.0
 10
66.582961248
 20
232.4613163307
 30
0.0
 10
66.7236066926
 20
232.3801164825
 30
0.0
 10
67.042040265
 20
232.2487253049
 30
0.0
 10
67.5610378073
 20
232.144905131
 30
0.0
 10
68.1099720148
 20
232.1296998094
 30
0.0
 10
68.6440510812
 20
232.2047506692
 30
0.0
 10
69.119962451
 20
232.3637132533
 30
0.0
 10
69.4509636924
 20
232.565185551
 30
0.0
 10
69.6452050834
 20
232.7601387357
 30
0.0
 10
69.7484111648
 20
232.911909579
 30
0.0
 10
69.8119618617
 20
233.0720188318
 30
0.0
 10
69.8264621381
 20
233.1828913304
 30
0.0
 10
69.826458539
 20
233.2369802231
 30
0.0
  0
SPLINE
  5
34E
100
AcDbEntity
  8
0
100
AcDbSpline
 62
7
  6
CONTINUOUS
 70
0
 71
3
 72
19
 73
15
 74
0
 42
0.0000001
 43
0.0000001
 44
0.0000000001
 40
0.0
 40
0.0
 40
0.0
 40
0.0
 40
0.1375031753
 40
0.2897301121
 40
0.4436111787
 40
0.5855383886
 40
0.6488660308
 40
0.7061397013
 40
0.7576539185
 40
0.804712273
 40
0.8496919727
 40
0.8955724926
 40
0.9450692869
 40
1.0
 40
1.0
 40
1.0
 40
1.0
 10
66.9365131666
 20
233.0736896162
 30
0.0
 10
67.0688354982
 20
232.9972950107
 30
0.0
 10
67.3749495363
 20
232.8830778406
 30
0.0
 10
67.8671851094
 20
232.82010822
 30
0.0
 10
68.3669325315
 20
232.8594313321
 30
0.0
 10
68.7529605642
 20
232.9783300806
 30
0.0
 10
69.0070130388
 20
233.1240703588
 30
0.0
 10
69.1545653441
 20
233.2476506742
 30
0.0
 10
69.261268899
 20
233.386184747
 30
0.0
 10
69.3221283475
 20
233.5361805332
 30
0.0
 10
69.3325084931
 20
233.6918526406
 30
0.0
 10
69.2915686074
 20
233.8450176162
 30
0.0
 10
69.2027402845
 20
233.9887127908
 30
0.0
 10
69.1193729571
 20
234.0708837967
 30
0.0
 10
69.0722232624
 20
234.1096469585
 30
0.0
  0
SPLINE
  5
34F
100
AcDbEntity
  8
0
100
AcDbSpline
 62
7
  6
CONTINUOUS
 70
0
 71
3
 72
9
 73
5
 74
0
 42
0.0000001
 43
0.0000001
 44
0.0000000001
 40
0.0
 40
0.0
 40
0.0
 40
0.0
 40
0.2417316218
 40
1.0
 40
1.0
 40
1.0
 40
1.0
 10
69.0722232624
 20
234.1096469585
 30
0.0
 10
69.0604460862
 20
234.1193293242
 30
0.0
 10
69.0108170579
 20
234.1582725975
 30
0.0
 10
68.9578217483
 20
234.1928611884
 30
0.0
 10
68.9164039108
 20
234.2167732471
 30
0.0
  0
SPLINE
  5
350
100
AcDbEntity
  8
0
100
AcDbSpline
 62
7
  6
CONTINUOUS
 70
0
 71
3
 72
19
 73
15
 74
0
 42
0.0000001
 43
0.0000001
 44
0.0000000001
 40
0.0
 40
0.0
 40
0.0
 40
0.0
 40
0.138268433
 40
0.291399633
 40
0.4445411314
 40
0.5827846438
 40
0.6432373716
 40
0.6973194311
 40
0.7459596107
 40
0.7913884449
 40
0.8368174529
 40
0.8854518571
 40
0.9395803522
 40
1.0
 40
1.0
 40
1.0
 40
1.0
 10
68.9164039108
 20
234.2167732471
 30
0.0
 10
68.7758531196
 20
234.2979184485
 30
0.0
 10
68.4490099751
 20
234.4163175355
 30
0.0
 10
67.9264622181
 20
234.4730632862
 30
0.0
 10
67.403810666
 20
234.4162108562
 30
0.0
 10
67.0094757692
 20
234.2736331347
 30
0.0
 10
66.763654666
 20
234.1046070087
 30
0.0
 10
66.6304476193
 20
233.9645883971
 30
0.0
 10
66.5461730181
 20
233.8096412293
 30
0.0
 10
66.5169841396
 20
233.6452630294
 30
0.0
 10
66.5461363664
 20
233.4808888773
 30
0.0
 10
66.6304282432
 20
233.3258730136
 30
0.0
 10
66.7636549162
 20
233.1859470296
 30
0.0
 10
66.8750961887
 20
233.1091479228
 30
0.0
 10
66.9365131666
 20
233.0736896162
 30
0.0
  0
SPLINE
  5
351
100
AcDbEntity
  8
0
100
AcDbSpline
 62
7
  6
CONTINUOUS
 70
0
 71
3
 72
11
 73
7
 74
0
 42
0.0000001
 43
0.0000001
 44
0.0000000001
 40
0.0
 40
0.0
 40
0.0
 40
0.0
 40
0.2975552641
 40
0.5687949365
 40
0.804100065
 40
1.0
 40
1.0
 40
1.0
 40
1.0
 10
73.0400457674
 20
261.1486990587
 30
0.0
 10
71.5294750434
 20
260.2281787384
 30
0.0
 10
68.6549628451
 20
258.4471113311
 30
0.0
 10
64.6201326902
 20
255.8834157113
 30
0.0
 10
61.1199943273
 20
253.6055726815
 30
0.0
 10
58.9887417175
 20
252.1808432144
 30
0.0
 10
58.0269459384
 20
251.5241280307
 30
0.0
  0
SPLINE
  5
352
100
AcDbEntity
  8
0
100
AcDbSpline
 62
7
  6
CONTINUOUS
 70
0
 71
3
 72
9
 73
5
 74
0
 42
0.0000001
 43
0.0000001
 44
0.0000000001
 40
0.0
 40
0.0
 40
0.0
 40
0.0
 40
0.4778425454
 40
1.0
 40
1.0
 40
1.0
 40
1.0
 10
52.4407667451
 20
240.6261314211
 30
0.0
 10
52.5598761275
 20
240.5573651429
 30
0.0
 10
52.8256851496
 20
240.4415794177
 30
0.0
 10
53.1065623641
 20
240.373127588
 30
0.0
 10
53.2547869816
 20
240.3482983404
 30
0.0
  0
SPLINE
  5
353
100
AcDbEntity
  8
0
100
AcDbSpline
 62
7
  6
CONTINUOUS
 70
0
 71
3
 72
12
 73
8
 74
0
 42
0.0000001
 43
0.0000001
 44
0.0000000001
 40
0.0
 40
0.0
 40
0.0
 40
0.0
 40
0.2855240763
 40
0.5494915843
 40
0.6721061525
 40
0.7880352494
 40
1.0
 40
1.0
 40
1.0
 40
1.0
 10
73.0400457674
 20
261.1486990587
 30
0.0
 10
73.9067228068
 20
261.3450294588
 30
0.0
 10
75.5533811795
 20
261.8280602269
 30
0.0
 10
77.4623505744
 20
262.7067883517
 30
0.0
 10
78.783958133
 20
263.5479145207
 30
0.0
 10
79.8876265693
 20
264.4141246165
 30
0.0
 10
80.5883120842
 20
265.1751268683
 30
0.0
 10
80.9591174628
 20
265.7207499423
 30
0.0
  0
SPLINE
  5
354
100
AcDbEntity
  8
0
100
AcDbSpline
 62
7
  6
CONTINUOUS
 70
0
 71
3
 72
17
 73
13
 74
0
 42
0.0000001
 43
0.0000001
 44
0.0000000001
 40
0.0
 40
0.0
 40
0.0
 40
0.0
 40
0.0428584554
 40
0.0874839031
 40
0.1353177481
 40
0.1872794187
 40
0.3045395902
 40
0.4382053041
 40
0.582547581
 40
0.729712444
 40
0.8713059798
 40
1.0
 40
1.0
 40
1.0
 40
1.0
 10
83.9685288065
 20
240.1771096712
 30
0.0
 10
83.9685328961
 20
240.1230234367
 30
0.0
 10
83.9540350641
 20
240.0121556796
 30
0.0
 10
83.8904843336
 20
239.8520543575
 30
0.0
 10
83.7872868571
 20
239.7002860665
 30
0.0
 10
83.5930551272
 20
239.5053388388
 30
0.0
 10
83.2620737085
 20
239.3038673452
 30
0.0
 10
82.786183606
 20
239.1449008642
 30
0.0
 10
82.2521128871
 20
239.0698360946
 30
0.0
 10
81.7031642918
 20
239.0850303841
 30
0.0
 10
81.1841409757
 20
239.188847154
 30
0.0
 10
80.8656886244
 20
239.3202429392
 30
0.0
 10
80.7250379923
 20
239.4014457825
 30
0.0
  0
SPLINE
  5
355
100
AcDbEntity
  8
0
100
AcDbSpline
 62
7
  6
CONTINUOUS
 70
0
 71
3
 72
13
 73
9
 74
0
 42
0.0000001
 43
0.0000001
 44
0.0000000001
 40
0.0
 40
0.0
 40
0.0
 40
0.0
 40
0.1142487484
 40
0.2375477548
 40
0.5000005226
 40
0.7624530043
 40
0.8857516767
 40
1.0
 40
1.0
 40
1.0
 40
1.0
 10
65.8051470271
 20
230.7874941358
 30
0.0
 10
65.9503585968
 20
230.7036580935
 30
0.0
 10
66.2679449731
 20
230.5557649815
 30
0.0
 10
66.971776394
 20
230.3420063412
 30
0.0
 10
67.9264706939
 20
230.238169814
 30
0.0
 10
68.8811640757
 20
230.3420107554
 30
0.0
 10
69.584992859
 20
230.5557728579
 30
0.0
 10
69.9025772893
 20
230.7036675564
 30
0.0
 10
70.0477877142
 20
230.7875043338
 30
0.0
  0
SPLINE
  5
356
100
AcDbEntity
  8
0
100
AcDbSpline
 62
7
  6
CONTINUOUS
 70
0
 71
3
 72
11
 73
7
 74
0
 42
0.0000001
 43
0.0000001
 44
0.0000000001
 40
0.0
 40
0.0
 40
0.0
 40
0.0
 40
0.2177723091
 40
0.4509273687
 40
0.7102218233
 40
1.0
 40
1.0
 40
1.0
 40
1.0
 10
50.7842860882
 20
240.1770416878
 30
0.0
 10
50.7842860896
 20
240.0627805577
 30
0.0
 10
50.8264837744
 20
239.824596451
 30
0.0
 10
51.0070532884
 20
239.4928052581
 30
0.0
 10
51.2924246465
 20
239.1927736793
 30
0.0
 10
51.5312801632
 20
239.0283285794
 30
0.0
 10
51.6629525242
 20
238.9523092262
 30
0.0
  0
SPLINE
  5
357
100
AcDbEntity
  8
0
100
AcDbSpline
 62
7
  6
CONTINUOUS
 70
0
 71
3
 72
11
 73
7
 74
0
 42
0.0000001
 43
0.0000001
 44
0.0000000001
 40
0.0
 40
0.0
 40
0.0
 40
0.0
 40
0.2897776971
 40
0.5490719787
 40
0.7822272299
 40
1.0
 40
1.0
 40
1.0
 40
1.0
 10
84.1898644585
 20
238.9523874113
 30
0.0
 10
84.3215343571
 20
239.0284066089
 30
0.0
 10
84.5603853409
 20
239.192851081
 30
0.0
 10
84.8457509032
 20
239.4928804358
 30
0.0
 10
85.0263165109
 20
239.8246684162
 30
0.0
 10
85.0685132321
 20
240.0628497747
 30
0.0
 10
85.0685132307
 20
240.1771096748
 30
0.0
  0
SPLINE
  5
358
100
AcDbEntity
  8
0
100
AcDbSpline
 62
7
  6
CONTINUOUS
 70
0
 71
3
 72
11
 73
7
 74
0
 42
0.0000001
 43
0.0000001
 44
0.0000000001
 40
0.0
 40
0.0
 40
0.0
 40
0.0
 40
0.2211968568
 40
0.4596517185
 40
0.7188867346
 40
1.0
 40
1.0
 40
1.0
 40
1.0
 10
79.6797481687
 20
238.7796853191
 30
0.0
 10
79.5588196897
 20
238.4406559914
 30
0.0
 10
79.2214320469
 20
237.7650046526
 30
0.0
 10
78.4926146506
 20
236.8417060038
 30
0.0
 10
77.5441436899
 20
235.9932237852
 30
0.0
 10
76.8078820119
 20
235.5069116068
 30
0.0
 10
76.4117163612
 20
235.2781866271
 30
0.0
  0
SPLINE
  5
359
100
AcDbEntity
  8
0
100
AcDbSpline
 62
7
  6
CONTINUOUS
 70
0
 71
3
 72
9
 73
5
 74
0
 42
0.0000001
 43
0.0000001
 44
0.0000000001
 40
0.0
 40
0.0
 40
0.0
 40
0.0
 40
0.262171749
 40
1.0
 40
1.0
 40
1.0
 40
1.0
 10
80.7250379923
 20
239.4014457825
 30
0.0
 10
80.698458852
 20
239.4167909091
 30
0.0
 10
80.5986459408
 20
239.4779322981
 30
0.0
 10
80.5051643164
 20
239.5498855362
 30
0.0
 10
80.4426738252
 20
239.6095110931
 30
0.0
  0
SPLINE
  5
35A
100
AcDbEntity
  8
0
100
AcDbSpline
 62
7
  6
CONTINUOUS
 70
0
 71
3
 72
11
 73
7
 74
0
 42
0.0000001
 43
0.0000001
 44
0.0000000001
 40
0.0
 40
0.0
 40
0.0
 40
0.0
 40
0.2897036169
 40
0.5490920547
 40
0.7822205729
 40
1.0
 40
1.0
 40
1.0
 40
1.0
 10
66.582961248
 20
231.236562705
 30
0.0
 10
66.4995906186
 20
231.2846956715
 30
0.0
 10
66.3483343739
 20
231.3888745109
 30
0.0
 10
66.1675584072
 20
231.5788532056
 30
0.0
 10
66.0532076921
 20
231.7890217239
 30
0.0
 10
66.0264704871
 20
231.9398592085
 30
0.0
 10
66.0264650153
 20
232.012226601
 30
0.0
  0
SPLINE
  5
35B
100
AcDbEntity
  8
0
100
AcDbSpline
 62
7
  6
CONTINUOUS
 70
0
 71
3
 72
9
 73
5
 74
0
 42
0.0000001
 43
0.0000001
 44
0.0000000001
 40
0.0
 40
0.0
 40
0.0
 40
0.0
 40
0.4595942789
 40
1.0
 40
1.0
 40
1.0
 40
1.0
 10
51.9270316932
 20
241.1704063521
 30
0.0
 10
51.9677305694
 20
241.0614158364
 30
0.0
 10
52.1152416512
 20
240.8459647544
 30
0.0
 10
52.3222955271
 20
240.6945292633
 30
0.0
 10
52.4407667451
 20
240.6261314211
 30
0.0
  0
SPLINE
  5
35C
100
AcDbEntity
  8
0
100
AcDbSpline
 62
7
  6
CONTINUOUS
 70
0
 71
3
 72
11
 73
7
 74
0
 42
0.0000001
 43
0.0000001
 44
0.0000000001
 40
0.0
 40
0.0
 40
0.0
 40
0.0
 40
0.2897036169
 40
0.5490920547
 40
0.7822205729
 40
1.0
 40
1.0
 40
1.0
 40
1.0
 10
52.4407667451
 20
239.4013777955
 30
0.0
 10
52.3573961156
 20
239.4495107619
 30
0.0
 10
52.206139871
 20
239.5536896013
 30
0.0
 10
52.0253639043
 20
239.743668296
 30
0.0
 10
51.9110131891
 20
239.9538368143
 30
0.0
 10
51.8842759841
 20
240.1046742989
 30
0.0
 10
51.8842705123
 20
240.1770416915
 30
0.0
  0
SPLINE
  5
35D
100
AcDbEntity
  8
0
100
AcDbSpline
 62
7
  6
CONTINUOUS
 70
0
 71
3
 72
11
 73
7
 74
0
 42
0.0000001
 43
0.0000001
 44
0.0000000001
 40
0.0
 40
0.0
 40
0.0
 40
0.0
 40
0.2301324488
 40
0.4756530228
 40
0.7335208867
 40
1.0
 40
1.0
 40
1.0
 40
1.0
 10
76.4117163612
 20
235.2781866271
 30
0.0
 10
75.9503805847
 20
235.0118358822
 30
0.0
 10
74.9575242356
 20
234.5278709911
 30
0.0
 10
73.3519458004
 20
233.9658415065
 30
0.0
 10
71.6149735228
 20
233.554650613
 30
0.0
 10
70.4104167392
 20
233.3895437672
 30
0.0
 10
69.7961216419
 20
233.3335907387
 30
0.0
  0
SPLINE
  5
35E
100
AcDbEntity
  8
0
100
AcDbSpline
 62
7
  6
CONTINUOUS
 70
0
 71
3
 72
14
 73
10
 74
0
 42
0.0000001
 43
0.0000001
 44
0.0000000001
 40
0.0
 40
0.0
 40
0.0
 40
0.0
 40
0.2929107665
 40
0.4314464155
 40
0.5625524806
 40
0.6851510281
 40
0.798691698
 40
0.9033107111
 40
1.0
 40
1.0
 40
1.0
 40
1.0
 10
66.0251351258
 20
233.3364961982
 30
0.0
 10
64.9262288399
 20
233.4382827669
 30
0.0
 10
63.3137697138
 20
233.7195205031
 30
0.0
 10
61.2953418136
 20
234.3748315716
 30
0.0
 10
59.9411821963
 20
234.9743154608
 30
0.0
 10
58.7463018909
 20
235.6789586212
 30
0.0
 10
57.7340066122
 20
236.4761465302
 30
0.0
 10
56.9250701654
 20
237.3511345044
 30
0.0
 10
56.5194123263
 20
237.9993329576
 30
0.0
 10
56.3618265548
 20
238.3277853213
 30
0.0
  0
SPLINE
  5
35F
100
AcDbEntity
  8
0
100
AcDbSpline
 62
7
  6
CONTINUOUS
 70
0
 71
3
 72
11
 73
7
 74
0
 42
0.0000001
 43
0.0000001
 44
0.0000000001
 40
0.0
 40
0.0
 40
0.0
 40
0.0
 40
0.2177836649
 40
0.4509127634
 40
0.7102976676
 40
1.0
 40
1.0
 40
1.0
 40
1.0
 10
66.0264585384
 20
233.2369802231
 30
0.0
 10
66.0264633539
 20
233.1646111982
 30
0.0
 10
66.0532052336
 20
233.0137718982
 30
0.0
 10
66.1675583983
 20
232.8036041158
 30
0.0
 10
66.3483346638
 20
232.6136264005
 30
0.0
 10
66.4995907301
 20
232.5094492328
 30
0.0
 10
66.582961248
 20
232.4613163307
 30
0.0
  0
SPLINE
  5
360
100
AcDbEntity
  8
0
100
AcDbSpline
 62
7
  6
CONTINUOUS
 70
0
 71
3
 72
17
 73
13
 74
0
 42
0.0000001
 43
0.0000001
 44
0.0000000001
 40
0.0
 40
0.0
 40
0.0
 40
0.0
 40
0.0428584554
 40
0.0874839031
 40
0.1353177481
 40
0.1872794187
 40
0.3045395902
 40
0.4382053041
 40
0.582547581
 40
0.729712444
 40
0.8713059798
 40
1.0
 40
1.0
 40
1.0
 40
1.0
 10
69.8264520622
 20
232.0122265938
 30
0.0
 10
69.8264561518
 20
231.9581403593
 30
0.0
 10
69.8119583198
 20
231.8472726022
 30
0.0
 10
69.7484075893
 20
231.68717128
 30
0.0
 10
69.6452101128
 20
231.5354029891
 30
0.0
 10
69.4509783829
 20
231.3404557613
 30
0.0
 10
69.1199969642
 20
231.1389842678
 30
0.0
 10
68.6441068617
 20
230.9800177867
 30
0.0
 10
68.1100361428
 20
230.9049530172
 30
0.0
 10
67.5610875475
 20
230.9201473067
 30
0.0
 10
67.0420642315
 20
231.0239640766
 30
0.0
 10
66.7236118801
 20
231.1553598618
 30
0.0
 10
66.582961248
 20
231.236562705
 30
0.0
  0
SPLINE
  5
361
100
AcDbEntity
  8
0
100
AcDbSpline
 62
7
  6
CONTINUOUS
 70
0
 71
3
 72
11
 73
7
 74
0
 42
0.0000001
 43
0.0000001
 44
0.0000000001
 40
0.0
 40
0.0
 40
0.0
 40
0.0
 40
0.2375347386
 40
0.4973873292
 40
0.758741283
 40
1.0
 40
1.0
 40
1.0
 40
1.0
 10
43.9357086478
 20
227.6582794002
 30
0.0
 10
43.6560001455
 20
227.5134894423
 30
0.0
 10
43.1267648952
 20
227.0996917853
 30
0.0
 10
42.5119758459
 20
226.2929550705
 30
0.0
 10
42.0908555491
 20
225.3648547834
 30
0.0
 10
41.9715427471
 20
224.6975391511
 30
0.0
 10
41.9715427471
 20
224.3776394321
 30
0.0
  0
SPLINE
  5
362
100
AcDbEntity
  8
0
100
AcDbSpline
 62
7
  6
CONTINUOUS
 70
0
 71
3
 72
11
 73
7
 74
0
 42
0.0000001
 43
0.0000001
 44
0.0000000001
 40
0.0
 40
0.0
 40
0.0
 40
0.0
 40
0.2686418689
 40
0.5215931983
 40
0.7636604372
 40
1.0
 40
1.0
 40
1.0
 40
1.0
 10
41.9715427471
 20
224.3776394321
 30
0.0
 10
41.9715427471
 20
224.2365953438
 30
0.0
 10
41.9936228774
 20
223.9618994458
 30
0.0
 10
42.1060579435
 20
223.5735986479
 30
0.0
 10
42.3024921713
 20
223.2384383081
 30
0.0
 10
42.4901830568
 20
223.0645242051
 30
0.0
 10
42.593429304
 20
222.995697021
 30
0.0
  0
SPLINE
  5
363
100
AcDbEntity
  8
0
100
AcDbSpline
 62
7
  6
CONTINUOUS
 70
0
 71
3
 72
13
 73
9
 74
0
 42
0.0000001
 43
0.0000001
 44
0.0000000001
 40
0.0
 40
0.0
 40
0.0
 40
0.0
 40
0.1142494128
 40
0.2375488016
 40
0.500001607
 40
0.7624535328
 40
0.8857518943
 40
1.0
 40
1.0
 40
1.0
 40
1.0
 10
43.1776387664
 20
235.6045326218
 30
0.0
 10
43.1776387664
 20
235.8839928016
 30
0.0
 10
43.2288233073
 20
236.4656373035
 30
0.0
 10
43.5068057526
 20
237.6596692278
 30
0.0
 10
44.1524998736
 20
239.1241885154
 30
0.0
 10
45.0979556597
 20
240.4156388068
 30
0.0
 10
45.9930186124
 20
241.2533915838
 30
0.0
 10
46.4711407451
 20
241.5885376111
 30
0.0
 10
46.7131579524
 20
241.7282654768
 30
0.0
  0
SPLINE
  5
364
100
AcDbEntity
  8
0
100
AcDbSpline
 62
7
  6
CONTINUOUS
 70
0
 71
3
 72
9
 73
5
 74
0
 42
0.0000001
 43
0.0000001
 44
0.0000000001
 40
0.0
 40
0.0
 40
0.0
 40
0.0
 40
0.2470021932
 40
1.0
 40
1.0
 40
1.0
 40
1.0
 10
42.2755137235
 20
187.496008808
 30
0.0
 10
42.1507031268
 20
187.625288015
 30
0.0
 10
41.6552080026
 20
188.1580868417
 30
0.0
 10
41.1993849885
 20
188.7275685437
 30
0.0
 10
40.8795689592
 20
189.1723344753
 30
0.0
  0
SPLINE
  5
365
100
AcDbEntity
  8
0
100
AcDbSpline
 62
7
  6
CONTINUOUS
 70
0
 71
3
 72
9
 73
5
 74
0
 42
0.0000001
 43
0.0000001
 44
0.0000000001
 40
0.0
 40
0.0
 40
0.0
 40
0.0
 40
0.2342030627
 40
1.0
 40
1.0
 40
1.0
 40
1.0
 10
44.0128423283
 20
226.7769788375
 30
0.0
 10
44.1209608477
 20
226.8144592905
 30
0.0
 10
44.5752788534
 20
226.9955652351
 30
0.0
 10
44.9973969206
 20
227.2520023001
 30
0.0
 10
45.2989679418
 20
227.4734854836
 30
0.0
  0
SPLINE
  5
366
100
AcDbEntity
  8
0
100
AcDbSpline
 62
7
  6
CONTINUOUS
 70
0
 71
3
 72
9
 73
5
 74
0
 42
0.0000001
 43
0.0000001
 44
0.0000000001
 40
0.0
 40
0.0
 40
0.0
 40
0.0
 40
0.5390737069
 40
1.0
 40
1.0
 40
1.0
 40
1.0
 10
43.6629072024
 20
226.4228604209
 30
0.0
 10
43.7022666745
 20
226.5049176355
 30
0.0
 10
43.7986178548
 20
226.6463171983
 30
0.0
 10
43.9393194
 20
226.7514913199
 30
0.0
 10
44.0128423283
 20
226.7769788375
 30
0.0
  0
SPLINE
  5
367
100
AcDbEntity
  8
0
100
AcDbSpline
 62
7
  6
CONTINUOUS
 70
0
 71
3
 72
9
 73
5
 74
0
 42
0.0000001
 43
0.0000001
 44
0.0000000001
 40
0.0
 40
0.0
 40
0.0
 40
0.0
 40
0.4787874828
 40
1.0
 40
1.0
 40
1.0
 40
1.0
 10
40.8795689592
 20
200.8869962851
 30
0.0
 10
40.6316655874
 20
202.4191924989
 30
0.0
 10
40.4077599945
 20
205.6696772274
 30
0.0
 10
40.6583311598
 20
208.9120682978
 30
0.0
 10
40.8895059437
 20
210.5858331667
 30
0.0
  0
SPLINE
  5
368
100
AcDbEntity
  8
0
100
AcDbSpline
 62
7
  6
CONTINUOUS
 70
0
 71
3
 72
9
 73
5
 74
0
 42
0.0000001
 43
0.0000001
 44
0.0000000001
 40
0.0
 40
0.0
 40
0.0
 40
0.0
 40
0.2430753139
 40
1.0
 40
1.0
 40
1.0
 40
1.0
 10
42.5967687645
 20
222.9942588702
 30
0.0
 10
42.5662260262
 20
223.0152764957
 30
0.0
 10
42.445796161
 20
223.1092968769
 30
0.0
 10
42.3492058155
 20
223.232252695
 30
0.0
 10
42.2918371411
 20
223.3324420331
 30
0.0
  0
SPLINE
  5
369
100
AcDbEntity
  8
0
100
AcDbSpline
 62
7
  6
CONTINUOUS
 70
0
 71
3
 72
9
 73
5
 74
0
 42
0.0000001
 43
0.0000001
 44
0.0000000001
 40
0.0
 40
0.0
 40
0.0
 40
0.0
 40
0.2269581367
 40
1.0
 40
1.0
 40
1.0
 40
1.0
 10
42.2918371411
 20
223.3324420331
 30
0.0
 10
42.2575895414
 20
223.39225245
 30
0.0
 10
42.1292936934
 20
223.6688454286
 30
0.0
 10
42.0887012122
 20
223.979588055
 30
0.0
 10
42.0887012122
 20
224.2143417706
 30
0.0
  0
SPLINE
  5
36A
100
AcDbEntity
  8
0
100
AcDbSpline
 62
7
  6
CONTINUOUS
 70
0
 71
3
 72
11
 73
7
 74
0
 42
0.0000001
 43
0.0000001
 44
0.0000000001
 40
0.0
 40
0.0
 40
0.0
 40
0.0
 40
0.2367452473
 40
0.4989694841
 40
0.7617664305
 40
1.0
 40
1.0
 40
1.0
 40
1.0
 10
42.0887012122
 20
224.2143417706
 30
0.0
 10
42.0887012122
 20
224.529546181
 30
0.0
 10
42.2056823929
 20
225.194330656
 30
0.0
 10
42.6146282216
 20
226.1305156573
 30
0.0
 10
43.2144299148
 20
226.9599650286
 30
0.0
 10
43.7286854189
 20
227.4010506559
 30
0.0
 10
44.0011037143
 20
227.5635166965
 30
0.0
  0
SPLINE
  5
36B
100
AcDbEntity
  8
0
100
AcDbSpline
 62
7
  6
CONTINUOUS
 70
0
 71
3
 72
9
 73
5
 74
0
 42
0.0000001
 43
0.0000001
 44
0.0000000001
 40
0.0
 40
0.0
 40
0.0
 40
0.0
 40
0.2319083353
 40
1.0
 40
1.0
 40
1.0
 40
1.0
 10
47.548390954
 20
224.7357750648
 30
0.0
 10
47.5373908676
 20
224.731961766
 30
0.0
 10
47.4908237383
 20
224.7130344572
 30
0.0
 10
47.4479778873
 20
224.6856507412
 30
0.0
 10
47.4175813087
 20
224.6619249952
 30
0.0
  0
SPLINE
  5
36C
100
AcDbEntity
  8
0
100
AcDbSpline
 62
7
  6
CONTINUOUS
 70
0
 71
3
 72
9
 73
5
 74
0
 42
0.0000001
 43
0.0000001
 44
0.0000000001
 40
0.0
 40
0.0
 40
0.0
 40
0.0
 40
0.2441103843
 40
1.0
 40
1.0
 40
1.0
 40
1.0
 10
47.4175813087
 20
224.6619249952
 30
0.0
 10
47.4121602692
 20
224.657693657
 30
0.0
 10
47.3902568922
 20
224.6399723437
 30
0.0
 10
47.3695521723
 20
224.6207830978
 30
0.0
 10
47.3545844862
 20
224.6056364816
 30
0.0
  0
SPLINE
  5
36D
100
AcDbEntity
  8
0
100
AcDbSpline
 62
7
  6
CONTINUOUS
 70
0
 71
3
 72
18
 73
14
 74
0
 42
0.0000001
 43
0.0000001
 44
0.0000000001
 40
0.0
 40
0.0
 40
0.0
 40
0.0
 40
0.1309177414
 40
0.2605254543
 40
0.3884354198
 40
0.5140760459
 40
0.636586617
 40
0.6963328335
 40
0.7548641629
 40
0.8121956484
 40
0.8690582287
 40
0.9287930682
 40
1.0
 40
1.0
 40
1.0
 40
1.0
 10
48.6431233902
 20
236.5316170739
 30
0.0
 10
48.3814250746
 20
236.5681964017
 30
0.0
 10
47.8599738394
 20
236.636335476
 30
0.0
 10
47.0803167096
 20
236.7196403076
 30
0.0
 10
46.3088999704
 20
236.7773285384
 30
0.0
 10
45.5499206071
 20
236.7993269882
 30
0.0
 10
44.9278875857
 20
236.7743123338
 30
0.0
 10
44.445744416
 20
236.7100679173
 30
0.0
 10
44.0991891688
 20
236.6326189303
 30
0.0
 10
43.7703732742
 20
236.5128033771
 30
0.0
 10
43.468179784
 20
236.3263472509
 30
0.0
 10
43.2260624869
 20
236.019929677
 30
0.0
 10
43.1776387664
 20
235.7482556317
 30
0.0
 10
43.1776387664
 20
235.6045326218
 30
0.0
  0
SPLINE
  5
36E
100
AcDbEntity
  8
0
100
AcDbSpline
 62
7
  6
CONTINUOUS
 70
0
 71
3
 72
18
 73
14
 74
0
 42
0.0000001
 43
0.0000001
 44
0.0000000001
 40
0.0
 40
0.0
 40
0.0
 40
0.0
 40
0.1309185173
 40
0.2605269088
 40
0.3884374214
 40
0.5140784109
 40
0.6365890666
 40
0.6963351737
 40
0.754866253
 40
0.8121973079
 40
0.8690592549
 40
0.9287934021
 40
1.0
 40
1.0
 40
1.0
 40
1.0
 10
48.6431233902
 20
236.5316170739
 30
0.0
 10
48.4805915676
 20
236.7399586264
 30
0.0
 10
48.1608477142
 20
237.1574667249
 30
0.0
 10
47.6988626773
 20
237.7909986622
 30
0.0
 10
47.2631823977
 20
238.4302024512
 30
0.0
 10
46.8646289406
 20
239.0764799124
 30
0.0
 10
46.5752648602
 20
239.6276681917
 30
0.0
 10
46.3898216186
 20
240.0773264796
 30
0.0
 10
46.2836101172
 20
240.4161673145
 30
0.0
 10
46.222958648
 20
240.7608288254
 30
0.0
 10
46.2333305475
 20
241.1157556904
 30
0.0
 10
46.3776313604
 20
241.4786373359
 30
0.0
 10
46.588692433
 20
241.6564057046
 30
0.0
 10
46.7131579524
 20
241.7282654768
 30
0.0
  0
SPLINE
  5
36F
100
AcDbEntity
  8
0
100
AcDbSpline
 62
7
  6
CONTINUOUS
 70
0
 71
3
 72
9
 73
5
 74
0
 42
0.0000001
 43
0.0000001
 44
0.0000000001
 40
0.0
 40
0.0
 40
0.0
 40
0.0
 40
0.254665055
 40
1.0
 40
1.0
 40
1.0
 40
1.0
 10
48.8345165675
 20
225.432281711
 30
0.0
 10
48.7991598478
 20
225.4063146309
 30
0.0
 10
48.6592545965
 20
225.305817017
 30
0.0
 10
48.5150397771
 20
225.2112849861
 30
0.0
 10
48.4052176275
 20
225.1447803314
 30
0.0
  0
SPLINE
  5
370
100
AcDbEntity
  8
0
100
AcDbSpline
 62
7
  6
CONTINUOUS
 70
0
 71
3
 72
9
 73
5
 74
0
 42
0.0000001
 43
0.0000001
 44
0.0000000001
 40
0.0
 40
0.0
 40
0.0
 40
0.0
 40
0.2553764961
 40
1.0
 40
1.0
 40
1.0
 40
1.0
 10
48.4052176275
 20
225.1447803314
 30
0.0
 10
48.3695628611
 20
225.1231889863
 30
0.0
 10
48.2289696436
 20
225.0402719165
 30
0.0
 10
48.0844228281
 20
224.964007244
 30
0.0
 10
47.974739214
 20
224.9116529659
 30
0.0
  0
SPLINE
  5
371
100
AcDbEntity
  8
0
100
AcDbSpline
 62
7
  6
CONTINUOUS
 70
0
 71
3
 72
9
 73
5
 74
0
 42
0.0000001
 43
0.0000001
 44
0.0000000001
 40
0.0
 40
0.0
 40
0.0
 40
0.0
 40
0.2558776365
 40
1.0
 40
1.0
 40
1.0
 40
1.0
 10
47.974739214
 20
224.9116529659
 30
0.0
 10
47.9392288257
 20
224.8947031164
 30
0.0
 10
47.7995960182
 20
224.8302755698
 30
0.0
 10
47.6565081568
 20
224.7732550615
 30
0.0
 10
47.548390954
 20
224.7357750648
 30
0.0
  0
SPLINE
  5
372
100
AcDbEntity
  8
0
100
AcDbSpline
 62
7
  6
CONTINUOUS
 70
0
 71
3
 72
9
 73
5
 74
0
 42
0.0000001
 43
0.0000001
 44
0.0000000001
 40
0.0
 40
0.0
 40
0.0
 40
0.0
 40
0.5390737069
 40
1.0
 40
1.0
 40
1.0
 40
1.0
 10
47.1984558281
 20
224.3816566483
 30
0.0
 10
47.2378153002
 20
224.4637138629
 30
0.0
 10
47.3341664805
 20
224.6051134257
 30
0.0
 10
47.4748680257
 20
224.7102875473
 30
0.0
 10
47.548390954
 20
224.7357750648
 30
0.0
  0
LINE
  5
373
100
AcDbEntity
  8
0
100
AcDbLine
 62
7
  6
CONTINUOUS
 10
113.6854617237
 20
235.946465937
 11
106.7046152129
 21
248.896918422
  0
SPLINE
  5
374
100
AcDbEntity
  8
0
100
AcDbSpline
 62
7
  6
CONTINUOUS
 70
0
 71
3
 72
9
 73
5
 74
0
 42
0.0000001
 43
0.0000001
 44
0.0000000001
 40
0.0
 40
0.0
 40
0.0
 40
0.0
 40
0.4999217045
 40
1.0
 40
1.0
 40
1.0
 40
1.0
 10
66.936005497
 20
173.4199241222
 30
0.0
 10
68.2217376699
 20
172.8736424692
 30
0.0
 10
70.7946854829
 20
171.7834541646
 30
0.0
 10
73.3674495854
 20
170.6928320923
 30
0.0
 10
74.6546064204
 20
170.1487908275
 30
0.0
  0
SPLINE
  5
375
100
AcDbEntity
  8
0
100
AcDbSpline
 62
7
  6
CONTINUOUS
 70
0
 71
3
 72
12
 73
8
 74
0
 42
0.0000001
 43
0.0000001
 44
0.0000000001
 40
0.0
 40
0.0
 40
0.0
 40
0.0
 40
0.2406301837
 40
0.4853046085
 40
0.736261212
 40
0.8656732218
 40
1.0
 40
1.0
 40
1.0
 40
1.0
 10
66.936005497
 20
173.4199241222
 30
0.0
 10
66.8220774958
 20
173.4683298308
 30
0.0
 10
66.5925847478
 20
173.5666195346
 30
0.0
 10
66.245716152
 20
173.7186937599
 30
0.0
 10
65.9526384855
 20
173.8510592891
 30
0.0
 10
65.7138185105
 20
173.9652929121
 30
0.0
 10
65.5926337058
 20
174.026561882
 30
0.0
 10
65.532720824
 20
174.0609901171
 30
0.0
  0
SPLINE
  5
376
100
AcDbEntity
  8
0
100
AcDbSpline
 62
7
  6
CONTINUOUS
 70
0
 71
3
 72
9
 73
5
 74
0
 42
0.0000001
 43
0.0000001
 44
0.0000000001
 40
0.0
 40
0.0
 40
0.0
 40
0.0
 40
0.2342030627
 40
1.0
 40
1.0
 40
1.0
 40
1.0
 10
47.548390954
 20
224.7357750648
 30
0.0
 10
47.6565094735
 20
224.7732555179
 30
0.0
 10
48.1108274791
 20
224.9543614625
 30
0.0
 10
48.5329455463
 20
225.2107985275
 30
0.0
 10
48.8345165675
 20
225.432281711
 30
0.0
  0
SPLINE
  5
377
100
AcDbEntity
  8
0
100
AcDbSpline
 62
7
  6
CONTINUOUS
 70
0
 71
3
 72
11
 73
7
 74
0
 42
0.0000001
 43
0.0000001
 44
0.0000000001
 40
0.0
 40
0.0
 40
0.0
 40
0.0
 40
0.2372446848
 40
0.5000016179
 40
0.7627576706
 40
1.0
 40
1.0
 40
1.0
 40
1.0
 10
48.8345165675
 20
236.0128674627
 30
0.0
 10
48.8345165675
 20
236.0708280725
 30
0.0
 10
48.856261819
 20
236.1930601394
 30
0.0
 10
48.9320305891
 20
236.3648169451
 30
0.0
 10
49.0428908283
 20
236.5163131399
 30
0.0
 10
49.1378735491
 20
236.5962608608
 30
0.0
 10
49.1880684861
 20
236.6252407482
 30
0.0
  0
SPLINE
  5
378
100
AcDbEntity
  8
0
100
AcDbSpline
 62
7
  6
CONTINUOUS
 70
0
 71
3
 72
9
 73
5
 74
0
 42
0.0000001
 43
0.0000001
 44
0.0000000001
 40
0.0
 40
0.0
 40
0.0
 40
0.0
 40
0.2470021932
 40
1.0
 40
1.0
 40
1.0
 40
1.0
 10
45.8110623492
 20
185.4548050354
 30
0.0
 10
45.6862517526
 20
185.5840842424
 30
0.0
 10
45.1907566284
 20
186.1168830691
 30
0.0
 10
44.7349336143
 20
186.6863647711
 30
0.0
 10
44.4151175849
 20
187.1311307027
 30
0.0
  0
SPLINE
  5
379
100
AcDbEntity
  8
0
100
AcDbSpline
 62
7
  6
CONTINUOUS
 70
0
 71
3
 72
9
 73
5
 74
0
 42
0.0000001
 43
0.0000001
 44
0.0000000001
 40
0.0
 40
0.0
 40
0.0
 40
0.0
 40
0.4787874828
 40
1.0
 40
1.0
 40
1.0
 40
1.0
 10
44.4151175849
 20
198.8457925125
 30
0.0
 10
44.1672142131
 20
200.3779887263
 30
0.0
 10
43.9433086202
 20
203.6284734548
 30
0.0
 10
44.1938797855
 20
206.8708645251
 30
0.0
 10
44.4250545695
 20
208.5446293941
 30
0.0
  0
SPLINE
  5
37A
100
AcDbEntity
  8
0
100
AcDbSpline
 62
7
  6
CONTINUOUS
 70
0
 71
3
 72
9
 73
5
 74
0
 42
0.0000001
 43
0.0000001
 44
0.0000000001
 40
0.0
 40
0.0
 40
0.0
 40
0.0
 40
0.5697649023
 40
1.0
 40
1.0
 40
1.0
 40
1.0
 10
106.6236311436
 20
248.7802771126
 30
0.0
 10
106.6216354049
 20
248.8033614626
 30
0.0
 10
106.6195144733
 20
248.8434003793
 30
0.0
 10
106.6384093704
 20
248.8857795007
 30
0.0
 10
106.6536370225
 20
248.8943955969
 30
0.0
  0
SPLINE
  5
37B
100
AcDbEntity
  8
0
100
AcDbSpline
 62
7
  6
CONTINUOUS
 70
0
 71
3
 72
9
 73
5
 74
0
 42
0.0000001
 43
0.0000001
 44
0.0000000001
 40
0.0
 40
0.0
 40
0.0
 40
0.0
 40
0.2150866958
 40
1.0
 40
1.0
 40
1.0
 40
1.0
 10
106.6536370225
 20
248.8943955969
 30
0.0
 10
106.6568730108
 20
248.8962265809
 30
0.0
 10
106.6730707588
 20
248.902798923
 30
0.0
 10
106.6915754617
 20
248.9006666745
 30
0.0
 10
106.7046157055
 20
248.896918065
 30
0.0
  0
SPLINE
  5
37C
100
AcDbEntity
  8
0
100
AcDbSpline
 62
7
  6
CONTINUOUS
 70
0
 71
3
 72
8
 73
4
 74
0
 42
0.0000001
 43
0.0000001
 44
0.0000000001
 40
0.0
 40
0.0
 40
0.0
 40
0.0
 40
1.0
 40
1.0
 40
1.0
 40
1.0
 10
75.482844834
 20
169.820622706
 30
0.0
 10
75.4932618511
 20
169.8109336167
 30
0.0
 10
75.5049754102
 20
169.802465981
 30
0.0
 10
75.5174852615
 20
169.7956912988
 30
0.0
  0
SPLINE
  5
37D
100
AcDbEntity
  8
0
100
AcDbSpline
 62
7
  6
CONTINUOUS
 70
0
 71
3
 72
9
 73
5
 74
0
 42
0.0000001
 43
0.0000001
 44
0.0000000001
 40
0.0
 40
0.0
 40
0.0
 40
0.0
 40
0.254578277
 40
1.0
 40
1.0
 40
1.0
 40
1.0
 10
72.7094435753
 20
192.2149992133
 30
0.0
 10
72.6695409608
 20
191.9260940253
 30
0.0
 10
72.5247556942
 20
190.789653163
 30
0.0
 10
72.4284067226
 20
189.6469114211
 30
0.0
 10
72.386993164
 20
188.7939525739
 30
0.0
  0
SPLINE
  5
37E
100
AcDbEntity
  8
0
100
AcDbSpline
 62
7
  6
CONTINUOUS
 70
0
 71
3
 72
12
 73
8
 74
0
 42
0.0000001
 43
0.0000001
 44
0.0000000001
 40
0.0
 40
0.0
 40
0.0
 40
0.0
 40
0.1315346401
 40
0.2592230793
 40
0.508170474
 40
0.7541281837
 40
1.0
 40
1.0
 40
1.0
 40
1.0
 10
104.6195161169
 20
235.9688786154
 30
0.0
 10
104.9026427336
 20
236.4713744493
 30
0.0
 10
105.3994601194
 20
237.4974389846
 30
0.0
 10
106.1373613475
 20
239.6039016504
 30
0.0
 10
106.6579132617
 20
242.2986075003
 30
0.0
 10
106.8244315519
 20
245.5490754303
 30
0.0
 10
106.7164935024
 20
247.7061549003
 30
0.0
 10
106.6236311436
 20
248.7802771126
 30
0.0
  0
SPLINE
  5
37F
100
AcDbEntity
  8
0
100
AcDbSpline
 62
7
  6
CONTINUOUS
 70
0
 71
3
 72
8
 73
4
 74
0
 42
0.0000001
 43
0.0000001
 44
0.0000000001
 40
0.0
 40
0.0
 40
0.0
 40
0.0
 40
1.0
 40
1.0
 40
1.0
 40
1.0
 10
67.035378918
 20
225.9940108805
 30
0.0
 10
71.5182891141
 20
222.9058431264
 30
0.0
 10
76.001103405
 20
219.8175361384
 30
0.0
 10
80.4837454292
 20
216.7289791312
 30
0.0
  0
SPLINE
  5
380
100
AcDbEntity
  8
0
100
AcDbSpline
 62
7
  6
CONTINUOUS
 70
0
 71
3
 72
11
 73
7
 74
0
 42
0.0000001
 43
0.0000001
 44
0.0000000001
 40
0.0
 40
0.0
 40
0.0
 40
0.0
 40
0.2467377961
 40
0.4970976394
 40
0.7485211801
 40
1.0
 40
1.0
 40
1.0
 40
1.0
 10
89.5696618325
 20
227.2798930593
 30
0.0
 10
87.7705447089
 20
226.9419945375
 30
0.0
 10
84.1090380557
 20
226.4549736497
 30
0.0
 10
78.5647071913
 20
226.1020984968
 30
0.0
 10
72.9754510478
 20
226.0072213762
 30
0.0
 10
69.2443414628
 20
226.0689921832
 30
0.0
 10
67.3793681782
 20
226.1227265727
 30
0.0
  0
SPLINE
  5
381
100
AcDbEntity
  8
0
100
AcDbSpline
 62
7
  6
CONTINUOUS
 70
0
 71
3
 72
10
 73
6
 74
0
 42
0.0000001
 43
0.0000001
 44
0.0000000001
 40
0.0
 40
0.0
 40
0.0
 40
0.0
 40
0.5165032546
 40
0.7645315954
 40
1.0
 40
1.0
 40
1.0
 40
1.0
 10
67.035378918
 20
225.9940108805
 30
0.0
 10
66.9482574989
 20
226.0020606013
 30
0.0
 10
66.8182359234
 20
226.0085367599
 30
0.0
 10
66.6495036551
 20
225.9935627252
 30
0.0
 10
66.5689029338
 20
225.9731744063
 30
0.0
 10
66.5328647997
 20
225.9560799918
 30
0.0
  0
SPLINE
  5
382
100
AcDbEntity
  8
0
100
AcDbSpline
 62
7
  6
CONTINUOUS
 70
0
 71
3
 72
9
 73
5
 74
0
 42
0.0000001
 43
0.0000001
 44
0.0000000001
 40
0.0
 40
0.0
 40
0.0
 40
0.0
 40
0.4972041859
 40
1.0
 40
1.0
 40
1.0
 40
1.0
 10
67.0353799215
 20
225.9940108167
 30
0.0
 10
67.0714469627
 20
226.0452824142
 30
0.0
 10
67.1886825764
 20
226.1161325943
 30
0.0
 10
67.3160029053
 20
226.1245522794
 30
0.0
 10
67.3793681782
 20
226.1227265727
 30
0.0
  0
SPLINE
  5
383
100
AcDbEntity
  8
0
100
AcDbSpline
 62
7
  6
CONTINUOUS
 70
0
 71
3
 72
9
 73
5
 74
0
 42
0.0000001
 43
0.0000001
 44
0.0000000001
 40
0.0
 40
0.0
 40
0.0
 40
0.0
 40
0.2627500549
 40
1.0
 40
1.0
 40
1.0
 40
1.0
 10
66.5328647997
 20
225.9560799918
 30
0.0
 10
66.5295101732
 20
225.9432992952
 30
0.0
 10
66.5181053417
 20
225.8943278896
 30
0.0
 10
66.5122596962
 20
225.843924671
 30
0.0
 10
66.5122596962
 20
225.8068485997
 30
0.0
  0
SPLINE
  5
384
100
AcDbEntity
  8
0
100
AcDbSpline
 62
7
  6
CONTINUOUS
 70
0
 71
3
 72
9
 73
5
 74
0
 42
0.0000001
 43
0.0000001
 44
0.0000000001
 40
0.0
 40
0.0
 40
0.0
 40
0.0
 40
0.2608427578
 40
1.0
 40
1.0
 40
1.0
 40
1.0
 10
66.5122596962
 20
219.5046589823
 30
0.0
 10
66.5156305201
 20
219.5203532353
 30
0.0
 10
66.5271411506
 20
219.5808029817
 30
0.0
 10
66.5328647997
 20
219.6424494412
 30
0.0
 10
66.5328647997
 20
219.6879369018
 30
0.0
  0
SPLINE
  5
385
100
AcDbEntity
  8
0
100
AcDbSpline
 62
7
  6
CONTINUOUS
 70
0
 71
3
 72
23
 73
19
 74
0
 42
0.0000001
 43
0.0000001
 44
0.0000000001
 40
0.0
 40
0.0
 40
0.0
 40
0.0
 40
0.0166739811
 40
0.0331120492
 40
0.0654155176
 40
0.0972835128
 40
0.1289081784
 40
0.1603816728
 40
0.1917540045
 40
0.2543029902
 40
0.3166885137
 40
0.378973567
 40
0.4411921357
 40
0.5033643397
 40
0.6276160935
 40
0.7517883665
 40
0.8759108398
 40
1.0
 40
1.0
 40
1.0
 40
1.0
 10
66.5122596962
 20
219.5046589823
 30
0.0
 10
66.5502635807
 20
219.4319257228
 30
0.0
 10
66.6408734885
 20
219.29564173
 30
0.0
 10
66.8389993531
 20
219.0419406106
 30
0.0
 10
67.1017768131
 20
218.744283954
 30
0.0
 10
67.4245197275
 20
218.4006311085
 30
0.0
 10
67.750505142
 20
218.065643256
 30
0.0
 10
68.0782610514
 20
217.7358618406
 30
0.0
 10
68.516410226
 20
217.301229693
 30
0.0
 10
69.0665200481
 20
216.7634617783
 30
0.0
 10
69.7288531774
 20
216.1228755296
 30
0.0
 10
70.3921612568
 20
215.4856450401
 30
0.0
 10
71.0561262711
 20
214.850618195
 30
0.0
 10
71.9418158853
 20
214.0061807989
 30
0.0
 10
73.049961899
 20
212.9531969162
 30
0.0
 10
74.3807520986
 20
211.6918951441
 30
0.0
 10
75.7119971931
 20
210.4322376168
 30
0.0
 10
76.5997992753
 20
209.5931062449
 30
0.0
 10
77.0437225906
 20
209.1736835171
 30
0.0
  0
SPLINE
  5
386
100
AcDbEntity
  8
0
100
AcDbSpline
 62
7
  6
CONTINUOUS
 70
0
 71
3
 72
8
 73
4
 74
0
 42
0.0000001
 43
0.0000001
 44
0.0000000001
 40
0.0
 40
0.0
 40
0.0
 40
0.0
 40
1.0
 40
1.0
 40
1.0
 40
1.0
 10
74.6460675902
 20
170.669772835
 30
0.0
 10
71.4310159509
 20
171.981350501
 30
0.0
 10
68.2162311261
 20
173.293582374
 30
0.0
 10
65.0016977541
 20
174.606429744
 30
0.0
  0
SPLINE
  5
387
100
AcDbEntity
  8
0
100
AcDbSpline
 62
7
  6
CONTINUOUS
 70
0
 71
3
 72
9
 73
5
 74
0
 42
0.0000001
 43
0.0000001
 44
0.0000000001
 40
0.0
 40
0.0
 40
0.0
 40
0.0
 40
0.2558758255
 40
1.0
 40
1.0
 40
1.0
 40
1.0
 10
77.1189055734
 20
209.1026515301
 30
0.0
 10
77.0758030607
 20
209.0709956976
 30
0.0
 10
76.9057776205
 20
208.9494482597
 30
0.0
 10
76.7293608821
 20
208.8367636089
 30
0.0
 10
76.5946743245
 20
208.7590027528
 30
0.0
  0
SPLINE
  5
388
100
AcDbEntity
  8
0
100
AcDbSpline
 62
7
  6
CONTINUOUS
 70
0
 71
3
 72
9
 73
5
 74
0
 42
0.0000001
 43
0.0000001
 44
0.0000000001
 40
0.0
 40
0.0
 40
0.0
 40
0.0
 40
0.2394442502
 40
1.0
 40
1.0
 40
1.0
 40
1.0
 10
80.4837454292
 20
215.4951088933
 30
0.0
 10
80.4837454292
 20
215.3980272534
 30
0.0
 10
80.472276049
 20
214.9926086248
 30
0.0
 10
80.4178778093
 20
214.5888586164
 30
0.0
 10
80.3573411854
 20
214.2864950832
 30
0.0
  0
SPLINE
  5
389
100
AcDbEntity
  8
0
100
AcDbSpline
 62
7
  6
CONTINUOUS
 70
0
 71
3
 72
9
 73
5
 74
0
 42
0.0000001
 43
0.0000001
 44
0.0000000001
 40
0.0
 40
0.0
 40
0.0
 40
0.0
 40
0.2457672944
 40
1.0
 40
1.0
 40
1.0
 40
1.0
 10
80.3573411854
 20
214.2864950832
 30
0.0
 10
80.3450874727
 20
214.2252912102
 30
0.0
 10
80.2919884101
 20
213.9769153814
 30
0.0
 10
80.226272901
 20
213.7312669265
 30
0.0
 10
80.1703571796
 20
213.5480541477
 30
0.0
  0
SPLINE
  5
38A
100
AcDbEntity
  8
0
100
AcDbSpline
 62
7
  6
CONTINUOUS
 70
0
 71
3
 72
9
 73
5
 74
0
 42
0.0000001
 43
0.0000001
 44
0.0000000001
 40
0.0
 40
0.0
 40
0.0
 40
0.0
 40
0.2449764273
 40
1.0
 40
1.0
 40
1.0
 40
1.0
 10
80.1703571796
 20
213.5480541477
 30
0.0
 10
80.1233374449
 20
213.3939898514
 30
0.0
 10
79.9129514446
 20
212.7708289025
 30
0.0
 10
79.6329724109
 20
212.1715436636
 30
0.0
 10
79.3887884961
 20
211.739295508
 30
0.0
  0
SPLINE
  5
38B
100
AcDbEntity
  8
0
100
AcDbSpline
 62
7
  6
CONTINUOUS
 70
0
 71
3
 72
9
 73
5
 74
0
 42
0.0000001
 43
0.0000001
 44
0.0000000001
 40
0.0
 40
0.0
 40
0.0
 40
0.0
 40
0.2551869134
 40
1.0
 40
1.0
 40
1.0
 40
1.0
 10
77.6540287245
 20
209.5404742802
 30
0.0
 10
77.6103926643
 20
209.5010219852
 30
0.0
 10
77.437554261
 20
209.3484775955
 30
0.0
 10
77.2572907924
 20
209.2042859601
 30
0.0
 10
77.1189055734
 20
209.1026515301
 30
0.0
  0
SPLINE
  5
38C
100
AcDbEntity
  8
0
100
AcDbSpline
 62
7
  6
CONTINUOUS
 70
0
 71
3
 72
9
 73
5
 74
0
 42
0.0000001
 43
0.0000001
 44
0.0000000001
 40
0.0
 40
0.0
 40
0.0
 40
0.0
 40
0.2446736887
 40
1.0
 40
1.0
 40
1.0
 40
1.0
 10
89.5696618325
 20
227.2798930593
 30
0.0
 10
89.1195258206
 20
226.8705104498
 30
0.0
 10
87.309493766
 20
225.1648427914
 30
0.0
 10
85.6167225454
 20
223.3356547921
 30
0.0
 10
84.4057294504
 20
221.8998017479
 30
0.0
  0
LINE
  5
38D
100
AcDbEntity
  8
0
100
AcDbLine
 62
7
  6
CONTINUOUS
 10
84.4057294504
 20
221.8998017479
 11
84.330706955
 21
221.8106762221
  0
LINE
  5
38E
100
AcDbEntity
  8
0
100
AcDbLine
 62
7
  6
CONTINUOUS
 10
113.6504984223
 20
235.9264225107
 11
113.6490850552
 21
235.9268567048
  0
SPLINE
  5
38F
100
AcDbEntity
  8
0
100
AcDbSpline
 62
7
  6
CONTINUOUS
 70
0
 71
3
 72
9
 73
5
 74
0
 42
0.0000001
 43
0.0000001
 44
0.0000000001
 40
0.0
 40
0.0
 40
0.0
 40
0.0
 40
0.2399843562
 40
1.0
 40
1.0
 40
1.0
 40
1.0
 10
109.783448499
 20
236.5515472129
 30
0.0
 10
109.3672007408
 20
236.5644461591
 30
0.0
 10
107.6308017511
 20
236.5519832842
 30
0.0
 10
105.9004267839
 20
236.2829955671
 30
0.0
 10
104.6195161169
 20
235.9688786154
 30
0.0
  0
SPLINE
  5
390
100
AcDbEntity
  8
0
100
AcDbSpline
 62
7
  6
CONTINUOUS
 70
0
 71
3
 72
14
 73
10
 74
0
 42
0.0000001
 43
0.0000001
 44
0.0000000001
 40
0.0
 40
0.0
 40
0.0
 40
0.0
 40
0.2892799713
 40
0.4225377465
 40
0.5484975384
 40
0.6678947397
 40
0.7818683892
 40
0.8919527711
 40
1.0
 40
1.0
 40
1.0
 40
1.0
 10
241.6983511293
 20
142.4231093559
 30
0.0
 10
241.6983511293
 20
143.9437307055
 30
0.0
 10
241.5208239471
 20
146.1757521883
 30
0.0
 10
240.8346255847
 20
148.9811905061
 30
0.0
 10
240.13652412
 20
150.8506125191
 30
0.0
 10
239.2467305403
 20
152.5235172652
 30
0.0
 10
238.1720812436
 20
153.9830831776
 30
0.0
 10
236.9225318283
 20
155.2128227567
 30
0.0
 10
235.9768301321
 20
155.8726842523
 30
0.0
 10
235.4849607937
 20
156.1566579067
 30
0.0
  0
SPLINE
  5
391
100
AcDbEntity
  8
0
100
AcDbSpline
 62
7
  6
CONTINUOUS
 70
0
 71
3
 72
24
 73
20
 74
0
 42
0.0000001
 43
0.0000001
 44
0.0000000001
 40
0.0
 40
0.0
 40
0.0
 40
0.0
 40
0.0623889728
 40
0.1287322391
 40
0.1983305846
 40
0.2703122955
 40
0.3436951792
 40
0.4174324558
 40
0.4904622581
 40
0.561753977
 40
0.6303562822
 40
0.6954487974
 40
0.7564011097
 40
0.8128428559
 40
0.8647475518
 40
0.9125261949
 40
0.9571041777
 40
0.9786663501
 40
1.0
 40
1.0
 40
1.0
 40
1.0
 10
202.1005362453
 20
119.5614367391
 30
0.0
 10
202.1005362453
 20
120.6400913987
 30
0.0
 10
202.2466562792
 20
122.867254236
 30
0.0
 10
202.8479794212
 20
126.2488976132
 30
0.0
 10
203.8255584928
 20
129.7139828146
 30
0.0
 10
205.1585572496
 20
133.1884222598
 30
0.0
 10
206.8185525446
 20
136.5985640242
 30
0.0
 10
208.7701638662
 20
139.8716451439
 30
0.0
 10
210.9717479314
 20
142.9378538039
 30
0.0
 10
213.3764083534
 20
145.7318435739
 30
0.0
 10
215.9331326655
 20
148.1942196763
 30
0.0
 10
218.5881045629
 20
150.2727953476
 30
0.0
 10
221.2862378465
 20
151.9234973096
 30
0.0
 10
223.9725869632
 20
153.1108628392
 30
0.0
 10
226.5941391965
 20
153.8071610828
 30
0.0
 10
229.097889726
 20
153.9921515268
 30
0.0
 10
231.0662411674
 20
153.7023749331
 30
0.0
 10
232.498693707
 20
153.206987742
 30
0.0
 10
233.1655689148
 20
152.8769579167
 30
0.0
 10
233.4849972824
 20
152.6925411247
 30
0.0
  0
SPLINE
  5
392
100
AcDbEntity
  8
0
100
AcDbSpline
 62
7
  6
CONTINUOUS
 70
0
 71
3
 72
11
 73
7
 74
0
 42
0.0000001
 43
0.0000001
 44
0.0000000001
 40
0.0
 40
0.0
 40
0.0
 40
0.0
 40
0.289777178
 40
0.5490714024
 40
0.7822268829
 40
1.0
 40
1.0
 40
1.0
 40
1.0
 10
242.7589921653
 20
169.5717603716
 30
0.0
 10
242.7589921653
 20
169.7744863042
 30
0.0
 10
242.7283394892
 20
170.1599311673
 30
0.0
 10
242.5721303289
 20
170.6894811067
 30
0.0
 10
242.3093784279
 20
171.1191866701
 30
0.0
 10
242.062470002
 20
171.3267045694
 30
0.0
 10
241.930528181
 20
171.4028794988
 30
0.0
  0
SPLINE
  5
393
100
AcDbEntity
  8
0
100
AcDbSpline
 62
7
  6
CONTINUOUS
 70
0
 71
3
 72
9
 73
5
 74
0
 42
0.0000001
 43
0.0000001
 44
0.0000000001
 40
0.0
 40
0.0
 40
0.0
 40
0.0
 40
0.5213658848
 40
1.0
 40
1.0
 40
1.0
 40
1.0
 10
243.1032259851
 20
140.3996665046
 30
0.0
 10
243.3355513849
 20
142.0831111776
 30
0.0
 10
243.5860169514
 20
145.3434894442
 30
0.0
 10
243.3559618743
 20
148.6116859591
 30
0.0
 10
243.1032259851
 20
150.1511938153
 30
0.0
  0
SPLINE
  5
394
100
AcDbEntity
  8
0
100
AcDbSpline
 62
7
  6
CONTINUOUS
 70
0
 71
3
 72
14
 73
10
 74
0
 42
0.0000001
 43
0.0000001
 44
0.0000000001
 40
0.0
 40
0.0
 40
0.0
 40
0.0
 40
0.3061083981
 40
0.4498475487
 40
0.5830975942
 40
0.7039136347
 40
0.8119921403
 40
0.9092077857
 40
1.0
 40
1.0
 40
1.0
 40
1.0
 10
198.5925454885
 20
99.5142649291
 30
0.0
 10
198.7691093277
 20
99.8200841669
 30
0.0
 10
199.0792690237
 20
100.2440540779
 30
0.0
 10
199.571568317
 20
100.704607914
 30
0.0
 10
199.9488320478
 20
100.9691383108
 30
0.0
 10
200.3281885809
 20
101.1496613072
 30
0.0
 10
200.6972434722
 20
101.2386607643
 30
0.0
 10
201.0433585422
 20
101.2299994463
 30
0.0
 10
201.2518035267
 20
101.1543301622
 30
0.0
 10
201.3425084109
 20
101.1019583503
 30
0.0
  0
SPLINE
  5
395
100
AcDbEntity
  8
0
100
AcDbSpline
 62
7
  6
CONTINUOUS
 70
0
 71
3
 72
21
 73
17
 74
0
 42
0.0000001
 43
0.0000001
 44
0.0000000001
 40
0.0
 40
0.0
 40
0.0
 40
0.0
 40
0.0453833678
 40
0.0940119665
 40
0.1480473643
 40
0.2084583137
 40
0.2750783996
 40
0.3469599258
 40
0.4999930821
 40
0.6530262388
 40
0.7249089579
 40
0.7915325658
 40
0.8519473537
 40
0.9059855708
 40
0.9546163426
 40
1.0
 40
1.0
 40
1.0
 40
1.0
 10
196.8425527745
 20
140.6507831041
 30
0.0
 10
196.7518716419
 20
140.7031393774
 30
0.0
 10
196.5821493174
 20
140.8458750535
 30
0.0
 10
196.4014588291
 20
141.1412270709
 30
0.0
 10
196.2941144303
 20
141.5054313587
 30
0.0
 10
196.2607398658
 20
141.9242102695
 30
0.0
 10
196.3011632461
 20
142.3831852748
 30
0.0
 10
196.4540920827
 20
143.0400229311
 30
0.0
 10
196.8091392481
 20
143.8454488344
 30
0.0
 10
197.3291133188
 20
144.5556618244
 30
0.0
 10
197.8214836115
 20
145.0165403606
 30
0.0
 10
198.1987623319
 20
145.2810604598
 30
0.0
 10
198.5781386563
 20
145.4615696946
 30
0.0
 10
198.947241
 20
145.5507158576
 30
0.0
 10
199.2933813457
 20
145.5419079809
 30
0.0
 10
199.5018596139
 20
145.4662860421
 30
0.0
 10
199.5925413251
 20
145.4139294349
 30
0.0
  0
SPLINE
  5
396
100
AcDbEntity
  8
0
100
AcDbSpline
 62
7
  6
CONTINUOUS
 70
0
 71
3
 72
14
 73
10
 74
0
 42
0.0000001
 43
0.0000001
 44
0.0000000001
 40
0.0
 40
0.0
 40
0.0
 40
0.0
 40
0.3061083981
 40
0.4498475487
 40
0.5830975942
 40
0.7039136347
 40
0.8119921403
 40
0.9092077857
 40
1.0
 40
1.0
 40
1.0
 40
1.0
 10
237.8423820748
 20
167.4973534679
 30
0.0
 10
238.018945914
 20
167.8031727057
 30
0.0
 10
238.32910561
 20
168.2271426167
 30
0.0
 10
238.8214049033
 20
168.6876964528
 30
0.0
 10
239.1986686341
 20
168.9522268496
 30
0.0
 10
239.5780251672
 20
169.132749846
 30
0.0
 10
239.9470800585
 20
169.2217493031
 30
0.0
 10
240.2931951285
 20
169.2130879851
 30
0.0
 10
240.501640113
 20
169.137418701
 30
0.0
 10
240.5923449972
 20
169.0850468891
 30
0.0
  0
SPLINE
  5
397
100
AcDbEntity
  8
0
100
AcDbSpline
 62
7
  6
CONTINUOUS
 70
0
 71
3
 72
14
 73
10
 74
0
 42
0.0000001
 43
0.0000001
 44
0.0000000001
 40
0.0
 40
0.0
 40
0.0
 40
0.0
 40
0.0907888917
 40
0.1880011957
 40
0.2960775683
 40
0.4168945032
 40
0.5501478666
 40
0.6938912952
 40
1.0
 40
1.0
 40
1.0
 40
1.0
 10
196.8425784028
 20
93.307726363
 30
0.0
 10
196.7518750265
 20
93.3600973043
 30
0.0
 10
196.5821118561
 20
93.5027619326
 30
0.0
 10
196.4015541699
 20
93.7981760785
 30
0.0
 10
196.2940957738
 20
94.1622852666
 30
0.0
 10
196.2607419387
 20
94.5810893142
 30
0.0
 10
196.3011924313
 20
95.0400945617
 30
0.0
 10
196.4538954193
 20
95.6967382316
 30
0.0
 10
196.6659852323
 20
96.1773461578
 30
0.0
 10
196.8425527745
 20
96.4831718095
 30
0.0
  0
SPLINE
  5
398
100
AcDbEntity
  8
0
100
AcDbSpline
 62
7
  6
CONTINUOUS
 70
0
 71
3
 72
11
 73
7
 74
0
 42
0.0000001
 43
0.0000001
 44
0.0000000001
 40
0.0
 40
0.0
 40
0.0
 40
0.0
 40
0.2177731171
 40
0.4509285976
 40
0.710222822
 40
1.0
 40
1.0
 40
1.0
 40
1.0
 10
189.4939625552
 20
93.6434377496
 30
0.0
 10
189.3620207342
 20
93.719612679
 30
0.0
 10
189.1151123083
 20
93.9271305783
 30
0.0
 10
188.8523604073
 20
94.3568361417
 30
0.0
 10
188.696151247
 20
94.8863860811
 30
0.0
 10
188.665498571
 20
95.2718309442
 30
0.0
 10
188.665498571
 20
95.4745568768
 30
0.0
  0
SPLINE
  5
399
100
AcDbEntity
  8
0
100
AcDbSpline
 62
7
  6
CONTINUOUS
 70
0
 71
3
 72
11
 73
7
 74
0
 42
0.0000001
 43
0.0000001
 44
0.0000000001
 40
0.0
 40
0.0
 40
0.0
 40
0.0
 40
0.2177745347
 40
0.4509306045
 40
0.7102242968
 40
1.0
 40
1.0
 40
1.0
 40
1.0
 10
195.504395219
 20
90.1733913361
 30
0.0
 10
195.636332672
 20
90.0972189285
 30
0.0
 10
195.9394930793
 20
89.987157061
 30
0.0
 10
196.4429857963
 20
89.9744626012
 30
0.0
 10
196.9796717597
 20
90.1039509634
 30
0.0
 10
197.3287883625
 20
90.2701194292
 30
0.0
 10
197.5043465836
 20
90.3714774104
 30
0.0
  0
SPLINE
  5
39A
100
AcDbEntity
  8
0
100
AcDbSpline
 62
7
  6
CONTINUOUS
 70
0
 71
3
 72
13
 73
9
 74
0
 42
0.0000001
 43
0.0000001
 44
0.0000000001
 40
0.0
 40
0.0
 40
0.0
 40
0.0
 40
0.1142494128
 40
0.2375488016
 40
0.500001607
 40
0.7624535328
 40
0.8857518943
 40
1.0
 40
1.0
 40
1.0
 40
1.0
 10
188.665498571
 20
145.2812043217
 30
0.0
 10
188.665498571
 20
145.5047724656
 30
0.0
 10
188.7064462037
 20
145.9700880671
 30
0.0
 10
188.92883216
 20
146.9253136065
 30
0.0
 10
189.4453874568
 20
148.0969290366
 30
0.0
 10
190.2017520857
 20
149.1300892697
 30
0.0
 10
190.9178024478
 20
149.8002914913
 30
0.0
 10
191.300300154
 20
150.0684083132
 30
0.0
 10
191.4939139198
 20
150.1801906057
 30
0.0
  0
SPLINE
  5
39B
100
AcDbEntity
  8
0
100
AcDbSpline
 62
7
  6
CONTINUOUS
 70
0
 71
3
 72
9
 73
5
 74
0
 42
0.0000001
 43
0.0000001
 44
0.0000000001
 40
0.0
 40
0.0
 40
0.0
 40
0.0
 40
0.507844654
 40
1.0
 40
1.0
 40
1.0
 40
1.0
 10
216.6401440712
 20
174.9043905385
 30
0.0
 10
217.2894660409
 20
174.8809557915
 30
0.0
 10
218.5667721533
 20
174.7580034148
 30
0.0
 10
219.8175247613
 20
174.4682115839
 30
0.0
 10
220.4194872087
 20
174.2834752954
 30
0.0
  0
SPLINE
  5
39C
100
AcDbEntity
  8
0
100
AcDbSpline
 62
7
  6
CONTINUOUS
 70
0
 71
3
 72
9
 73
5
 74
0
 42
0.0000001
 43
0.0000001
 44
0.0000000001
 40
0.0
 40
0.0
 40
0.0
 40
0.0
 40
0.2521101897
 40
1.0
 40
1.0
 40
1.0
 40
1.0
 10
187.3168277351
 20
155.171760019
 30
0.0
 10
187.6137433173
 20
155.6057269944
 30
0.0
 10
188.8121340877
 20
157.3128104855
 30
0.0
 10
190.0930375841
 20
158.9621429457
 30
0.0
 10
191.0961708726
 20
160.1566587683
 30
0.0
  0
SPLINE
  5
39D
100
AcDbEntity
  8
0
100
AcDbSpline
 62
7
  6
CONTINUOUS
 70
0
 71
3
 72
14
 73
10
 74
0
 42
0.0000001
 43
0.0000001
 44
0.0000000001
 40
0.0
 40
0.0
 40
0.0
 40
0.0
 40
0.0907888917
 40
0.1880011957
 40
0.2960775683
 40
0.4168945032
 40
0.5501478666
 40
0.6938912952
 40
1.0
 40
1.0
 40
1.0
 40
1.0
 10
236.0924149891
 20
161.2908149018
 30
0.0
 10
236.0017116128
 20
161.3431858431
 30
0.0
 10
235.8319484424
 20
161.4858504714
 30
0.0
 10
235.6513907562
 20
161.7812646173
 30
0.0
 10
235.5439323601
 20
162.1453738054
 30
0.0
 10
235.510578525
 20
162.564177853
 30
0.0
 10
235.5510290177
 20
163.0231831005
 30
0.0
 10
235.7037320056
 20
163.6798267704
 30
0.0
 10
235.9158218186
 20
164.1604346966
 30
0.0
 10
236.0923893608
 20
164.4662603483
 30
0.0
  0
SPLINE
  5
39E
100
AcDbEntity
  8
0
100
AcDbSpline
 62
7
  6
CONTINUOUS
 70
0
 71
3
 72
13
 73
9
 74
0
 42
0.0000001
 43
0.0000001
 44
0.0000000001
 40
0.0
 40
0.0
 40
0.0
 40
0.0
 40
0.3036258362
 40
0.5828973073
 40
0.7052735088
 40
0.8139615425
 40
0.9106849882
 40
1.0
 40
1.0
 40
1.0
 40
1.0
 10
182.2539882131
 20
146.4026160578
 30
0.0
 10
182.2843697528
 20
146.4659698471
 30
0.0
 10
182.3576014551
 20
146.5808863426
 30
0.0
 10
182.4780730121
 20
146.6947024322
 30
0.0
 10
182.5823167967
 20
146.7515978225
 30
0.0
 10
182.6557838183
 20
146.773266468
 30
0.0
 10
182.7250183241
 20
146.7741945573
 30
0.0
 10
182.7667766675
 20
146.7597991239
 30
0.0
 10
182.7846855101
 20
146.749481459
 30
0.0
  0
SPLINE
  5
39F
100
AcDbEntity
  8
0
100
AcDbSpline
 62
7
  6
CONTINUOUS
 70
0
 71
3
 72
9
 73
5
 74
0
 42
0.0000001
 43
0.0000001
 44
0.0000000001
 40
0.0
 40
0.0
 40
0.0
 40
0.0
 40
0.4786341152
 40
1.0
 40
1.0
 40
1.0
 40
1.0
 10
179.4823931867
 20
120.8146352818
 30
0.0
 10
179.2296572976
 20
122.3541431379
 30
0.0
 10
178.9996022205
 20
125.6223396528
 30
0.0
 10
179.250067787
 20
128.8827179194
 30
0.0
 10
179.4823931867
 20
130.5661625924
 30
0.0
  0
SPLINE
  5
3A0
100
AcDbEntity
  8
0
100
AcDbSpline
 62
7
  6
CONTINUOUS
 70
0
 71
3
 72
21
 73
17
 74
0
 42
0.0000001
 43
0.0000001
 44
0.0000000001
 40
0.0
 40
0.0
 40
0.0
 40
0.0
 40
0.0452712636
 40
0.0937007999
 40
0.1474688947
 40
0.2075027481
 40
0.2736727162
 40
0.3450819334
 40
0.4973462346
 40
0.6502266916
 40
0.7223566249
 40
0.7894467055
 40
0.8505023183
 40
0.9052469939
 40
0.9544301491
 40
1.0
 40
1.0
 40
1.0
 40
1.0
 10
182.8744628931
 20
146.6943557154
 30
0.0
 10
183.0216794935
 20
146.6103538639
 30
0.0
 10
183.358921915
 20
146.4887970681
 30
0.0
 10
183.9182401416
 20
146.4740703351
 30
0.0
 10
184.5145288931
 20
146.6155473111
 30
0.0
 10
185.1278484085
 20
146.9035440678
 30
0.0
 10
185.7386004718
 20
147.3262258675
 30
0.0
 10
186.5379223187
 20
148.0643620808
 30
0.0
 10
187.3871812477
 20
149.2060418325
 30
0.0
 10
187.9750872966
 20
150.5044729372
 30
0.0
 10
188.2386120925
 20
151.5686864085
 30
0.0
 10
188.3180854415
 20
152.3170890452
 30
0.0
 10
188.2798578974
 20
153.0043281881
 30
0.0
 10
188.1232517781
 20
153.6071725919
 30
0.0
 10
187.8494989102
 20
154.1033279329
 30
0.0
 10
187.5859064235
 20
154.3518701513
 30
0.0
 10
187.443424967
 20
154.4457226339
 30
0.0
  0
SPLINE
  5
3A1
100
AcDbEntity
  8
0
100
AcDbSpline
 62
7
  6
CONTINUOUS
 70
0
 71
3
 72
13
 73
9
 74
0
 42
0.0000001
 43
0.0000001
 44
0.0000000001
 40
0.0
 40
0.0
 40
0.0
 40
0.0
 40
0.0893148173
 40
0.18603838
 40
0.2947267022
 40
0.4171032701
 40
0.6963752391
 40
1.0
 40
1.0
 40
1.0
 40
1.0
 10
187.2817873492
 20
154.5387187792
 30
0.0
 10
187.2638970773
 20
154.549069273
 30
0.0
 10
187.2305500614
 20
154.5780353975
 30
0.0
 10
187.1967351278
 20
154.6384589986
 30
0.0
 10
187.1787661738
 20
154.7129190179
 30
0.0
 10
187.1759160389
 20
154.8316468784
 30
0.0
 10
187.214247209
 20
154.9928895798
 30
0.0
 10
187.2771522007
 20
155.1137709046
 30
0.0
 10
187.3168277351
 20
155.171760019
 30
0.0
  0
SPLINE
  5
3A2
100
AcDbEntity
  8
0
100
AcDbSpline
 62
7
  6
CONTINUOUS
 70
0
 71
3
 72
17
 73
13
 74
0
 42
0.0000001
 43
0.0000001
 44
0.0000000001
 40
0.0
 40
0.0
 40
0.0
 40
0.0
 40
0.0470435923
 40
0.0947299195
 40
0.143658513
 40
0.1943529163
 40
0.302471348
 40
0.4214128127
 40
0.5517422449
 40
0.6927861802
 40
0.8429531896
 40
1.0
 40
1.0
 40
1.0
 40
1.0
 10
205.485511232
 20
104.1949115728
 30
0.0
 10
205.9026455476
 20
103.9540851037
 30
0.0
 10
206.779108246
 20
103.5294986271
 30
0.0
 10
208.1851964241
 20
103.0823945155
 30
0.0
 10
209.6760716481
 20
102.8255140049
 30
0.0
 10
211.8062462471
 20
102.7364653291
 30
0.0
 10
214.6471874253
 20
103.1375130483
 30
0.0
 10
218.1176052554
 20
104.3535390001
 30
0.0
 10
221.640426232
 20
106.2714171264
 30
0.0
 10
225.1249225772
 20
108.8375760285
 30
0.0
 10
228.4805318993
 20
111.9821014393
 30
0.0
 10
230.5387079888
 20
114.3692468594
 30
0.0
 10
231.5279947228
 20
115.636842438
 30
0.0
  0
SPLINE
  5
3A3
100
AcDbEntity
  8
0
100
AcDbSpline
 62
7
  6
CONTINUOUS
 70
0
 71
3
 72
11
 73
7
 74
0
 42
0.0000001
 43
0.0000001
 44
0.0000000001
 40
0.0
 40
0.0
 40
0.0
 40
0.0
 40
0.2659835856
 40
0.5230452825
 40
0.7684553126
 40
1.0
 40
1.0
 40
1.0
 40
1.0
 10
238.5793482349
 20
127.8368648202
 30
0.0
 10
239.079411121
 20
129.0692240914
 30
0.0
 10
239.9652362131
 20
131.533744617
 30
0.0
 10
240.9490157604
 20
135.2532877869
 30
0.0
 10
241.5525965249
 20
138.8790851269
 30
0.0
 10
241.6983511293
 20
141.2653562773
 30
0.0
 10
241.6983511293
 20
142.4231093559
 30
0.0
  0
SPLINE
  5
3A4
100
AcDbEntity
  8
0
100
AcDbSpline
 62
7
  6
CONTINUOUS
 70
0
 71
3
 72
14
 73
10
 74
0
 42
0.0000001
 43
0.0000001
 44
0.0000000001
 40
0.0
 40
0.0
 40
0.0
 40
0.0
 40
0.1080467732
 40
0.2181307248
 40
0.3321041835
 40
0.4515015274
 40
0.5774615197
 40
0.7107196141
 40
1.0
 40
1.0
 40
1.0
 40
1.0
 10
207.4854747433
 20
107.6590283548
 30
0.0
 10
207.0591894734
 20
107.9051372478
 30
0.0
 10
206.239586067
 20
108.4770167584
 30
0.0
 10
205.1566436866
 20
109.542784048
 30
0.0
 10
204.2252813148
 20
110.8077389995
 30
0.0
 10
203.4541266152
 20
112.2575901638
 30
0.0
 10
202.8491002474
 20
113.8777571743
 30
0.0
 10
202.2543942017
 20
116.3091413142
 30
0.0
 10
202.1005362453
 20
118.2435630632
 30
0.0
 10
202.1005362453
 20
119.5614367391
 30
0.0
  0
SPLINE
  5
3A5
100
AcDbEntity
  8
0
100
AcDbSpline
 62
7
  6
CONTINUOUS
 70
0
 71
3
 72
11
 73
7
 74
0
 42
0.0000001
 43
0.0000001
 44
0.0000000001
 40
0.0
 40
0.0
 40
0.0
 40
0.0
 40
0.2897757032
 40
0.5490693955
 40
0.7822254653
 40
1.0
 40
1.0
 40
1.0
 40
1.0
 10
233.9201441527
 20
174.674839838
 30
0.0
 10
234.0957023738
 20
174.7761978192
 30
0.0
 10
234.4448189766
 20
174.942366285
 30
0.0
 10
234.9815049399
 20
175.0718546472
 30
0.0
 10
235.4849976569
 20
175.0591601874
 30
0.0
 10
235.7881580643
 20
174.9490983199
 30
0.0
 10
235.9200955173
 20
174.8729259123
 30
0.0
  0
SPLINE
  5
3A6
100
AcDbEntity
  8
0
100
AcDbSpline
 62
7
  6
CONTINUOUS
 70
0
 71
3
 72
14
 73
10
 74
0
 42
0.0000001
 43
0.0000001
 44
0.0000000001
 40
0.0
 40
0.0
 40
0.0
 40
0.0
 40
0.2892799713
 40
0.4225377465
 40
0.5484975384
 40
0.6678947397
 40
0.7818683892
 40
0.8919527711
 40
1.0
 40
1.0
 40
1.0
 40
1.0
 10
199.2721208964
 20
117.9284601236
 30
0.0
 10
199.2721208964
 20
116.407838774
 30
0.0
 10
199.4496480786
 20
114.1758172912
 30
0.0
 10
200.135846441
 20
111.3703789734
 30
0.0
 10
200.8339479057
 20
109.5009569604
 30
0.0
 10
201.7237414854
 20
107.8280522144
 30
0.0
 10
202.7983907821
 20
106.3684863019
 30
0.0
 10
204.0479401974
 20
105.1387467228
 30
0.0
 10
204.9936418936
 20
104.4788852272
 30
0.0
 10
205.485511232
 20
104.1949115728
 30
0.0
  0
SPLINE
  5
3A7
100
AcDbEntity
  8
0
100
AcDbSpline
 62
7
  6
CONTINUOUS
 70
0
 71
3
 72
11
 73
7
 74
0
 42
0.0000001
 43
0.0000001
 44
0.0000000001
 40
0.0
 40
0.0
 40
0.0
 40
0.0
 40
0.2177745347
 40
0.4509306045
 40
0.7102242968
 40
1.0
 40
1.0
 40
1.0
 40
1.0
 10
241.930528181
 20
171.4028794988
 30
0.0
 10
241.798590728
 20
171.4790519065
 30
0.0
 10
241.4954303206
 20
171.589113774
 30
0.0
 10
240.9919376037
 20
171.6018082337
 30
0.0
 10
240.4552516403
 20
171.4723198715
 30
0.0
 10
240.1061350375
 20
171.3061514058
 30
0.0
 10
239.9305768164
 20
171.2047934246
 30
0.0
  0
SPLINE
  5
3A8
100
AcDbEntity
  8
0
100
AcDbSpline
 62
7
  6
CONTINUOUS
 70
0
 71
3
 72
21
 73
17
 74
0
 42
0.0000001
 43
0.0000001
 44
0.0000000001
 40
0.0
 40
0.0
 40
0.0
 40
0.0
 40
0.0453833678
 40
0.0940119665
 40
0.1480473643
 40
0.2084583137
 40
0.2750783996
 40
0.3469599258
 40
0.4999930821
 40
0.6530262388
 40
0.7249089579
 40
0.7915325658
 40
0.8519473537
 40
0.9059855708
 40
0.9546163426
 40
1.0
 40
1.0
 40
1.0
 40
1.0
 10
201.3425340392
 20
144.4035417824
 30
0.0
 10
201.4332151718
 20
144.3511855091
 30
0.0
 10
201.6029374963
 20
144.208449833
 30
0.0
 10
201.7836279846
 20
143.9130978155
 30
0.0
 10
201.8909723834
 20
143.5488935277
 30
0.0
 10
201.9243469479
 20
143.130114617
 30
0.0
 10
201.8839235676
 20
142.6711396117
 30
0.0
 10
201.730994731
 20
142.0143019554
 30
0.0
 10
201.3759475655
 20
141.2088760521
 30
0.0
 10
200.8559734948
 20
140.4986630621
 30
0.0
 10
200.3636032022
 20
140.0377845259
 30
0.0
 10
199.9863244818
 20
139.7732644267
 30
0.0
 10
199.6069481574
 20
139.5927551919
 30
0.0
 10
199.2378458137
 20
139.5036090289
 30
0.0
 10
198.8917054679
 20
139.5124169056
 30
0.0
 10
198.6832271997
 20
139.5880388443
 30
0.0
 10
198.5925454885
 20
139.6403954516
 30
0.0
  0
SPLINE
  5
3A9
100
AcDbEntity
  8
0
100
AcDbSpline
 62
7
  6
CONTINUOUS
 70
0
 71
3
 72
12
 73
8
 74
0
 42
0.0000001
 43
0.0000001
 44
0.0000000001
 40
0.0
 40
0.0
 40
0.0
 40
0.0
 40
0.2863488681
 40
0.5458559386
 40
0.7812500618
 40
0.8921589441
 40
1.0
 40
1.0
 40
1.0
 40
1.0
 10
236.3950517424
 20
142.2189753812
 30
0.0
 10
236.3950517424
 20
143.3970152738
 30
0.0
 10
236.2342775889
 20
145.6487926291
 30
0.0
 10
235.4306287906
 20
148.7808540711
 30
0.0
 10
234.2815680081
 20
151.0243643771
 30
0.0
 10
233.1067840258
 20
152.4839007361
 30
0.0
 10
232.4455534895
 20
153.1000603347
 30
0.0
 10
232.0991303312
 20
153.3772312668
 30
0.0
  0
SPLINE
  5
3AA
100
AcDbEntity
  8
0
100
AcDbSpline
 62
7
  6
CONTINUOUS
 70
0
 71
3
 72
14
 73
10
 74
0
 42
0.0000001
 43
0.0000001
 44
0.0000000001
 40
0.0
 40
0.0
 40
0.0
 40
0.0
 40
0.3061083981
 40
0.4498475487
 40
0.5830975942
 40
0.7039136347
 40
0.8119921403
 40
0.9092077857
 40
1.0
 40
1.0
 40
1.0
 40
1.0
 10
238.8423779114
 20
162.878508323
 30
0.0
 10
238.6658140723
 20
162.5726890852
 30
0.0
 10
238.3556543763
 20
162.1487191742
 30
0.0
 10
237.8633550829
 20
161.6881653381
 30
0.0
 10
237.4860913522
 20
161.4236349413
 30
0.0
 10
237.106734819
 20
161.243111945
 30
0.0
 10
236.7376799278
 20
161.1541124878
 30
0.0
 10
236.3915648578
 20
161.1627738058
 30
0.0
 10
236.1831198733
 20
161.2384430899
 30
0.0
 10
236.0924149891
 20
161.2908149018
 30
0.0
  0
SPLINE
  5
3AB
100
AcDbEntity
  8
0
100
AcDbSpline
 62
7
  6
CONTINUOUS
 70
0
 71
3
 72
25
 73
21
 74
0
 42
0.0000001
 43
0.0000001
 44
0.0000000001
 40
0.0
 40
0.0
 40
0.0
 40
0.0
 40
0.021332067
 40
0.0428926335
 40
0.0648978953
 40
0.0875427634
 40
0.1353178011
 40
0.1872186298
 40
0.2436561435
 40
0.3046038104
 40
0.3696913373
 40
0.4382884115
 40
0.5095746477
 40
0.582598745
 40
0.6563301579
 40
0.7297073454
 40
0.8016837145
 40
0.8712769659
 40
0.9376155407
 40
1.0
 40
1.0
 40
1.0
 40
1.0
 10
235.4849607937
 20
156.1566579067
 30
0.0
 10
235.1163893915
 20
156.3694472795
 30
0.0
 10
234.3470049783
 20
156.7502856552
 30
0.0
 10
233.1202537198
 20
157.1742350522
 30
0.0
 10
231.8251916908
 20
157.450523919
 30
0.0
 10
229.9857441862
 20
157.6230422487
 30
0.0
 10
227.5332051586
 20
157.4430263561
 30
0.0
 10
224.5093284826
 20
156.6392531424
 30
0.0
 10
221.4093937308
 20
155.2693210708
 30
0.0
 10
218.2962551967
 20
153.3646333138
 30
0.0
 10
215.2328021509
 20
150.9662879941
 30
0.0
 10
212.2827466226
 20
148.1250850715
 30
0.0
 10
209.5081401979
 20
144.9012570161
 30
0.0
 10
206.9678574252
 20
141.3633338315
 30
0.0
 10
204.7160025057
 20
137.5867140713
 30
0.0
 10
202.8006232276
 20
133.6519430331
 30
0.0
 10
201.2625439237
 20
129.6429737314
 30
0.0
 10
200.1345607918
 20
125.644788562
 30
0.0
 10
199.4407226548
 20
121.7428791688
 30
0.0
 10
199.2721208964
 20
119.1730656116
 30
0.0
 10
199.2721208964
 20
117.9284601236
 30
0.0
  0
SPLINE
  5
3AC
100
AcDbEntity
  8
0
100
AcDbSpline
 62
7
  6
CONTINUOUS
 70
0
 71
3
 72
9
 73
5
 74
0
 42
0.0000001
 43
0.0000001
 44
0.0000000001
 40
0.0
 40
0.0
 40
0.0
 40
0.0
 40
0.4787962473
 40
1.0
 40
1.0
 40
1.0
 40
1.0
 10
238.8699357804
 20
140.7901327404
 30
0.0
 10
238.8699357804
 20
139.0504902946
 30
0.0
 10
238.4884814191
 20
135.4138412931
 30
0.0
 10
237.5280944114
 20
131.8947816735
 30
0.0
 10
236.9049893762
 20
130.1065052699
 30
0.0
  0
SPLINE
  5
3AD
100
AcDbEntity
  8
0
100
AcDbSpline
 62
7
  6
CONTINUOUS
 70
0
 71
3
 72
17
 73
13
 74
0
 42
0.0000001
 43
0.0000001
 44
0.0000000001
 40
0.0
 40
0.0
 40
0.0
 40
0.0
 40
0.1570518086
 40
0.3068941644
 40
0.447484647
 40
0.5774216858
 40
0.6961922634
 40
0.8044656374
 40
0.8553641399
 40
0.9045712837
 40
0.9525920339
 40
1.0
 40
1.0
 40
1.0
 40
1.0
 10
229.4676958912
 20
116.8390933879
 30
0.0
 10
228.6171222956
 20
115.7980431637
 30
0.0
 10
226.8557686978
 20
113.8419492984
 30
0.0
 10
224.0020991777
 20
111.2755526217
 30
0.0
 10
221.0554418716
 20
109.1939279288
 30
0.0
 10
218.0881608537
 20
107.6509013593
 30
0.0
 10
215.1725516746
 20
106.6876035413
 30
0.0
 10
212.7914836881
 20
106.3895654362
 30
0.0
 10
211.0063437554
 20
106.4860947397
 30
0.0
 10
209.7552683162
 20
106.7138098781
 30
0.0
 10
208.5741795483
 20
107.0971139226
 30
0.0
 10
207.8369158444
 20
107.4561295299
 30
0.0
 10
207.4854747433
 20
107.6590283548
 30
0.0
  0
SPLINE
  5
3AE
100
AcDbEntity
  8
0
100
AcDbSpline
 62
7
  6
CONTINUOUS
 70
0
 71
3
 72
14
 73
10
 74
0
 42
0.0000001
 43
0.0000001
 44
0.0000000001
 40
0.0
 40
0.0
 40
0.0
 40
0.0
 40
0.1080467509
 40
0.2181307398
 40
0.3321042356
 40
0.4515015225
 40
0.5774613933
 40
0.7107194663
 40
1.0
 40
1.0
 40
1.0
 40
1.0
 10
203.7177370758
 20
105.2155137331
 30
0.0
 10
203.2258695967
 20
105.4994855428
 30
0.0
 10
202.2801733088
 20
106.1593465649
 30
0.0
 10
201.0306242168
 20
107.38907828
 30
0.0
 10
199.9559754447
 20
108.8486418722
 30
0.0
 10
199.0661815758
 20
110.521546228
 30
0.0
 10
198.3680747834
 20
112.390968798
 30
0.0
 10
197.6818751858
 20
115.19641197
 30
0.0
 10
197.5043465836
 20
117.4284377577
 30
0.0
 10
197.5043465836
 20
118.9490620099
 30
0.0
  0
SPLINE
  5
3AF
100
AcDbEntity
  8
0
100
AcDbSpline
 62
7
  6
CONTINUOUS
 70
0
 71
3
 72
15
 73
11
 74
0
 42
0.0000001
 43
0.0000001
 44
0.0000000001
 40
0.0
 40
0.0
 40
0.0
 40
0.0
 40
0.0955372882
 40
0.1973276955
 40
0.307766201
 40
0.4280640287
 40
0.5583915922
 40
0.6980914019
 40
0.8458770389
 40
1.0
 40
1.0
 40
1.0
 40
1.0
 10
206.421338617
 20
108.4336196587
 30
0.0
 10
207.1440158913
 20
108.1732798259
 30
0.0
 10
208.7120903414
 20
107.8294378768
 30
0.0
 10
211.2041016699
 20
107.8693044199
 30
0.0
 10
213.831666034
 20
108.4379166619
 30
0.0
 10
216.5390679137
 20
109.5157722907
 30
0.0
 10
219.2721594534
 20
111.0758850499
 30
0.0
 10
221.9743384028
 20
113.0836641511
 30
0.0
 10
224.5882658602
 20
115.4951555304
 30
0.0
 10
226.2085899
 20
117.3081102669
 30
0.0
 10
226.9926333344
 20
118.2677177317
 30
0.0
  0
SPLINE
  5
3B0
100
AcDbEntity
  8
0
100
AcDbSpline
 62
7
  6
CONTINUOUS
 70
0
 71
3
 72
9
 73
5
 74
0
 42
0.0000001
 43
0.0000001
 44
0.0000000001
 40
0.0
 40
0.0
 40
0.0
 40
0.0
 40
0.521136734
 40
1.0
 40
1.0
 40
1.0
 40
1.0
 10
234.4504325349
 20
131.5938293128
 30
0.0
 10
235.0672212303
 20
133.3726913
 30
0.0
 10
236.0177987933
 20
136.8728965042
 30
0.0
 10
236.3950517424
 20
140.488942437
 30
0.0
 10
236.3950517424
 20
142.2189753812
 30
0.0
  0
SPLINE
  5
3B1
100
AcDbEntity
  8
0
100
AcDbSpline
 62
7
  6
CONTINUOUS
 70
0
 71
3
 72
14
 73
10
 74
0
 42
0.0000001
 43
0.0000001
 44
0.0000000001
 40
0.0
 40
0.0
 40
0.0
 40
0.0
 40
0.1080467732
 40
0.2181307248
 40
0.3321041835
 40
0.4515015274
 40
0.5774615197
 40
0.7107196141
 40
1.0
 40
1.0
 40
1.0
 40
1.0
 10
233.4849972824
 20
152.6925411247
 30
0.0
 10
233.9112825523
 20
152.4464322317
 30
0.0
 10
234.7308859588
 20
151.8745527211
 30
0.0
 10
235.8138283391
 20
150.8087854315
 30
0.0
 10
236.745190711
 20
149.54383048
 30
0.0
 10
237.5163454105
 20
148.0939793157
 30
0.0
 10
238.1213717784
 20
146.4738123052
 30
0.0
 10
238.716077824
 20
144.0424281654
 30
0.0
 10
238.8699357804
 20
142.1080064163
 30
0.0
 10
238.8699357804
 20
140.7901327404
 30
0.0
  0
SPLINE
  5
3B2
100
AcDbEntity
  8
0
100
AcDbSpline
 62
7
  6
CONTINUOUS
 70
0
 71
3
 72
11
 73
7
 74
0
 42
0.0000001
 43
0.0000001
 44
0.0000000001
 40
0.0
 40
0.0
 40
0.0
 40
0.0
 40
0.289777178
 40
0.5490714024
 40
0.7822268829
 40
1.0
 40
1.0
 40
1.0
 40
1.0
 10
194.6759312347
 20
92.0045104634
 30
0.0
 10
194.6759312347
 20
91.8017845308
 30
0.0
 10
194.7065839108
 20
91.4163396677
 30
0.0
 10
194.8627930711
 20
90.8867897283
 30
0.0
 10
195.1255449721
 20
90.4570841649
 30
0.0
 10
195.372453398
 20
90.2495662656
 30
0.0
 10
195.504395219
 20
90.1733913361
 30
0.0
  0
SPLINE
  5
3B3
100
AcDbEntity
  8
0
100
AcDbSpline
 62
7
  6
CONTINUOUS
 70
0
 71
3
 72
14
 73
10
 74
0
 42
0.0000001
 43
0.0000001
 44
0.0000000001
 40
0.0
 40
0.0
 40
0.0
 40
0.0
 40
0.0907888917
 40
0.1880011957
 40
0.2960775683
 40
0.4168945032
 40
0.5501478666
 40
0.6938912952
 40
1.0
 40
1.0
 40
1.0
 40
1.0
 10
240.5923449972
 20
169.0850468891
 30
0.0
 10
240.6830483735
 20
169.0326759478
 30
0.0
 10
240.8528115439
 20
168.8900113195
 30
0.0
 10
241.0333692301
 20
168.5945971736
 30
0.0
 10
241.1408276262
 20
168.2304879855
 30
0.0
 10
241.1741814613
 20
167.8116839379
 30
0.0
 10
241.1337309686
 20
167.3526786904
 30
0.0
 10
240.9810279807
 20
166.6960350205
 30
0.0
 10
240.7689381677
 20
166.2154270943
 30
0.0
 10
240.5923706255
 20
165.9096014426
 30
0.0
  0
SPLINE
  5
3B4
100
AcDbEntity
  8
0
100
AcDbSpline
 62
7
  6
CONTINUOUS
 70
0
 71
3
 72
9
 73
5
 74
0
 42
0.0000001
 43
0.0000001
 44
0.0000000001
 40
0.0
 40
0.0
 40
0.0
 40
0.0
 40
0.5213658848
 40
1.0
 40
1.0
 40
1.0
 40
1.0
 10
194.3316974148
 20
121.9931067475
 30
0.0
 10
194.099372015
 20
120.3096620745
 30
0.0
 10
193.8489064485
 20
117.0492838079
 30
0.0
 10
194.0789615257
 20
113.781087293
 30
0.0
 10
194.3316974148
 20
112.2415794368
 30
0.0
  0
SPLINE
  5
3B5
100
AcDbEntity
  8
0
100
AcDbSpline
 62
7
  6
CONTINUOUS
 70
0
 71
3
 72
14
 73
10
 74
0
 42
0.0000001
 43
0.0000001
 44
0.0000000001
 40
0.0
 40
0.0
 40
0.0
 40
0.0
 40
0.0907888917
 40
0.1880011957
 40
0.2960775683
 40
0.4168945032
 40
0.5501478666
 40
0.6938912952
 40
1.0
 40
1.0
 40
1.0
 40
1.0
 10
201.3425084109
 20
101.1019583503
 30
0.0
 10
201.4332117872
 20
101.049587409
 30
0.0
 10
201.6029749576
 20
100.9069227807
 30
0.0
 10
201.7835326437
 20
100.6115086348
 30
0.0
 10
201.8909910399
 20
100.2473994467
 30
0.0
 10
201.924344875
 20
99.8285953991
 30
0.0
 10
201.8838943823
 20
99.3695901516
 30
0.0
 10
201.7311913944
 20
98.7129464817
 30
0.0
 10
201.5191015813
 20
98.2323385555
 30
0.0
 10
201.3425340392
 20
97.9265129038
 30
0.0
  0
SPLINE
  5
3B6
100
AcDbEntity
  8
0
100
AcDbSpline
 62
7
  6
CONTINUOUS
 70
0
 71
3
 72
25
 73
21
 74
0
 42
0.0000001
 43
0.0000001
 44
0.0000000001
 40
0.0
 40
0.0
 40
0.0
 40
0.0
 40
0.0623842911
 40
0.128722567
 40
0.1983156101
 40
0.2702919116
 40
0.3436692619
 40
0.4174009174
 40
0.4904251877
 40
0.561711556
 40
0.6303087822
 40
0.695396441
 40
0.7563441461
 40
0.8127816033
 40
0.8646823585
 40
0.9124573531
 40
0.9351022052
 40
0.9571074442
 40
0.9786679761
 40
1.0
 40
1.0
 40
1.0
 40
1.0
 10
197.5043465836
 20
118.9490620099
 30
0.0
 10
197.5043465836
 20
120.1936641378
 30
0.0
 10
197.6729468455
 20
122.7634683999
 30
0.0
 10
198.3667813497
 20
126.6653646603
 30
0.0
 10
199.4947574637
 20
130.663539819
 30
0.0
 10
201.0328329303
 20
134.672508181
 30
0.0
 10
202.9482120215
 20
138.6072868088
 30
0.0
 10
205.2000709353
 20
142.3839176691
 30
0.0
 10
207.740359017
 20
145.9218505161
 30
0.0
 10
210.5149710371
 20
149.1456858079
 30
0.0
 10
213.4650327249
 20
151.9868943366
 30
0.0
 10
216.5284915406
 20
154.3852427591
 30
0.0
 10
219.641632978
 20
156.2899301714
 30
0.0
 10
222.7415669613
 20
157.6598593922
 30
0.0
 10
225.7654408345
 20
158.4636297104
 30
0.0
 10
228.2179772656
 20
158.6436435549
 30
0.0
 10
230.0574230993
 20
158.4711248466
 30
0.0
 10
231.3524834631
 20
158.1948352937
 30
0.0
 10
232.5792327506
 20
157.770886288
 30
0.0
 10
233.3486154176
 20
157.3900480277
 30
0.0
 10
233.7171863241
 20
157.177259519
 30
0.0
  0
SPLINE
  5
3B7
100
AcDbEntity
  8
0
100
AcDbSpline
 62
7
  6
CONTINUOUS
 70
0
 71
3
 72
13
 73
9
 74
0
 42
0.0000001
 43
0.0000001
 44
0.0000000001
 40
0.0
 40
0.0
 40
0.0
 40
0.0
 40
0.1142481057
 40
0.2375464672
 40
0.499998393
 40
0.7624511984
 40
0.8857505872
 40
1.0
 40
1.0
 40
1.0
 40
1.0
 10
197.5043465836
 20
146.7101441923
 30
0.0
 10
197.3107328177
 20
146.5983618997
 30
0.0
 10
196.9282351116
 20
146.3302450779
 30
0.0
 10
196.2121847494
 20
145.6600428563
 30
0.0
 10
195.4558201205
 20
144.6268826232
 30
0.0
 10
194.9392648237
 20
143.4552671931
 30
0.0
 10
194.7168788674
 20
142.5000416536
 30
0.0
 10
194.6759312347
 20
142.0347260522
 30
0.0
 10
194.6759312347
 20
141.8111579083
 30
0.0
  0
SPLINE
  5
3B8
100
AcDbEntity
  8
0
100
AcDbSpline
 62
7
  6
CONTINUOUS
 70
0
 71
3
 72
14
 73
10
 74
0
 42
0.0000001
 43
0.0000001
 44
0.0000000001
 40
0.0
 40
0.0
 40
0.0
 40
0.0
 40
0.3061083981
 40
0.4498475487
 40
0.5830975942
 40
0.7039136347
 40
0.8119921403
 40
0.9092077857
 40
1.0
 40
1.0
 40
1.0
 40
1.0
 10
199.5925413251
 20
94.8954197842
 30
0.0
 10
199.415977486
 20
94.5896005464
 30
0.0
 10
199.10581779
 20
94.1656306354
 30
0.0
 10
198.6135184966
 20
93.7050767993
 30
0.0
 10
198.2362547659
 20
93.4405464025
 30
0.0
 10
197.8568982327
 20
93.2600234062
 30
0.0
 10
197.4878433415
 20
93.171023949
 30
0.0
 10
197.1417282715
 20
93.179685267
 30
0.0
 10
196.933283287
 20
93.2553545511
 30
0.0
 10
196.8425784028
 20
93.307726363
 30
0.0
  0
SPLINE
  5
3B9
100
AcDbEntity
  8
0
100
AcDbSpline
 62
7
  6
CONTINUOUS
 70
0
 71
3
 72
9
 73
5
 74
0
 42
0.0000001
 43
0.0000001
 44
0.0000000001
 40
0.0
 40
0.0
 40
0.0
 40
0.0
 40
0.4786159706
 40
1.0
 40
1.0
 40
1.0
 40
1.0
 10
72.7094435753
 20
182.4552211495
 30
0.0
 10
72.4562672255
 20
183.9959418894
 30
0.0
 10
72.2258308625
 20
187.2669379325
 30
0.0
 10
72.476729407
 20
190.5300888057
 30
0.0
 10
72.7094435753
 20
192.2149992133
 30
0.0
  0
SPLINE
  5
3BA
100
AcDbEntity
  8
0
100
AcDbSpline
 62
7
  6
CONTINUOUS
 70
0
 71
3
 72
9
 73
5
 74
0
 42
0.0000001
 43
0.0000001
 44
0.0000000001
 40
0.0
 40
0.0
 40
0.0
 40
0.0
 40
0.2564699519
 40
1.0
 40
1.0
 40
1.0
 40
1.0
 10
109.866575574
 20
236.5487444711
 30
0.0
 10
110.1945912706
 20
236.5369060223
 30
0.0
 10
111.4717049998
 20
236.4522858596
 30
0.0
 10
112.739461111
 20
236.2062557743
 30
0.0
 10
113.6490851615
 20
235.9268570511
 30
0.0
  0
SPLINE
  5
3BB
100
AcDbEntity
  8
0
100
AcDbSpline
 62
7
  6
CONTINUOUS
 70
0
 71
3
 72
9
 73
5
 74
0
 42
0.0000001
 43
0.0000001
 44
0.0000000001
 40
0.0
 40
0.0
 40
0.0
 40
0.0
 40
0.252111208
 40
1.0
 40
1.0
 40
1.0
 40
1.0
 10
80.5400927879
 20
216.8114854949
 30
0.0
 10
80.8372383761
 20
217.245868399
 30
0.0
 10
82.0365742184
 20
218.9545713532
 30
0.0
 10
83.3185718524
 20
220.6054284652
 30
0.0
 10
84.3226023754
 20
221.8010127008
 30
0.0
  0
SPLINE
  5
3BC
100
AcDbEntity
  8
0
100
AcDbSpline
 62
7
  6
CONTINUOUS
 70
0
 71
3
 72
9
 73
5
 74
0
 42
0.0000001
 43
0.0000001
 44
0.0000000001
 40
0.0
 40
0.0
 40
0.0
 40
0.0
 40
0.4609276237
 40
1.0
 40
1.0
 40
1.0
 40
1.0
 10
80.4083852459
 20
216.3313697473
 30
0.0
 10
80.3936970859
 20
216.407787078
 30
0.0
 10
80.4144294868
 20
216.5822260921
 30
0.0
 10
80.4887090229
 20
216.7363700298
 30
0.0
 10
80.5400927879
 20
216.8114854949
 30
0.0
  0
SPLINE
  5
3BD
100
AcDbEntity
  8
0
100
AcDbSpline
 62
7
  6
CONTINUOUS
 70
0
 71
3
 72
15
 73
11
 74
0
 42
0.0000001
 43
0.0000001
 44
0.0000000001
 40
0.0
 40
0.0
 40
0.0
 40
0.0
 40
0.1085537261
 40
0.2304721863
 40
0.3625268872
 40
0.4999981157
 40
0.6374696243
 40
0.7695251357
 40
0.8914448192
 40
1.0
 40
1.0
 40
1.0
 40
1.0
 10
75.8327799599
 20
208.406144884
 30
0.0
 10
76.1662504575
 20
208.5217460354
 30
0.0
 10
76.8409707566
 20
208.8656175428
 30
0.0
 10
77.7692969032
 20
209.6006787151
 30
0.0
 10
78.6294370751
 20
210.5456717625
 30
0.0
 10
79.3716950697
 20
211.646408667
 30
0.0
 10
79.9538273234
 20
212.8395966844
 30
0.0
 10
80.342142752
 20
214.0570050272
 30
0.0
 10
80.5145615343
 20
215.2285009191
 30
0.0
 10
80.4750051328
 20
215.9847700818
 30
0.0
 10
80.4083852459
 20
216.3313697473
 30
0.0
  0
SPLINE
  5
3BE
100
AcDbEntity
  8
0
100
AcDbSpline
 62
7
  6
CONTINUOUS
 70
0
 71
3
 72
9
 73
5
 74
0
 42
0.0000001
 43
0.0000001
 44
0.0000000001
 40
0.0
 40
0.0
 40
0.0
 40
0.0
 40
0.5390737069
 40
1.0
 40
1.0
 40
1.0
 40
1.0
 10
75.482844834
 20
208.0520264675
 30
0.0
 10
75.5222043061
 20
208.1340836821
 30
0.0
 10
75.6185554864
 20
208.2754832449
 30
0.0
 10
75.7592570316
 20
208.3806573665
 30
0.0
 10
75.8327799599
 20
208.406144884
 30
0.0
  0
SPLINE
  5
3BF
100
AcDbEntity
  8
0
100
AcDbSpline
 62
7
  6
CONTINUOUS
 70
0
 71
3
 72
9
 73
5
 74
0
 42
0.0000001
 43
0.0000001
 44
0.0000000001
 40
0.0
 40
0.0
 40
0.0
 40
0.0
 40
0.2553818704
 40
1.0
 40
1.0
 40
1.0
 40
1.0
 10
179.159969205
 20
127.1373426002
 30
0.0
 10
179.1465771304
 20
126.8595603942
 30
0.0
 10
179.1068080613
 20
125.7712957469
 30
0.0
 10
179.1186258367
 20
124.6809712893
 30
0.0
 10
179.159969205
 20
123.8711543509
 30
0.0
  0
SPLINE
  5
3C0
100
AcDbEntity
  8
0
100
AcDbSpline
 62
7
  6
CONTINUOUS
 70
0
 71
3
 72
9
 73
5
 74
0
 42
0.0000001
 43
0.0000001
 44
0.0000000001
 40
0.0
 40
0.0
 40
0.0
 40
0.0
 40
0.2545398449
 40
1.0
 40
1.0
 40
1.0
 40
1.0
 10
179.2104568294
 20
123.0861761798
 30
0.0
 10
179.2255406062
 20
122.8922969936
 30
0.0
 10
179.2924891329
 20
122.1312395728
 30
0.0
 10
179.3906648649
 20
121.3728520083
 30
0.0
 10
179.4830120725
 20
120.810867217
 30
0.0
  0
SPLINE
  5
3C1
100
AcDbEntity
  8
0
100
AcDbSpline
 62
7
  6
CONTINUOUS
 70
0
 71
3
 72
8
 73
4
 74
0
 42
0.0000001
 43
0.0000001
 44
0.0000000001
 40
0.0
 40
0.0
 40
0.0
 40
0.0
 40
1.0
 40
1.0
 40
1.0
 40
1.0
 10
182.6063484571
 20
146.7617909515
 30
0.0
 10
182.5930547665
 20
146.75718255
 30
0.0
 10
182.5800345482
 20
146.7517319657
 30
0.0
 10
182.5673465834
 20
146.7456512485
 30
0.0
  0
SPLINE
  5
3C2
100
AcDbEntity
  8
0
100
AcDbSpline
 62
7
  6
CONTINUOUS
 70
0
 71
3
 72
9
 73
5
 74
0
 42
0.0000001
 43
0.0000001
 44
0.0000000001
 40
0.0
 40
0.0
 40
0.0
 40
0.0
 40
0.2382513267
 40
1.0
 40
1.0
 40
1.0
 40
1.0
 10
182.5673465834
 20
146.7456512485
 30
0.0
 10
182.5595729692
 20
146.7419257378
 30
0.0
 10
182.527435224
 20
146.7252725978
 30
0.0
 10
182.4972783122
 20
146.7049084713
 30
0.0
 10
182.4755515914
 20
146.6879508566
 30
0.0
  0
SPLINE
  5
3C3
100
AcDbEntity
  8
0
100
AcDbSpline
 62
7
  6
CONTINUOUS
 70
0
 71
3
 72
9
 73
5
 74
0
 42
0.0000001
 43
0.0000001
 44
0.0000000001
 40
0.0
 40
0.0
 40
0.0
 40
0.0
 40
0.2394747993
 40
1.0
 40
1.0
 40
1.0
 40
1.0
 10
182.4536942385
 20
146.6700567812
 30
0.0
 10
182.4337202324
 20
146.6529333275
 30
0.0
 10
182.354760499
 20
146.5763335301
 30
0.0
 10
182.2925483608
 20
146.4830073838
 30
0.0
 10
182.2564133312
 20
146.4076725349
 30
0.0
  0
SPLINE
  5
3C4
100
AcDbEntity
  8
0
100
AcDbSpline
 62
7
  6
CONTINUOUS
 70
0
 71
3
 72
15
 73
11
 74
0
 42
0.0000001
 43
0.0000001
 44
0.0000000001
 40
0.0
 40
0.0
 40
0.0
 40
0.0
 40
0.1093684876
 40
0.231312149
 40
0.3627628993
 40
0.499317053
 40
0.6359710653
 40
0.7677112801
 40
0.8900945967
 40
1.0
 40
1.0
 40
1.0
 40
1.0
 10
187.2034469287
 20
154.5643964601
 30
0.0
 10
187.2575756343
 20
154.2234924844
 30
0.0
 10
187.2796389883
 20
153.4869790602
 30
0.0
 10
187.098707991
 20
152.3515626369
 30
0.0
 10
186.7174871202
 20
151.17658512
 30
0.0
 10
186.1560478973
 20
150.025120648
 30
0.0
 10
185.4447383584
 20
148.9586077033
 30
0.0
 10
184.6213313943
 20
148.0343280982
 30
0.0
 10
183.7302651147
 20
147.3015182161
 30
0.0
 10
183.0816527547
 20
146.9456546822
 30
0.0
 10
182.7589816421
 20
146.8183696159
 30
0.0
  0
SPLINE
  5
3C5
100
AcDbEntity
  8
0
100
AcDbSpline
 62
7
  6
CONTINUOUS
 70
0
 71
3
 72
9
 73
5
 74
0
 42
0.0000001
 43
0.0000001
 44
0.0000000001
 40
0.0
 40
0.0
 40
0.0
 40
0.0
 40
0.2569903553
 40
1.0
 40
1.0
 40
1.0
 40
1.0
 10
187.3136612851
 20
155.1671315623
 30
0.0
 10
187.2974452936
 20
155.143426181
 30
0.0
 10
187.2391960862
 20
155.0480679147
 30
0.0
 10
187.1985571443
 20
154.941110626
 30
0.0
 10
187.1840247091
 20
154.8593537225
 30
0.0
  0
SPLINE
  5
3C6
100
AcDbEntity
  8
0
100
AcDbSpline
 62
7
  6
CONTINUOUS
 70
0
 71
3
 72
9
 73
5
 74
0
 42
0.0000001
 43
0.0000001
 44
0.0000000001
 40
0.0
 40
0.0
 40
0.0
 40
0.0
 40
0.2636324668
 40
1.0
 40
1.0
 40
1.0
 40
1.0
 10
187.1805076295
 20
154.8372432069
 30
0.0
 10
187.1790100822
 20
154.8265536731
 30
0.0
 10
187.1744480119
 20
154.7858719469
 30
0.0
 10
187.1743979023
 20
154.7445767081
 30
0.0
 10
187.1777778944
 20
154.7146176214
 30
0.0
  0
ELLIPSE
  5
3C7
100
AcDbEntity
  8
0
100
AcDbEllipse
 62
7
  6
CONTINUOUS
 10
73.229548904
 20
276.6924818083
 30
0.0
 11
6.9731426067
 21
12.1707374227
 31
0.0
 40
0.5773435439
 41
0.0437998013
 42
2.0195483275
  0
ELLIPSE
  5
3C8
100
AcDbEntity
  8
0
100
AcDbEllipse
 62
7
  6
CONTINUOUS
 10
201.9622327981
 20
215.3753408701
 30
0.0
 11
113.9089605082
 21
-65.2633770834
 31
0.0
 40
0.0753343482
 41
8.9694883847
 42
9.7924679295
  0
ELLIPSE
  5
3C9
100
AcDbEntity
  8
0
100
AcDbEllipse
 62
7
  6
CONTINUOUS
 10
-194.6996617765
 20
404.3108354057
 30
0.0
 11
273.5462731791
 21
-140.9189398968
 31
0.0
 40
0.0331551487
 41
0.3245296176
 42
0.3498992522
  0
ELLIPSE
  5
3CA
100
AcDbEntity
  8
0
100
AcDbEllipse
 62
7
  6
CONTINUOUS
 10
45.0610207526
 20
249.5110204502
 30
0.0
 11
-2.3730994875
 21
4.4026278786
 31
0.0
 40
0.5568670418
 41
0.8016832507
 42
2.3724795775
  0
ELLIPSE
  5
3CB
100
AcDbEntity
  8
0
100
AcDbEllipse
 62
7
  6
CONTINUOUS
 10
50.9557662559
 20
265.3228913676
 30
0.0
 11
6.9731426067
 21
12.1707374227
 31
0.0
 40
0.5773435439
 41
0.0437998023
 42
2.0046014781
  0
ELLIPSE
  5
3CC
100
AcDbEntity
  8
0
100
AcDbEllipse
 62
7
  6
CONTINUOUS
 10
181.1026696003
 20
203.3321383309
 30
0.0
 11
113.9089605082
 21
-65.2633770834
 31
0.0
 40
0.0753343482
 41
8.9694883847
 42
9.7924679295
  0
ELLIPSE
  5
3CD
100
AcDbEntity
  8
0
100
AcDbEllipse
 62
7
  6
CONTINUOUS
 10
-215.5592249743
 20
392.2676328665
 30
0.0
 11
273.5462731791
 21
-140.9189398968
 31
0.0
 40
0.0331551487
 41
0.0170784054
 42
0.3648461017
  0
ELLIPSE
  5
3CE
100
AcDbEntity
  8
0
100
AcDbEllipse
 62
7
  6
CONTINUOUS
 10
76.6241071223
 20
207.4689648941
 30
0.0
 11
1.1463525428
 21
-1.0355620121
 31
0.0
 40
0.2522977138
 41
2.8630670344
 42
3.756158382
  0
ELLIPSE
  5
3CF
100
AcDbEntity
  8
0
100
AcDbEllipse
 62
7
  6
CONTINUOUS
 10
64.2600139152
 20
220.3710244503
 30
0.0
 11
12.6098779713
 21
-11.3911821334
 31
0.0
 40
0.2522977138
 41
-0.2785256192
 42
-0.0813438267
  0
ELLIPSE
  5
3D0
100
AcDbEntity
  8
0
100
AcDbEllipse
 62
7
  6
CONTINUOUS
 10
298.6577187212
 20
85.0439018245
 30
0.0
 11
258.0769414546
 21
-112.8333823661
 31
0.0
 40
0.0888900236
 41
-2.7250404204
 42
-2.6626052628
  0
ENDSEC
  0
SECTION
  2
OBJECTS
  0
DICTIONARY
  5
C
100
AcDbDictionary
280
0
281
1
  3
ACAD_GROUP
350
D
  3
ACAD_MLINESTYLE
350
17
  3
ACAD_LAYOUT
350
1A
  3
ACAD_PLOTSETTINGS
350
19
  3
ACAD_PLOTSTYLENAME
350
E
  0
DICTIONARY
  5
D
102
{ACAD_REACTORS
330
C
102
}
100
AcDbDictionary
280
0
281
1
  0
ACDBDICTIONARYWDFLT
  5
E
102
{ACAD_REACTORS
330
C
102
}
100
AcDbDictionary
281
1
  3
Normal
350
F
100
AcDbDictionaryWithDefault
340
F
  0
DICTIONARY
  5
17
102
{ACAD_REACTORS
330
C
102
}
100
AcDbDictionary
280
0
281
1
  3
Standard
350
18
  0
DICTIONARY
  5
19
102
{ACAD_REACTORS
330
C
102
}
100
AcDbDictionary
281
1
  0
DICTIONARY
  5
1A
102
{ACAD_REACTORS
330
C
102
}
100
AcDbDictionary
281
1
  3
Model
350
3D1
  3
Layout1
350
3D2
  0
ACDBPLACEHOLDER
  5
F
102
{ACAD_REACTORS
330
E
102
}
  0
MLINESTYLE
  5
18
102
{ACAD_REACTORS
330
17
102
}
100
AcDbMlineStyle
  2
STANDARD
 70
0
  3

 62
256
 51
90.0
 52
90.0
 71
2
 49
0.5
 62
256
  6
BYLAYER
 49
-0.5
 62
256
  6
BYLAYER
  0
LAYOUT
  5
3D1
102
{ACAD_REACTORS
330
1A
102
}
100
AcDbPlotSettings
  1

  2
none_device
  4

  6

 40
0.0
 41
0.0
 42
0.0
 43
0.0
 44
210.0
 45
297.0
 46
0.0
 47
0.0
 48
0.0
 49
0.0
140
0.0
141
0.0
142
1.0
143
1.0
 70
1024
 72
1
 73
0
 74
0
  7

 75
0
147
1.0
148
0.0
149
0.0
100
AcDbLayout
  1
Model
 70
0
 71
0
 10
0.0
 20
0.0
 11
210.0
 21
297.0
 12
0.0
 22
0.0
 32
0.0
 14
0.0
 24
0.0
 34
0.0
 15
0.0
 25
0.0
 35
0.0
146
0.0
 13
0.0
 23
0.0
 33
0.0
 16
1.0
 26
0.0
 36
0.0
 17
0.0
 27
1.0
 37
0.0
 76
0
330
210
345
0
346
0
  0
LAYOUT
  5
3D2
102
{ACAD_REACTORS
330
1A
102
}
100
AcDbPlotSettings
  1

  2
none_device
  4

  6

 40
0.0
 41
0.0
 42
0.0
 43
0.0
 44
210.0
 45
297.0
 46
0.0
 47
0.0
 48
0.0
 49
0.0
140
0.0
141
0.0
142
1.0
143
1.0
 70
0
 72
1
 73
0
 74
0
  7

 75
0
147
1.0
148
0.0
149
0.0
100
AcDbLayout
  1
Layout1
 70
0
 71
1
 10
0.0
 20
0.0
 11
210.0
 21
297.0
 12
0.0
 22
0.0
 32
0.0
 14
0.0
 24
0.0
 34
0.0
 15
0.0
 25
0.0
 35
0.0
146
0.0
 13
0.0
 23
0.0
 33
0.0
 16
1.0
 26
0.0
 36
0.0
 17
0.0
 27
1.0
 37
0.0
 76
0
330
211
345
0
346
0
  0
ENDSEC
  0
EOF
