999
DXF file: C:\Users\sesa63760\Dev\_Creo\CAD\MCADUE0001297_3D-CAD\drw0001_2.dxf
999
Pro/ENGINEER 2019471 by Parametric Technology Corporation
  0
SECTION
  2
HEADER
  9
$ACADVER
  1
AC1024
  9
$DWGCODEPAGE
  3
ANSI_1252
  9
$EXTMAX
 10
503.4220197619
 20
711.9825708061
 30
0.0
  9
$EXTMIN
 10
0.0
 20
0.0
 30
0.0
  9
$LIMMIN
 10
0.0
 20
0.0
  9
$LIMMAX
 10
503.4220197619
 20
711.9825708061
  9
$VIEWCTR
 10
251.7110098809
 20
355.9912854031
  9
$VIEWSIZE
 40
711.9825708061
  9
$CLAYER
  8
0
  9
$LTSCALE
 40
46.4107157266
  9
$CELTYPE
  6
BYLAYER
  9
$DIMSCALE
 40
1.0
  9
$DIMASZ
 40
5.9931192829
  9
$DIMEXO
 40
1.0
  9
$DIMDLI
 40
32.0655854111
  9
$DIMEXE
 40
1.0
  9
$DIMCEN
 40
7.5944807553
  9
$DIMLFAC
 40
1.0
  9
$DIMBLK
  1
_FILLED
  9
$DIMALT
 70
0
  9
$DIMALTF
 40
0.0393700787
  9
$DIMTXT
 40
8.390366996
  9
$DIMTOL
 70
1
  9
$DIMLIM
 70
0
  9
$DIMTFAC
 40
1.0
  9
$DIMTP
 40
0.01
  9
$DIMTM
 40
0.01
  9
$DIMGAP
 40
0.625
  9
$DIMDSEP
 70
46
  9
$AUNITS
 70
0
  9
$PDMODE
 70
3
  9
$PDSIZE
 40
0.3125
  9
$HANDSEED
  5
257
  9
$TILEMODE
 70
1
  9
$MEASUREMENT
 70
1
  9
$INSUNITS
 70
4
  0
ENDSEC
  0
SECTION
  2
CLASSES
  0
CLASS
  1
ACDBDICTIONARYWDFLT
  2
AcDbDictionaryWithDefault
  3
AutoCAD 2000
 90
0
 91
1
280
0
281
0
  0
CLASS
  1
ACDBPLACEHOLDER
  2
AcDbPlaceHolder
  3
AutoCAD 2000
 90
0
 91
1
280
0
281
0
  0
CLASS
  1
LAYOUT
  2
AcDbLayout
  3
AutoCAD 2000
 90
0
 91
0
280
0
281
0
  0
ENDSEC
  0
SECTION
  2
TABLES
  0
TABLE
  2
VPORT
  5
8
100
AcDbSymbolTable
 70
2
  0
VPORT
  5
1F4
100
AcDbSymbolTableRecord
100
AcDbViewportTableRecord
  2
*ACTIVE
 70
0
 10
0.0
 20
0.0
 11
1.0
 21
1.0
 12
251.7110098809
 22
355.9912854031
 13
0.0
 23
0.0
 14
1.0
 24
1.0
 15
0.0
 25
0.0
 16
0.0
 26
0.0
 36
1.0
 17
0.0
 27
0.0
 37
0.0
 40
711.9825708061
 41
0.7070707071
 42
50.0
 43
0.0
 44
0.0
 50
0.0
 51
0.0
 71
0
 72
100
 73
1
 74
1
 75
0
 76
0
 77
0
 78
0
  0
ENDTAB
  0
TABLE
  2
LTYPE
  5
5
100
AcDbSymbolTable
 70
6
  0
LTYPE
  5
14
100
AcDbSymbolTableRecord
100
AcDbLinetypeTableRecord
  2
BYBLOCK
 70
0
  3

 72
65
 73
0
 40
0.0
  0
LTYPE
  5
15
100
AcDbSymbolTableRecord
100
AcDbLinetypeTableRecord
  2
BYLAYER
 70
0
  3

 72
65
 73
0
 40
0.0
  0
LTYPE
  5
16
100
AcDbSymbolTableRecord
100
AcDbLinetypeTableRecord
  2
CONTINUOUS
 70
64
  3
Solid line
 72
65
 73
0
 40
0.0
  0
LTYPE
  5
1F5
100
AcDbSymbolTableRecord
100
AcDbLinetypeTableRecord
  2
CENTER
 70
64
  3
____ _ ____ _ ____ _ ____ _ ____ _ ____ _ ____
 72
65
 73
4
 40
0.6
 49
0.375
 74
0
 49
-0.075
 74
0
 49
0.075
 74
0
 49
-0.075
 74
0
  0
LTYPE
  5
1F6
100
AcDbSymbolTableRecord
100
AcDbLinetypeTableRecord
  2
HIDDEN
 70
64
  3
- - - - - - - - - - - - - - - - - - - -
 72
65
 73
2
 40
0.2
 49
0.1
 74
0
 49
-0.1
 74
0
  0
LTYPE
  5
1F7
100
AcDbSymbolTableRecord
100
AcDbLinetypeTableRecord
  2
PHANTOM
 70
64
  3
_____ _ _ _____ _ _ _____ _ _ _____
 72
65
 73
6
 40
0.8
 49
0.45
 74
0
 49
-0.05
 74
0
 49
0.1
 74
0
 49
-0.05
 74
0
 49
0.1
 74
0
 49
-0.05
 74
0
  0
LTYPE
  5
1F8
100
AcDbSymbolTableRecord
100
AcDbLinetypeTableRecord
  2
DOT
 70
64
  3
. . . . . . . . . . . . . . . . . . . .
 72
65
 73
2
 40
0.2
 49
0.1
 74
0
 49
-0.1
 74
0
  0
LTYPE
  5
1F9
100
AcDbSymbolTableRecord
100
AcDbLinetypeTableRecord
  2
DASHED
 70
64
  3
- - - - - - - - - - - - - - - - - - - -
 72
65
 73
2
 40
0.2
 49
0.1
 74
0
 49
-0.1
 74
0
  0
ENDTAB
  0
TABLE
  2
LAYER
  5
2
100
AcDbSymbolTable
 70
36
  0
LAYER
  5
10
100
AcDbSymbolTableRecord
100
AcDbLayerTableRecord
  2
0
 70
0
 62
7
  6
CONTINUOUS
370
-3
390
F
  0
LAYER
  5
1FA
100
AcDbSymbolTableRecord
100
AcDbLayerTableRecord
  2
DEFAULT_1
 70
0
 62
7
  6
CENTER
370
-3
390
F
  0
LAYER
  5
1FB
100
AcDbSymbolTableRecord
100
AcDbLayerTableRecord
  2
DEFAULT_2
 70
0
 62
8
  6
HIDDEN
370
-3
390
F
  0
LAYER
  5
1FC
100
AcDbSymbolTableRecord
100
AcDbLayerTableRecord
  2
DEFAULT_3
 70
0
 62
7
  6
PHANTOM
370
-3
390
F
  0
LAYER
  5
1FD
100
AcDbSymbolTableRecord
100
AcDbLayerTableRecord
  2
00_COMPONENTS
 70
0
 62
7
  6
CONTINUOUS
370
-3
390
F
  0
LAYER
  5
1FE
100
AcDbSymbolTableRecord
100
AcDbLayerTableRecord
  2
01_1_DEFAULT_DATUMS
 70
0
 62
7
  6
CONTINUOUS
370
-3
390
F
  0
LAYER
  5
1FF
100
AcDbSymbolTableRecord
100
AcDbLayerTableRecord
  2
01_PLANES
 70
0
 62
7
  6
CONTINUOUS
370
-3
390
F
  0
LAYER
  5
200
100
AcDbSymbolTableRecord
100
AcDbLayerTableRecord
  2
02_COORD_SYS
 70
0
 62
7
  6
CONTINUOUS
370
-3
390
F
  0
LAYER
  5
201
100
AcDbSymbolTableRecord
100
AcDbLayerTableRecord
  2
03_AXES
 70
0
 62
7
  6
CONTINUOUS
370
-3
390
F
  0
LAYER
  5
202
100
AcDbSymbolTableRecord
100
AcDbLayerTableRecord
  2
04_POINTS
 70
0
 62
7
  6
CONTINUOUS
370
-3
390
F
  0
LAYER
  5
203
100
AcDbSymbolTableRecord
100
AcDbLayerTableRecord
  2
05_CURVES
 70
0
 62
7
  6
CONTINUOUS
370
-3
390
F
  0
LAYER
  5
204
100
AcDbSymbolTableRecord
100
AcDbLayerTableRecord
  2
06_SURFS
 70
0
 62
7
  6
CONTINUOUS
370
-3
390
F
  0
LAYER
  5
205
100
AcDbSymbolTableRecord
100
AcDbLayerTableRecord
  2
07_COSMETICS
 70
0
 62
7
  6
CONTINUOUS
370
-3
390
F
  0
LAYER
  5
206
100
AcDbSymbolTableRecord
100
AcDbLayerTableRecord
  2
10_NOTES
 70
0
 62
7
  6
CONTINUOUS
370
-3
390
F
  0
LAYER
  5
207
100
AcDbSymbolTableRecord
100
AcDbLayerTableRecord
  2
11_NOTES_PUB
 70
0
 62
7
  6
CONTINUOUS
370
-3
390
F
  0
LAYER
  5
208
100
AcDbSymbolTableRecord
100
AcDbLayerTableRecord
  2
13_REF_GTOL
 70
0
 62
7
  6
CONTINUOUS
370
-3
390
F
  0
LAYER
  5
209
100
AcDbSymbolTableRecord
100
AcDbLayerTableRecord
  2
16_MISC
 70
0
 62
7
  6
CONTINUOUS
370
-3
390
F
  0
LAYER
  5
20A
100
AcDbSymbolTableRecord
100
AcDbLayerTableRecord
  2
17_NO_PRINT
 70
0
 62
7
  6
CONTINUOUS
370
-3
390
F
  0
LAYER
  5
20B
100
AcDbSymbolTableRecord
100
AcDbLayerTableRecord
  2
18_DATUM_CAMS_JOINTS
 70
0
 62
7
  6
CONTINUOUS
370
-3
390
F
  0
LAYER
  5
20C
100
AcDbSymbolTableRecord
100
AcDbLayerTableRecord
  2
19_DATUM_FUNCTIONAL
 70
0
 62
7
  6
CONTINUOUS
370
-3
390
F
  0
LAYER
  5
20D
100
AcDbSymbolTableRecord
100
AcDbLayerTableRecord
  2
20_DATUM_KINEMATIC_SCHEME
 70
0
 62
7
  6
CONTINUOUS
370
-3
390
F
  0
ENDTAB
  0
TABLE
  2
STYLE
  5
3
100
AcDbSymbolTable
 70
1
  0
STYLE
  5
11
100
AcDbSymbolTableRecord
100
AcDbTextStyleTableRecord
  2
STANDARD
 70
0
 40
0.0
 41
0.8
 50
0.0
 71
0
 42
0.2
  3
txt
  4

  0
STYLE
  5
20E
100
AcDbSymbolTableRecord
100
AcDbTextStyleTableRecord
  2
TEXTSTYLE_1
 70
0
 40
0.0
 41
0.8
 50
0.0
 71
0
 42
0.2
  3
gdt
  4

  0
ENDTAB
  0
TABLE
  2
VIEW
  5
6
100
AcDbSymbolTable
 70
0
  0
ENDTAB
  0
TABLE
  2
UCS
  5
7
100
AcDbSymbolTable
 70
0
  0
ENDTAB
  0
TABLE
  2
APPID
  5
9
100
AcDbSymbolTable
 70
1
  0
APPID
  5
20F
100
AcDbSymbolTableRecord
100
AcDbRegAppTableRecord
  2
ACAD
 70
0
  0
ENDTAB
  0
TABLE
  2
BLOCK_RECORD
  5
1
100
AcDbSymbolTable
 70
0
  0
BLOCK_RECORD
  5
210
100
AcDbSymbolTableRecord
100
AcDbBlockTableRecord
  2
*Model_Space
  0
BLOCK_RECORD
  5
211
100
AcDbSymbolTableRecord
100
AcDbBlockTableRecord
  2
*Paper_Space
  0
BLOCK_RECORD
  5
212
100
AcDbSymbolTableRecord
100
AcDbBlockTableRecord
  2
_FILLED
  0
ENDTAB
  0
TABLE
  2
DIMSTYLE
  5
A
100
AcDbSymbolTable
 70
1
100
AcDbDimStyleTable
 71
0
  0
DIMSTYLE
105
213
100
AcDbSymbolTableRecord
100
AcDbDimStyleTableRecord
  2
STANDARD
 70
0
  3

  4

 40
1.0
 41
5.9931192829
 42
1.0
 43
0.38
 44
1.0
 45
0.0
 46
0.0
 47
0.01
 48
0.01
140
8.390366996
141
0.09
142
0.0
143
25.4
144
1.0
145
0.0
146
1.0
147
0.625
 71
1
 72
0
 73
0
 74
0
 75
0
 76
0
 77
1
 78
8
 79
2
170
0
171
1
172
0
173
0
174
0
175
0
176
0
177
0
178
0
270
2
179
2
271
2
272
2
273
2
274
2
275
0
280
0
281
0
282
0
283
1
284
8
285
0
286
0
287
3
288
0
340
11
278
46
341
212
342
212
343
212
344
212
  0
ENDTAB
  0
ENDSEC
  0
SECTION
  2
BLOCKS
  0
BLOCK
  5
20
100
AcDbEntity
  8
0
100
AcDbBlockBegin
  2
*Model_Space
 70
0
 10
0.0
 20
0.0
 30
0.0
  3
*Model_Space
  1

  0
ENDBLK
  5
21
100
AcDbEntity
  8
0
100
AcDbBlockEnd
  0
BLOCK
  5
1C
100
AcDbEntity
  8
0
100
AcDbBlockBegin
  2
*Paper_Space
 70
0
 10
0.0
 20
0.0
 30
0.0
  3
*Paper_Space
  1

  0
ENDBLK
  5
1D
100
AcDbEntity
  8
0
100
AcDbBlockEnd
  0
BLOCK
  5
214
100
AcDbEntity
  8
0
100
AcDbBlockBegin
  2
_FILLED
 70
64
 10
0.0
 20
0.0
  3
_FILLED
  1

  0
SOLID
  5
215
100
AcDbEntity
  8
0
  6
BYBLOCK
 62
0
100
AcDbTrace
 10
0.0
 20
0.0
 11
-1.0
 21
0.25
 12
-1.0
 22
-0.25
 13
-1.0
 23
-0.25
  0
ENDBLK
  5
216
100
AcDbEntity
  8
0
  6
BYBLOCK
 62
0
100
AcDbBlockEnd
  0
ENDSEC
  0
SECTION
  2
ENTITIES
  0
LINE
  5
217
100
AcDbEntity
  8
0
100
AcDbLine
 62
7
  6
CONTINUOUS
 10
55.1968486609
 20
104.6840958606
 11
455.1968486609
 21
104.6840958606
  0
LINE
  5
218
100
AcDbEntity
  8
0
100
AcDbLine
 62
7
  6
CONTINUOUS
 10
452.9968486609
 20
106.8840958606
 11
57.3968486609
 21
106.8840958606
  0
LINE
  5
219
100
AcDbEntity
  8
0
100
AcDbLine
 62
7
  6
CONTINUOUS
 10
55.1968486609
 20
604.6840958555
 11
55.1968486609
 21
104.6840958657
  0
LINE
  5
21A
100
AcDbEntity
  8
0
100
AcDbLine
 62
7
  6
CONTINUOUS
 10
57.3968486609
 20
106.8840958606
 11
57.3968486609
 21
602.4840958606
  0
LINE
  5
21B
100
AcDbEntity
  8
0
100
AcDbLine
 62
7
  6
CONTINUOUS
 10
452.9968486609
 20
602.4840958606
 11
452.9968486609
 21
106.8840958606
  0
LINE
  5
21C
100
AcDbEntity
  8
0
100
AcDbLine
 62
7
  6
CONTINUOUS
 10
455.1968486609
 20
104.6840958657
 11
455.1968486609
 21
604.6840958555
  0
LINE
  5
21D
100
AcDbEntity
  8
0
100
AcDbLine
 62
7
  6
CONTINUOUS
 10
57.3968486609
 20
602.4840958606
 11
452.9968486609
 21
602.4840958606
  0
LINE
  5
21E
100
AcDbEntity
  8
0
100
AcDbLine
 62
7
  6
CONTINUOUS
 10
455.1968486609
 20
604.6840958606
 11
55.1968486609
 21
604.6840958606
  0
CIRCLE
  5
21F
100
AcDbEntity
  8
0
100
AcDbCircle
 62
7
  6
CONTINUOUS
 10
77.1968486609
 20
126.6840958606
 40
6.5
  0
CIRCLE
  5
220
100
AcDbEntity
  8
0
100
AcDbCircle
 62
7
  6
CONTINUOUS
 10
77.1968486609
 20
582.6840958606
 40
6.5
  0
CIRCLE
  5
221
100
AcDbEntity
  8
0
100
AcDbCircle
 62
7
  6
CONTINUOUS
 10
433.1968486609
 20
126.6840958606
 40
6.5
  0
CIRCLE
  5
222
100
AcDbEntity
  8
0
100
AcDbCircle
 62
7
  6
CONTINUOUS
 10
433.1968486609
 20
582.6840958606
 40
6.5
  0
ARC
  5
223
100
AcDbEntity
  8
0
100
AcDbCircle
 62
7
  6
CONTINUOUS
 10
58.6013922344
 20
100.5771495271
 40
6.3396831408
100
AcDbArc
 50
112.9316552288
 51
115.00236129
  0
ARC
  5
224
100
AcDbEntity
  8
0
100
AcDbCircle
 62
7
  6
CONTINUOUS
 10
451.7923050871
 20
608.7910421946
 40
6.3396831414
100
AcDbArc
 50
292.9316552291
 51
295.0023612881
  0
ARC
  5
225
100
AcDbEntity
  8
0
100
AcDbCircle
 62
7
  6
CONTINUOUS
 10
51.7837695449
 20
600.0534643463
 40
6.0222912977
100
AcDbArc
 50
37.8293133197
 51
39.5910716659
  0
ARC
  5
226
100
AcDbEntity
  8
0
100
AcDbCircle
 62
7
  6
CONTINUOUS
 10
458.6099277758
 20
109.314727374
 40
6.0222912964
100
AcDbArc
 50
217.8293133194
 51
219.591071666
  0
ARC
  5
227
100
AcDbEntity
  8
0
100
AcDbCircle
 62
7
  6
CONTINUOUS
 10
457.6133788441
 20
108.4887679135
 40
4.727951178
100
AcDbArc
 50
219.5742244742
 51
221.9495204756
  0
ARC
  5
228
100
AcDbEntity
  8
0
100
AcDbCircle
 62
7
  6
CONTINUOUS
 10
52.7803184772
 20
600.8794238072
 40
4.7279511786
100
AcDbArc
 50
39.5742244744
 51
41.9495204754
  0
SPLINE
  5
229
100
AcDbEntity
  8
0
100
AcDbSpline
 62
7
  6
CONTINUOUS
 70
0
 71
3
 72
9
 73
5
 74
0
 42
0.0000001
 43
0.0000001
 44
0.0000000001
 40
0.0
 40
0.0
 40
0.0
 40
0.0
 40
0.238454021
 40
1.0
 40
1.0
 40
1.0
 40
1.0
 10
55.1968486609
 20
105.6840958606
 30
0.0
 10
55.2801602705
 20
105.6840958606
 30
0.0
 10
55.6298479303
 20
105.7116358826
 30
0.0
 10
55.9639327614
 20
105.8465369945
 30
0.0
 10
56.1959715548
 20
105.9767353054
 30
0.0
  0
SPLINE
  5
22A
100
AcDbEntity
  8
0
100
AcDbSpline
 62
7
  6
CONTINUOUS
 70
0
 71
3
 72
8
 73
4
 74
0
 42
0.0000001
 43
0.0000001
 44
0.0000000001
 40
0.0
 40
0.0
 40
0.0
 40
0.0
 40
1.0
 40
1.0
 40
1.0
 40
1.0
 10
56.1959715548
 20
105.9767353054
 30
0.0
 10
56.2696830194
 20
106.0180952352
 30
0.0
 10
56.3418268686
 20
106.0623188048
 30
0.0
 10
56.4125766844
 20
106.1085625867
 30
0.0
  0
SPLINE
  5
22B
100
AcDbEntity
  8
0
100
AcDbSpline
 62
7
  6
CONTINUOUS
 70
0
 71
3
 72
8
 73
4
 74
0
 42
0.0000001
 43
0.0000001
 44
0.0000000001
 40
0.0
 40
0.0
 40
0.0
 40
0.0
 40
1.0
 40
1.0
 40
1.0
 40
1.0
 10
56.4125766844
 20
106.1085625867
 30
0.0
 10
56.4981029689
 20
106.1644646239
 30
0.0
 10
56.5816944937
 20
106.2233789809
 30
0.0
 10
56.6637471214
 20
106.2842653455
 30
0.0
  0
SPLINE
  5
22C
100
AcDbEntity
  8
0
100
AcDbSpline
 62
7
  6
CONTINUOUS
 70
0
 71
3
 72
8
 73
4
 74
0
 42
0.0000001
 43
0.0000001
 44
0.0000000001
 40
0.0
 40
0.0
 40
0.0
 40
0.0
 40
1.0
 40
1.0
 40
1.0
 40
1.0
 10
56.6637471214
 20
106.2842653455
 30
0.0
 10
56.917305804
 20
106.4724161315
 30
0.0
 10
57.1570789551
 20
106.6786616571
 30
0.0
 10
57.3968486609
 20
106.8840958606
 30
0.0
  0
SPLINE
  5
22D
100
AcDbEntity
  8
0
100
AcDbSpline
 62
7
  6
CONTINUOUS
 70
0
 71
3
 72
9
 73
5
 74
0
 42
0.0000001
 43
0.0000001
 44
0.0000000001
 40
0.0
 40
0.0
 40
0.0
 40
0.0
 40
0.2573227311
 40
1.0
 40
1.0
 40
1.0
 40
1.0
 10
452.9968486609
 20
106.8840958606
 30
0.0
 10
453.0784804782
 20
106.8141538833
 30
0.0
 10
453.3957138125
 20
106.5426743215
 30
0.0
 10
453.7212937817
 20
106.2784051712
 30
0.0
 10
453.9809880625
 20
106.108649232
 30
0.0
  0
SPLINE
  5
22E
100
AcDbEntity
  8
0
100
AcDbSpline
 62
7
  6
CONTINUOUS
 70
0
 71
3
 72
8
 73
4
 74
0
 42
0.0000001
 43
0.0000001
 44
0.0000000001
 40
0.0
 40
0.0
 40
0.0
 40
0.0
 40
1.0
 40
1.0
 40
1.0
 40
1.0
 10
453.9809880625
 20
106.108649232
 30
0.0
 10
454.0517803596
 20
106.0623740008
 30
0.0
 10
454.1239682833
 20
106.0181210489
 30
0.0
 10
454.1977257656
 20
105.9767353006
 30
0.0
  0
SPLINE
  5
22F
100
AcDbEntity
  8
0
100
AcDbSpline
 62
7
  6
CONTINUOUS
 70
0
 71
3
 72
8
 73
4
 74
0
 42
0.0000001
 43
0.0000001
 44
0.0000000001
 40
0.0
 40
0.0
 40
0.0
 40
0.0
 40
1.0
 40
1.0
 40
1.0
 40
1.0
 10
454.1977257656
 20
105.9767353006
 30
0.0
 10
454.2840502877
 20
105.9282981138
 30
0.0
 10
454.3727277175
 20
105.8836723411
 30
0.0
 10
454.4637469805
 20
105.8447676118
 30
0.0
  0
SPLINE
  5
230
100
AcDbEntity
  8
0
100
AcDbSpline
 62
7
  6
CONTINUOUS
 70
0
 71
3
 72
9
 73
5
 74
0
 42
0.0000001
 43
0.0000001
 44
0.0000000001
 40
0.0
 40
0.0
 40
0.0
 40
0.0
 40
0.2604045884
 40
1.0
 40
1.0
 40
1.0
 40
1.0
 10
454.4637469805
 20
105.8447676118
 30
0.0
 10
454.5238705187
 20
105.8190687663
 30
0.0
 10
454.7584949479
 20
105.7298618491
 30
0.0
 10
455.0111420452
 20
105.6840958606
 30
0.0
 10
455.1968486609
 20
105.6840958606
 30
0.0
  0
SPLINE
  5
231
100
AcDbEntity
  8
0
100
AcDbSpline
 62
7
  6
CONTINUOUS
 70
0
 71
3
 72
9
 73
5
 74
0
 42
0.0000001
 43
0.0000001
 44
0.0000000001
 40
0.0
 40
0.0
 40
0.0
 40
0.0
 40
0.2142378829
 40
1.0
 40
1.0
 40
1.0
 40
1.0
 10
453.9962690654
 20
106.1322725873
 30
0.0
 10
453.9375552531
 20
106.1998440207
 30
0.0
 10
453.6325274512
 20
106.4879689323
 30
0.0
 10
453.2738079443
 20
106.7077781046
 30
0.0
 10
452.9968486609
 20
106.8840958605
 30
0.0
  0
SPLINE
  5
232
100
AcDbEntity
  8
0
100
AcDbSpline
 62
7
  6
CONTINUOUS
 70
0
 71
3
 72
9
 73
5
 74
0
 42
0.0000001
 43
0.0000001
 44
0.0000000001
 40
0.0
 40
0.0
 40
0.0
 40
0.0
 40
0.2767987927
 40
1.0
 40
1.0
 40
1.0
 40
1.0
 10
452.9968486609
 20
602.4840958606
 30
0.0
 10
453.0942962333
 20
602.5461329121
 30
0.0
 10
453.4441581555
 20
602.7710467181
 30
0.0
 10
453.7983888497
 20
603.0081500891
 30
0.0
 10
453.9963343715
 20
603.2359941923
 30
0.0
  0
SPLINE
  5
233
100
AcDbEntity
  8
0
100
AcDbSpline
 62
7
  6
CONTINUOUS
 70
0
 71
3
 72
9
 73
5
 74
0
 42
0.0000001
 43
0.0000001
 44
0.0000000001
 40
0.0
 40
0.0
 40
0.0
 40
0.0
 40
0.2142379492
 40
1.0
 40
1.0
 40
1.0
 40
1.0
 10
56.3974286217
 20
603.2359186921
 30
0.0
 10
56.4561424528
 20
603.168347292
 30
0.0
 10
56.7611702097
 20
602.8802226154
 30
0.0
 10
57.1198895262
 20
602.6604135219
 30
0.0
 10
57.3968486609
 20
602.4840958606
 30
0.0
  0
SPLINE
  5
234
100
AcDbEntity
  8
0
100
AcDbSpline
 62
7
  6
CONTINUOUS
 70
0
 71
3
 72
9
 73
5
 74
0
 42
0.0000001
 43
0.0000001
 44
0.0000000001
 40
0.0
 40
0.0
 40
0.0
 40
0.0
 40
0.2767988472
 40
1.0
 40
1.0
 40
1.0
 40
1.0
 10
57.3968486609
 20
106.8840958605
 30
0.0
 10
57.2994009962
 20
106.8220587503
 30
0.0
 10
56.9495388225
 20
106.5971447734
 30
0.0
 10
56.5953078178
 20
106.3600412072
 30
0.0
 10
56.397362325
 20
106.1321968091
 30
0.0
  0
SPLINE
  5
235
100
AcDbEntity
  8
0
100
AcDbSpline
 62
7
  6
CONTINUOUS
 70
0
 71
3
 72
9
 73
5
 74
0
 42
0.0000001
 43
0.0000001
 44
0.0000000001
 40
0.0
 40
0.0
 40
0.0
 40
0.0
 40
0.2573227296
 40
1.0
 40
1.0
 40
1.0
 40
1.0
 10
57.3968486609
 20
602.4840958606
 30
0.0
 10
57.315216843
 20
602.5540378384
 30
0.0
 10
56.9979835182
 20
602.8255174194
 30
0.0
 10
56.6724035453
 20
603.0897865792
 30
0.0
 10
56.4127092464
 20
603.2595424993
 30
0.0
  0
SPLINE
  5
236
100
AcDbEntity
  8
0
100
AcDbSpline
 62
7
  6
CONTINUOUS
 70
0
 71
3
 72
8
 73
4
 74
0
 42
0.0000001
 43
0.0000001
 44
0.0000000001
 40
0.0
 40
0.0
 40
0.0
 40
0.0
 40
1.0
 40
1.0
 40
1.0
 40
1.0
 10
56.4127092464
 20
603.2595424993
 30
0.0
 10
56.3419169473
 20
603.3058177233
 30
0.0
 10
56.2697290223
 20
603.3500706682
 30
0.0
 10
56.1959715402
 20
603.391456412
 30
0.0
  0
SPLINE
  5
237
100
AcDbEntity
  8
0
100
AcDbSpline
 62
7
  6
CONTINUOUS
 70
0
 71
3
 72
8
 73
4
 74
0
 42
0.0000001
 43
0.0000001
 44
0.0000000001
 40
0.0
 40
0.0
 40
0.0
 40
0.0
 40
1.0
 40
1.0
 40
1.0
 40
1.0
 10
56.1959715402
 20
603.391456412
 30
0.0
 10
56.1096460741
 20
603.4398941234
 30
0.0
 10
56.0209676488
 20
603.4845203425
 30
0.0
 10
55.9299473419
 20
603.523425377
 30
0.0
  0
SPLINE
  5
238
100
AcDbEntity
  8
0
100
AcDbSpline
 62
7
  6
CONTINUOUS
 70
0
 71
3
 72
9
 73
5
 74
0
 42
0.0000001
 43
0.0000001
 44
0.0000000001
 40
0.0
 40
0.0
 40
0.0
 40
0.0
 40
0.260404533
 40
1.0
 40
1.0
 40
1.0
 40
1.0
 10
55.9299473419
 20
603.523425377
 30
0.0
 10
55.8698240406
 20
603.5491240282
 30
0.0
 10
55.6352005058
 20
603.6383302758
 30
0.0
 10
55.3825544942
 20
603.6840958606
 30
0.0
 10
55.1968486609
 20
603.6840958606
 30
0.0
  0
SPLINE
  5
239
100
AcDbEntity
  8
0
100
AcDbSpline
 62
7
  6
CONTINUOUS
 70
0
 71
3
 72
9
 73
5
 74
0
 42
0.0000001
 43
0.0000001
 44
0.0000000001
 40
0.0
 40
0.0
 40
0.0
 40
0.0
 40
0.2384540136
 40
1.0
 40
1.0
 40
1.0
 40
1.0
 10
455.1968486609
 20
603.6840958606
 30
0.0
 10
455.1135370555
 20
603.6840958606
 30
0.0
 10
454.7638494021
 20
603.65655584
 30
0.0
 10
454.4297645807
 20
603.5216547291
 30
0.0
 10
454.1977257824
 20
603.3914564322
 30
0.0
  0
SPLINE
  5
23A
100
AcDbEntity
  8
0
100
AcDbSpline
 62
7
  6
CONTINUOUS
 70
0
 71
3
 72
8
 73
4
 74
0
 42
0.0000001
 43
0.0000001
 44
0.0000000001
 40
0.0
 40
0.0
 40
0.0
 40
0.0
 40
1.0
 40
1.0
 40
1.0
 40
1.0
 10
454.1977257824
 20
603.3914564322
 30
0.0
 10
454.1240140323
 20
603.3500963475
 30
0.0
 10
454.051869909
 20
603.3058726016
 30
0.0
 10
453.9811198289
 20
603.2596286303
 30
0.0
  0
SPLINE
  5
23B
100
AcDbEntity
  8
0
100
AcDbSpline
 62
7
  6
CONTINUOUS
 70
0
 71
3
 72
8
 73
4
 74
0
 42
0.0000001
 43
0.0000001
 44
0.0000000001
 40
0.0
 40
0.0
 40
0.0
 40
0.0
 40
1.0
 40
1.0
 40
1.0
 40
1.0
 10
453.9811198289
 20
603.2596286303
 30
0.0
 10
453.8955928523
 20
603.2037261204
 30
0.0
 10
453.8120006655
 20
603.1448112446
 30
0.0
 10
453.7299473976
 20
603.0839243365
 30
0.0
  0
SPLINE
  5
23C
100
AcDbEntity
  8
0
100
AcDbSpline
 62
7
  6
CONTINUOUS
 70
0
 71
3
 72
8
 73
4
 74
0
 42
0.0000001
 43
0.0000001
 44
0.0000000001
 40
0.0
 40
0.0
 40
0.0
 40
0.0
 40
1.0
 40
1.0
 40
1.0
 40
1.0
 10
453.7299473976
 20
603.0839243365
 30
0.0
 10
453.4763897426
 20
602.8957741014
 30
0.0
 10
453.2366174907
 20
602.6895293136
 30
0.0
 10
452.9968486609
 20
602.4840958606
 30
0.0
  0
SPLINE
  5
23D
100
AcDbEntity
  8
0
100
AcDbSpline
 62
7
  6
CONTINUOUS
 70
0
 71
3
 72
9
 73
5
 74
0
 42
0.0000001
 43
0.0000001
 44
0.0000000001
 40
0.0
 40
0.0
 40
0.0
 40
0.0
 40
0.2599553666
 40
1.0
 40
1.0
 40
1.0
 40
1.0
 10
452.9968486609
 20
602.4840958606
 30
0.0
 10
453.0678599939
 20
602.5956402016
 30
0.0
 10
453.341164304
 20
603.0244709856
 30
0.0
 10
453.6221623582
 20
603.4497194197
 30
0.0
 10
453.8532019702
 20
603.7469116933
 30
0.0
  0
SPLINE
  5
23E
100
AcDbEntity
  8
0
100
AcDbSpline
 62
7
  6
CONTINUOUS
 70
0
 71
3
 72
8
 73
4
 74
0
 42
0.0000001
 43
0.0000001
 44
0.0000000001
 40
0.0
 40
0.0
 40
0.0
 40
0.0
 40
1.0
 40
1.0
 40
1.0
 40
1.0
 10
453.8532019702
 20
603.7469116933
 30
0.0
 10
453.9310761255
 20
603.8470832487
 30
0.0
 10
454.0117695579
 20
603.945215616
 30
0.0
 10
454.0966568204
 20
604.0395176692
 30
0.0
  0
SPLINE
  5
23F
100
AcDbEntity
  8
0
100
AcDbSpline
 62
7
  6
CONTINUOUS
 70
0
 71
3
 72
9
 73
5
 74
0
 42
0.0000001
 43
0.0000001
 44
0.0000000001
 40
0.0
 40
0.0
 40
0.0
 40
0.0
 40
0.2795838799
 40
1.0
 40
1.0
 40
1.0
 40
1.0
 10
454.0966568204
 20
604.0395176692
 30
0.0
 10
454.1504154914
 20
604.0992386793
 30
0.0
 10
454.3483804028
 20
604.306646654
 30
0.0
 10
454.5779289434
 20
604.4912445751
 30
0.0
 10
454.7649174399
 20
604.5801522152
 30
0.0
  0
SPLINE
  5
240
100
AcDbEntity
  8
0
100
AcDbSpline
 62
7
  6
CONTINUOUS
 70
0
 71
3
 72
8
 73
4
 74
0
 42
0.0000001
 43
0.0000001
 44
0.0000000001
 40
0.0
 40
0.0
 40
0.0
 40
0.0
 40
1.0
 40
1.0
 40
1.0
 40
1.0
 10
454.7649174399
 20
604.5801522152
 30
0.0
 10
454.8986570113
 20
604.6437415264
 30
0.0
 10
455.0487612764
 20
604.6840958606
 30
0.0
 10
455.1968486609
 20
604.6840958606
 30
0.0
  0
SPLINE
  5
241
100
AcDbEntity
  8
0
100
AcDbSpline
 62
7
  6
CONTINUOUS
 70
0
 71
3
 72
8
 73
4
 74
0
 42
0.0000001
 43
0.0000001
 44
0.0000000001
 40
0.0
 40
0.0
 40
0.0
 40
0.0
 40
1.0
 40
1.0
 40
1.0
 40
1.0
 10
455.1968486609
 20
104.6840958606
 30
0.0
 10
455.0487827284
 20
104.6840958606
 30
0.0
 10
454.8987000737
 20
104.7244372567
 30
0.0
 10
454.7649766912
 20
104.7880106578
 30
0.0
  0
SPLINE
  5
242
100
AcDbEntity
  8
0
100
AcDbSpline
 62
7
  6
CONTINUOUS
 70
0
 71
3
 72
9
 73
5
 74
0
 42
0.0000001
 43
0.0000001
 44
0.0000000001
 40
0.0
 40
0.0
 40
0.0
 40
0.0
 40
0.222517393
 40
1.0
 40
1.0
 40
1.0
 40
1.0
 10
454.7649766912
 20
104.7880106578
 30
0.0
 10
454.707200993
 20
104.8154777885
 30
0.0
 10
454.4569387988
 20
104.9589119841
 30
0.0
 10
454.246606298
 20
105.1621393787
 30
0.0
 10
454.0970405014
 20
105.3282478612
 30
0.0
  0
SPLINE
  5
243
100
AcDbEntity
  8
0
100
AcDbSpline
 62
7
  6
CONTINUOUS
 70
0
 71
3
 72
9
 73
5
 74
0
 42
0.0000001
 43
0.0000001
 44
0.0000000001
 40
0.0
 40
0.0
 40
0.0
 40
0.0
 40
0.2356420763
 40
1.0
 40
1.0
 40
1.0
 40
1.0
 10
453.8532731654
 20
105.6211885052
 30
0.0
 10
453.7796889995
 20
105.7158382956
 30
0.0
 10
453.4780521177
 20
106.1258070198
 30
0.0
 10
453.2056911255
 20
106.5560468844
 30
0.0
 10
452.9968486609
 20
106.8840958606
 30
0.0
  0
SPLINE
  5
244
100
AcDbEntity
  8
0
100
AcDbSpline
 62
7
  6
CONTINUOUS
 70
0
 71
3
 72
9
 73
5
 74
0
 42
0.0000001
 43
0.0000001
 44
0.0000000001
 40
0.0
 40
0.0
 40
0.0
 40
0.0
 40
0.3732322346
 40
1.0
 40
1.0
 40
1.0
 40
1.0
 10
55.1968486609
 20
105.6840958606
 30
0.0
 10
55.1968486609
 20
105.8078683557
 30
0.0
 10
55.4419254261
 20
106.0988398713
 30
0.0
 10
55.7336237437
 20
106.23466423
 30
0.0
 10
55.9218895742
 20
106.3227433014
 30
0.0
  0
SPLINE
  5
245
100
AcDbEntity
  8
0
100
AcDbSpline
 62
7
  6
CONTINUOUS
 70
0
 71
3
 72
9
 73
5
 74
0
 42
0.0000001
 43
0.0000001
 44
0.0000000001
 40
0.0
 40
0.0
 40
0.0
 40
0.0
 40
0.2313556654
 40
1.0
 40
1.0
 40
1.0
 40
1.0
 10
56.1312435219
 20
106.415809276
 30
0.0
 10
56.2270511077
 20
106.4564799319
 30
0.0
 10
56.6446727417
 20
106.6240253522
 30
0.0
 10
57.0701840857
 20
106.7706625183
 30
0.0
 10
57.3968486609
 20
106.8840958606
 30
0.0
  0
SPLINE
  5
246
100
AcDbEntity
  8
0
100
AcDbSpline
 62
7
  6
CONTINUOUS
 70
0
 71
3
 72
9
 73
5
 74
0
 42
0.0000001
 43
0.0000001
 44
0.0000000001
 40
0.0
 40
0.0
 40
0.0
 40
0.0
 40
0.2628139192
 40
1.0
 40
1.0
 40
1.0
 40
1.0
 10
57.3968486609
 20
602.4840958606
 30
0.0
 10
57.2851711417
 20
602.5228755607
 30
0.0
 10
56.86038331
 20
602.6706277449
 30
0.0
 10
56.4365636414
 20
602.8227771616
 30
0.0
 10
56.1313247865
 20
602.9523479315
 30
0.0
  0
SPLINE
  5
247
100
AcDbEntity
  8
0
100
AcDbSpline
 62
7
  6
CONTINUOUS
 70
0
 71
3
 72
9
 73
5
 74
0
 42
0.0000001
 43
0.0000001
 44
0.0000000001
 40
0.0
 40
0.0
 40
0.0
 40
0.0
 40
0.2713154622
 40
1.0
 40
1.0
 40
1.0
 40
1.0
 10
56.1313247865
 20
602.9523479315
 30
0.0
 10
56.0876145522
 20
602.9709024786
 30
0.0
 10
55.9271856599
 20
603.0407889615
 30
0.0
 10
55.769374157
 20
603.1172844078
 30
0.0
 10
55.6584195208
 20
603.1801642228
 30
0.0
  0
SPLINE
  5
248
100
AcDbEntity
  8
0
100
AcDbSpline
 62
7
  6
CONTINUOUS
 70
0
 71
3
 72
9
 73
5
 74
0
 42
0.0000001
 43
0.0000001
 44
0.0000000001
 40
0.0
 40
0.0
 40
0.0
 40
0.0
 40
0.3371610891
 40
1.0
 40
1.0
 40
1.0
 40
1.0
 10
55.6584195208
 20
603.1801642228
 30
0.0
 10
55.5904254088
 20
603.218697603
 30
0.0
 10
55.4002109978
 20
603.3350037499
 30
0.0
 10
55.1968486609
 20
603.5304500244
 30
0.0
 10
55.1968486609
 20
603.6840958606
 30
0.0
  0
SPLINE
  5
249
100
AcDbEntity
  8
0
100
AcDbSpline
 62
7
  6
CONTINUOUS
 70
0
 71
3
 72
9
 73
5
 74
0
 42
0.0000001
 43
0.0000001
 44
0.0000000001
 40
0.0
 40
0.0
 40
0.0
 40
0.0
 40
0.2599553666
 40
1.0
 40
1.0
 40
1.0
 40
1.0
 10
57.3968486609
 20
106.8840958606
 30
0.0
 10
57.3258373279
 20
106.7725515196
 30
0.0
 10
57.0525330177
 20
106.3437207355
 30
0.0
 10
56.7715349636
 20
105.9184723014
 30
0.0
 10
56.5404953516
 20
105.6212800278
 30
0.0
  0
SPLINE
  5
24A
100
AcDbEntity
  8
0
100
AcDbSpline
 62
7
  6
CONTINUOUS
 70
0
 71
3
 72
8
 73
4
 74
0
 42
0.0000001
 43
0.0000001
 44
0.0000000001
 40
0.0
 40
0.0
 40
0.0
 40
0.0
 40
1.0
 40
1.0
 40
1.0
 40
1.0
 10
56.5404953516
 20
105.6212800278
 30
0.0
 10
56.4626211963
 20
105.5211084725
 30
0.0
 10
56.3819277639
 20
105.4229761052
 30
0.0
 10
56.2970405014
 20
105.3286740519
 30
0.0
  0
SPLINE
  5
24B
100
AcDbEntity
  8
0
100
AcDbSpline
 62
7
  6
CONTINUOUS
 70
0
 71
3
 72
9
 73
5
 74
0
 42
0.0000001
 43
0.0000001
 44
0.0000000001
 40
0.0
 40
0.0
 40
0.0
 40
0.0
 40
0.2795838799
 40
1.0
 40
1.0
 40
1.0
 40
1.0
 10
56.2970405014
 20
105.3286740519
 30
0.0
 10
56.2432818304
 20
105.2689530419
 30
0.0
 10
56.045316919
 20
105.0615450672
 30
0.0
 10
55.8157683784
 20
104.876947146
 30
0.0
 10
55.6287798819
 20
104.7880395059
 30
0.0
  0
SPLINE
  5
24C
100
AcDbEntity
  8
0
100
AcDbSpline
 62
7
  6
CONTINUOUS
 70
0
 71
3
 72
8
 73
4
 74
0
 42
0.0000001
 43
0.0000001
 44
0.0000000001
 40
0.0
 40
0.0
 40
0.0
 40
0.0
 40
1.0
 40
1.0
 40
1.0
 40
1.0
 10
55.6287798819
 20
104.7880395059
 30
0.0
 10
55.4950403105
 20
104.7244501948
 30
0.0
 10
55.3449360454
 20
104.6840958606
 30
0.0
 10
55.1968486609
 20
104.6840958606
 30
0.0
  0
SPLINE
  5
24D
100
AcDbEntity
  8
0
100
AcDbSpline
 62
7
  6
CONTINUOUS
 70
0
 71
3
 72
9
 73
5
 74
0
 42
0.0000001
 43
0.0000001
 44
0.0000000001
 40
0.0
 40
0.0
 40
0.0
 40
0.0
 40
0.3732322346
 40
1.0
 40
1.0
 40
1.0
 40
1.0
 10
455.1968486609
 20
603.6840958606
 30
0.0
 10
455.1968486609
 20
603.5603233655
 30
0.0
 10
454.9517718957
 20
603.2693518497
 30
0.0
 10
454.660073578
 20
603.1335274911
 30
0.0
 10
454.4718077474
 20
603.0454484197
 30
0.0
  0
SPLINE
  5
24E
100
AcDbEntity
  8
0
100
AcDbSpline
 62
7
  6
CONTINUOUS
 70
0
 71
3
 72
9
 73
5
 74
0
 42
0.0000001
 43
0.0000001
 44
0.0000000001
 40
0.0
 40
0.0
 40
0.0
 40
0.0
 40
0.2313556654
 40
1.0
 40
1.0
 40
1.0
 40
1.0
 10
454.2624537999
 20
602.9523824451
 30
0.0
 10
454.1666462141
 20
602.9117117892
 30
0.0
 10
453.7490245801
 20
602.7441663689
 30
0.0
 10
453.3235132361
 20
602.5975292028
 30
0.0
 10
452.9968486609
 20
602.4840958606
 30
0.0
  0
SPLINE
  5
24F
100
AcDbEntity
  8
0
100
AcDbSpline
 62
7
  6
CONTINUOUS
 70
0
 71
3
 72
9
 73
5
 74
0
 42
0.0000001
 43
0.0000001
 44
0.0000000001
 40
0.0
 40
0.0
 40
0.0
 40
0.0
 40
0.2628139282
 40
1.0
 40
1.0
 40
1.0
 40
1.0
 10
452.9968486609
 20
106.8840958606
 30
0.0
 10
453.1085262262
 20
106.8453161445
 30
0.0
 10
453.5333142154
 20
106.6975638939
 30
0.0
 10
453.9571340409
 20
106.5454144086
 30
0.0
 10
454.2623730026
 20
106.4158435789
 30
0.0
  0
SPLINE
  5
250
100
AcDbEntity
  8
0
100
AcDbSpline
 62
7
  6
CONTINUOUS
 70
0
 71
3
 72
9
 73
5
 74
0
 42
0.0000001
 43
0.0000001
 44
0.0000000001
 40
0.0
 40
0.0
 40
0.0
 40
0.0
 40
0.2713154492
 40
1.0
 40
1.0
 40
1.0
 40
1.0
 10
454.2623730026
 20
106.4158435789
 30
0.0
 10
454.3060831892
 20
106.39728905
 30
0.0
 10
454.4665119143
 20
106.3274026334
 30
0.0
 10
454.6243232546
 20
106.2509072659
 30
0.0
 10
454.7352777819
 20
106.1880275197
 30
0.0
  0
SPLINE
  5
251
100
AcDbEntity
  8
0
100
AcDbSpline
 62
7
  6
CONTINUOUS
 70
0
 71
3
 72
9
 73
5
 74
0
 42
0.0000001
 43
0.0000001
 44
0.0000000001
 40
0.0
 40
0.0
 40
0.0
 40
0.0
 40
0.3371610741
 40
1.0
 40
1.0
 40
1.0
 40
1.0
 10
454.7352777819
 20
106.1880275197
 30
0.0
 10
454.8032718958
 20
106.1494941428
 30
0.0
 10
454.9934863225
 20
106.033187999
 30
0.0
 10
455.1968486609
 20
105.8377417073
 30
0.0
 10
455.1968486609
 20
105.6840958606
 30
0.0
  0
SPLINE
  5
252
100
AcDbEntity
  8
0
100
AcDbSpline
 62
7
  6
CONTINUOUS
 70
0
 71
3
 72
8
 73
4
 74
0
 42
0.0000001
 43
0.0000001
 44
0.0000000001
 40
0.0
 40
0.0
 40
0.0
 40
0.0
 40
1.0
 40
1.0
 40
1.0
 40
1.0
 10
55.1968486609
 20
604.6840958606
 30
0.0
 10
55.3449145926
 20
604.6840958606
 30
0.0
 10
55.4949972465
 20
604.6437544649
 30
0.0
 10
55.6287206285
 20
604.5801810644
 30
0.0
  0
SPLINE
  5
253
100
AcDbEntity
  8
0
100
AcDbSpline
 62
7
  6
CONTINUOUS
 70
0
 71
3
 72
9
 73
5
 74
0
 42
0.0000001
 43
0.0000001
 44
0.0000000001
 40
0.0
 40
0.0
 40
0.0
 40
0.0
 40
0.2225173929
 40
1.0
 40
1.0
 40
1.0
 40
1.0
 10
55.6287206285
 20
604.5801810644
 30
0.0
 10
55.6864963269
 20
604.5527139337
 30
0.0
 10
55.9367585219
 20
604.409279738
 30
0.0
 10
56.1470910234
 20
604.2060523429
 30
0.0
 10
56.2966568204
 20
604.03994386
 30
0.0
  0
SPLINE
  5
254
100
AcDbEntity
  8
0
100
AcDbSpline
 62
7
  6
CONTINUOUS
 70
0
 71
3
 72
9
 73
5
 74
0
 42
0.0000001
 43
0.0000001
 44
0.0000000001
 40
0.0
 40
0.0
 40
0.0
 40
0.0
 40
0.2356420763
 40
1.0
 40
1.0
 40
1.0
 40
1.0
 10
56.5404241564
 20
603.7470032159
 30
0.0
 10
56.6140083223
 20
603.6523534256
 30
0.0
 10
56.9156452041
 20
603.2423847013
 30
0.0
 10
57.1880061963
 20
602.8121448368
 30
0.0
 10
57.3968486609
 20
602.4840958606
 30
0.0
  0
ENDSEC
  0
SECTION
  2
OBJECTS
  0
DICTIONARY
  5
C
100
AcDbDictionary
280
0
281
1
  3
ACAD_GROUP
350
D
  3
ACAD_MLINESTYLE
350
17
  3
ACAD_LAYOUT
350
1A
  3
ACAD_PLOTSETTINGS
350
19
  3
ACAD_PLOTSTYLENAME
350
E
  0
DICTIONARY
  5
D
102
{ACAD_REACTORS
330
C
102
}
100
AcDbDictionary
280
0
281
1
  0
ACDBDICTIONARYWDFLT
  5
E
102
{ACAD_REACTORS
330
C
102
}
100
AcDbDictionary
281
1
  3
Normal
350
F
100
AcDbDictionaryWithDefault
340
F
  0
DICTIONARY
  5
17
102
{ACAD_REACTORS
330
C
102
}
100
AcDbDictionary
280
0
281
1
  3
Standard
350
18
  0
DICTIONARY
  5
19
102
{ACAD_REACTORS
330
C
102
}
100
AcDbDictionary
281
1
  0
DICTIONARY
  5
1A
102
{ACAD_REACTORS
330
C
102
}
100
AcDbDictionary
281
1
  3
Model
350
255
  3
Layout1
350
256
  0
ACDBPLACEHOLDER
  5
F
102
{ACAD_REACTORS
330
E
102
}
  0
MLINESTYLE
  5
18
102
{ACAD_REACTORS
330
17
102
}
100
AcDbMlineStyle
  2
STANDARD
 70
0
  3

 62
256
 51
90.0
 52
90.0
 71
2
 49
0.5
 62
256
  6
BYLAYER
 49
-0.5
 62
256
  6
BYLAYER
  0
LAYOUT
  5
255
102
{ACAD_REACTORS
330
1A
102
}
100
AcDbPlotSettings
  1

  2
none_device
  4

  6

 40
0.0
 41
0.0
 42
0.0
 43
0.0
 44
210.0
 45
297.0
 46
0.0
 47
0.0
 48
0.0
 49
0.0
140
0.0
141
0.0
142
1.0
143
1.0
 70
1024
 72
1
 73
0
 74
0
  7

 75
0
147
1.0
148
0.0
149
0.0
100
AcDbLayout
  1
Model
 70
0
 71
0
 10
0.0
 20
0.0
 11
210.0
 21
297.0
 12
0.0
 22
0.0
 32
0.0
 14
0.0
 24
0.0
 34
0.0
 15
0.0
 25
0.0
 35
0.0
146
0.0
 13
0.0
 23
0.0
 33
0.0
 16
1.0
 26
0.0
 36
0.0
 17
0.0
 27
1.0
 37
0.0
 76
0
330
210
345
0
346
0
  0
LAYOUT
  5
256
102
{ACAD_REACTORS
330
1A
102
}
100
AcDbPlotSettings
  1

  2
none_device
  4

  6

 40
0.0
 41
0.0
 42
0.0
 43
0.0
 44
210.0
 45
297.0
 46
0.0
 47
0.0
 48
0.0
 49
0.0
140
0.0
141
0.0
142
1.0
143
1.0
 70
0
 72
1
 73
0
 74
0
  7

 75
0
147
1.0
148
0.0
149
0.0
100
AcDbLayout
  1
Layout1
 70
0
 71
1
 10
0.0
 20
0.0
 11
210.0
 21
297.0
 12
0.0
 22
0.0
 32
0.0
 14
0.0
 24
0.0
 34
0.0
 15
0.0
 25
0.0
 35
0.0
146
0.0
 13
0.0
 23
0.0
 33
0.0
 16
1.0
 26
0.0
 36
0.0
 17
0.0
 27
1.0
 37
0.0
 76
0
330
211
345
0
346
0
  0
ENDSEC
  0
EOF
