999
DXF file: C:\Users\sesa63760\Dev\_Creo\CAD\MCADID0000768_3D-CAD\drw0001_7.dxf
999
Pro/ENGINEER 2019471 by Parametric Technology Corporation
  0
SECTION
  2
HEADER
  9
$ACADVER
  1
AC1024
  9
$DWGCODEPAGE
  3
ANSI_1252
  9
$EXTMAX
 10
60.5595077574
 20
85.6484466854
 30
0.0
  9
$EXTMIN
 10
0.0
 20
0.0
 30
0.0
  9
$LIMMIN
 10
0.0
 20
0.0
  9
$LIMMAX
 10
60.5595077574
 20
85.6484466854
  9
$VIEWCTR
 10
30.2797538787
 20
42.8242233427
  9
$VIEWSIZE
 40
85.6484466854
  9
$CLAYER
  8
0
  9
$LTSCALE
 40
5.583009858
  9
$CELTYPE
  6
BYLAYER
  9
$DIMSCALE
 40
1.0
  9
$DIMASZ
 40
0.7209465209
  9
$DIMEXO
 40
1.0
  9
$DIMDLI
 40
3.8573522655
  9
$DIMEXE
 40
1.0
  9
$DIMCEN
 40
0.9135834313
  9
$DIMLFAC
 40
1.0
  9
$DIMBLK
  1
_FILLED
  9
$DIMALT
 70
0
  9
$DIMALTF
 40
0.0393700787
  9
$DIMTXT
 40
1.0093251293
  9
$DIMTOL
 70
1
  9
$DIMLIM
 70
0
  9
$DIMTFAC
 40
1.0
  9
$DIMTP
 40
0.01
  9
$DIMTM
 40
0.01
  9
$DIMGAP
 40
0.625
  9
$DIMDSEP
 70
46
  9
$AUNITS
 70
0
  9
$PDMODE
 70
3
  9
$PDSIZE
 40
0.3125
  9
$HANDSEED
  5
2E4
  9
$TILEMODE
 70
1
  9
$MEASUREMENT
 70
1
  9
$INSUNITS
 70
4
  0
ENDSEC
  0
SECTION
  2
CLASSES
  0
CLASS
  1
ACDBDICTIONARYWDFLT
  2
AcDbDictionaryWithDefault
  3
AutoCAD 2000
 90
0
 91
1
280
0
281
0
  0
CLASS
  1
ACDBPLACEHOLDER
  2
AcDbPlaceHolder
  3
AutoCAD 2000
 90
0
 91
1
280
0
281
0
  0
CLASS
  1
LAYOUT
  2
AcDbLayout
  3
AutoCAD 2000
 90
0
 91
0
280
0
281
0
  0
ENDSEC
  0
SECTION
  2
TABLES
  0
TABLE
  2
VPORT
  5
8
100
AcDbSymbolTable
 70
2
  0
VPORT
  5
1F4
100
AcDbSymbolTableRecord
100
AcDbViewportTableRecord
  2
*ACTIVE
 70
0
 10
0.0
 20
0.0
 11
1.0
 21
1.0
 12
30.2797538787
 22
42.8242233427
 13
0.0
 23
0.0
 14
1.0
 24
1.0
 15
0.0
 25
0.0
 16
0.0
 26
0.0
 36
1.0
 17
0.0
 27
0.0
 37
0.0
 40
85.6484466854
 41
0.7070707071
 42
50.0
 43
0.0
 44
0.0
 50
0.0
 51
0.0
 71
0
 72
100
 73
1
 74
1
 75
0
 76
0
 77
0
 78
0
  0
ENDTAB
  0
TABLE
  2
LTYPE
  5
5
100
AcDbSymbolTable
 70
6
  0
LTYPE
  5
14
100
AcDbSymbolTableRecord
100
AcDbLinetypeTableRecord
  2
BYBLOCK
 70
0
  3

 72
65
 73
0
 40
0.0
  0
LTYPE
  5
15
100
AcDbSymbolTableRecord
100
AcDbLinetypeTableRecord
  2
BYLAYER
 70
0
  3

 72
65
 73
0
 40
0.0
  0
LTYPE
  5
16
100
AcDbSymbolTableRecord
100
AcDbLinetypeTableRecord
  2
CONTINUOUS
 70
64
  3
Solid line
 72
65
 73
0
 40
0.0
  0
LTYPE
  5
1F5
100
AcDbSymbolTableRecord
100
AcDbLinetypeTableRecord
  2
CENTER
 70
64
  3
____ _ ____ _ ____ _ ____ _ ____ _ ____ _ ____
 72
65
 73
4
 40
0.6
 49
0.375
 74
0
 49
-0.075
 74
0
 49
0.075
 74
0
 49
-0.075
 74
0
  0
LTYPE
  5
1F6
100
AcDbSymbolTableRecord
100
AcDbLinetypeTableRecord
  2
HIDDEN
 70
64
  3
- - - - - - - - - - - - - - - - - - - -
 72
65
 73
2
 40
0.2
 49
0.1
 74
0
 49
-0.1
 74
0
  0
LTYPE
  5
1F7
100
AcDbSymbolTableRecord
100
AcDbLinetypeTableRecord
  2
PHANTOM
 70
64
  3
_____ _ _ _____ _ _ _____ _ _ _____
 72
65
 73
6
 40
0.8
 49
0.45
 74
0
 49
-0.05
 74
0
 49
0.1
 74
0
 49
-0.05
 74
0
 49
0.1
 74
0
 49
-0.05
 74
0
  0
LTYPE
  5
1F8
100
AcDbSymbolTableRecord
100
AcDbLinetypeTableRecord
  2
DOT
 70
64
  3
. . . . . . . . . . . . . . . . . . . .
 72
65
 73
2
 40
0.2
 49
0.1
 74
0
 49
-0.1
 74
0
  0
LTYPE
  5
1F9
100
AcDbSymbolTableRecord
100
AcDbLinetypeTableRecord
  2
DASHED
 70
64
  3
- - - - - - - - - - - - - - - - - - - -
 72
65
 73
2
 40
0.2
 49
0.1
 74
0
 49
-0.1
 74
0
  0
ENDTAB
  0
TABLE
  2
LAYER
  5
2
100
AcDbSymbolTable
 70
36
  0
LAYER
  5
10
100
AcDbSymbolTableRecord
100
AcDbLayerTableRecord
  2
0
 70
0
 62
7
  6
CONTINUOUS
370
-3
390
F
  0
LAYER
  5
1FA
100
AcDbSymbolTableRecord
100
AcDbLayerTableRecord
  2
DEFAULT_1
 70
0
 62
7
  6
CENTER
370
-3
390
F
  0
LAYER
  5
1FB
100
AcDbSymbolTableRecord
100
AcDbLayerTableRecord
  2
DEFAULT_2
 70
0
 62
8
  6
HIDDEN
370
-3
390
F
  0
LAYER
  5
1FC
100
AcDbSymbolTableRecord
100
AcDbLayerTableRecord
  2
DEFAULT_3
 70
0
 62
7
  6
PHANTOM
370
-3
390
F
  0
LAYER
  5
1FD
100
AcDbSymbolTableRecord
100
AcDbLayerTableRecord
  2
00_COMPONENTS
 70
0
 62
7
  6
CONTINUOUS
370
-3
390
F
  0
LAYER
  5
1FE
100
AcDbSymbolTableRecord
100
AcDbLayerTableRecord
  2
01_1_DEFAULT_DATUMS
 70
0
 62
7
  6
CONTINUOUS
370
-3
390
F
  0
LAYER
  5
1FF
100
AcDbSymbolTableRecord
100
AcDbLayerTableRecord
  2
01_PLANES
 70
0
 62
7
  6
CONTINUOUS
370
-3
390
F
  0
LAYER
  5
200
100
AcDbSymbolTableRecord
100
AcDbLayerTableRecord
  2
02_COORD_SYS
 70
0
 62
7
  6
CONTINUOUS
370
-3
390
F
  0
LAYER
  5
201
100
AcDbSymbolTableRecord
100
AcDbLayerTableRecord
  2
03_AXES
 70
0
 62
7
  6
CONTINUOUS
370
-3
390
F
  0
LAYER
  5
202
100
AcDbSymbolTableRecord
100
AcDbLayerTableRecord
  2
04_POINTS
 70
0
 62
7
  6
CONTINUOUS
370
-3
390
F
  0
LAYER
  5
203
100
AcDbSymbolTableRecord
100
AcDbLayerTableRecord
  2
05_CURVES
 70
0
 62
7
  6
CONTINUOUS
370
-3
390
F
  0
LAYER
  5
204
100
AcDbSymbolTableRecord
100
AcDbLayerTableRecord
  2
06_SURFS
 70
0
 62
7
  6
CONTINUOUS
370
-3
390
F
  0
LAYER
  5
205
100
AcDbSymbolTableRecord
100
AcDbLayerTableRecord
  2
07_COSMETICS
 70
0
 62
7
  6
CONTINUOUS
370
-3
390
F
  0
LAYER
  5
206
100
AcDbSymbolTableRecord
100
AcDbLayerTableRecord
  2
10_NOTES
 70
0
 62
7
  6
CONTINUOUS
370
-3
390
F
  0
LAYER
  5
207
100
AcDbSymbolTableRecord
100
AcDbLayerTableRecord
  2
11_NOTES_PUB
 70
0
 62
7
  6
CONTINUOUS
370
-3
390
F
  0
LAYER
  5
208
100
AcDbSymbolTableRecord
100
AcDbLayerTableRecord
  2
13_REF_GTOL
 70
0
 62
7
  6
CONTINUOUS
370
-3
390
F
  0
LAYER
  5
209
100
AcDbSymbolTableRecord
100
AcDbLayerTableRecord
  2
16_MISC
 70
0
 62
7
  6
CONTINUOUS
370
-3
390
F
  0
LAYER
  5
20A
100
AcDbSymbolTableRecord
100
AcDbLayerTableRecord
  2
17_NO_PRINT
 70
0
 62
7
  6
CONTINUOUS
370
-3
390
F
  0
LAYER
  5
20B
100
AcDbSymbolTableRecord
100
AcDbLayerTableRecord
  2
18_DATUM_CAMS_JOINTS
 70
0
 62
7
  6
CONTINUOUS
370
-3
390
F
  0
LAYER
  5
20C
100
AcDbSymbolTableRecord
100
AcDbLayerTableRecord
  2
19_DATUM_FUNCTIONAL
 70
0
 62
7
  6
CONTINUOUS
370
-3
390
F
  0
LAYER
  5
20D
100
AcDbSymbolTableRecord
100
AcDbLayerTableRecord
  2
20_DATUM_KINEMATIC_SCHEME
 70
0
 62
7
  6
CONTINUOUS
370
-3
390
F
  0
ENDTAB
  0
TABLE
  2
STYLE
  5
3
100
AcDbSymbolTable
 70
1
  0
STYLE
  5
11
100
AcDbSymbolTableRecord
100
AcDbTextStyleTableRecord
  2
STANDARD
 70
0
 40
0.0
 41
0.8
 50
0.0
 71
0
 42
0.2
  3
txt
  4

  0
STYLE
  5
20E
100
AcDbSymbolTableRecord
100
AcDbTextStyleTableRecord
  2
TEXTSTYLE_1
 70
0
 40
0.0
 41
0.8
 50
0.0
 71
0
 42
0.2
  3
gdt
  4

  0
ENDTAB
  0
TABLE
  2
VIEW
  5
6
100
AcDbSymbolTable
 70
0
  0
ENDTAB
  0
TABLE
  2
UCS
  5
7
100
AcDbSymbolTable
 70
0
  0
ENDTAB
  0
TABLE
  2
APPID
  5
9
100
AcDbSymbolTable
 70
1
  0
APPID
  5
20F
100
AcDbSymbolTableRecord
100
AcDbRegAppTableRecord
  2
ACAD
 70
0
  0
ENDTAB
  0
TABLE
  2
BLOCK_RECORD
  5
1
100
AcDbSymbolTable
 70
0
  0
BLOCK_RECORD
  5
210
100
AcDbSymbolTableRecord
100
AcDbBlockTableRecord
  2
*Model_Space
  0
BLOCK_RECORD
  5
211
100
AcDbSymbolTableRecord
100
AcDbBlockTableRecord
  2
*Paper_Space
  0
BLOCK_RECORD
  5
212
100
AcDbSymbolTableRecord
100
AcDbBlockTableRecord
  2
_FILLED
  0
ENDTAB
  0
TABLE
  2
DIMSTYLE
  5
A
100
AcDbSymbolTable
 70
1
100
AcDbDimStyleTable
 71
0
  0
DIMSTYLE
105
213
100
AcDbSymbolTableRecord
100
AcDbDimStyleTableRecord
  2
STANDARD
 70
0
  3

  4

 40
1.0
 41
0.7209465209
 42
1.0
 43
0.38
 44
1.0
 45
0.0
 46
0.0
 47
0.01
 48
0.01
140
1.0093251293
141
0.09
142
0.0
143
25.4
144
1.0
145
0.0
146
1.0
147
0.625
 71
1
 72
0
 73
0
 74
0
 75
0
 76
0
 77
1
 78
8
 79
2
170
0
171
1
172
0
173
0
174
0
175
0
176
0
177
0
178
0
270
2
179
2
271
2
272
2
273
2
274
2
275
0
280
0
281
0
282
0
283
1
284
8
285
0
286
0
287
3
288
0
340
11
278
46
341
212
342
212
343
212
344
212
  0
ENDTAB
  0
ENDSEC
  0
SECTION
  2
BLOCKS
  0
BLOCK
  5
20
100
AcDbEntity
  8
0
100
AcDbBlockBegin
  2
*Model_Space
 70
0
 10
0.0
 20
0.0
 30
0.0
  3
*Model_Space
  1

  0
ENDBLK
  5
21
100
AcDbEntity
  8
0
100
AcDbBlockEnd
  0
BLOCK
  5
1C
100
AcDbEntity
  8
0
100
AcDbBlockBegin
  2
*Paper_Space
 70
0
 10
0.0
 20
0.0
 30
0.0
  3
*Paper_Space
  1

  0
ENDBLK
  5
1D
100
AcDbEntity
  8
0
100
AcDbBlockEnd
  0
BLOCK
  5
214
100
AcDbEntity
  8
0
100
AcDbBlockBegin
  2
_FILLED
 70
64
 10
0.0
 20
0.0
  3
_FILLED
  1

  0
SOLID
  5
215
100
AcDbEntity
  8
0
  6
BYBLOCK
 62
0
100
AcDbTrace
 10
0.0
 20
0.0
 11
-1.0
 21
0.25
 12
-1.0
 22
-0.25
 13
-1.0
 23
-0.25
  0
ENDBLK
  5
216
100
AcDbEntity
  8
0
  6
BYBLOCK
 62
0
100
AcDbBlockEnd
  0
ENDSEC
  0
SECTION
  2
ENTITIES
  0
LINE
  5
217
100
AcDbEntity
  8
0
100
AcDbLine
 62
7
  6
CONTINUOUS
 10
49.9001148593
 20
6.3423900909
 11
13.9083996871
 21
6.3423900909
  0
LINE
  5
218
100
AcDbEntity
  8
0
100
AcDbLine
 62
7
  6
CONTINUOUS
 10
50.1000851102
 20
6.5388995699
 11
13.7084283673
 21
6.5388995699
  0
LINE
  5
219
100
AcDbEntity
  8
0
100
AcDbLine
 62
7
  6
CONTINUOUS
 10
13.2352458897
 20
9.6423900909
 11
51.0732675878
 21
9.6423900909
  0
LINE
  5
21A
100
AcDbEntity
  8
0
100
AcDbLine
 62
7
  6
CONTINUOUS
 10
51.0732675878
 20
10.1336638877
 11
13.2352458897
 21
10.1336638877
  0
LINE
  5
21B
100
AcDbEntity
  8
0
100
AcDbLine
 62
7
  6
CONTINUOUS
 10
24.9819211025
 20
75.3527244547
 11
25.3545867388
 21
75.7253900909
  0
LINE
  5
21C
100
AcDbEntity
  8
0
100
AcDbLine
 62
7
  6
CONTINUOUS
 10
50.5581401294
 20
17.7228338558
 11
51.2027323461
 21
17.7340852548
  0
LINE
  5
21D
100
AcDbEntity
  8
0
100
AcDbLine
 62
7
  6
CONTINUOUS
 10
51.5581401294
 20
17.7402889207
 11
51.7025039237
 21
17.7428088001
  0
LINE
  5
21E
100
AcDbEntity
  8
0
100
AcDbLine
 62
7
  6
CONTINUOUS
 10
12.6042567388
 20
17.6423900909
 11
51.7042567388
 21
17.6423900909
  0
LINE
  5
21F
100
AcDbEntity
  8
0
100
AcDbLine
 62
7
  6
CONTINUOUS
 10
18.3045867388
 20
17.7253900909
 11
12.5045867388
 21
17.7253900909
  0
LINE
  5
220
100
AcDbEntity
  8
0
100
AcDbLine
 62
7
  6
CONTINUOUS
 10
50.2045867388
 20
17.7253900925
 11
18.5045867388
 21
17.7254358211
  0
LINE
  5
221
100
AcDbEntity
  8
0
100
AcDbLine
 62
7
  6
CONTINUOUS
 10
18.3045867388
 20
17.7428451558
 11
13.0049752028
 21
17.7428451558
  0
LINE
  5
222
100
AcDbEntity
  8
0
100
AcDbLine
 62
7
  6
CONTINUOUS
 10
18.5045867388
 20
17.7428451558
 11
51.2045867388
 21
17.7428451558
  0
LINE
  5
223
100
AcDbEntity
  8
0
100
AcDbLine
 62
7
  6
CONTINUOUS
 10
8.7045867388
 20
54.1590608441
 11
8.7045867388
 21
53.3187746882
  0
LINE
  5
224
100
AcDbEntity
  8
0
100
AcDbLine
 62
7
  6
CONTINUOUS
 10
8.7045867388
 20
46.1320054935
 11
8.7045867388
 21
45.2917193376
  0
LINE
  5
225
100
AcDbEntity
  8
0
100
AcDbLine
 62
7
  6
CONTINUOUS
 10
8.7545867388
 20
47.017901935
 11
8.7545867388
 21
52.4328782468
  0
LINE
  5
226
100
AcDbEntity
  8
0
100
AcDbLine
 62
7
  6
CONTINUOUS
 10
8.9045867388
 20
54.1625518571
 11
8.9045867388
 21
53.3152836753
  0
LINE
  5
227
100
AcDbEntity
  8
0
100
AcDbLine
 62
7
  6
CONTINUOUS
 10
8.9045867388
 20
62.0882283246
 11
8.9045867388
 21
72.3625518571
  0
LINE
  5
228
100
AcDbEntity
  8
0
100
AcDbLine
 62
7
  6
CONTINUOUS
 10
9.1958605355
 20
45.2831441216
 11
9.1958605355
 21
46.1405807095
  0
LINE
  5
229
100
AcDbEntity
  8
0
100
AcDbLine
 62
7
  6
CONTINUOUS
 10
9.3958605355
 20
53.3067084592
 11
9.3958605355
 21
54.1711270732
  0
LINE
  5
22A
100
AcDbEntity
  8
0
100
AcDbLine
 62
7
  6
CONTINUOUS
 10
10.5045867388
 20
36.5853002207
 11
10.5045867388
 21
38.865479961
  0
LINE
  5
22B
100
AcDbEntity
  8
0
100
AcDbLine
 62
7
  6
CONTINUOUS
 10
10.5045867388
 20
74.5853002207
 11
10.5045867388
 21
76.865479961
  0
LINE
  5
22C
100
AcDbEntity
  8
0
100
AcDbLine
 62
7
  6
CONTINUOUS
 10
12.7353220422
 20
10.1336638877
 11
12.6042567388
 21
17.6423900909
  0
LINE
  5
22D
100
AcDbEntity
  8
0
100
AcDbLine
 62
7
  6
CONTINUOUS
 10
13.1041805863
 20
17.6423900909
 11
13.2352458897
 21
10.1336638877
  0
LINE
  5
22E
100
AcDbEntity
  8
0
100
AcDbLine
 62
7
  6
CONTINUOUS
 10
13.6542567388
 20
9.6423900909
 11
13.7084283673
 21
6.5388995699
  0
LINE
  5
22F
100
AcDbEntity
  8
0
100
AcDbLine
 62
7
  6
CONTINUOUS
 10
13.2352458897
 20
9.6423900909
 11
13.2351363456
 21
10.1336638877
  0
LINE
  5
230
100
AcDbEntity
  8
0
100
AcDbLine
 62
7
  6
CONTINUOUS
 10
12.5045867388
 20
17.7341176233
 11
12.5045867388
 21
79.7253900909
  0
LINE
  5
231
100
AcDbEntity
  8
0
100
AcDbLine
 62
7
  6
CONTINUOUS
 10
13.0045867388
 20
17.7428451558
 11
13.0045867388
 21
44.0651701169
  0
LINE
  5
232
100
AcDbEntity
  8
0
100
AcDbLine
 62
7
  6
CONTINUOUS
 10
13.0045867388
 20
58.6856100649
 11
13.0045867388
 21
79.7253900909
  0
LINE
  5
233
100
AcDbEntity
  8
0
100
AcDbLine
 62
7
  6
CONTINUOUS
 10
13.0547390436
 20
54.7847346531
 11
13.0547390436
 21
44.6660455286
  0
LINE
  5
234
100
AcDbEntity
  8
0
100
AcDbLine
 62
7
  6
CONTINUOUS
 10
13.2313599281
 20
17.6423900909
 11
13.2313599281
 21
17.7301592826
  0
LINE
  5
235
100
AcDbEntity
  8
0
100
AcDbLine
 62
7
  6
CONTINUOUS
 10
13.4045867388
 20
17.7271355974
 11
13.4045867388
 21
17.6423900909
  0
LINE
  5
236
100
AcDbEntity
  8
0
100
AcDbLine
 62
7
  6
CONTINUOUS
 10
13.5045867388
 20
17.7253900909
 11
13.5045867388
 21
17.6423900909
  0
LINE
  5
237
100
AcDbEntity
  8
0
100
AcDbLine
 62
7
  6
CONTINUOUS
 10
13.5457041603
 20
47.4342726693
 11
13.5457041603
 21
49.1165075124
  0
LINE
  5
238
100
AcDbEntity
  8
0
100
AcDbLine
 62
7
  6
CONTINUOUS
 10
13.5457041603
 20
50.3342726693
 11
13.5457041603
 21
52.0165075124
  0
LINE
  5
239
100
AcDbEntity
  8
0
100
AcDbLine
 62
7
  6
CONTINUOUS
 10
13.6681538282
 20
54.7740274582
 11
13.6681538282
 21
54.5164999932
  0
LINE
  5
23A
100
AcDbEntity
  8
0
100
AcDbLine
 62
7
  6
CONTINUOUS
 10
13.6681538282
 20
44.9319106069
 11
13.6681538282
 21
44.6767527235
  0
LINE
  5
23B
100
AcDbEntity
  8
0
100
AcDbLine
 62
7
  6
CONTINUOUS
 10
39.327252375
 20
77.3981623405
 11
38.9545867407
 21
77.0254433966
  0
LINE
  5
23C
100
AcDbEntity
  8
0
100
AcDbLine
 62
7
  6
CONTINUOUS
 10
38.2546400431
 20
77.7253900909
 11
38.6273589884
 21
78.0980557271
  0
LINE
  5
23D
100
AcDbEntity
  8
0
100
AcDbLine
 62
7
  6
CONTINUOUS
 10
18.5045867388
 20
25.9632457874
 11
18.3045867388
 21
25.9632457874
  0
LINE
  5
23E
100
AcDbEntity
  8
0
100
AcDbLine
 62
7
  6
CONTINUOUS
 10
14.0045867388
 20
17.6423900909
 11
14.0045867388
 21
17.7253900909
  0
LINE
  5
23F
100
AcDbEntity
  8
0
100
AcDbLine
 62
7
  6
CONTINUOUS
 10
14.0545867388
 20
54.7672822467
 11
14.0545867388
 21
54.5253900909
  0
LINE
  5
240
100
AcDbEntity
  8
0
100
AcDbLine
 62
7
  6
CONTINUOUS
 10
14.0545867388
 20
44.9253900909
 11
14.0545867388
 21
44.683497935
  0
LINE
  5
241
100
AcDbEntity
  8
0
100
AcDbLine
 62
7
  6
CONTINUOUS
 10
14.0545867484
 20
45.9252971068
 11
14.0545867484
 21
46.0254091288
  0
LINE
  5
242
100
AcDbEntity
  8
0
100
AcDbLine
 62
7
  6
CONTINUOUS
 10
14.0545867388
 20
46.2253900909
 11
14.0545867484
 21
53.2253900908
  0
LINE
  5
243
100
AcDbEntity
  8
0
100
AcDbLine
 62
7
  6
CONTINUOUS
 10
14.0545867921
 20
53.4253710534
 11
14.0545867921
 21
53.5254852806
  0
LINE
  5
244
100
AcDbEntity
  8
0
100
AcDbLine
 62
7
  6
CONTINUOUS
 10
14.5045867388
 20
75.7253900909
 11
14.5045867388
 21
77.0314765006
  0
LINE
  5
245
100
AcDbEntity
  8
0
100
AcDbLine
 62
7
  6
CONTINUOUS
 10
15.5677922835
 20
52.0121845461
 11
15.5677922835
 21
50.3385956356
  0
LINE
  5
246
100
AcDbEntity
  8
0
100
AcDbLine
 62
7
  6
CONTINUOUS
 10
15.5677922835
 20
49.1121845461
 11
15.5677922835
 21
47.4385956356
  0
LINE
  5
247
100
AcDbEntity
  8
0
100
AcDbLine
 62
7
  6
CONTINUOUS
 10
15.6545867388
 20
53.5253900909
 11
15.6545867388
 21
45.9253900909
  0
LINE
  5
248
100
AcDbEntity
  8
0
100
AcDbLine
 62
7
  6
CONTINUOUS
 10
16.0545867388
 20
54.7323721168
 11
16.0545867388
 21
44.7184080649
  0
LINE
  5
249
100
AcDbEntity
  8
0
100
AcDbLine
 62
7
  6
CONTINUOUS
 10
16.1045867388
 20
79.7253900909
 11
16.1045867388
 21
77.7393530793
  0
LINE
  5
24A
100
AcDbEntity
  8
0
100
AcDbLine
 62
7
  6
CONTINUOUS
 10
16.4545867388
 20
44.1253900909
 11
16.4545867388
 21
58.6253900909
  0
LINE
  5
24B
100
AcDbEntity
  8
0
100
AcDbLine
 62
7
  6
CONTINUOUS
 10
18.5045867388
 20
28.7875343944
 11
18.3045867388
 21
28.7875343944
  0
LINE
  5
24C
100
AcDbEntity
  8
0
100
AcDbLine
 62
7
  6
CONTINUOUS
 10
16.6542567434
 20
6.3423900909
 11
16.6542567388
 21
9.6423900909
  0
LINE
  5
24D
100
AcDbEntity
  8
0
100
AcDbLine
 62
7
  6
CONTINUOUS
 10
17.3500412842
 20
72.1428451558
 11
17.3500412842
 21
66.6079350259
  0
LINE
  5
24E
100
AcDbEntity
  8
0
100
AcDbLine
 62
7
  6
CONTINUOUS
 10
17.3500412842
 20
36.1428451558
 11
17.3500412842
 21
30.6079350259
  0
LINE
  5
24F
100
AcDbEntity
  8
0
100
AcDbLine
 62
7
  6
CONTINUOUS
 10
17.792541944
 20
30.624927557
 11
17.792541944
 21
36.1258526248
  0
LINE
  5
250
100
AcDbEntity
  8
0
100
AcDbLine
 62
7
  6
CONTINUOUS
 10
17.792541944
 20
66.624927557
 11
17.792541944
 21
72.1258526248
  0
LINE
  5
251
100
AcDbEntity
  8
0
100
AcDbLine
 62
7
  6
CONTINUOUS
 10
18.3045867388
 20
79.7253900909
 11
18.3045867388
 21
72.1428451558
  0
LINE
  5
252
100
AcDbEntity
  8
0
100
AcDbLine
 62
7
  6
CONTINUOUS
 10
18.3045867388
 20
66.6079350259
 11
18.3045867388
 21
36.1428451558
  0
LINE
  5
253
100
AcDbEntity
  8
0
100
AcDbLine
 62
7
  6
CONTINUOUS
 10
18.3045867388
 20
30.6079350259
 11
18.3045867388
 21
17.7428451558
  0
LINE
  5
254
100
AcDbEntity
  8
0
100
AcDbLine
 62
7
  6
CONTINUOUS
 10
18.5045867388
 20
79.7253900909
 11
18.5045867388
 21
17.7428451558
  0
LINE
  5
255
100
AcDbEntity
  8
0
100
AcDbLine
 62
7
  6
CONTINUOUS
 10
18.5045867388
 20
30.3488915423
 11
18.3045867388
 21
30.3488915423
  0
LINE
  5
256
100
AcDbEntity
  8
0
100
AcDbLine
 62
7
  6
CONTINUOUS
 10
17.3500412842
 20
30.6079350259
 11
18.3045867388
 21
30.6079350259
  0
LINE
  5
257
100
AcDbEntity
  8
0
100
AcDbLine
 62
7
  6
CONTINUOUS
 10
17.792541944
 20
30.624927557
 11
18.3045867388
 21
30.624927557
  0
LINE
  5
258
100
AcDbEntity
  8
0
100
AcDbLine
 62
7
  6
CONTINUOUS
 10
24.9819211025
 20
75.3527244547
 11
24.9819211025
 21
77.3983673316
  0
LINE
  5
259
100
AcDbEntity
  8
0
100
AcDbLine
 62
7
  6
CONTINUOUS
 10
18.3045867388
 20
36.1258526248
 11
17.792541944
 21
36.1258526248
  0
LINE
  5
25A
100
AcDbEntity
  8
0
100
AcDbLine
 62
7
  6
CONTINUOUS
 10
18.3045867388
 20
36.1428451558
 11
17.3500412842
 21
36.1428451558
  0
LINE
  5
25B
100
AcDbEntity
  8
0
100
AcDbLine
 62
7
  6
CONTINUOUS
 10
18.5045867388
 20
36.4018886394
 11
18.3045867388
 21
36.4018886394
  0
LINE
  5
25C
100
AcDbEntity
  8
0
100
AcDbLine
 62
7
  6
CONTINUOUS
 10
10.5045867388
 20
36.5853002207
 11
12.5045867387
 21
36.5503900909
  0
LINE
  5
25D
100
AcDbEntity
  8
0
100
AcDbLine
 62
7
  6
CONTINUOUS
 10
26.9545867388
 20
77.7253900909
 11
26.9196766089
 21
79.7253900909
  0
LINE
  5
25E
100
AcDbEntity
  8
0
100
AcDbLine
 62
7
  6
CONTINUOUS
 10
25.3545867388
 20
77.0254433963
 11
25.3545867388
 21
75.7253900909
  0
LINE
  5
25F
100
AcDbEntity
  8
0
100
AcDbLine
 62
7
  6
CONTINUOUS
 10
27.8545867388
 20
75.3527244547
 11
27.8545867388
 21
75.7253900909
  0
LINE
  5
260
100
AcDbEntity
  8
0
100
AcDbLine
 62
7
  6
CONTINUOUS
 10
12.5045867387
 20
38.9003900909
 11
10.5045867388
 21
38.865479961
  0
LINE
  5
261
100
AcDbEntity
  8
0
100
AcDbLine
 62
7
  6
CONTINUOUS
 10
29.2513338241
 20
74.9117494481
 11
29.2371316738
 21
75.7253900909
  0
LINE
  5
262
100
AcDbEntity
  8
0
100
AcDbLine
 62
7
  6
CONTINUOUS
 10
32.6513338241
 20
74.9117494481
 11
32.6371316738
 21
75.7253900909
  0
LINE
  5
263
100
AcDbEntity
  8
0
100
AcDbLine
 62
7
  6
CONTINUOUS
 10
31.6720418037
 20
75.7253900909
 11
31.6578396534
 21
74.9117494481
  0
LINE
  5
264
100
AcDbEntity
  8
0
100
AcDbLine
 62
7
  6
CONTINUOUS
 10
32.2104429465
 20
76.4253900909
 11
32.1982244011
 21
75.7253900909
  0
LINE
  5
265
100
AcDbEntity
  8
0
100
AcDbLine
 62
7
  6
CONTINUOUS
 10
16.4545867388
 20
44.1253900909
 11
12.5045867388
 21
44.0564425844
  0
LINE
  5
266
100
AcDbEntity
  8
0
100
AcDbLine
 62
7
  6
CONTINUOUS
 10
16.4545867388
 20
44.7253900909
 11
12.5045867388
 21
44.6564425844
  0
LINE
  5
267
100
AcDbEntity
  8
0
100
AcDbLine
 62
7
  6
CONTINUOUS
 10
14.0545867388
 20
44.9253900909
 11
16.0545867388
 21
44.9428438265
  0
LINE
  5
268
100
AcDbEntity
  8
0
100
AcDbLine
 62
7
  6
CONTINUOUS
 10
14.0545867484
 20
45.9252971057
 11
15.6545867388
 21
45.939315002
  0
LINE
  5
269
100
AcDbEntity
  8
0
100
AcDbLine
 62
7
  6
CONTINUOUS
 10
15.6545867388
 20
45.9253900909
 11
16.0545867388
 21
45.9218993438
  0
LINE
  5
26A
100
AcDbEntity
  8
0
100
AcDbLine
 62
7
  6
CONTINUOUS
 10
14.0545867484
 20
46.0254091288
 11
15.6545867388
 21
46.0114347178
  0
LINE
  5
26B
100
AcDbEntity
  8
0
100
AcDbLine
 62
7
  6
CONTINUOUS
 10
14.0545867388
 20
46.2253900909
 11
15.6545867388
 21
46.2114271024
  0
LINE
  5
26C
100
AcDbEntity
  8
0
100
AcDbLine
 62
7
  6
CONTINUOUS
 10
13.6810266299
 20
44.9319106069
 11
14.0545985011
 21
44.9254474296
  0
LINE
  5
26D
100
AcDbEntity
  8
0
100
AcDbLine
 62
7
  6
CONTINUOUS
 10
8.7045867388
 20
45.2917193376
 11
12.5045867388
 21
45.2253900909
  0
LINE
  5
26E
100
AcDbEntity
  8
0
100
AcDbLine
 62
7
  6
CONTINUOUS
 10
13.3719624531
 20
45.9371530373
 11
14.0545867484
 21
45.9252971068
  0
LINE
  5
26F
100
AcDbEntity
  8
0
100
AcDbLine
 62
7
  6
CONTINUOUS
 10
16.0545867388
 20
46.2323721168
 11
16.4545867388
 21
46.2253900909
  0
LINE
  5
270
100
AcDbEntity
  8
0
100
AcDbLine
 62
7
  6
CONTINUOUS
 10
35.1109372258
 20
75.726069013
 11
35.098730531
 21
76.4253900909
  0
LINE
  5
271
100
AcDbEntity
  8
0
100
AcDbLine
 62
7
  6
CONTINUOUS
 10
35.0720418037
 20
75.7253900909
 11
35.0578396534
 21
74.9117494481
  0
LINE
  5
272
100
AcDbEntity
  8
0
100
AcDbLine
 62
7
  6
CONTINUOUS
 10
13.4007723231
 20
46.0140081788
 11
14.0545867484
 21
46.0254091288
  0
LINE
  5
273
100
AcDbEntity
  8
0
100
AcDbLine
 62
7
  6
CONTINUOUS
 10
14.0545867388
 20
46.2253900909
 11
13.0545867388
 21
46.2079350259
  0
LINE
  5
274
100
AcDbEntity
  8
0
100
AcDbLine
 62
7
  6
CONTINUOUS
 10
8.7045867388
 20
46.1320054935
 11
12.5045867388
 21
46.1983347402
  0
LINE
  5
275
100
AcDbEntity
  8
0
100
AcDbLine
 62
7
  6
CONTINUOUS
 10
14.0545867388
 20
47.4253900909
 11
15.6545867388
 21
47.4393530793
  0
LINE
  5
276
100
AcDbEntity
  8
0
100
AcDbLine
 62
7
  6
CONTINUOUS
 10
14.0545867388
 20
49.1253900909
 11
15.6545867388
 21
49.1114271024
  0
LINE
  5
277
100
AcDbEntity
  8
0
100
AcDbLine
 62
7
  6
CONTINUOUS
 10
12.5045867388
 20
46.9524454415
 11
8.7545867388
 21
47.017901935
  0
LINE
  5
278
100
AcDbEntity
  8
0
100
AcDbLine
 62
7
  6
CONTINUOUS
 10
13.0545867388
 20
47.4428451558
 11
14.0545867388
 21
47.4253900909
  0
LINE
  5
279
100
AcDbEntity
  8
0
100
AcDbLine
 62
7
  6
CONTINUOUS
 10
36.4545867388
 20
75.3527244547
 11
36.4545867388
 21
75.7253900909
  0
LINE
  5
27A
100
AcDbEntity
  8
0
100
AcDbLine
 62
7
  6
CONTINUOUS
 10
38.9545867388
 20
75.7253900909
 11
38.9545867388
 21
77.0254433966
  0
LINE
  5
27B
100
AcDbEntity
  8
0
100
AcDbLine
 62
7
  6
CONTINUOUS
 10
37.3545867388
 20
77.7253900909
 11
37.3894968686
 21
79.7253900909
  0
LINE
  5
27C
100
AcDbEntity
  8
0
100
AcDbLine
 62
7
  6
CONTINUOUS
 10
13.0545867388
 20
49.1079350259
 11
14.0545867388
 21
49.1253900909
  0
LINE
  5
27D
100
AcDbEntity
  8
0
100
AcDbLine
 62
7
  6
CONTINUOUS
 10
14.0545867388
 20
50.3253900909
 11
15.6545867388
 21
50.3393530793
  0
LINE
  5
27E
100
AcDbEntity
  8
0
100
AcDbLine
 62
7
  6
CONTINUOUS
 10
15.6545867388
 20
52.0114271024
 11
14.0545867388
 21
52.0253900909
  0
LINE
  5
27F
100
AcDbEntity
  8
0
100
AcDbLine
 62
7
  6
CONTINUOUS
 10
13.0545867388
 20
50.3428451558
 11
14.0545867388
 21
50.3253900909
  0
LINE
  5
280
100
AcDbEntity
  8
0
100
AcDbLine
 62
7
  6
CONTINUOUS
 10
39.327252375
 20
77.3981861576
 11
39.327252375
 21
75.3527244547
  0
LINE
  5
281
100
AcDbEntity
  8
0
100
AcDbLine
 62
7
  6
CONTINUOUS
 10
14.0545867388
 20
52.0253900909
 11
13.0545867388
 21
52.0079350259
  0
LINE
  5
282
100
AcDbEntity
  8
0
100
AcDbLine
 62
7
  6
CONTINUOUS
 10
8.7545867388
 20
52.4328782468
 11
12.5045867388
 21
52.4983347402
  0
LINE
  5
283
100
AcDbEntity
  8
0
100
AcDbLine
 62
7
  6
CONTINUOUS
 10
16.4545867388
 20
53.2253900909
 11
16.0545867388
 21
53.2184080649
  0
LINE
  5
284
100
AcDbEntity
  8
0
100
AcDbLine
 62
7
  6
CONTINUOUS
 10
12.5045867388
 20
54.2253900909
 11
8.9045867388
 21
54.1625518571
  0
LINE
  5
285
100
AcDbEntity
  8
0
100
AcDbLine
 62
7
  6
CONTINUOUS
 10
8.8479494845
 20
54.1615632502
 11
8.7045867388
 21
54.1590608441
  0
LINE
  5
286
100
AcDbEntity
  8
0
100
AcDbLine
 62
7
  6
CONTINUOUS
 10
14.0545867921
 20
53.5254852806
 11
13.3719624529
 21
53.5136271445
  0
LINE
  5
287
100
AcDbEntity
  8
0
100
AcDbLine
 62
7
  6
CONTINUOUS
 10
15.6545867388
 20
53.2393530793
 11
14.0545867484
 21
53.225390091
  0
LINE
  5
288
100
AcDbEntity
  8
0
100
AcDbLine
 62
7
  6
CONTINUOUS
 10
15.6545867388
 20
53.439345464
 11
14.0545867921
 21
53.4253710534
  0
LINE
  5
289
100
AcDbEntity
  8
0
100
AcDbLine
 62
7
  6
CONTINUOUS
 10
15.6545867388
 20
53.5253900909
 11
16.0545867388
 21
53.528880838
  0
LINE
  5
28A
100
AcDbEntity
  8
0
100
AcDbLine
 62
7
  6
CONTINUOUS
 10
15.6545867388
 20
53.5114653404
 11
14.0545867921
 21
53.5254852806
  0
LINE
  5
28B
100
AcDbEntity
  8
0
100
AcDbLine
 62
7
  6
CONTINUOUS
 10
16.0545867388
 20
54.5079363553
 11
14.0545867388
 21
54.5253900909
  0
LINE
  5
28C
100
AcDbEntity
  8
0
100
AcDbLine
 62
7
  6
CONTINUOUS
 10
12.5045867388
 20
53.2524454415
 11
8.7045867388
 21
53.3187746882
  0
LINE
  5
28D
100
AcDbEntity
  8
0
100
AcDbLine
 62
7
  6
CONTINUOUS
 10
13.0545867388
 20
53.2428451558
 11
14.0545867484
 21
53.2253900907
  0
LINE
  5
28E
100
AcDbEntity
  8
0
100
AcDbLine
 62
7
  6
CONTINUOUS
 10
14.0545867921
 20
53.4253710534
 11
13.4007723229
 21
53.436772003
  0
LINE
  5
28F
100
AcDbEntity
  8
0
100
AcDbLine
 62
7
  6
CONTINUOUS
 10
12.5045867388
 20
54.7943375973
 11
16.4545867388
 21
54.7253900909
  0
LINE
  5
290
100
AcDbEntity
  8
0
100
AcDbLine
 62
7
  6
CONTINUOUS
 10
13.5457033174
 20
54.5164999932
 11
13.6810275157
 21
54.5188695904
  0
LINE
  5
291
100
AcDbEntity
  8
0
100
AcDbLine
 62
7
  6
CONTINUOUS
 10
47.1542567388
 20
9.6423900909
 11
47.1542567388
 21
6.3423900909
  0
LINE
  5
292
100
AcDbEntity
  8
0
100
AcDbLine
 62
7
  6
CONTINUOUS
 10
12.5045867388
 20
58.6943375973
 11
16.4545867388
 21
58.6253900909
  0
LINE
  5
293
100
AcDbEntity
  8
0
100
AcDbLine
 62
7
  6
CONTINUOUS
 10
50.2045867388
 20
17.7253900925
 11
50.2045867388
 21
17.6423900909
  0
LINE
  5
294
100
AcDbEntity
  8
0
100
AcDbLine
 62
7
  6
CONTINUOUS
 10
18.5045867388
 20
61.8632457874
 11
18.3045867388
 21
61.8632457874
  0
LINE
  5
295
100
AcDbEntity
  8
0
100
AcDbLine
 62
7
  6
CONTINUOUS
 10
12.5045867388
 20
62.0253900909
 11
8.9045867388
 21
62.0882283246
  0
LINE
  5
296
100
AcDbEntity
  8
0
100
AcDbLine
 62
7
  6
CONTINUOUS
 10
50.7045867388
 20
17.6423900909
 11
50.7045867388
 21
17.7253900909
  0
LINE
  5
297
100
AcDbEntity
  8
0
100
AcDbLine
 62
7
  6
CONTINUOUS
 10
51.0732675878
 20
10.1336638877
 11
51.0732675878
 21
9.6423900909
  0
LINE
  5
298
100
AcDbEntity
  8
0
100
AcDbLine
 62
7
  6
CONTINUOUS
 10
51.1902583354
 20
17.6423900909
 11
51.1902583354
 21
17.7338675201
  0
LINE
  5
299
100
AcDbEntity
  8
0
100
AcDbLine
 62
7
  6
CONTINUOUS
 10
51.2045867388
 20
79.7253900909
 11
51.2045867388
 21
17.7428451558
  0
LINE
  5
29A
100
AcDbEntity
  8
0
100
AcDbLine
 62
7
  6
CONTINUOUS
 10
51.4110476736
 20
17.6423900909
 11
51.4110476736
 21
17.7377214124
  0
LINE
  5
29B
100
AcDbEntity
  8
0
100
AcDbLine
 62
7
  6
CONTINUOUS
 10
51.7045867388
 20
17.7428451558
 11
51.7045867388
 21
79.7253900909
  0
LINE
  5
29C
100
AcDbEntity
  8
0
100
AcDbLine
 62
7
  6
CONTINUOUS
 10
52.0645867388
 20
65.3253900909
 11
52.0645867388
 21
69.1253900909
  0
LINE
  5
29D
100
AcDbEntity
  8
0
100
AcDbLine
 62
7
  6
CONTINUOUS
 10
50.1000851109
 20
6.5388996095
 11
50.1542567388
 21
9.6423900909
  0
LINE
  5
29E
100
AcDbEntity
  8
0
100
AcDbLine
 62
7
  6
CONTINUOUS
 10
51.0732675878
 20
10.1336638877
 11
51.2043328912
 21
17.6423900909
  0
LINE
  5
29F
100
AcDbEntity
  8
0
100
AcDbLine
 62
7
  6
CONTINUOUS
 10
51.7042567388
 20
17.6423900909
 11
51.5731914354
 21
10.1336638877
  0
LINE
  5
2A0
100
AcDbEntity
  8
0
100
AcDbLine
 62
7
  6
CONTINUOUS
 10
18.5045867388
 20
64.6875343944
 11
18.3045867388
 21
64.6875343944
  0
LINE
  5
2A1
100
AcDbEntity
  8
0
100
AcDbLine
 62
7
  6
CONTINUOUS
 10
52.0645867388
 20
65.3253900909
 11
51.7045867388
 21
65.3253900909
  0
LINE
  5
2A2
100
AcDbEntity
  8
0
100
AcDbLine
 62
7
  6
CONTINUOUS
 10
25.3545867388
 20
77.0254700501
 11
24.9819211025
 21
77.3981623405
  0
LINE
  5
2A3
100
AcDbEntity
  8
0
100
AcDbLine
 62
7
  6
CONTINUOUS
 10
25.6818144891
 20
78.0980557271
 11
26.054533433
 21
77.7253900928
  0
LINE
  5
2A4
100
AcDbEntity
  8
0
100
AcDbLine
 62
7
  6
CONTINUOUS
 10
18.5045867388
 20
66.3488915423
 11
18.3045867388
 21
66.3488915423
  0
LINE
  5
2A5
100
AcDbEntity
  8
0
100
AcDbLine
 62
7
  6
CONTINUOUS
 10
17.3500412842
 20
66.6079350259
 11
18.3045867388
 21
66.6079350259
  0
LINE
  5
2A6
100
AcDbEntity
  8
0
100
AcDbLine
 62
7
  6
CONTINUOUS
 10
17.792541944
 20
66.624927557
 11
18.3045867388
 21
66.624927557
  0
LINE
  5
2A7
100
AcDbEntity
  8
0
100
AcDbLine
 62
7
  6
CONTINUOUS
 10
52.0645867388
 20
67.2253900909
 11
51.7045867388
 21
67.2253900909
  0
LINE
  5
2A8
100
AcDbEntity
  8
0
100
AcDbLine
 62
7
  6
CONTINUOUS
 10
52.0645867388
 20
69.1253900909
 11
51.7045867388
 21
69.1253900909
  0
LINE
  5
2A9
100
AcDbEntity
  8
0
100
AcDbLine
 62
7
  6
CONTINUOUS
 10
8.9045867388
 20
72.3625518571
 11
12.5045867388
 21
72.4253900909
  0
LINE
  5
2AA
100
AcDbEntity
  8
0
100
AcDbLine
 62
7
  6
CONTINUOUS
 10
18.3045867388
 20
72.1258526248
 11
17.792541944
 21
72.1258526248
  0
LINE
  5
2AB
100
AcDbEntity
  8
0
100
AcDbLine
 62
7
  6
CONTINUOUS
 10
18.3045867388
 20
72.1428451558
 11
17.3500412842
 21
72.1428451558
  0
LINE
  5
2AC
100
AcDbEntity
  8
0
100
AcDbLine
 62
7
  6
CONTINUOUS
 10
18.5045867388
 20
72.4018886394
 11
18.3045867388
 21
72.4018886394
  0
LINE
  5
2AD
100
AcDbEntity
  8
0
100
AcDbLine
 62
7
  6
CONTINUOUS
 10
18.5045867388
 20
74.7236447173
 11
18.3045867388
 21
74.7253900909
  0
LINE
  5
2AE
100
AcDbEntity
  8
0
100
AcDbLine
 62
7
  6
CONTINUOUS
 10
10.5045867388
 20
74.5853002207
 11
12.5045867387
 21
74.5503900909
  0
LINE
  5
2AF
100
AcDbEntity
  8
0
100
AcDbLine
 62
7
  6
CONTINUOUS
 10
39.327252375
 20
75.3527244547
 11
38.9545867407
 21
75.725390089
  0
LINE
  5
2B0
100
AcDbEntity
  8
0
100
AcDbLine
 62
7
  6
CONTINUOUS
 10
12.5045867387
 20
76.9003900909
 11
10.5045867388
 21
76.865479961
  0
LINE
  5
2B1
100
AcDbEntity
  8
0
100
AcDbLine
 62
7
  6
CONTINUOUS
 10
18.5165115215
 20
74.7518886394
 11
18.3045867388
 21
74.7518886394
  0
LINE
  5
2B2
100
AcDbEntity
  8
0
100
AcDbLine
 62
7
  6
CONTINUOUS
 10
29.2513338241
 20
74.9117494481
 11
31.6578396534
 21
74.9117494481
  0
LINE
  5
2B3
100
AcDbEntity
  8
0
100
AcDbLine
 62
7
  6
CONTINUOUS
 10
32.6513338241
 20
74.9117494481
 11
35.0578396534
 21
74.9117494481
  0
LINE
  5
2B4
100
AcDbEntity
  8
0
100
AcDbLine
 62
7
  6
CONTINUOUS
 10
39.327252375
 20
75.3527244547
 11
36.4545867388
 21
75.3527244547
  0
LINE
  5
2B5
100
AcDbEntity
  8
0
100
AcDbLine
 62
7
  6
CONTINUOUS
 10
27.8545867388
 20
75.3527244547
 11
24.9819211025
 21
75.3527244547
  0
LINE
  5
2B6
100
AcDbEntity
  8
0
100
AcDbLine
 62
7
  6
CONTINUOUS
 10
29.2381541679
 20
75.6668114471
 11
31.6710193097
 21
75.6668114471
  0
LINE
  5
2B7
100
AcDbEntity
  8
0
100
AcDbLine
 62
7
  6
CONTINUOUS
 10
32.6381541679
 20
75.6668114471
 11
35.0710193097
 21
75.6668114471
  0
LINE
  5
2B8
100
AcDbEntity
  8
0
100
AcDbLine
 62
7
  6
CONTINUOUS
 10
25.3545867388
 20
75.7253900909
 11
38.9545867388
 21
75.7253900909
  0
LINE
  5
2B9
100
AcDbEntity
  8
0
100
AcDbLine
 62
7
  6
CONTINUOUS
 10
32.2104429465
 20
76.4253900909
 11
35.098730531
 21
76.4253900909
  0
LINE
  5
2BA
100
AcDbEntity
  8
0
100
AcDbLine
 62
7
  6
CONTINUOUS
 10
18.3045867388
 20
75.6922279933
 11
14.5045867388
 21
75.7253900909
  0
LINE
  5
2BB
100
AcDbEntity
  8
0
100
AcDbLine
 62
7
  6
CONTINUOUS
 10
15.1984551813
 20
77.731445389
 11
16.1045867388
 21
77.7393530793
  0
LINE
  5
2BC
100
AcDbEntity
  8
0
100
AcDbLine
 62
7
  6
CONTINUOUS
 10
38.2546400438
 20
77.7253900909
 11
37.3545867388
 21
77.7253900909
  0
LINE
  5
2BD
100
AcDbEntity
  8
0
100
AcDbLine
 62
7
  6
CONTINUOUS
 10
26.9545867388
 20
77.7253900909
 11
26.054533433
 21
77.7253900909
  0
LINE
  5
2BE
100
AcDbEntity
  8
0
100
AcDbLine
 62
7
  6
CONTINUOUS
 10
25.6817906786
 20
78.0980557271
 11
26.9480818359
 21
78.0980557271
  0
LINE
  5
2BF
100
AcDbEntity
  8
0
100
AcDbLine
 62
7
  6
CONTINUOUS
 10
37.3610916416
 20
78.0980557271
 11
38.6275639857
 21
78.0980557271
  0
LINE
  5
2C0
100
AcDbEntity
  8
0
100
AcDbLine
 62
7
  6
CONTINUOUS
 10
12.5045867388
 20
79.7253900909
 11
18.3045867388
 21
79.7253900909
  0
LINE
  5
2C1
100
AcDbEntity
  8
0
100
AcDbLine
 62
7
  6
CONTINUOUS
 10
18.5045867388
 20
79.7253900909
 11
51.7045867388
 21
79.7253900909
  0
ARC
  5
2C2
100
AcDbEntity
  8
0
100
AcDbCircle
 62
7
  6
CONTINUOUS
 10
0.1129097194
 20
48.4995195789
 40
14.1754630989
100
AcDbArc
 50
20.3831060875
 51
20.7148555871
  0
ARC
  5
2C3
100
AcDbEntity
  8
0
100
AcDbCircle
 62
7
  6
CONTINUOUS
 10
0.1129097208
 20
50.9512606013
 40
14.1754630973
100
AcDbArc
 50
339.285144417
 51
339.6168939166
  0
ARC
  5
2C4
100
AcDbEntity
  8
0
100
AcDbCircle
 62
7
  6
CONTINUOUS
 10
15.2045867388
 20
77.0314722435
 40
0.7
100
AcDbArc
 50
90.5018812236
 51
179.9996515445
  0
ARC
  5
2C5
100
AcDbEntity
  8
0
100
AcDbCircle
 62
7
  6
CONTINUOUS
 10
26.0545867388
 20
77.0253900909
 40
0.7
100
AcDbArc
 50
90.0
 51
179.9978184448
  0
ARC
  5
2C6
100
AcDbEntity
  8
0
100
AcDbCircle
 62
7
  6
CONTINUOUS
 10
38.2545867388
 20
77.0253900909
 40
0.7
100
AcDbArc
 50
0.0021815671
 51
90.0
  0
ARC
  5
2C7
100
AcDbEntity
  8
0
100
AcDbCircle
 62
7
  6
CONTINUOUS
 10
38.6273586635
 20
77.3981612473
 40
0.6998969322
100
AcDbArc
 50
0.0020392393
 51
89.9831916149
  0
ARC
  5
2C8
100
AcDbEntity
  8
0
100
AcDbCircle
 62
7
  6
CONTINUOUS
 10
25.6818156143
 20
77.3981621719
 40
0.6998968838
100
AcDbArc
 50
90.0020413199
 51
179.9832049268
  0
ARC
  5
2C9
100
AcDbEntity
  8
0
100
AcDbCircle
 62
7
  6
CONTINUOUS
 10
51.0732675878
 20
10.1423900909
 40
0.5
100
AcDbArc
 50
270.0
 51
358.9999999999
  0
ARC
  5
2CA
100
AcDbEntity
  8
0
100
AcDbCircle
 62
7
  6
CONTINUOUS
 10
13.2352458897
 20
10.1423900909
 40
0.5
100
AcDbArc
 50
181.0000000001
 51
270.0
  0
ARC
  5
2CB
100
AcDbEntity
  8
0
100
AcDbCircle
 62
7
  6
CONTINUOUS
 10
49.9001155719
 20
6.5423900909
 40
0.2
100
AcDbArc
 50
269.9999999989
 51
358.9999999706
  0
ARC
  5
2CC
100
AcDbEntity
  8
0
100
AcDbCircle
 62
7
  6
CONTINUOUS
 10
13.9083979056
 20
6.5423900909
 40
0.2
100
AcDbArc
 50
181.0000113728
 51
270.0005103461
  0
SPLINE
  5
2CD
100
AcDbEntity
  8
0
100
AcDbSpline
 62
7
  6
CONTINUOUS
 70
0
 71
3
 72
9
 73
5
 74
0
 42
0.0000001
 43
0.0000001
 44
0.0000000001
 40
0.0
 40
0.0
 40
0.0
 40
0.0
 40
0.2358189464
 40
1.0
 40
1.0
 40
1.0
 40
1.0
 10
13.5457032606
 20
44.9342801892
 30
0.0
 10
13.5054329878
 20
44.9351559041
 30
0.0
 10
13.3349339816
 20
44.9515273652
 30
0.0
 10
13.1707129333
 20
45.011644256
 30
0.0
 10
13.0545867388
 20
45.0712458812
 30
0.0
  0
LINE
  5
2CE
100
AcDbEntity
  8
0
100
AcDbLine
 62
7
  6
CONTINUOUS
 10
13.6810266299
 20
44.9319106069
 11
13.5457032606
 21
44.9342801892
  0
SPLINE
  5
2CF
100
AcDbEntity
  8
0
100
AcDbSpline
 62
7
  6
CONTINUOUS
 70
0
 71
3
 72
9
 73
5
 74
0
 42
0.0000001
 43
0.0000001
 44
0.0000000001
 40
0.0
 40
0.0
 40
0.0
 40
0.0
 40
0.2357512565
 40
1.0
 40
1.0
 40
1.0
 40
1.0
 10
13.5457033174
 20
54.5164999932
 30
0.0
 10
13.5054448377
 20
54.5156245302
 30
0.0
 10
13.3349499668
 20
54.4992263551
 30
0.0
 10
13.1707225449
 20
54.4391408588
 30
0.0
 10
13.0545867388
 20
54.3795343005
 30
0.0
  0
LINE
  5
2D0
100
AcDbEntity
  8
0
100
AcDbLine
 62
7
  6
CONTINUOUS
 10
14.0546094984
 20
54.5253329407
 11
13.6810275157
 21
54.5188695904
  0
SPLINE
  5
2D1
100
AcDbEntity
  8
0
100
AcDbSpline
 62
7
  6
CONTINUOUS
 70
0
 71
3
 72
17
 73
13
 74
0
 42
0.0000001
 43
0.0000001
 44
0.0000000001
 40
0.0
 40
0.0
 40
0.0
 40
0.0
 40
0.0050587118
 40
0.0177722507
 40
0.0385096685
 40
0.0672672094
 40
0.1486161172
 40
0.2612814335
 40
0.4044625606
 40
0.5765332249
 40
0.7756583217
 40
1.0
 40
1.0
 40
1.0
 40
1.0
 10
12.5045867388
 20
17.7341181579
 30
0.0
 10
12.5045867388
 20
17.7343656719
 30
0.0
 10
12.5057110375
 20
17.7347043697
 30
0.0
 10
12.5072947966
 20
17.7350557486
 30
0.0
 10
12.5104581531
 20
17.7354641696
 30
0.0
 10
12.5167446728
 20
17.7360732056
 30
0.0
 10
12.5276874903
 20
17.7367779785
 30
0.0
 10
12.5441371381
 20
17.7375555652
 30
0.0
 10
12.5650730365
 20
17.7383066332
 30
0.0
 10
12.590226285
 20
17.7390260376
 30
0.0
 10
12.6193585835
 20
17.7397025685
 30
0.0
 10
12.6400740056
 20
17.7400976242
 30
0.0
 10
12.6510489855
 20
17.7402891937
 30
0.0
  0
SPLINE
  5
2D2
100
AcDbEntity
  8
0
100
AcDbSpline
 62
7
  6
CONTINUOUS
 70
0
 71
3
 72
9
 73
5
 74
0
 42
0.0000001
 43
0.0000001
 44
0.0000000001
 40
0.0
 40
0.0
 40
0.0
 40
0.0
 40
0.2142072127
 40
1.0
 40
1.0
 40
1.0
 40
1.0
 10
12.6510489855
 20
17.7402891937
 30
0.0
 10
12.6763171517
 20
17.7407302522
 30
0.0
 10
12.7942858546
 20
17.7423565096
 30
0.0
 10
12.912267926
 20
17.7428451558
 30
0.0
 10
13.0049752028
 20
17.7428451558
 30
0.0
  0
SPLINE
  5
2D3
100
AcDbEntity
  8
0
100
AcDbSpline
 62
7
  6
CONTINUOUS
 70
0
 71
3
 72
9
 73
5
 74
0
 42
0.0000001
 43
0.0000001
 44
0.0000000001
 40
0.0
 40
0.0
 40
0.0
 40
0.0
 40
0.2928173905
 40
1.0
 40
1.0
 40
1.0
 40
1.0
 10
14.054586619
 20
53.225390093
 30
0.0
 10
14.0543856852
 20
53.2449085113
 30
0.0
 10
14.054058804
 20
53.3115663871
 30
0.0
 10
14.0544839178
 20
53.3782254752
 30
0.0
 10
14.0545867474
 20
53.425365342
 30
0.0
  0
SPLINE
  5
2D4
100
AcDbEntity
  8
0
100
AcDbSpline
 62
7
  6
CONTINUOUS
 70
0
 71
3
 72
9
 73
5
 74
0
 42
0.0000001
 43
0.0000001
 44
0.0000000001
 40
0.0
 40
0.0
 40
0.0
 40
0.0
 40
0.5108580213
 40
1.0
 40
1.0
 40
1.0
 40
1.0
 10
15.7446265507
 20
45.9246043186
 30
0.0
 10
15.7800561049
 20
45.8338944932
 30
0.0
 10
15.8710350143
 20
45.6644512915
 30
0.0
 10
15.9907012953
 20
45.5149334357
 30
0.0
 10
16.0545867388
 20
45.447014049
 30
0.0
  0
SPLINE
  5
2D5
100
AcDbEntity
  8
0
100
AcDbSpline
 62
7
  6
CONTINUOUS
 70
0
 71
3
 72
23
 73
19
 74
0
 42
0.0000001
 43
0.0000001
 44
0.0000000001
 40
0.0
 40
0.0
 40
0.0
 40
0.0
 40
0.0009261734
 40
0.0041687995
 40
0.009751234
 40
0.0176831243
 40
0.027972884
 40
0.0406286085
 40
0.073036341
 40
0.1146031038
 40
0.1648342179
 40
0.2232279743
 40
0.289190491
 40
0.3620431403
 40
0.4411030756
 40
0.6148169363
 40
0.8037720055
 40
1.0
 40
1.0
 40
1.0
 40
1.0
 10
14.0545985011
 20
44.9254474296
 30
0.0
 10
14.0544008509
 20
44.9252103253
 30
0.0
 10
14.0543827508
 20
44.9279992271
 30
0.0
 10
14.054095464
 20
44.9297653847
 30
0.0
 10
14.054010315
 20
44.9362307325
 30
0.0
 10
14.0538230852
 20
44.9437642549
 30
0.0
 10
14.053697226
 20
44.9542108338
 30
0.0
 10
14.0535091701
 20
44.9725829572
 30
0.0
 10
14.0533448298
 20
45.0015049265
 30
0.0
 10
14.0532038442
 20
45.0428791362
 30
0.0
 10
14.0531143162
 20
45.092943623
 30
0.0
 10
14.0530657464
 20
45.1511286379
 30
0.0
 10
14.0530537109
 20
45.2168565474
 30
0.0
 10
14.0530725917
 20
45.2894711223
 30
0.0
 10
14.0531305499
 20
45.3979980973
 30
0.0
 10
14.0532752294
 20
45.5452203486
 30
0.0
 10
14.0539275472
 20
45.7314921164
 30
0.0
 10
14.0544439476
 20
45.8598674609
 30
0.0
 10
14.0545866028
 20
45.9252674489
 30
0.0
  0
SPLINE
  5
2D6
100
AcDbEntity
  8
0
100
AcDbSpline
 62
7
  6
CONTINUOUS
 70
0
 71
3
 72
23
 73
19
 74
0
 42
0.0000001
 43
0.0000001
 44
0.0000000001
 40
0.0
 40
0.0
 40
0.0
 40
0.0
 40
0.1962311388
 40
0.3851932544
 40
0.5589106916
 40
0.6379713784
 40
0.7108232572
 40
0.7767846249
 40
0.8351777218
 40
0.8854069447
 40
0.9269719283
 40
0.9593796504
 40
0.972034671
 40
0.9823229712
 40
0.9902530138
 40
0.9958335787
 40
0.9990746763
 40
1.0
 40
1.0
 40
1.0
 40
1.0
 10
14.0545866101
 20
53.5255138354
 30
0.0
 10
14.0544437522
 20
53.5909147544
 30
0.0
 10
14.0539275034
 20
53.7192932678
 30
0.0
 10
14.0532680346
 20
53.9055692633
 30
0.0
 10
14.0531168405
 20
54.05279504
 30
0.0
 10
14.0530629327
 20
54.1613230099
 30
0.0
 10
14.0530507591
 20
54.2339370678
 30
0.0
 10
14.0530722724
 20
54.2996639994
 30
0.0
 10
14.0531326791
 20
54.357847666
 30
0.0
 10
14.0532343366
 20
54.4079106015
 30
0.0
 10
14.0533837211
 20
54.4492834679
 30
0.0
 10
14.0535486707
 20
54.4782045711
 30
0.0
 10
14.0537309676
 20
54.4965759408
 30
0.0
 10
14.0538513454
 20
54.5070213125
 30
0.0
 10
14.0540331818
 20
54.5145530463
 30
0.0
 10
14.0541122939
 20
54.5210169972
 30
0.0
 10
14.0543971203
 20
54.5227818013
 30
0.0
 10
14.0544120334
 20
54.5255698298
 30
0.0
 10
14.0546094984
 20
54.5253329407
 30
0.0
  0
SPLINE
  5
2D7
100
AcDbEntity
  8
0
100
AcDbSpline
 62
7
  6
CONTINUOUS
 70
0
 71
3
 72
13
 73
9
 74
0
 42
0.0000001
 43
0.0000001
 44
0.0000000001
 40
0.0
 40
0.0
 40
0.0
 40
0.0
 40
0.2138018447
 40
0.3208089316
 40
0.4324969467
 40
0.554407605
 40
0.6913269322
 40
1.0
 40
1.0
 40
1.0
 40
1.0
 10
13.2817980555
 20
53.2388791675
 30
0.0
 10
13.3016820992
 20
53.2385320902
 30
0.0
 10
13.3322450252
 20
53.242950201
 30
0.0
 10
13.3680188829
 20
53.2621657597
 30
0.0
 10
13.3911971959
 20
53.2844201209
 30
0.0
 10
13.4080972059
 20
53.3150778001
 30
0.0
 10
13.4190406144
 20
53.3673827571
 30
0.0
 10
13.4107713117
 20
53.4098640436
 30
0.0
 10
13.4007707304
 20
53.436777743
 30
0.0
  0
SPLINE
  5
2D8
100
AcDbEntity
  8
0
100
AcDbSpline
 62
7
  6
CONTINUOUS
 70
0
 71
3
 72
9
 73
5
 74
0
 42
0.0000001
 43
0.0000001
 44
0.0000000001
 40
0.0
 40
0.0
 40
0.0
 40
0.0
 40
0.511268489
 40
1.0
 40
1.0
 40
1.0
 40
1.0
 10
13.371975607
 20
53.5135988161
 30
0.0
 10
13.3366037865
 20
53.6071430443
 30
0.0
 10
13.2438854873
 20
53.7815590485
 30
0.0
 10
13.1205275564
 20
53.9346100397
 30
0.0
 10
13.0545867388
 20
54.0038283317
 30
0.0
  0
SPLINE
  5
2D9
100
AcDbEntity
  8
0
100
AcDbSpline
 62
7
  6
CONTINUOUS
 70
0
 71
3
 72
9
 73
5
 74
0
 42
0.0000001
 43
0.0000001
 44
0.0000000001
 40
0.0
 40
0.0
 40
0.0
 40
0.0
 40
0.4887383648
 40
1.0
 40
1.0
 40
1.0
 40
1.0
 10
13.0545867388
 20
45.4469518498
 30
0.0
 10
13.1205286109
 20
45.5161712487
 30
0.0
 10
13.2438861711
 20
45.669223061
 30
0.0
 10
13.33660477
 20
45.8436392689
 30
0.0
 10
13.3719761003
 20
45.9371824595
 30
0.0
  0
SPLINE
  5
2DA
100
AcDbEntity
  8
0
100
AcDbSpline
 62
7
  6
CONTINUOUS
 70
0
 71
3
 72
13
 73
9
 74
0
 42
0.0000001
 43
0.0000001
 44
0.0000000001
 40
0.0
 40
0.0
 40
0.0
 40
0.0
 40
0.3086747819
 40
0.4455934665
 40
0.5675034326
 40
0.6791908124
 40
0.7861979884
 40
1.0
 40
1.0
 40
1.0
 40
1.0
 10
13.4007707308
 20
46.0140024394
 30
0.0
 10
13.4107715519
 20
46.0409167843
 30
0.0
 10
13.4190409927
 20
46.0833991143
 30
0.0
 10
13.4080963202
 20
46.1357048846
 30
0.0
 10
13.3911953723
 20
46.1663625942
 30
0.0
 10
13.368015997
 20
46.1886165612
 30
0.0
 10
13.3322408904
 20
46.2078312845
 30
0.0
 10
13.3016772615
 20
46.2122485976
 30
0.0
 10
13.2817928461
 20
46.2119009232
 30
0.0
  0
SPLINE
  5
2DB
100
AcDbEntity
  8
0
100
AcDbSpline
 62
7
  6
CONTINUOUS
 70
0
 71
3
 72
21
 73
17
 74
0
 42
0.0000001
 43
0.0000001
 44
0.0000000001
 40
0.0
 40
0.0
 40
0.0
 40
0.0
 40
0.1940550253
 40
0.3821798665
 40
0.5556713801
 40
0.7071875686
 40
0.7730584927
 40
0.8314961952
 40
0.8818716688
 40
0.923692501
 40
0.9566778959
 40
0.9805652743
 40
0.9890152045
 40
0.9950922951
 40
0.9987640421
 40
1.0
 40
1.0
 40
1.0
 40
1.0
 10
14.0545867037
 20
46.0254148396
 30
0.0
 10
14.0545584878
 20
46.0383504106
 30
0.0
 10
14.0544885402
 20
46.0638262118
 30
0.0
 10
14.0543748859
 20
46.1008668142
 30
0.0
 10
14.054290186
 20
46.1350717593
 30
0.0
 10
14.0542634255
 20
46.161127753
 30
0.0
 10
14.0542721513
 20
46.1795136765
 30
0.0
 10
14.0542906355
 20
46.1911590091
 30
0.0
 10
14.0543258505
 20
46.2011971428
 30
0.0
 10
14.054363483
 20
46.2095500485
 30
0.0
 10
14.0544337428
 20
46.2161065587
 30
0.0
 10
14.0544426526
 20
46.2205073582
 30
0.0
 10
14.0545362251
 20
46.2230042198
 30
0.0
 10
14.0544728662
 20
46.2243228179
 30
0.0
 10
14.0546518472
 20
46.2248664595
 30
0.0
 10
14.0545043143
 20
46.2253897305
 30
0.0
 10
14.0545867018
 20
46.2253900901
 30
0.0
  0
SPLINE
  5
2DC
100
AcDbEntity
  8
0
100
AcDbSpline
 62
7
  6
CONTINUOUS
 70
0
 71
3
 72
9
 73
5
 74
0
 42
0.0000001
 43
0.0000001
 44
0.0000000001
 40
0.0
 40
0.0
 40
0.0
 40
0.0
 40
0.275584867
 40
1.0
 40
1.0
 40
1.0
 40
1.0
 10
50.2045867388
 20
17.7253900911
 30
0.0
 10
50.2370657598
 20
17.7253900911
 30
0.0
 10
50.3549199219
 20
17.7251609167
 30
0.0
 10
50.4727772749
 20
17.72432387
 30
0.0
 10
50.5581401294
 20
17.7228338558
 30
0.0
  0
SPLINE
  5
2DD
100
AcDbEntity
  8
0
100
AcDbSpline
 62
7
  6
CONTINUOUS
 70
0
 71
3
 72
9
 73
5
 74
0
 42
0.0000001
 43
0.0000001
 44
0.0000000001
 40
0.0
 40
0.0
 40
0.0
 40
0.0
 40
0.4891483615
 40
1.0
 40
1.0
 40
1.0
 40
1.0
 10
16.0545867388
 20
54.0037661324
 30
0.0
 10
15.9907004688
 20
53.9358458671
 30
0.0
 10
15.8710346847
 20
53.7863276162
 30
0.0
 10
15.7800556794
 20
53.6168845644
 30
0.0
 10
15.7446265702
 20
53.5261758831
 30
0.0
  0
SPLINE
  5
2DE
100
AcDbEntity
  8
0
100
AcDbSpline
 62
7
  6
CONTINUOUS
 70
0
 71
3
 72
17
 73
13
 74
0
 42
0.0000001
 43
0.0000001
 44
0.0000000001
 40
0.0
 40
0.0
 40
0.0
 40
0.0
 40
0.2242241755
 40
0.4235965984
 40
0.5957484112
 40
0.7387789184
 40
0.8515144273
 40
0.9328907217
 40
0.9616044193
 40
0.9822859959
 40
0.9949531468
 40
1.0
 40
1.0
 40
1.0
 40
1.0
 10
12.8818001703
 20
10.1300512549
 30
0.0
 10
12.8708343392
 20
10.1300512549
 30
0.0
 10
12.8501184028
 20
10.1300848166
 30
0.0
 10
12.8209818974
 20
10.1302526452
 30
0.0
 10
12.795822819
 20
10.1305326693
 30
0.0
 10
12.7748867783
 20
10.1309193652
 30
0.0
 10
12.7584359673
 20
10.13140639
 30
0.0
 10
12.7474853266
 20
10.1319182622
 30
0.0
 10
12.7411948094
 20
10.1324171838
 30
0.0
 10
12.7380352124
 20
10.1327720451
 30
0.0
 10
12.7364487603
 20
10.133094368
 30
0.0
 10
12.7353263498
 20
10.1334171056
 30
0.0
 10
12.7353220422
 20
10.1336638877
 30
0.0
  0
SPLINE
  5
2DF
100
AcDbEntity
  8
0
100
AcDbSpline
 62
7
  6
CONTINUOUS
 70
0
 71
3
 72
9
 73
5
 74
0
 42
0.0000001
 43
0.0000001
 44
0.0000000001
 40
0.0
 40
0.0
 40
0.0
 40
0.0
 40
0.2758248378
 40
1.0
 40
1.0
 40
1.0
 40
1.0
 10
13.2352458897
 20
10.1336638877
 30
0.0
 10
13.2027525818
 20
10.1330968876
 30
0.0
 10
13.0849453469
 20
10.1312579779
 30
0.0
 10
12.9671239902
 20
10.1300512549
 30
0.0
 10
12.8818001703
 20
10.1300512549
 30
0.0
  0
SPLINE
  5
2E0
100
AcDbEntity
  8
0
100
AcDbSpline
 62
7
  6
CONTINUOUS
 70
0
 71
3
 72
21
 73
17
 74
0
 42
0.0000001
 43
0.0000001
 44
0.0000000001
 40
0.0
 40
0.0
 40
0.0
 40
0.0
 40
0.0017782361
 40
0.0057018009
 40
0.0118630674
 40
0.020283139
 40
0.0439329887
 40
0.076695866
 40
0.1185358338
 40
0.1690041911
 40
0.2274896357
 40
0.293379625
 40
0.4447880394
 40
0.6175725443
 40
0.8054202131
 40
1.0
 40
1.0
 40
1.0
 40
1.0
 10
51.5731914354
 20
10.1336638877
 30
0.0
 10
51.5730546865
 20
10.1334008452
 30
0.0
 10
51.5719802152
 20
10.1331493332
 30
0.0
 10
51.5701637184
 20
10.1327605142
 30
0.0
 10
51.5670286128
 20
10.1324351736
 30
0.0
 10
51.5607141745
 20
10.1319174186
 30
0.0
 10
51.5498864311
 20
10.1314133471
 30
0.0
 10
51.5335272419
 20
10.1309145993
 30
0.0
 10
51.5126732334
 20
10.1305312199
 30
0.0
 10
51.4875364815
 20
10.1302509356
 30
0.0
 10
51.4583864686
 20
10.130084047
 30
0.0
 10
51.4124083796
 20
10.1300114119
 30
0.0
 10
51.3473741377
 20
10.1302461568
 30
0.0
 10
51.2620102007
 20
10.1309562409
 30
0.0
 10
51.1694527784
 20
10.1320950581
 30
0.0
 10
51.1057027329
 20
10.1330979025
 30
0.0
 10
51.0732675878
 20
10.1336638877
 30
0.0
  0
ELLIPSE
  5
2E1
100
AcDbEntity
  8
0
100
AcDbEllipse
 62
7
  6
CONTINUOUS
 10
51.2045867388
 20
17.7341176233
 30
0.0
 11
0.5
 21
-0.0
 31
0.0
 40
0.0174550649
 41
7.0685834706
 42
7.853981634
  0
ENDSEC
  0
SECTION
  2
OBJECTS
  0
DICTIONARY
  5
C
100
AcDbDictionary
280
0
281
1
  3
ACAD_GROUP
350
D
  3
ACAD_MLINESTYLE
350
17
  3
ACAD_LAYOUT
350
1A
  3
ACAD_PLOTSETTINGS
350
19
  3
ACAD_PLOTSTYLENAME
350
E
  0
DICTIONARY
  5
D
102
{ACAD_REACTORS
330
C
102
}
100
AcDbDictionary
280
0
281
1
  0
ACDBDICTIONARYWDFLT
  5
E
102
{ACAD_REACTORS
330
C
102
}
100
AcDbDictionary
281
1
  3
Normal
350
F
100
AcDbDictionaryWithDefault
340
F
  0
DICTIONARY
  5
17
102
{ACAD_REACTORS
330
C
102
}
100
AcDbDictionary
280
0
281
1
  3
Standard
350
18
  0
DICTIONARY
  5
19
102
{ACAD_REACTORS
330
C
102
}
100
AcDbDictionary
281
1
  0
DICTIONARY
  5
1A
102
{ACAD_REACTORS
330
C
102
}
100
AcDbDictionary
281
1
  3
Model
350
2E2
  3
Layout1
350
2E3
  0
ACDBPLACEHOLDER
  5
F
102
{ACAD_REACTORS
330
E
102
}
  0
MLINESTYLE
  5
18
102
{ACAD_REACTORS
330
17
102
}
100
AcDbMlineStyle
  2
STANDARD
 70
0
  3

 62
256
 51
90.0
 52
90.0
 71
2
 49
0.5
 62
256
  6
BYLAYER
 49
-0.5
 62
256
  6
BYLAYER
  0
LAYOUT
  5
2E2
102
{ACAD_REACTORS
330
1A
102
}
100
AcDbPlotSettings
  1

  2
none_device
  4

  6

 40
0.0
 41
0.0
 42
0.0
 43
0.0
 44
210.0
 45
297.0
 46
0.0
 47
0.0
 48
0.0
 49
0.0
140
0.0
141
0.0
142
1.0
143
1.0
 70
1024
 72
1
 73
0
 74
0
  7

 75
0
147
1.0
148
0.0
149
0.0
100
AcDbLayout
  1
Model
 70
0
 71
0
 10
0.0
 20
0.0
 11
210.0
 21
297.0
 12
0.0
 22
0.0
 32
0.0
 14
0.0
 24
0.0
 34
0.0
 15
0.0
 25
0.0
 35
0.0
146
0.0
 13
0.0
 23
0.0
 33
0.0
 16
1.0
 26
0.0
 36
0.0
 17
0.0
 27
1.0
 37
0.0
 76
0
330
210
345
0
346
0
  0
LAYOUT
  5
2E3
102
{ACAD_REACTORS
330
1A
102
}
100
AcDbPlotSettings
  1

  2
none_device
  4

  6

 40
0.0
 41
0.0
 42
0.0
 43
0.0
 44
210.0
 45
297.0
 46
0.0
 47
0.0
 48
0.0
 49
0.0
140
0.0
141
0.0
142
1.0
143
1.0
 70
0
 72
1
 73
0
 74
0
  7

 75
0
147
1.0
148
0.0
149
0.0
100
AcDbLayout
  1
Layout1
 70
0
 71
1
 10
0.0
 20
0.0
 11
210.0
 21
297.0
 12
0.0
 22
0.0
 32
0.0
 14
0.0
 24
0.0
 34
0.0
 15
0.0
 25
0.0
 35
0.0
146
0.0
 13
0.0
 23
0.0
 33
0.0
 16
1.0
 26
0.0
 36
0.0
 17
0.0
 27
1.0
 37
0.0
 76
0
330
211
345
0
346
0
  0
ENDSEC
  0
EOF
