999
DXF file: C:\Users\sesa63760\Dev\_Creo\CAD\MCADID0000471_3D-CAD\drw0001_1.dxf
999
Pro/ENGINEER 2019471 by Parametric Technology Corporation
  0
SECTION
  2
HEADER
  9
$ACADVER
  1
AC1024
  9
$DWGCODEPAGE
  3
ANSI_1252
  9
$EXTMAX
 10
205.7675610252
 20
291.0141220214
 30
0.0
  9
$EXTMIN
 10
0.0
 20
0.0
 30
0.0
  9
$LIMMIN
 10
0.0
 20
0.0
  9
$LIMMAX
 10
205.7675610252
 20
291.0141220214
  9
$VIEWCTR
 10
102.8837805126
 20
145.5070610107
  9
$VIEWSIZE
 40
291.0141220214
  9
$CLAYER
  8
0
  9
$LTSCALE
 40
18.9698094355
  9
$CELTYPE
  6
BYLAYER
  9
$DIMSCALE
 40
1.0
  9
$DIMASZ
 40
2.4496138217
  9
$DIMEXO
 40
1.0
  9
$DIMDLI
 40
13.1064137918
  9
$DIMEXE
 40
1.0
  9
$DIMCEN
 40
3.1041506349
  9
$DIMLFAC
 40
1.0
  9
$DIMBLK
  1
_FILLED
  9
$DIMALT
 70
0
  9
$DIMALTF
 40
0.0393700787
  9
$DIMTXT
 40
3.4294593504
  9
$DIMTOL
 70
1
  9
$DIMLIM
 70
0
  9
$DIMTFAC
 40
1.0
  9
$DIMTP
 40
0.01
  9
$DIMTM
 40
0.01
  9
$DIMGAP
 40
0.625
  9
$DIMDSEP
 70
46
  9
$AUNITS
 70
0
  9
$PDMODE
 70
3
  9
$PDSIZE
 40
0.3125
  9
$HANDSEED
  5
2B3
  9
$TILEMODE
 70
1
  9
$MEASUREMENT
 70
1
  9
$INSUNITS
 70
4
  0
ENDSEC
  0
SECTION
  2
CLASSES
  0
CLASS
  1
ACDBDICTIONARYWDFLT
  2
AcDbDictionaryWithDefault
  3
AutoCAD 2000
 90
0
 91
1
280
0
281
0
  0
CLASS
  1
ACDBPLACEHOLDER
  2
AcDbPlaceHolder
  3
AutoCAD 2000
 90
0
 91
1
280
0
281
0
  0
CLASS
  1
LAYOUT
  2
AcDbLayout
  3
AutoCAD 2000
 90
0
 91
0
280
0
281
0
  0
ENDSEC
  0
SECTION
  2
TABLES
  0
TABLE
  2
VPORT
  5
8
100
AcDbSymbolTable
 70
2
  0
VPORT
  5
1F4
100
AcDbSymbolTableRecord
100
AcDbViewportTableRecord
  2
*ACTIVE
 70
0
 10
0.0
 20
0.0
 11
1.0
 21
1.0
 12
102.8837805126
 22
145.5070610107
 13
0.0
 23
0.0
 14
1.0
 24
1.0
 15
0.0
 25
0.0
 16
0.0
 26
0.0
 36
1.0
 17
0.0
 27
0.0
 37
0.0
 40
291.0141220214
 41
0.7070707071
 42
50.0
 43
0.0
 44
0.0
 50
0.0
 51
0.0
 71
0
 72
100
 73
1
 74
1
 75
0
 76
0
 77
0
 78
0
  0
ENDTAB
  0
TABLE
  2
LTYPE
  5
5
100
AcDbSymbolTable
 70
6
  0
LTYPE
  5
14
100
AcDbSymbolTableRecord
100
AcDbLinetypeTableRecord
  2
BYBLOCK
 70
0
  3

 72
65
 73
0
 40
0.0
  0
LTYPE
  5
15
100
AcDbSymbolTableRecord
100
AcDbLinetypeTableRecord
  2
BYLAYER
 70
0
  3

 72
65
 73
0
 40
0.0
  0
LTYPE
  5
16
100
AcDbSymbolTableRecord
100
AcDbLinetypeTableRecord
  2
CONTINUOUS
 70
64
  3
Solid line
 72
65
 73
0
 40
0.0
  0
LTYPE
  5
1F5
100
AcDbSymbolTableRecord
100
AcDbLinetypeTableRecord
  2
CENTER
 70
64
  3
____ _ ____ _ ____ _ ____ _ ____ _ ____ _ ____
 72
65
 73
4
 40
0.6
 49
0.375
 74
0
 49
-0.075
 74
0
 49
0.075
 74
0
 49
-0.075
 74
0
  0
LTYPE
  5
1F6
100
AcDbSymbolTableRecord
100
AcDbLinetypeTableRecord
  2
HIDDEN
 70
64
  3
- - - - - - - - - - - - - - - - - - - -
 72
65
 73
2
 40
0.2
 49
0.1
 74
0
 49
-0.1
 74
0
  0
LTYPE
  5
1F7
100
AcDbSymbolTableRecord
100
AcDbLinetypeTableRecord
  2
PHANTOM
 70
64
  3
_____ _ _ _____ _ _ _____ _ _ _____
 72
65
 73
6
 40
0.8
 49
0.45
 74
0
 49
-0.05
 74
0
 49
0.1
 74
0
 49
-0.05
 74
0
 49
0.1
 74
0
 49
-0.05
 74
0
  0
LTYPE
  5
1F8
100
AcDbSymbolTableRecord
100
AcDbLinetypeTableRecord
  2
DOT
 70
64
  3
. . . . . . . . . . . . . . . . . . . .
 72
65
 73
2
 40
0.2
 49
0.1
 74
0
 49
-0.1
 74
0
  0
LTYPE
  5
1F9
100
AcDbSymbolTableRecord
100
AcDbLinetypeTableRecord
  2
DASHED
 70
64
  3
- - - - - - - - - - - - - - - - - - - -
 72
65
 73
2
 40
0.2
 49
0.1
 74
0
 49
-0.1
 74
0
  0
ENDTAB
  0
TABLE
  2
LAYER
  5
2
100
AcDbSymbolTable
 70
36
  0
LAYER
  5
10
100
AcDbSymbolTableRecord
100
AcDbLayerTableRecord
  2
0
 70
0
 62
7
  6
CONTINUOUS
370
-3
390
F
  0
LAYER
  5
1FA
100
AcDbSymbolTableRecord
100
AcDbLayerTableRecord
  2
DEFAULT_1
 70
0
 62
7
  6
CENTER
370
-3
390
F
  0
LAYER
  5
1FB
100
AcDbSymbolTableRecord
100
AcDbLayerTableRecord
  2
DEFAULT_2
 70
0
 62
8
  6
HIDDEN
370
-3
390
F
  0
LAYER
  5
1FC
100
AcDbSymbolTableRecord
100
AcDbLayerTableRecord
  2
DEFAULT_3
 70
0
 62
7
  6
PHANTOM
370
-3
390
F
  0
LAYER
  5
1FD
100
AcDbSymbolTableRecord
100
AcDbLayerTableRecord
  2
00_COMPONENTS
 70
0
 62
7
  6
CONTINUOUS
370
-3
390
F
  0
LAYER
  5
1FE
100
AcDbSymbolTableRecord
100
AcDbLayerTableRecord
  2
01_1_DEFAULT_DATUMS
 70
0
 62
7
  6
CONTINUOUS
370
-3
390
F
  0
LAYER
  5
1FF
100
AcDbSymbolTableRecord
100
AcDbLayerTableRecord
  2
01_PLANES
 70
0
 62
7
  6
CONTINUOUS
370
-3
390
F
  0
LAYER
  5
200
100
AcDbSymbolTableRecord
100
AcDbLayerTableRecord
  2
02_COORD_SYS
 70
0
 62
7
  6
CONTINUOUS
370
-3
390
F
  0
LAYER
  5
201
100
AcDbSymbolTableRecord
100
AcDbLayerTableRecord
  2
03_AXES
 70
0
 62
7
  6
CONTINUOUS
370
-3
390
F
  0
LAYER
  5
202
100
AcDbSymbolTableRecord
100
AcDbLayerTableRecord
  2
04_POINTS
 70
0
 62
7
  6
CONTINUOUS
370
-3
390
F
  0
LAYER
  5
203
100
AcDbSymbolTableRecord
100
AcDbLayerTableRecord
  2
05_CURVES
 70
0
 62
7
  6
CONTINUOUS
370
-3
390
F
  0
LAYER
  5
204
100
AcDbSymbolTableRecord
100
AcDbLayerTableRecord
  2
06_SURFS
 70
0
 62
7
  6
CONTINUOUS
370
-3
390
F
  0
LAYER
  5
205
100
AcDbSymbolTableRecord
100
AcDbLayerTableRecord
  2
07_COSMETICS
 70
0
 62
7
  6
CONTINUOUS
370
-3
390
F
  0
LAYER
  5
206
100
AcDbSymbolTableRecord
100
AcDbLayerTableRecord
  2
10_NOTES
 70
0
 62
7
  6
CONTINUOUS
370
-3
390
F
  0
LAYER
  5
207
100
AcDbSymbolTableRecord
100
AcDbLayerTableRecord
  2
11_NOTES_PUB
 70
0
 62
7
  6
CONTINUOUS
370
-3
390
F
  0
LAYER
  5
208
100
AcDbSymbolTableRecord
100
AcDbLayerTableRecord
  2
13_REF_GTOL
 70
0
 62
7
  6
CONTINUOUS
370
-3
390
F
  0
LAYER
  5
209
100
AcDbSymbolTableRecord
100
AcDbLayerTableRecord
  2
16_MISC
 70
0
 62
7
  6
CONTINUOUS
370
-3
390
F
  0
LAYER
  5
20A
100
AcDbSymbolTableRecord
100
AcDbLayerTableRecord
  2
17_NO_PRINT
 70
0
 62
7
  6
CONTINUOUS
370
-3
390
F
  0
LAYER
  5
20B
100
AcDbSymbolTableRecord
100
AcDbLayerTableRecord
  2
18_DATUM_CAMS_JOINTS
 70
0
 62
7
  6
CONTINUOUS
370
-3
390
F
  0
LAYER
  5
20C
100
AcDbSymbolTableRecord
100
AcDbLayerTableRecord
  2
19_DATUM_FUNCTIONAL
 70
0
 62
7
  6
CONTINUOUS
370
-3
390
F
  0
LAYER
  5
20D
100
AcDbSymbolTableRecord
100
AcDbLayerTableRecord
  2
20_DATUM_KINEMATIC_SCHEME
 70
0
 62
7
  6
CONTINUOUS
370
-3
390
F
  0
ENDTAB
  0
TABLE
  2
STYLE
  5
3
100
AcDbSymbolTable
 70
1
  0
STYLE
  5
11
100
AcDbSymbolTableRecord
100
AcDbTextStyleTableRecord
  2
STANDARD
 70
0
 40
0.0
 41
0.8
 50
0.0
 71
0
 42
0.2
  3
txt
  4

  0
STYLE
  5
20E
100
AcDbSymbolTableRecord
100
AcDbTextStyleTableRecord
  2
TEXTSTYLE_1
 70
0
 40
0.0
 41
0.8
 50
0.0
 71
0
 42
0.2
  3
gdt
  4

  0
ENDTAB
  0
TABLE
  2
VIEW
  5
6
100
AcDbSymbolTable
 70
0
  0
ENDTAB
  0
TABLE
  2
UCS
  5
7
100
AcDbSymbolTable
 70
0
  0
ENDTAB
  0
TABLE
  2
APPID
  5
9
100
AcDbSymbolTable
 70
1
  0
APPID
  5
20F
100
AcDbSymbolTableRecord
100
AcDbRegAppTableRecord
  2
ACAD
 70
0
  0
ENDTAB
  0
TABLE
  2
BLOCK_RECORD
  5
1
100
AcDbSymbolTable
 70
0
  0
BLOCK_RECORD
  5
210
100
AcDbSymbolTableRecord
100
AcDbBlockTableRecord
  2
*Model_Space
  0
BLOCK_RECORD
  5
211
100
AcDbSymbolTableRecord
100
AcDbBlockTableRecord
  2
*Paper_Space
  0
BLOCK_RECORD
  5
212
100
AcDbSymbolTableRecord
100
AcDbBlockTableRecord
  2
_FILLED
  0
ENDTAB
  0
TABLE
  2
DIMSTYLE
  5
A
100
AcDbSymbolTable
 70
1
100
AcDbDimStyleTable
 71
0
  0
DIMSTYLE
105
213
100
AcDbSymbolTableRecord
100
AcDbDimStyleTableRecord
  2
STANDARD
 70
0
  3

  4

 40
1.0
 41
2.4496138217
 42
1.0
 43
0.38
 44
1.0
 45
0.0
 46
0.0
 47
0.01
 48
0.01
140
3.4294593504
141
0.09
142
0.0
143
25.4
144
1.0
145
0.0
146
1.0
147
0.625
 71
1
 72
0
 73
0
 74
0
 75
0
 76
0
 77
1
 78
8
 79
2
170
0
171
1
172
0
173
0
174
0
175
0
176
0
177
0
178
0
270
2
179
2
271
2
272
2
273
2
274
2
275
0
280
0
281
0
282
0
283
1
284
8
285
0
286
0
287
3
288
0
340
11
278
46
341
212
342
212
343
212
344
212
  0
ENDTAB
  0
ENDSEC
  0
SECTION
  2
BLOCKS
  0
BLOCK
  5
20
100
AcDbEntity
  8
0
100
AcDbBlockBegin
  2
*Model_Space
 70
0
 10
0.0
 20
0.0
 30
0.0
  3
*Model_Space
  1

  0
ENDBLK
  5
21
100
AcDbEntity
  8
0
100
AcDbBlockEnd
  0
BLOCK
  5
1C
100
AcDbEntity
  8
0
100
AcDbBlockBegin
  2
*Paper_Space
 70
0
 10
0.0
 20
0.0
 30
0.0
  3
*Paper_Space
  1

  0
ENDBLK
  5
1D
100
AcDbEntity
  8
0
100
AcDbBlockEnd
  0
BLOCK
  5
214
100
AcDbEntity
  8
0
100
AcDbBlockBegin
  2
_FILLED
 70
64
 10
0.0
 20
0.0
  3
_FILLED
  1

  0
SOLID
  5
215
100
AcDbEntity
  8
0
  6
BYBLOCK
 62
0
100
AcDbTrace
 10
0.0
 20
0.0
 11
-1.0
 21
0.25
 12
-1.0
 22
-0.25
 13
-1.0
 23
-0.25
  0
ENDBLK
  5
216
100
AcDbEntity
  8
0
  6
BYBLOCK
 62
0
100
AcDbBlockEnd
  0
ENDSEC
  0
SECTION
  2
ENTITIES
  0
LINE
  5
217
100
AcDbEntity
  8
0
100
AcDbLine
 62
7
  6
CONTINUOUS
 10
23.8714339306
 20
121.3751595033
 11
23.8714192108
 21
182.6127970161
  0
LINE
  5
218
100
AcDbEntity
  8
0
100
AcDbLine
 62
7
  6
CONTINUOUS
 10
86.3794131403
 20
218.7016239902
 11
23.8714192108
 21
182.6127970161
  0
LINE
  5
219
100
AcDbEntity
  8
0
100
AcDbLine
 62
7
  6
CONTINUOUS
 10
23.8714339306
 20
121.3751595033
 11
83.2686214033
 21
87.0828485799
  0
LINE
  5
21A
100
AcDbEntity
  8
0
100
AcDbLine
 62
7
  6
CONTINUOUS
 10
47.9131557537
 20
136.1187660859
 11
47.9131557537
 21
138.4758055375
  0
LINE
  5
21B
100
AcDbEntity
  8
0
100
AcDbLine
 62
7
  6
CONTINUOUS
 10
49.6809153467
 20
137.1393764706
 11
49.6809153467
 21
138.633723377
  0
LINE
  5
21C
100
AcDbEntity
  8
0
100
AcDbLine
 62
7
  6
CONTINUOUS
 10
51.4487043794
 20
136.4346017649
 11
51.4487043794
 21
134.0775623133
  0
LWPOLYLINE
  5
21D
100
AcDbEntity
  8
0
100
AcDbPolyline
 62
7
  6
CONTINUOUS
 90
6
 70
0
 10
130.4441879561
 20
74.8958495974
 10
133.8384357242
 20
73.5109865156
 10
141.7606299399
 20
73.4409142706
 10
150.5047090278
 20
76.9121935277
 10
159.2215991541
 20
83.557378021
 10
164.5900003195
 20
89.8230001432
  0
LINE
  5
21E
100
AcDbEntity
  8
0
100
AcDbLine
 62
7
  6
CONTINUOUS
 10
49.6809300666
 20
133.9196444738
 11
47.9131557537
 21
136.1187660859
  0
LINE
  5
21F
100
AcDbEntity
  8
0
100
AcDbLine
 62
7
  6
CONTINUOUS
 10
130.4441785551
 20
74.8958333118
 11
119.8375326779
 21
81.0194446296
  0
LINE
  5
220
100
AcDbEntity
  8
0
100
AcDbLine
 62
7
  6
CONTINUOUS
 10
88.067594198
 20
99.4768816132
 11
119.2538472999
 21
81.4718973169
  0
LINE
  5
221
100
AcDbEntity
  8
0
100
AcDbLine
 62
7
  6
CONTINUOUS
 10
49.6809153467
 20
137.1393764706
 11
51.4486896596
 21
134.9402548584
  0
LINE
  5
222
100
AcDbEntity
  8
0
100
AcDbLine
 62
7
  6
CONTINUOUS
 10
49.6809300666
 20
138.633723377
 11
51.4487043794
 21
136.4346017649
  0
LINE
  5
223
100
AcDbEntity
  8
0
100
AcDbLine
 62
7
  6
CONTINUOUS
 10
137.5654228954
 20
82.3314140651
 11
135.44409372
 21
83.5561363287
  0
LINE
  5
224
100
AcDbEntity
  8
0
100
AcDbLine
 62
7
  6
CONTINUOUS
 10
85.0477533419
 20
113.8985139332
 11
83.8230033714
 21
114.6056076617
  0
LINE
  5
225
100
AcDbEntity
  8
0
100
AcDbLine
 62
7
  6
CONTINUOUS
 10
83.8230033715
 20
117.0551149131
 11
85.0477533419
 21
116.3480211846
  0
LINE
  5
226
100
AcDbEntity
  8
0
100
AcDbLine
 62
7
  6
CONTINUOUS
 10
83.8230033714
 20
114.6056076617
 11
83.2106283862
 21
116.1839081517
  0
LINE
  5
227
100
AcDbEntity
  8
0
100
AcDbLine
 62
7
  6
CONTINUOUS
 10
85.0477533419
 20
116.3480211846
 11
85.6601283272
 21
114.7697206946
  0
LINE
  5
228
100
AcDbEntity
  8
0
100
AcDbLine
 62
7
  6
CONTINUOUS
 10
79.7331022172
 20
146.2793090952
 11
79.7331022172
 21
89.1241398961
  0
LINE
  5
229
100
AcDbEntity
  8
0
100
AcDbLine
 62
7
  6
CONTINUOUS
 10
83.2686214033
 20
152.4030419502
 11
79.7331022172
 21
146.2793090952
  0
LINE
  5
22A
100
AcDbEntity
  8
0
100
AcDbLine
 62
7
  6
CONTINUOUS
 10
135.8770939006
 20
190.1247711738
 11
126.7554544005
 21
184.8584215888
  0
LINE
  5
22B
100
AcDbEntity
  8
0
100
AcDbLine
 62
7
  6
CONTINUOUS
 10
147.0223841591
 20
97.0787035901
 11
146.315274434
 21
97.4869443447
  0
LINE
  5
22C
100
AcDbEntity
  8
0
100
AcDbLine
 62
7
  6
CONTINUOUS
 10
49.6809153467
 20
137.1393764706
 11
47.9131557537
 21
136.1187660859
  0
LINE
  5
22D
100
AcDbEntity
  8
0
100
AcDbLine
 62
7
  6
CONTINUOUS
 10
51.4486896596
 20
134.9402548584
 11
49.6809300666
 21
133.9196444738
  0
LINE
  5
22E
100
AcDbEntity
  8
0
100
AcDbLine
 62
7
  6
CONTINUOUS
 10
133.1194419269
 20
181.1842547982
 11
83.2686214033
 21
152.4030419502
  0
LINE
  5
22F
100
AcDbEntity
  8
0
100
AcDbLine
 62
7
  6
CONTINUOUS
 10
139.4126425263
 20
184.0010553155
 11
133.8265222123
 21
180.7759265
  0
LINE
  5
230
100
AcDbEntity
  8
0
100
AcDbLine
 62
7
  6
CONTINUOUS
 10
173.0212033305
 20
84.9553529362
 11
148.2723629503
 21
99.2437793444
  0
LINE
  5
231
100
AcDbEntity
  8
0
100
AcDbLine
 62
7
  6
CONTINUOUS
 10
51.4487043794
 20
134.0775623133
 11
49.6809300666
 21
133.9196444738
  0
LINE
  5
232
100
AcDbEntity
  8
0
100
AcDbLine
 62
7
  6
CONTINUOUS
 10
79.7331022172
 20
146.2793090952
 11
23.8714339306
 21
178.5303287023
  0
LINE
  5
233
100
AcDbEntity
  8
0
100
AcDbLine
 62
7
  6
CONTINUOUS
 10
110.6222388019
 20
163.4730099541
 11
111.0705195724
 21
164.4389230491
  0
LINE
  5
234
100
AcDbEntity
  8
0
100
AcDbLine
 62
7
  6
CONTINUOUS
 10
83.2106283862
 20
116.1839081517
 11
83.8230033715
 21
117.0551149131
  0
LINE
  5
235
100
AcDbEntity
  8
0
100
AcDbLine
 62
7
  6
CONTINUOUS
 10
47.9131557537
 20
138.4758055375
 11
49.6809300666
 21
138.633723377
  0
LINE
  5
236
100
AcDbEntity
  8
0
100
AcDbLine
 62
7
  6
CONTINUOUS
 10
83.2686214033
 20
152.4030419502
 11
27.4069531167
 21
184.6540615573
  0
LINE
  5
237
100
AcDbEntity
  8
0
100
AcDbLine
 62
7
  6
CONTINUOUS
 10
111.0705195724
 20
163.2142007855
 11
111.0705195724
 21
164.4389230492
  0
LINE
  5
238
100
AcDbEntity
  8
0
100
AcDbLine
 62
7
  6
CONTINUOUS
 10
113.968300284
 20
163.9906486871
 11
113.5200195134
 21
163.0247355921
  0
LINE
  5
239
100
AcDbEntity
  8
0
100
AcDbLine
 62
7
  6
CONTINUOUS
 10
85.6601283272
 20
114.7697206946
 11
85.0477533419
 21
113.8985139332
  0
LINE
  5
23A
100
AcDbEntity
  8
0
100
AcDbLine
 62
7
  6
CONTINUOUS
 10
183.0210336602
 20
102.2759589699
 11
158.27219328
 21
116.5643853781
  0
LINE
  5
23B
100
AcDbEntity
  8
0
100
AcDbLine
 62
7
  6
CONTINUOUS
 10
182.6172581096
 20
103.6176596549
 11
167.0608441564
 21
112.5989562544
  0
LINE
  5
23C
100
AcDbEntity
  8
0
100
AcDbLine
 62
7
  6
CONTINUOUS
 10
159.5221720713
 20
118.7294611323
 11
158.8150623461
 21
119.1377018869
  0
LINE
  5
23D
100
AcDbEntity
  8
0
100
AcDbLine
 62
7
  6
CONTINUOUS
 10
112.7435503135
 20
162.9046151056
 11
112.7435503135
 21
164.6977424157
  0
LINE
  5
23E
100
AcDbEntity
  8
0
100
AcDbLine
 62
7
  6
CONTINUOUS
 10
84.2713113028
 20
116.7962900637
 11
83.2106283862
 21
116.1839081517
  0
LINE
  5
23F
100
AcDbEntity
  8
0
100
AcDbLine
 62
7
  6
CONTINUOUS
 10
85.3759339297
 20
115.5021871857
 11
83.8230033715
 21
114.6056076617
  0
LINE
  5
240
100
AcDbEntity
  8
0
100
AcDbLine
 62
7
  6
CONTINUOUS
 10
113.5200195134
 20
163.0247355921
 11
111.8469887723
 21
162.7659162255
  0
LINE
  5
241
100
AcDbEntity
  8
0
100
AcDbLine
 62
7
  6
CONTINUOUS
 10
111.0705195724
 20
164.4389230491
 11
112.7435503135
 21
164.6977424157
  0
LINE
  5
242
100
AcDbEntity
  8
0
100
AcDbLine
 62
7
  6
CONTINUOUS
 10
111.8469887723
 20
162.7659162255
 11
110.6222388019
 21
163.4730099541
  0
LINE
  5
243
100
AcDbEntity
  8
0
100
AcDbLine
 62
7
  6
CONTINUOUS
 10
112.7435503135
 20
164.6977424157
 11
113.968300284
 21
163.9906486871
  0
LINE
  5
244
100
AcDbEntity
  8
0
100
AcDbLine
 62
7
  6
CONTINUOUS
 10
167.5649138846
 20
134.2932321664
 11
165.4435847092
 21
135.51795443
  0
LINE
  5
245
100
AcDbEntity
  8
0
100
AcDbLine
 62
7
  6
CONTINUOUS
 10
136.6549611129
 20
179.1429634819
 11
136.6549611129
 21
163.5701686794
  0
LINE
  5
246
100
AcDbEntity
  8
0
100
AcDbLine
 62
7
  6
CONTINUOUS
 10
139.4126425263
 20
161.9780565914
 11
139.4126419375
 21
184.0488831689
  0
LINE
  5
247
100
AcDbEntity
  8
0
100
AcDbLine
 62
7
  6
CONTINUOUS
 10
127.9669172136
 20
168.5860996879
 11
159.1492872329
 21
150.5833572397
  0
LINE
  5
248
100
AcDbEntity
  8
0
100
AcDbLine
 62
7
  6
CONTINUOUS
 10
170.4434998741
 20
144.1782574468
 11
159.8368539968
 21
150.3018687646
  0
LINE
  5
249
100
AcDbEntity
  8
0
100
AcDbLine
 62
7
  6
CONTINUOUS
 10
83.2686214033
 20
87.0828485799
 11
96.40178873
 21
94.6652410105
  0
LINE
  5
24A
100
AcDbEntity
  8
0
100
AcDbLine
 62
7
  6
CONTINUOUS
 10
136.6549611129
 20
179.1429634819
 11
126.7554544005
 21
184.8584215888
  0
LINE
  5
24B
100
AcDbEntity
  8
0
100
AcDbLine
 62
7
  6
CONTINUOUS
 10
135.8770939006
 20
190.1247711738
 11
139.4126425263
 21
184.0010553155
  0
LINE
  5
24C
100
AcDbEntity
  8
0
100
AcDbLine
 62
7
  6
CONTINUOUS
 10
139.4126419375
 20
184.0488831689
 11
135.9185148405
 21
190.1008552332
  0
LINE
  5
24D
100
AcDbEntity
  8
0
100
AcDbLine
 62
7
  6
CONTINUOUS
 10
135.9185148405
 20
190.1008552332
 11
86.3794131403
 21
218.7016239902
  0
LINE
  5
24E
100
AcDbEntity
  8
0
100
AcDbLine
 62
7
  6
CONTINUOUS
 10
165.5608508717
 20
112.7475290914
 11
165.2220941838
 21
112.5519489939
  0
LINE
  5
24F
100
AcDbEntity
  8
0
100
AcDbLine
 62
7
  6
CONTINUOUS
 10
166.1007667618
 20
112.0446586209
 11
167.0608441564
 21
112.5989562544
  0
LWPOLYLINE
  5
250
100
AcDbEntity
  8
0
100
AcDbPolyline
 62
7
  6
CONTINUOUS
 90
5
 70
0
 10
171.7900220785
 20
109.8686258764
 10
173.4626159494
 20
116.1675439621
 10
173.4532334017
 20
124.6434746347
 10
170.9423828073
 20
131.1575936379
 10
167.5641767481
 20
134.2919552311
  0
LWPOLYLINE
  5
251
100
AcDbEntity
  8
0
100
AcDbPolyline
 62
7
  6
CONTINUOUS
 90
3
 70
0
 10
174.9158193862
 20
108.0639867857
 10
177.3342291782
 20
114.9361339935
 10
178.7279927031
 20
125.8668115342
  0
LWPOLYLINE
  5
252
100
AcDbEntity
  8
0
100
AcDbPolyline
 62
7
  6
CONTINUOUS
 90
3
 70
0
 10
152.56516839
 20
83.8172506019
 10
159.82421464
 20
89.4870462608
 10
161.5194482047
 20
91.5957441284
  0
LINE
  5
253
100
AcDbEntity
  8
0
100
AcDbLine
 62
7
  6
CONTINUOUS
 10
182.6172581096
 20
103.6176596549
 11
181.6571807151
 21
103.0633620215
  0
LINE
  5
254
100
AcDbEntity
  8
0
100
AcDbLine
 62
7
  6
CONTINUOUS
 10
178.7282282205
 20
97.1266268007
 11
179.1110970113
 21
97.3221090029
  0
ARC
  5
255
100
AcDbEntity
  8
0
100
AcDbCircle
 62
7
  6
CONTINUOUS
 10
43.8477680974
 20
133.874261172
 40
9.2490513529
100
AcDbArc
 50
50.2146674523
 51
51.5816677903
  0
ARC
  5
256
100
AcDbEntity
  8
0
100
AcDbCircle
 62
7
  6
CONTINUOUS
 10
52.9739513194
 20
136.6757035534
 40
6.1740253811
100
AcDbArc
 50
238.2579948574
 51
242.4944698654
  0
ARC
  5
257
100
AcDbEntity
  8
0
100
AcDbCircle
 62
7
  6
CONTINUOUS
 10
47.1843950873
 20
136.446064501
 40
4.9906948918
100
AcDbArc
 50
59.9842561389
 51
62.5425154245
  0
ARC
  5
258
100
AcDbEntity
  8
0
100
AcDbCircle
 62
7
  6
CONTINUOUS
 10
51.9548955413
 20
135.6775413626
 40
4.5067196179
100
AcDbArc
 50
242.5341078685
 51
247.3390595581
  0
ARC
  5
259
100
AcDbEntity
  8
0
100
AcDbCircle
 62
7
  6
CONTINUOUS
 10
53.8415111709
 20
134.1380136451
 40
3.6879785042
100
AcDbArc
 50
263.2771339473
 51
265.1772271901
  0
ARC
  5
25A
100
AcDbEntity
  8
0
100
AcDbCircle
 62
7
  6
CONTINUOUS
 10
52.2193649225
 20
133.5129719488
 40
2.837339902
100
AcDbArc
 50
297.940801536
 51
299.9996381237
  0
ARC
  5
25B
100
AcDbEntity
  8
0
100
AcDbCircle
 62
7
  6
CONTINUOUS
 10
48.5565633088
 20
139.8571662254
 40
2.8370258811
100
AcDbArc
 50
120.0000446483
 51
121.9868888392
  0
ARC
  5
25C
100
AcDbEntity
  8
0
100
AcDbCircle
 62
7
  6
CONTINUOUS
 10
82.5727392434
 20
118.1960627159
 40
2.213742889
100
AcDbArc
 50
113.6458724114
 51
119.9911572322
  0
ARC
  5
25D
100
AcDbEntity
  8
0
100
AcDbCircle
 62
7
  6
CONTINUOUS
 10
109.0088711859
 20
163.9853232761
 40
2.2136016146
100
AcDbArc
 50
180.0095680545
 51
186.365750807
  0
ARC
  5
25E
100
AcDbEntity
  8
0
100
AcDbCircle
 62
7
  6
CONTINUOUS
 10
86.2107796282
 20
111.8933051254
 40
1.5088888575
100
AcDbArc
 50
300.040036386
 51
309.1682582862
  0
ARC
  5
25F
100
AcDbEntity
  8
0
100
AcDbCircle
 62
7
  6
CONTINUOUS
 10
116.2864806493
 20
163.9860371341
 40
1.5087891701
100
AcDbArc
 50
350.834762446
 51
359.9598543157
  0
ARC
  5
260
100
AcDbEntity
  8
0
100
AcDbCircle
 62
7
  6
CONTINUOUS
 10
177.7908335551
 20
96.166688493
 40
1.1062611316
100
AcDbArc
 50
47.154924062
 51
50.4507898147
  0
SPLINE
  5
261
100
AcDbEntity
  8
0
100
AcDbSpline
 62
7
  6
CONTINUOUS
 70
0
 71
3
 72
11
 73
7
 74
0
 42
0.0000001
 43
0.0000001
 44
0.0000000001
 40
0.0
 40
0.0
 40
0.0
 40
0.0
 40
0.2177470838
 40
0.450887992
 40
0.7104637237
 40
1.0
 40
1.0
 40
1.0
 40
1.0
 10
165.5609224503
 20
112.7474051145
 30
0.0
 10
165.6598617914
 20
112.804527459
 30
0.0
 10
165.8871197024
 20
112.8872866202
 30
0.0
 10
166.2649179068
 20
112.8967568242
 30
0.0
 10
166.6673508414
 20
112.7993491665
 30
0.0
 10
166.9292848677
 20
112.6749103268
 30
0.0
 10
167.0608441564
 20
112.5989562544
 30
0.0
  0
SPLINE
  5
262
100
AcDbEntity
  8
0
100
AcDbSpline
 62
7
  6
CONTINUOUS
 70
0
 71
3
 72
11
 73
7
 74
0
 42
0.0000001
 43
0.0000001
 44
0.0000000001
 40
0.0
 40
0.0
 40
0.0
 40
0.0
 40
0.2897728319
 40
0.5490651401
 40
0.7822238182
 40
1.0
 40
1.0
 40
1.0
 40
1.0
 10
185.0921568675
 20
97.6980974917
 30
0.0
 10
185.0921568675
 20
98.2049063955
 30
0.0
 10
185.0155352529
 20
99.1685113176
 30
0.0
 10
184.6250210412
 20
100.4923871193
 30
0.0
 10
183.9681518437
 20
101.5666717736
 30
0.0
 10
183.3508705858
 20
102.085477879
 30
0.0
 10
183.0210103021
 20
102.2759185117
 30
0.0
  0
SPLINE
  5
263
100
AcDbEntity
  8
0
100
AcDbSpline
 62
7
  6
CONTINUOUS
 70
0
 71
3
 72
16
 73
12
 74
0
 42
0.0000001
 43
0.0000001
 44
0.0000000001
 40
0.0
 40
0.0
 40
0.0
 40
0.0
 40
0.0428754974
 40
0.0875229036
 40
0.1869229067
 40
0.3042341567
 40
0.43795482
 40
0.5823566599
 40
0.7295682564
 40
0.8712589284
 40
1.0
 40
1.0
 40
1.0
 40
1.0
 10
166.6938390181
 20
137.6829898214
 30
0.0
 10
166.6322086376
 20
137.7185698415
 30
0.0
 10
166.5152972251
 20
137.8078882253
 30
0.0
 10
166.321282066
 20
138.0534682426
 30
0.0
 10
166.1765584849
 20
138.4746570295
 30
0.0
 10
166.1637074933
 20
139.0618713568
 30
0.0
 10
166.2953332416
 20
139.7094630033
 30
0.0
 10
166.5612564933
 20
140.3671540127
 30
0.0
 10
166.9396274699
 20
140.9828255112
 30
0.0
 10
167.3994739785
 20
141.5058955217
 30
0.0
 10
167.7587132242
 20
141.7823927807
 30
0.0
 10
167.943766355
 20
141.8892326178
 30
0.0
  0
SPLINE
  5
264
100
AcDbEntity
  8
0
100
AcDbSpline
 62
7
  6
CONTINUOUS
 70
0
 71
3
 72
11
 73
7
 74
0
 42
0.0000001
 43
0.0000001
 44
0.0000000001
 40
0.0
 40
0.0
 40
0.0
 40
0.0
 40
0.2177231375
 40
0.4508717887
 40
0.7104673698
 40
1.0
 40
1.0
 40
1.0
 40
1.0
 10
131.6939877427
 20
117.4759408406
 30
0.0
 10
131.6115431035
 20
117.5235349705
 30
0.0
 10
131.4571557559
 20
117.6530920765
 30
0.0
 10
131.2928642025
 20
117.921777395
 30
0.0
 10
131.1954849508
 20
118.2528221801
 30
0.0
 10
131.1761524812
 20
118.4937176654
 30
0.0
 10
131.1761524812
 20
118.6203115195
 30
0.0
  0
SPLINE
  5
265
100
AcDbEntity
  8
0
100
AcDbSpline
 62
7
  6
CONTINUOUS
 70
0
 71
3
 72
11
 73
7
 74
0
 42
0.0000001
 43
0.0000001
 44
0.0000000001
 40
0.0
 40
0.0
 40
0.0
 40
0.0
 40
0.2802140296
 40
0.5363672079
 40
0.7735043841
 40
1.0
 40
1.0
 40
1.0
 40
1.0
 10
162.0052731504
 20
114.5201606737
 30
0.0
 10
161.9368247795
 20
114.9867388897
 30
0.0
 10
161.7372918337
 20
115.8724943743
 30
0.0
 10
161.2099896924
 20
117.0729997019
 30
0.0
 10
160.4762441672
 20
118.0516871234
 30
0.0
 10
159.8522705866
 20
118.5388694511
 30
0.0
 10
159.5221472558
 20
118.7294181465
 30
0.0
  0
SPLINE
  5
266
100
AcDbEntity
  8
0
100
AcDbSpline
 62
7
  6
CONTINUOUS
 70
0
 71
3
 72
16
 73
12
 74
0
 42
0.0000001
 43
0.0000001
 44
0.0000000001
 40
0.0
 40
0.0
 40
0.0
 40
0.0
 40
0.0428754974
 40
0.0875229036
 40
0.1869229067
 40
0.3042341567
 40
0.43795482
 40
0.5823566599
 40
0.7295682564
 40
0.8712589284
 40
1.0
 40
1.0
 40
1.0
 40
1.0
 10
131.6939847373
 20
77.0611274301
 30
0.0
 10
131.6323543569
 20
77.0967074502
 30
0.0
 10
131.5154429444
 20
77.186025834
 30
0.0
 10
131.3214277852
 20
77.4316058513
 30
0.0
 10
131.1767042042
 20
77.8527946382
 30
0.0
 10
131.1638532126
 20
78.4400089655
 30
0.0
 10
131.2954789609
 20
79.087600612
 30
0.0
 10
131.5614022125
 20
79.7452916214
 30
0.0
 10
131.9397731891
 20
80.3609631199
 30
0.0
 10
132.3996196977
 20
80.8840331304
 30
0.0
 10
132.7588589434
 20
81.1605303894
 30
0.0
 10
132.9439120742
 20
81.2673702265
 30
0.0
  0
SPLINE
  5
267
100
AcDbEntity
  8
0
100
AcDbSpline
 62
7
  6
CONTINUOUS
 70
0
 71
3
 72
14
 73
10
 74
0
 42
0.0000001
 43
0.0000001
 44
0.0000000001
 40
0.0
 40
0.0
 40
0.0
 40
0.0
 40
0.2892804681
 40
0.4225398028
 40
0.54849452
 40
0.6678943187
 40
0.781867295
 40
0.8919508864
 40
1.0
 40
1.0
 40
1.0
 40
1.0
 10
178.7279927031
 20
125.8668115342
 30
0.0
 10
178.7279927031
 20
127.89430932
 30
0.0
 10
178.4912736522
 20
130.8703424429
 30
0.0
 10
177.5764037489
 20
134.6109280909
 30
0.0
 10
176.645465183
 20
137.1034247659
 30
0.0
 10
175.4592418253
 20
139.3340243449
 30
0.0
 10
174.0263004209
 20
141.28008177
 30
0.0
 10
172.3601920639
 20
142.9196726718
 30
0.0
 10
171.0993272046
 20
143.7996027833
 30
0.0
 10
170.4434909073
 20
144.1782419133
 30
0.0
  0
SPLINE
  5
268
100
AcDbEntity
  8
0
100
AcDbSpline
 62
7
  6
CONTINUOUS
 70
0
 71
3
 72
11
 73
7
 74
0
 42
0.0000001
 43
0.0000001
 44
0.0000000001
 40
0.0
 40
0.0
 40
0.0
 40
0.0
 40
0.2895448512
 40
0.5491358493
 40
0.7822770651
 40
1.0
 40
1.0
 40
1.0
 40
1.0
 10
132.9439120742
 20
81.2673702265
 30
0.0
 10
133.0535462664
 20
81.330667179
 30
0.0
 10
133.271828808
 20
81.4343715246
 30
0.0
 10
133.6072002017
 20
81.5155517679
 30
0.0
 10
133.9220176333
 20
81.5076166939
 30
0.0
 10
134.1113988927
 20
81.4386949206
 30
0.0
 10
134.1938394111
 20
81.3911009372
 30
0.0
  0
SPLINE
  5
269
100
AcDbEntity
  8
0
100
AcDbSpline
 62
7
  6
CONTINUOUS
 70
0
 71
3
 72
16
 73
12
 74
0
 42
0.0000001
 43
0.0000001
 44
0.0000000001
 40
0.0
 40
0.0
 40
0.0
 40
0.0
 40
0.1287410646
 40
0.2704217334
 40
0.4176260079
 40
0.5620272452
 40
0.6957527047
 40
0.8130676178
 40
0.9124709781
 40
0.9571206991
 40
1.0
 40
1.0
 40
1.0
 40
1.0
 10
131.1761524812
 20
118.6203115195
 30
0.0
 10
131.1761524812
 20
118.8339899595
 30
0.0
 10
131.2359795049
 20
119.2833280257
 30
0.0
 10
131.4590279031
 20
119.9430697513
 30
0.0
 10
131.8029872807
 20
120.578564512
 30
0.0
 10
132.2395793252
 20
121.1377089773
 30
0.0
 10
132.7345858571
 20
121.5755185086
 30
0.0
 10
133.2495549767
 20
121.8580219086
 30
0.0
 10
133.6866847044
 20
121.9433042336
 30
0.0
 10
133.9963852987
 20
121.8980763932
 30
0.0
 10
134.1322004641
 20
121.8414845295
 30
0.0
 10
134.1938364057
 20
121.8059029679
 30
0.0
  0
SPLINE
  5
26A
100
AcDbEntity
  8
0
100
AcDbSpline
 62
7
  6
CONTINUOUS
 70
0
 71
3
 72
11
 73
7
 74
0
 42
0.0000001
 43
0.0000001
 44
0.0000000001
 40
0.0
 40
0.0
 40
0.0
 40
0.0
 40
0.2895448512
 40
0.5491358493
 40
0.7822770651
 40
1.0
 40
1.0
 40
1.0
 40
1.0
 10
167.943766355
 20
141.8892326178
 30
0.0
 10
168.0534005472
 20
141.9525295703
 30
0.0
 10
168.2716830888
 20
142.0562339159
 30
0.0
 10
168.6070544825
 20
142.1374141592
 30
0.0
 10
168.9218719141
 20
142.1294790852
 30
0.0
 10
169.1112531735
 20
142.0605573119
 30
0.0
 10
169.1936936919
 20
142.0129633285
 30
0.0
  0
SPLINE
  5
26B
100
AcDbEntity
  8
0
100
AcDbSpline
 62
7
  6
CONTINUOUS
 70
0
 71
3
 72
23
 73
19
 74
0
 42
0.0000001
 43
0.0000001
 44
0.0000000001
 40
0.0
 40
0.0
 40
0.0
 40
0.0
 40
0.0623923602
 40
0.1287434878
 40
0.198346576
 40
0.270334366
 40
0.3437235041
 40
0.4174679223
 40
0.4905046351
 40
0.5618029658
 40
0.6304113113
 40
0.6955092481
 40
0.7564664775
 40
0.8129127178
 40
0.8648215556
 40
0.912604069
 40
0.9571857479
 40
1.0
 40
1.0
 40
1.0
 40
1.0
 10
111.5530398488
 20
99.3308905423
 30
0.0
 10
111.5530398488
 20
100.9903078451
 30
0.0
 10
111.7778705116
 20
104.4167151828
 30
0.0
 10
112.7029027876
 20
109.619234163
 30
0.0
 10
114.2069498644
 20
114.9501393438
 30
0.0
 10
116.2576551321
 20
120.2954169463
 30
0.0
 10
118.8115312801
 20
125.5417959788
 30
0.0
 10
121.81402015
 20
130.5773459288
 30
0.0
 10
125.2011134988
 20
135.2946292352
 30
0.0
 10
128.9006195136
 20
139.5930998446
 30
0.0
 10
132.8340552279
 20
143.3813783095
 30
0.0
 10
136.9186379619
 20
146.5791708742
 30
0.0
 10
141.0695596538
 20
149.118723638
 30
0.0
 10
145.2025102941
 20
150.9453455721
 30
0.0
 10
149.2352259366
 20
152.0168474883
 30
0.0
 10
153.0885236074
 20
152.300537658
 30
0.0
 10
156.6768754649
 20
151.7746832092
 30
0.0
 10
158.8506891351
 20
150.871198114
 30
0.0
 10
159.8368452128
 20
150.3018535496
 30
0.0
  0
SPLINE
  5
26C
100
AcDbEntity
  8
0
100
AcDbSpline
 62
7
  6
CONTINUOUS
 70
0
 71
3
 72
11
 73
7
 74
0
 42
0.0000001
 43
0.0000001
 44
0.0000000001
 40
0.0
 40
0.0
 40
0.0
 40
0.0
 40
0.2271297438
 40
0.4657403813
 40
0.7223677355
 40
1.0
 40
1.0
 40
1.0
 40
1.0
 10
106.8089178123
 20
163.7398904705
 30
0.0
 10
106.8322201759
 20
163.5308305616
 30
0.0
 10
106.9419573017
 20
163.1069923581
 30
0.0
 10
107.2785762694
 20
162.5209247344
 30
0.0
 10
107.7747383852
 20
161.9971336164
 30
0.0
 10
108.1835185644
 20
161.7123008837
 30
0.0
 10
108.4061984382
 20
161.5837395071
 30
0.0
  0
SPLINE
  5
26D
100
AcDbEntity
  8
0
100
AcDbSpline
 62
7
  6
CONTINUOUS
 70
0
 71
3
 72
11
 73
7
 74
0
 42
0.0000001
 43
0.0000001
 44
0.0000000001
 40
0.0
 40
0.0
 40
0.0
 40
0.0
 40
0.2080220267
 40
0.4395732042
 40
0.7030909799
 40
1.0
 40
1.0
 40
1.0
 40
1.0
 10
87.1637936622
 20
110.7234718744
 30
0.0
 10
87.2990231484
 20
110.8335456857
 30
0.0
 10
87.5453357448
 20
111.1168944067
 30
0.0
 10
87.795295958
 20
111.6566447807
 30
0.0
 10
87.9422919123
 20
112.3077902944
 30
0.0
 10
87.9709299264
 20
112.7784972898
 30
0.0
 10
87.9709299264
 20
113.0273681964
 30
0.0
  0
SPLINE
  5
26E
100
AcDbEntity
  8
0
100
AcDbSpline
 62
7
  6
CONTINUOUS
 70
0
 71
3
 72
9
 73
5
 74
0
 42
0.0000001
 43
0.0000001
 44
0.0000000001
 40
0.0
 40
0.0
 40
0.0
 40
0.0
 40
0.2418485666
 40
1.0
 40
1.0
 40
1.0
 40
1.0
 10
48.6202743108
 20
141.7880858231
 30
0.0
 10
48.702792049
 20
141.7404452625
 30
0.0
 10
49.0399493947
 20
141.5364995797
 30
0.0
 10
49.3610768423
 20
141.3064358398
 30
0.0
 10
49.5951147069
 20
141.1208436686
 30
0.0
  0
SPLINE
  5
26F
100
AcDbEntity
  8
0
100
AcDbSpline
 62
7
  6
CONTINUOUS
 70
0
 71
3
 72
14
 73
10
 74
0
 42
0.0000001
 43
0.0000001
 44
0.0000000001
 40
0.0
 40
0.0
 40
0.0
 40
0.0
 40
0.1272797335
 40
0.2609943288
 40
0.5327978469
 40
0.6638012583
 40
0.786804403
 40
0.899285505
 40
1.0
 40
1.0
 40
1.0
 40
1.0
 10
49.7663563098
 20
140.9816702992
 30
0.0
 10
50.1338114749
 20
140.6757192874
 30
0.0
 10
50.8406382397
 20
139.9905821812
 30
0.0
 10
52.09005536
 20
138.4226815495
 30
0.0
 10
53.0610836912
 20
136.6298601343
 30
0.0
 10
53.672035806
 20
134.7471059437
 30
0.0
 10
53.9174103344
 20
133.3870823473
 30
0.0
 10
53.9452475506
 20
132.1188810962
 30
0.0
 10
53.8078869371
 20
131.321992667
 30
0.0
 10
53.6963332906
 20
130.9604573754
 30
0.0
  0
SPLINE
  5
270
100
AcDbEntity
  8
0
100
AcDbSpline
 62
7
  6
CONTINUOUS
 70
0
 71
3
 72
10
 73
6
 74
0
 42
0.0000001
 43
0.0000001
 44
0.0000000001
 40
0.0
 40
0.0
 40
0.0
 40
0.0
 40
0.5238191328
 40
0.7653307218
 40
1.0
 40
1.0
 40
1.0
 40
1.0
 10
53.6963332906
 20
130.9604573754
 30
0.0
 10
53.5792138849
 20
130.5808839608
 30
0.0
 10
53.3274338578
 20
130.041108743
 30
0.0
 10
52.8184966134
 20
129.473255875
 30
0.0
 10
52.5243361995
 20
129.2581623201
 30
0.0
 10
52.3702351508
 20
129.1691562391
 30
0.0
  0
SPLINE
  5
271
100
AcDbEntity
  8
0
100
AcDbSpline
 62
7
  6
CONTINUOUS
 70
0
 71
3
 72
9
 73
5
 74
0
 42
0.0000001
 43
0.0000001
 44
0.0000000001
 40
0.0
 40
0.0
 40
0.0
 40
0.0
 40
0.2577035755
 40
1.0
 40
1.0
 40
1.0
 40
1.0
 10
50.1225750953
 20
131.1995513427
 30
0.0
 10
50.2233365431
 20
131.1472303699
 30
0.0
 10
50.620079733
 20
130.9557759527
 30
0.0
 10
51.0416681059
 20
130.8133232331
 30
0.0
 10
51.3617086405
 20
130.7460659925
 30
0.0
  0
SPLINE
  5
272
100
AcDbEntity
  8
0
100
AcDbSpline
 62
7
  6
CONTINUOUS
 70
0
 71
3
 72
9
 73
5
 74
0
 42
0.0000001
 43
0.0000001
 44
0.0000000001
 40
0.0
 40
0.0
 40
0.0
 40
0.0
 40
0.5077383345
 40
1.0
 40
1.0
 40
1.0
 40
1.0
 10
51.3617086405
 20
130.7460659925
 30
0.0
 10
51.7321833848
 20
130.6682098889
 30
0.0
 10
52.4900328959
 20
130.6156404339
 30
0.0
 10
53.2245821205
 20
130.8344000758
 30
0.0
 10
53.5488261938
 20
131.0063745644
 30
0.0
  0
SPLINE
  5
273
100
AcDbEntity
  8
0
100
AcDbSpline
 62
7
  6
CONTINUOUS
 70
0
 71
3
 72
17
 73
13
 74
0
 42
0.0000001
 43
0.0000001
 44
0.0000000001
 40
0.0
 40
0.0
 40
0.0
 40
0.0
 40
0.0517922303
 40
0.1039975644
 40
0.1574625084
 40
0.2126558473
 40
0.3303073006
 40
0.4590388859
 40
0.5961675969
 40
0.7361356582
 40
0.872468373
 40
1.0
 40
1.0
 40
1.0
 40
1.0
 10
47.0537192376
 20
142.2634445858
 30
0.0
 10
46.866819095
 20
142.1467160716
 30
0.0
 10
46.5177507893
 20
141.8671811577
 30
0.0
 10
46.099480182
 20
141.337565712
 30
0.0
 10
45.7902084013
 20
140.7222081059
 30
0.0
 10
45.5181826718
 20
139.7941094438
 30
0.0
 10
45.4529660583
 20
138.4952732195
 30
0.0
 10
45.745731643
 20
136.8796485054
 30
0.0
 10
46.3655486799
 20
135.2584131581
 30
0.0
 10
47.2650248218
 20
133.7370870383
 30
0.0
 10
48.381082464
 20
132.4201026404
 30
0.0
 10
49.2642829751
 20
131.7104494322
 30
0.0
 10
49.7258258111
 20
131.4251540499
 30
0.0
  0
SPLINE
  5
274
100
AcDbEntity
  8
0
100
AcDbSpline
 62
7
  6
CONTINUOUS
 70
0
 71
3
 72
10
 73
6
 74
0
 42
0.0000001
 43
0.0000001
 44
0.0000000001
 40
0.0
 40
0.0
 40
0.0
 40
0.0
 40
0.2348452064
 40
0.4764658941
 40
1.0
 40
1.0
 40
1.0
 40
1.0
 10
44.8703134707
 20
142.15947915
 30
0.0
 10
45.0234369041
 20
142.2479205774
 30
0.0
 10
45.35455338
 20
142.3942596964
 30
0.0
 10
46.0951109231
 20
142.5515164804
 30
0.0
 10
46.6841722348
 20
142.5020839941
 30
0.0
 10
47.068837535
 20
142.4159026008
 30
0.0
  0
SPLINE
  5
275
100
AcDbEntity
  8
0
100
AcDbSpline
 62
7
  6
CONTINUOUS
 70
0
 71
3
 72
9
 73
5
 74
0
 42
0.0000001
 43
0.0000001
 44
0.0000000001
 40
0.0
 40
0.0
 40
0.0
 40
0.0
 40
0.2349928014
 40
1.0
 40
1.0
 40
1.0
 40
1.0
 10
47.068837535
 20
142.4159026008
 30
0.0
 10
47.1970492369
 20
142.3871777246
 30
0.0
 10
47.7370151897
 20
142.2399095621
 30
0.0
 10
48.2498438411
 20
142.0019491162
 30
0.0
 10
48.6202743108
 20
141.7880858231
 30
0.0
  0
SPLINE
  5
276
100
AcDbEntity
  8
0
100
AcDbSpline
 62
7
  6
CONTINUOUS
 70
0
 71
3
 72
14
 73
10
 74
0
 42
0.0000001
 43
0.0000001
 44
0.0000000001
 40
0.0
 40
0.0
 40
0.0
 40
0.0
 40
0.1080477705
 40
0.218130241
 40
0.3321023458
 40
0.4515016681
 40
0.5774560002
 40
0.7107159611
 40
1.0
 40
1.0
 40
1.0
 40
1.0
 10
119.837541462
 20
81.0194598447
 30
0.0
 10
119.1817131333
 20
81.3980939195
 30
0.0
 10
117.9208604771
 20
82.2780111867
 30
0.0
 10
116.2547682171
 20
83.9175845526
 30
0.0
 10
114.8218265415
 20
85.8636198488
 30
0.0
 10
113.6356024126
 20
88.0942054173
 30
0.0
 10
112.7046532936
 20
90.5866960899
 30
0.0
 10
111.7897625958
 20
94.3273044324
 30
0.0
 10
111.5530398488
 20
97.3033677712
 30
0.0
 10
111.5530398488
 20
99.3308905423
 30
0.0
  0
SPLINE
  5
277
100
AcDbEntity
  8
0
100
AcDbSpline
 62
7
  6
CONTINUOUS
 70
0
 71
3
 72
14
 73
10
 74
0
 42
0.0000001
 43
0.0000001
 44
0.0000000001
 40
0.0
 40
0.0
 40
0.0
 40
0.0
 40
0.1080468436
 40
0.2181294933
 40
0.3321038309
 40
0.4515026457
 40
0.5774506905
 40
0.7107177731
 40
1.0
 40
1.0
 40
1.0
 40
1.0
 10
137.5654738281
 20
82.3315024357
 30
0.0
 10
138.0573202771
 20
82.0475396708
 30
0.0
 10
139.1015397534
 20
81.5584103904
 30
0.0
 10
140.7912650793
 20
81.0912967088
 30
0.0
 10
142.5925271005
 20
80.8903454888
 30
0.0
 10
144.4860752609
 20
80.9562708429
 30
0.0
 10
146.4540187359
 20
81.2863004241
 30
0.0
 10
149.2265936772
 20
82.094711858
 30
0.0
 10
151.2483133301
 20
83.0569685168
 30
0.0
 10
152.56516839
 20
83.8172506019
 30
0.0
  0
SPLINE
  5
278
100
AcDbEntity
  8
0
100
AcDbSpline
 62
7
  6
CONTINUOUS
 70
0
 71
3
 72
11
 73
7
 74
0
 42
0.0000001
 43
0.0000001
 44
0.0000000001
 40
0.0
 40
0.0
 40
0.0
 40
0.0
 40
0.2260955195
 40
0.4630404268
 40
0.7192649069
 40
1.0
 40
1.0
 40
1.0
 40
1.0
 10
147.0224089745
 20
97.078746576
 30
0.0
 10
147.3560608989
 20
96.8861611603
 30
0.0
 10
148.0987552261
 20
96.5868917591
 30
0.0
 10
149.3283267344
 20
96.4443872046
 30
0.0
 10
150.6478130617
 20
96.5973790086
 30
0.0
 10
151.5246768554
 20
96.8769711084
 30
0.0
 10
151.9680070913
 20
97.0566132752
 30
0.0
  0
SPLINE
  5
279
100
AcDbEntity
  8
0
100
AcDbSpline
 62
7
  6
CONTINUOUS
 70
0
 71
3
 72
11
 73
7
 74
0
 42
0.0000001
 43
0.0000001
 44
0.0000000001
 40
0.0
 40
0.0
 40
0.0
 40
0.0
 40
0.2177775995
 40
0.4509368668
 40
0.7102286427
 40
1.0
 40
1.0
 40
1.0
 40
1.0
 10
173.0212266885
 20
84.9553933944
 30
0.0
 10
173.3510760521
 20
84.7649590664
 30
0.0
 10
174.1089920028
 20
84.4898012503
 30
0.0
 10
175.3677364826
 20
84.4580846139
 30
0.0
 10
176.7094478724
 20
84.7818135196
 30
0.0
 10
177.5822280756
 20
85.1972397923
 30
0.0
 10
178.0211184953
 20
85.4506317817
 30
0.0
  0
SPLINE
  5
27A
100
AcDbEntity
  8
0
100
AcDbSpline
 62
7
  6
CONTINUOUS
 70
0
 71
3
 72
13
 73
9
 74
0
 42
0.0000001
 43
0.0000001
 44
0.0000000001
 40
0.0
 40
0.0
 40
0.0
 40
0.0
 40
0.1142559425
 40
0.2375361126
 40
0.4999907169
 40
0.762448973
 40
0.8857510285
 40
1.0
 40
1.0
 40
1.0
 40
1.0
 10
178.7283381908
 20
85.858980634
 30
0.0
 10
179.1639882543
 20
86.1105158277
 30
0.0
 10
180.0245867459
 20
86.713712051
 30
0.0
 10
181.6355724849
 20
88.2217205178
 30
0.0
 10
183.337422195
 20
90.5461996318
 30
0.0
 10
184.4996669381
 20
93.1823661282
 30
0.0
 10
185.0000342769
 20
95.3316327434
 30
0.0
 10
185.0921627554
 20
96.3785916564
 30
0.0
 10
185.0921627554
 20
96.8816125834
 30
0.0
  0
SPLINE
  5
27B
100
AcDbEntity
  8
0
100
AcDbSpline
 62
7
  6
CONTINUOUS
 70
0
 71
3
 72
12
 73
8
 74
0
 42
0.0000001
 43
0.0000001
 44
0.0000000001
 40
0.0
 40
0.0
 40
0.0
 40
0.0
 40
0.1098336238
 40
0.2304805051
 40
0.4927830123
 40
0.7592832705
 40
1.0
 40
1.0
 40
1.0
 40
1.0
 10
175.35586684
 20
90.8181360166
 30
0.0
 10
175.3274997897
 20
91.0900339362
 30
0.0
 10
175.3290524425
 20
91.667649723
 30
0.0
 10
175.5328108479
 20
92.8808616552
 30
0.0
 10
176.1346761905
 20
94.4027323651
 30
0.0
 10
177.2358520698
 20
95.9866951056
 30
0.0
 10
178.2093577703
 20
96.8270585948
 30
0.0
 10
178.7282282205
 20
97.1266268007
 30
0.0
  0
SPLINE
  5
27C
100
AcDbEntity
  8
0
100
AcDbSpline
 62
7
  6
CONTINUOUS
 70
0
 71
3
 72
9
 73
5
 74
0
 42
0.0000001
 43
0.0000001
 44
0.0000000001
 40
0.0
 40
0.0
 40
0.0
 40
0.0
 40
0.2337064292
 40
1.0
 40
1.0
 40
1.0
 40
1.0
 10
182.6172581096
 20
103.6176596549
 30
0.0
 10
182.6984380502
 20
103.5707914547
 30
0.0
 10
183.035632931
 20
103.3527587594
 30
0.0
 10
183.3326870668
 20
103.0758054364
 30
0.0
 10
183.5361386658
 20
102.8454264203
 30
0.0
  0
SPLINE
  5
27D
100
AcDbEntity
  8
0
100
AcDbSpline
 62
7
  6
CONTINUOUS
 70
0
 71
3
 72
10
 73
6
 74
0
 42
0.0000001
 43
0.0000001
 44
0.0000000001
 40
0.0
 40
0.0
 40
0.0
 40
0.0
 40
0.5196906941
 40
0.7711159845
 40
1.0
 40
1.0
 40
1.0
 40
1.0
 10
183.5361386658
 20
102.8454264203
 30
0.0
 10
183.9024647145
 20
102.4306160421
 30
0.0
 10
184.3448038654
 20
101.7153784137
 30
0.0
 10
184.6735781357
 20
100.6994788238
 30
0.0
 10
184.7385872851
 20
100.1871648503
 30
0.0
 10
184.7385872851
 20
99.94343014
 30
0.0
  0
SPLINE
  5
27E
100
AcDbEntity
  8
0
100
AcDbSpline
 62
7
  6
CONTINUOUS
 70
0
 71
3
 72
16
 73
12
 74
0
 42
0.0000001
 43
0.0000001
 44
0.0000000001
 40
0.0
 40
0.0
 40
0.0
 40
0.0
 40
0.1269071913
 40
0.266600305
 40
0.4110384617
 40
0.5523019946
 40
0.6838817428
 40
0.8017886007
 40
0.905648514
 40
0.9536400561
 40
1.0
 40
1.0
 40
1.0
 40
1.0
 10
87.9709299264
 20
113.0273681964
 30
0.0
 10
87.9709299264
 20
113.4865243267
 30
0.0
 10
87.8643718455
 20
114.4518859197
 30
0.0
 10
87.4621684285
 20
115.8890734793
 30
0.0
 10
86.8244340118
 20
117.2969692447
 30
0.0
 10
85.979342941
 20
118.5575685958
 30
0.0
 10
84.9710307047
 20
119.5645488905
 30
0.0
 10
83.8621683004
 20
120.2312492686
 30
0.0
 10
82.8872304467
 20
120.4527736246
 30
0.0
 10
82.1678274424
 20
120.3929736514
 30
0.0
 10
81.8384888685
 20
120.2912336836
 30
0.0
 10
81.6848455634
 20
120.2239439727
 30
0.0
  0
SPLINE
  5
27F
100
AcDbEntity
  8
0
100
AcDbSpline
 62
7
  6
CONTINUOUS
 70
0
 71
3
 72
11
 73
7
 74
0
 42
0.0000001
 43
0.0000001
 44
0.0000000001
 40
0.0
 40
0.0
 40
0.0
 40
0.0
 40
0.2969047558
 40
0.5604146864
 40
0.7919761577
 40
1.0
 40
1.0
 40
1.0
 40
1.0
 10
116.1843730312
 20
161.8947563793
 30
0.0
 10
116.3998984351
 20
162.0191892865
 30
0.0
 10
116.7932249323
 20
162.279324102
 30
0.0
 10
117.2836193131
 20
162.7322127494
 30
0.0
 10
117.6260822409
 20
163.2185592271
 30
0.0
 10
117.7483040441
 20
163.5735620656
 30
0.0
 10
117.7760072383
 20
163.7457138096
 30
0.0
  0
SPLINE
  5
280
100
AcDbEntity
  8
0
100
AcDbSpline
 62
7
  6
CONTINUOUS
 70
0
 71
3
 72
12
 73
8
 74
0
 42
0.0000001
 43
0.0000001
 44
0.0000000001
 40
0.0
 40
0.0
 40
0.0
 40
0.0
 40
0.2351673961
 40
0.4961926556
 40
0.7603089266
 40
0.8850022201
 40
1.0
 40
1.0
 40
1.0
 40
1.0
 10
108.4061984382
 20
161.5837395071
 30
0.0
 10
108.9541985523
 20
161.2673586512
 30
0.0
 10
110.2488625352
 20
160.8369685909
 30
0.0
 10
112.3076332359
 20
160.733981658
 30
0.0
 10
114.0475665385
 20
161.0224843865
 30
0.0
 10
115.3330468286
 20
161.4595514942
 30
0.0
 10
115.9163999397
 20
161.7400429663
 30
0.0
 10
116.1843730312
 20
161.8947563793
 30
0.0
  0
SPLINE
  5
281
100
AcDbEntity
  8
0
100
AcDbSpline
 62
7
  6
CONTINUOUS
 70
0
 71
3
 72
9
 73
5
 74
0
 42
0.0000001
 43
0.0000001
 44
0.0000000001
 40
0.0
 40
0.0
 40
0.0
 40
0.0
 40
0.2379943407
 40
1.0
 40
1.0
 40
1.0
 40
1.0
 10
46.5601204057
 20
142.4936233741
 30
0.0
 10
46.5197857774
 20
142.4061976305
 30
0.0
 10
46.3649417438
 20
142.0321273546
 30
0.0
 10
46.2670773363
 20
141.6357296618
 30
0.0
 10
46.2186882024
 20
141.3312786403
 30
0.0
  0
SPLINE
  5
282
100
AcDbEntity
  8
0
100
AcDbSpline
 62
7
  6
CONTINUOUS
 70
0
 71
3
 72
17
 73
13
 74
0
 42
0.0000001
 43
0.0000001
 44
0.0000000001
 40
0.0
 40
0.0
 40
0.0
 40
0.0
 40
0.0391807462
 40
0.0807659327
 40
0.1265911113
 40
0.1776520692
 40
0.2959712069
 40
0.4326419951
 40
0.5798252245
 40
0.7285355243
 40
0.8706069434
 40
1.0
 40
1.0
 40
1.0
 40
1.0
 10
117.795269449
 20
163.9849799642
 30
0.0
 10
117.7952749663
 20
164.1264532224
 30
0.0
 10
117.7523679814
 20
164.4194868389
 30
0.0
 10
117.5663754715
 20
164.841831737
 30
0.0
 10
117.266819196
 20
165.2463343418
 30
0.0
 10
116.6991068817
 20
165.7814088425
 30
0.0
 10
115.741564408
 20
166.3557621215
 30
0.0
 10
114.3731645531
 20
166.8590532352
 30
0.0
 10
112.8332623383
 20
167.1580237527
 30
0.0
 10
111.2449100602
 20
167.2079979163
 30
0.0
 10
109.7359979462
 20
166.9799691893
 30
0.0
 10
108.8107828488
 20
166.6190088997
 30
0.0
 10
108.4061660546
 20
166.385404679
 30
0.0
  0
SPLINE
  5
283
100
AcDbEntity
  8
0
100
AcDbSpline
 62
7
  6
CONTINUOUS
 70
0
 71
3
 72
11
 73
7
 74
0
 42
0.0000001
 43
0.0000001
 44
0.0000000001
 40
0.0
 40
0.0
 40
0.0
 40
0.0
 40
0.2177818466
 40
0.4509271163
 40
0.7102618733
 40
1.0
 40
1.0
 40
1.0
 40
1.0
 10
52.3702351508
 20
129.1691562391
 30
0.0
 10
52.1228684403
 20
129.0262815368
 30
0.0
 10
51.5543844314
 20
128.8200475279
 30
0.0
 10
50.6103031865
 20
128.7961210255
 30
0.0
 10
49.6040267151
 20
129.03901879
 30
0.0
 10
48.949407269
 20
129.3505288629
 30
0.0
 10
48.6202743108
 20
129.5405495661
 30
0.0
  0
SPLINE
  5
284
100
AcDbEntity
  8
0
100
AcDbSpline
 62
7
  6
CONTINUOUS
 70
0
 71
3
 72
14
 73
10
 74
0
 42
0.0000001
 43
0.0000001
 44
0.0000000001
 40
0.0
 40
0.0
 40
0.0
 40
0.0
 40
0.1080477629
 40
0.2181302283
 40
0.3321023348
 40
0.4515016616
 40
0.5774559963
 40
0.7107159584
 40
1.0
 40
1.0
 40
1.0
 40
1.0
 10
88.0676029598
 20
99.4768967899
 30
0.0
 10
87.4134142416
 20
99.8545842417
 30
0.0
 10
86.1557137641
 20
100.7323016325
 30
0.0
 10
84.4937868284
 20
102.3677760484
 30
0.0
 10
83.0644274307
 20
104.3089462053
 30
0.0
 10
81.8811688289
 20
106.533955367
 30
0.0
 10
80.9525470339
 20
109.020214855
 30
0.0
 10
80.0399435454
 20
112.7514717213
 30
0.0
 10
79.8038126009
 20
115.7200949284
 30
0.0
 10
79.8038126009
 20
117.7425489111
 30
0.0
  0
SPLINE
  5
285
100
AcDbEntity
  8
0
100
AcDbSpline
 62
7
  6
CONTINUOUS
 70
0
 71
3
 72
18
 73
14
 74
0
 42
0.0000001
 43
0.0000001
 44
0.0000000001
 40
0.0
 40
0.0
 40
0.0
 40
0.0
 40
0.0430708055
 40
0.0885607334
 40
0.1375834315
 40
0.1907873296
 40
0.3099593412
 40
0.4441719023
 40
0.5152822062
 40
0.587842103
 40
0.7333042142
 40
0.8729289699
 40
1.0
 40
1.0
 40
1.0
 40
1.0
 10
117.779158971
 20
163.9742871691
 30
0.0
 10
117.7588904235
 20
164.1268530198
 30
0.0
 10
117.6777045946
 20
164.4363906695
 30
0.0
 10
117.4468276614
 20
164.8743982029
 30
0.0
 10
117.1123490773
 20
165.2865737357
 30
0.0
 10
116.5157148792
 20
165.8106630902
 30
0.0
 10
115.5452038982
 20
166.345219926
 30
0.0
 10
114.4293155199
 20
166.6836722052
 30
0.0
 10
113.4489203887
 20
166.8474831682
 30
0.0
 10
112.4181312608
 20
166.931161839
 30
0.0
 10
111.1348611391
 20
166.8782966241
 30
0.0
 10
109.6870820959
 20
166.5749215142
 30
0.0
 10
108.7994002412
 20
166.2041859788
 30
0.0
 10
108.4061660546
 20
165.9771534705
 30
0.0
  0
SPLINE
  5
286
100
AcDbEntity
  8
0
100
AcDbSpline
 62
7
  6
CONTINUOUS
 70
0
 71
3
 72
10
 73
6
 74
0
 42
0.0000001
 43
0.0000001
 44
0.0000000001
 40
0.0
 40
0.0
 40
0.0
 40
0.0
 40
0.2854549934
 40
0.546259619
 40
1.0
 40
1.0
 40
1.0
 40
1.0
 10
176.7483209901
 20
91.7376815764
 30
0.0
 10
176.6297640088
 20
91.6692330799
 30
0.0
 10
176.3929689509
 20
91.5535528126
 30
0.0
 10
175.9332192945
 20
91.4156556265
 30
0.0
 10
175.5730861342
 20
91.4187673509
 30
0.0
 10
175.3655107453
 20
91.4840642846
 30
0.0
  0
SPLINE
  5
287
100
AcDbEntity
  8
0
100
AcDbSpline
 62
7
  6
CONTINUOUS
 70
0
 71
3
 72
23
 73
19
 74
0
 42
0.0000001
 43
0.0000001
 44
0.0000000001
 40
0.0
 40
0.0
 40
0.0
 40
0.0
 40
0.0428149148
 40
0.0873973445
 40
0.1351806372
 40
0.1870901578
 40
0.2435368785
 40
0.3044943038
 40
0.3695920806
 40
0.4381998659
 40
0.5094973024
 40
0.5825329529
 40
0.6562763397
 40
0.7296646758
 40
0.8016520688
 40
0.871255088
 40
0.9376068992
 40
1.0
 40
1.0
 40
1.0
 40
1.0
 10
170.4434909073
 20
144.1782419133
 30
0.0
 10
169.4573199217
 20
144.7475957682
 30
0.0
 10
167.2834670549
 20
145.6510884853
 30
0.0
 10
163.6950533897
 20
146.1769289491
 30
0.0
 10
159.8416988464
 20
145.8932026299
 30
0.0
 10
155.8089423407
 20
144.8216538606
 30
0.0
 10
151.6759729514
 20
142.994985767
 30
0.0
 10
147.5250566635
 20
140.4553988101
 30
0.0
 10
143.4405025882
 20
137.2575931859
 30
0.0
 10
139.5071138501
 20
133.4693287244
 30
0.0
 10
135.8076646832
 20
129.1708983401
 30
0.0
 10
132.4206265021
 20
124.4536740294
 30
0.0
 10
129.418181087
 20
119.4181886169
 30
0.0
 10
126.8643286496
 20
114.1718645749
 30
0.0
 10
124.8136311686
 20
108.8266208282
 30
0.0
 10
123.3095681804
 20
103.4957143909
 30
0.0
 10
122.3845257454
 20
98.2931608247
 30
0.0
 10
122.159685726
 20
94.8667161247
 30
0.0
 10
122.159685726
 20
93.2072792245
 30
0.0
  0
SPLINE
  5
288
100
AcDbEntity
  8
0
100
AcDbSpline
 62
7
  6
CONTINUOUS
 70
0
 71
3
 72
11
 73
7
 74
0
 42
0.0000001
 43
0.0000001
 44
0.0000000001
 40
0.0
 40
0.0
 40
0.0
 40
0.0
 40
0.2271698949
 40
0.4645419744
 40
0.7206808581
 40
1.0
 40
1.0
 40
1.0
 40
1.0
 10
81.4661636974
 20
120.1133911019
 30
0.0
 10
81.2680464813
 20
119.9990003285
 30
0.0
 10
80.8977466516
 20
119.6989510397
 30
0.0
 10
80.4901843637
 20
119.0869678086
 30
0.0
 10
80.2429404181
 20
118.3407620983
 30
0.0
 10
80.1927229498
 20
117.7993029765
 30
0.0
 10
80.1927229498
 20
117.5180164961
 30
0.0
  0
SPLINE
  5
289
100
AcDbEntity
  8
0
100
AcDbSpline
 62
7
  6
CONTINUOUS
 70
0
 71
3
 72
9
 73
5
 74
0
 42
0.0000001
 43
0.0000001
 44
0.0000000001
 40
0.0
 40
0.0
 40
0.0
 40
0.0
 40
0.2578057144
 40
1.0
 40
1.0
 40
1.0
 40
1.0
 10
52.7024204911
 20
130.6232869743
 30
0.0
 10
52.7619975222
 20
130.6056159782
 30
0.0
 10
52.9943920284
 20
130.5416108821
 30
0.0
 10
53.2320966901
 20
130.4963171176
 30
0.0
 10
53.4097702587
 20
130.4753936494
 30
0.0
  0
SPLINE
  5
28A
100
AcDbEntity
  8
0
100
AcDbSpline
 62
7
  6
CONTINUOUS
 70
0
 71
3
 72
11
 73
7
 74
0
 42
0.0000001
 43
0.0000001
 44
0.0000000001
 40
0.0
 40
0.0
 40
0.0
 40
0.0
 40
0.2181568308
 40
0.453346237
 40
0.7131868261
 40
1.0
 40
1.0
 40
1.0
 40
1.0
 10
81.483296047
 20
120.1045952472
 30
0.0
 10
81.3308692364
 20
119.9873018889
 30
0.0
 10
81.0511985116
 20
119.6923470921
 30
0.0
 10
80.7568595896
 20
119.1296387742
 30
0.0
 10
80.5813885253
 20
118.458217085
 30
0.0
 10
80.5462748684
 20
117.9749997856
 30
0.0
 10
80.5462748684
 20
117.722138573
 30
0.0
  0
SPLINE
  5
28B
100
AcDbEntity
  8
0
100
AcDbSpline
 62
7
  6
CONTINUOUS
 70
0
 71
3
 72
14
 73
10
 74
0
 42
0.0000001
 43
0.0000001
 44
0.0000000001
 40
0.0
 40
0.0
 40
0.0
 40
0.0
 40
0.1080468436
 40
0.2181294933
 40
0.3321038309
 40
0.4515026457
 40
0.5774506905
 40
0.7107177731
 40
1.0
 40
1.0
 40
1.0
 40
1.0
 10
167.5648629519
 20
134.2931437958
 30
0.0
 10
167.0730165029
 20
134.5771065608
 30
0.0
 10
166.0287970267
 20
135.0662358412
 30
0.0
 10
164.3390717008
 20
135.5333495227
 30
0.0
 10
162.5378096795
 20
135.7343007427
 30
0.0
 10
160.6442615192
 20
135.6683753887
 30
0.0
 10
158.6763180442
 20
135.3383458075
 30
0.0
 10
155.9037431029
 20
134.5299343735
 30
0.0
 10
153.88202345
 20
133.5676777147
 30
0.0
 10
152.56516839
 20
132.8073956297
 30
0.0
  0
SPLINE
  5
28C
100
AcDbEntity
  8
0
100
AcDbSpline
 62
7
  6
CONTINUOUS
 70
0
 71
3
 72
22
 73
18
 74
0
 42
0.0000001
 43
0.0000001
 44
0.0000000001
 40
0.0
 40
0.0
 40
0.0
 40
0.0
 40
0.042820684
 40
0.0874089009
 40
0.1351985066
 40
0.1871151425
 40
0.2435696159
 40
0.304535205
 40
0.3696415097
 40
0.4382583044
 40
0.5095652748
 40
0.5826109767
 40
0.7296281982
 40
0.8016262294
 40
0.871236147
 40
0.9376022262
 40
1.0
 40
1.0
 40
1.0
 40
1.0
 10
135.4441449359
 20
83.5562253739
 30
0.0
 10
134.7045089451
 20
83.9832456937
 30
0.0
 10
133.3024310035
 20
85.0563540269
 30
0.0
 10
131.6151587752
 20
87.1898788699
 30
0.0
 10
130.3543537535
 20
89.7990948894
 30
0.0
 10
129.5380265866
 20
92.8203087302
 30
0.0
 10
129.1745935421
 20
96.189790466
 30
0.0
 10
129.2674728281
 20
99.8382655593
 30
0.0
 10
129.8127522118
 20
103.6905007481
 30
0.0
 10
130.7981991223
 20
107.6658638152
 30
0.0
 10
132.2028380233
 20
111.6810845964
 30
0.0
 10
134.5987208927
 20
116.9813210967
 30
0.0
 10
137.6668885119
 20
121.9729848189
 30
0.0
 10
141.2937698605
 20
126.4507209301
 30
0.0
 10
144.1925273735
 20
129.4271258994
 30
0.0
 10
147.2248019529
 20
131.978811965
 30
0.0
 10
149.3660546422
 20
133.4098623946
 30
0.0
 10
150.4438392146
 20
134.0321178932
 30
0.0
  0
SPLINE
  5
28D
100
AcDbEntity
  8
0
100
AcDbSpline
 62
7
  6
CONTINUOUS
 70
0
 71
3
 72
15
 73
11
 74
0
 42
0.0000001
 43
0.0000001
 44
0.0000000001
 40
0.0
 40
0.0
 40
0.0
 40
0.0
 40
0.1258979477
 40
0.2369187381
 40
0.3397133671
 40
0.4440990987
 40
0.5592169046
 40
0.6901943836
 40
0.8378867991
 40
1.0
 40
1.0
 40
1.0
 40
1.0
 10
50.2185599378
 20
131.5187361992
 30
0.0
 10
50.4916387786
 20
131.4051701438
 30
0.0
 10
51.0314960811
 20
131.2436645315
 30
0.0
 10
51.8443252293
 20
131.2468281338
 30
0.0
 10
52.5571839425
 20
131.5320564837
 30
0.0
 10
53.1031988046
 20
132.0838617315
 30
0.0
 10
53.4498651018
 20
132.8450795381
 30
0.0
 10
53.5970958212
 20
133.7668314834
 30
0.0
 10
53.5469489354
 20
134.8067336458
 30
0.0
 10
53.3909353356
 20
135.521028114
 30
0.0
 10
53.2840396329
 20
135.8865447333
 30
0.0
  0
SPLINE
  5
28E
100
AcDbEntity
  8
0
100
AcDbSpline
 62
7
  6
CONTINUOUS
 70
0
 71
3
 72
9
 73
5
 74
0
 42
0.0000001
 43
0.0000001
 44
0.0000000001
 40
0.0
 40
0.0
 40
0.0
 40
0.0
 40
0.26476175
 40
1.0
 40
1.0
 40
1.0
 40
1.0
 10
51.3057189667
 20
139.4187002113
 30
0.0
 10
51.1806039577
 20
139.5573628154
 30
0.0
 10
50.6910126011
 20
140.0648674093
 30
0.0
 10
50.1300899076
 20
140.508130531
 30
0.0
 10
49.6809300666
 20
140.7674472196
 30
0.0
  0
SPLINE
  5
28F
100
AcDbEntity
  8
0
100
AcDbSpline
 62
7
  6
CONTINUOUS
 70
0
 71
3
 72
20
 73
16
 74
0
 42
0.0000001
 43
0.0000001
 44
0.0000000001
 40
0.0
 40
0.0
 40
0.0
 40
0.0
 40
0.058759481
 40
0.1113193798
 40
0.1588507556
 40
0.2039386844
 40
0.2498943306
 40
0.2997512852
 40
0.3554018896
 40
0.417474105
 40
0.4855817789
 40
0.5586159317
 40
0.7125893194
 40
0.8645518206
 40
1.0
 40
1.0
 40
1.0
 40
1.0
 10
49.4855560615
 20
140.8745736942
 30
0.0
 10
49.2450090179
 20
140.9994791575
 30
0.0
 10
48.7676169465
 20
141.1986839592
 30
0.0
 10
48.0390287737
 20
141.3280829175
 30
0.0
 10
47.3622648985
 20
141.2581758812
 30
0.0
 10
46.7714253926
 20
140.9820962482
 30
0.0
 10
46.3039389534
 20
140.51330616
 30
0.0
 10
45.9797735907
 20
139.8843490132
 30
0.0
 10
45.8028356908
 20
139.1255674901
 30
0.0
 10
45.7740229773
 20
138.2644982426
 30
0.0
 10
45.8921692516
 20
137.33115194
 30
0.0
 10
46.2451129839
 20
136.0131279895
 30
0.0
 10
47.0026028491
 20
134.4184487482
 30
0.0
 10
48.2597541568
 20
132.7994487417
 30
0.0
 10
49.3218121227
 20
131.9667173534
 30
0.0
 10
49.8763040716
 20
131.6787941566
 30
0.0
  0
SPLINE
  5
290
100
AcDbEntity
  8
0
100
AcDbSpline
 62
7
  6
CONTINUOUS
 70
0
 71
3
 72
9
 73
5
 74
0
 42
0.0000001
 43
0.0000001
 44
0.0000000001
 40
0.0
 40
0.0
 40
0.0
 40
0.0
 40
0.2555772426
 40
1.0
 40
1.0
 40
1.0
 40
1.0
 10
185.0921627554
 20
96.8816125834
 30
0.0
 10
185.0921627554
 20
96.9529750063
 30
0.0
 10
185.088609381
 20
97.2321773937
 30
0.0
 10
185.0706182186
 20
97.5112497959
 30
0.0
 10
185.0481592058
 20
97.7178910341
 30
0.0
  0
SPLINE
  5
291
100
AcDbEntity
  8
0
100
AcDbSpline
 62
7
  6
CONTINUOUS
 70
0
 71
3
 72
15
 73
11
 74
0
 42
0.0000001
 43
0.0000001
 44
0.0000000001
 40
0.0
 40
0.0
 40
0.0
 40
0.0
 40
0.1383236395
 40
0.2629435853
 40
0.3772189276
 40
0.486787273
 40
0.5986527637
 40
0.7191148311
 40
0.8523848663
 40
1.0
 40
1.0
 40
1.0
 40
1.0
 10
185.0481592058
 20
97.7178910341
 30
0.0
 10
185.005257949
 20
98.1126175913
 30
0.0
 10
184.8606847117
 20
98.8590683884
 30
0.0
 10
184.4258977833
 20
99.8618941216
 30
0.0
 10
183.7902828883
 20
100.6527364058
 30
0.0
 10
182.9707822854
 20
101.1907939376
 30
0.0
 10
182.0073847642
 20
101.4468959315
 30
0.0
 10
180.9464409357
 20
101.4193093054
 30
0.0
 10
179.8254187826
 20
101.1201513255
 30
0.0
 10
179.095182668
 20
100.7677969371
 30
0.0
 10
178.7282282205
 20
100.5559369527
 30
0.0
  0
SPLINE
  5
292
100
AcDbEntity
  8
0
100
AcDbSpline
 62
7
  6
CONTINUOUS
 70
0
 71
3
 72
15
 73
11
 74
0
 42
0.0000001
 43
0.0000001
 44
0.0000000001
 40
0.0
 40
0.0
 40
0.0
 40
0.0
 40
0.1476253731
 40
0.2809044406
 40
0.4013758687
 40
0.5132483141
 40
0.6228198234
 40
0.7370997149
 40
0.8617476153
 40
1.0
 40
1.0
 40
1.0
 40
1.0
 10
172.3642936855
 20
89.5332178137
 30
0.0
 10
172.3642936855
 20
89.1094835074
 30
0.0
 10
172.4242584873
 20
88.3008797225
 30
0.0
 10
172.7256932034
 20
87.1804302542
 30
0.0
 10
173.2322770761
 20
86.2477988485
 30
0.0
 10
173.9357808954
 20
85.5415086859
 30
0.0
 10
174.8115011482
 20
85.100835563
 30
0.0
 10
175.8142663856
 20
84.9457347807
 30
0.0
 10
176.8999486952
 20
85.0708042167
 30
0.0
 10
177.6185847749
 20
85.3185793702
 30
0.0
 10
177.9816821298
 20
85.478688413
 30
0.0
  0
SPLINE
  5
293
100
AcDbEntity
  8
0
100
AcDbSpline
 62
7
  6
CONTINUOUS
 70
0
 71
3
 72
9
 73
5
 74
0
 42
0.0000001
 43
0.0000001
 44
0.0000000001
 40
0.0
 40
0.0
 40
0.0
 40
0.0
 40
0.2442243584
 40
1.0
 40
1.0
 40
1.0
 40
1.0
 10
177.9816821298
 20
85.478688413
 30
0.0
 10
178.0441147193
 20
85.5062182807
 30
0.0
 10
178.2981094833
 20
85.6226443478
 30
0.0
 10
178.5454765313
 20
85.7534001537
 30
0.0
 10
178.7283381908
 20
85.858980634
 30
0.0
  0
SPLINE
  5
294
100
AcDbEntity
  8
0
100
AcDbSpline
 62
7
  6
CONTINUOUS
 70
0
 71
3
 72
13
 73
9
 74
0
 42
0.0000001
 43
0.0000001
 44
0.0000000001
 40
0.0
 40
0.0
 40
0.0
 40
0.0
 40
0.1142481057
 40
0.2375464672
 40
0.499998393
 40
0.7624511984
 40
0.8857505872
 40
1.0
 40
1.0
 40
1.0
 40
1.0
 10
178.7282282205
 20
100.5559369527
 30
0.0
 10
178.2925972474
 20
100.3044267944
 30
0.0
 10
177.4319774084
 20
99.7011639453
 30
0.0
 10
175.8208640936
 20
98.1932089466
 30
0.0
 10
174.1190436786
 20
95.8685984221
 30
0.0
 10
172.9567942608
 20
93.2324637045
 30
0.0
 10
172.4564258592
 20
91.0832062407
 30
0.0
 10
172.3642936855
 20
90.0362461374
 30
0.0
 10
172.3642936855
 20
89.5332178137
 30
0.0
  0
SPLINE
  5
295
100
AcDbEntity
  8
0
100
AcDbSpline
 62
7
  6
CONTINUOUS
 70
0
 71
3
 72
15
 73
11
 74
0
 42
0.0000001
 43
0.0000001
 44
0.0000000001
 40
0.0
 40
0.0
 40
0.0
 40
0.0
 40
0.1474851525
 40
0.2806851882
 40
0.4010031393
 40
0.5127548083
 40
0.6222931777
 40
0.73664606
 40
0.8614806624
 40
1.0
 40
1.0
 40
1.0
 40
1.0
 10
178.7282282205
 20
89.2882035963
 30
0.0
 10
178.5319989364
 20
89.1749112426
 30
0.0
 10
178.1413503313
 20
88.9866162211
 30
0.0
 10
177.5417292701
 20
88.8270492957
 30
0.0
 10
176.9742953819
 20
88.8133701181
 30
0.0
 10
176.4595084824
 20
88.9521603319
 30
0.0
 10
176.0222781474
 20
89.2421205431
 30
0.0
 10
175.6839391181
 20
89.6674179264
 30
0.0
 10
175.4536557489
 20
90.2060099775
 30
0.0
 10
175.3779495376
 20
90.6064735603
 30
0.0
 10
175.35586684
 20
90.8181360166
 30
0.0
  0
SPLINE
  5
296
100
AcDbEntity
  8
0
100
AcDbSpline
 62
7
  6
CONTINUOUS
 70
0
 71
3
 72
18
 73
14
 74
0
 42
0.0000001
 43
0.0000001
 44
0.0000000001
 40
0.0
 40
0.0
 40
0.0
 40
0.0
 40
0.0428478648
 40
0.0874652211
 40
0.1352869373
 40
0.1872387733
 40
0.2437300473
 40
0.3047358191
 40
0.4383707321
 40
0.5826783837
 40
0.7297935521
 40
0.8713442498
 40
1.0
 40
1.0
 40
1.0
 40
1.0
 10
146.3152957972
 20
97.4869813576
 30
0.0
 10
146.0071075516
 20
97.6648683209
 30
0.0
 10
145.4230058931
 20
98.1120968904
 30
0.0
 10
144.7199050575
 20
99.000958814
 30
0.0
 10
144.1945766285
 20
100.088152679
 30
0.0
 10
143.854506034
 20
101.3469763292
 30
0.0
 10
143.7029462343
 20
102.7509650281
 30
0.0
 10
143.7565197454
 20
104.8408062648
 30
0.0
 10
144.3237190336
 20
107.6209263835
 30
0.0
 10
145.6524866238
 20
110.9086639151
 30
0.0
 10
147.5448854838
 20
113.9868928359
 30
0.0
 10
149.8437369029
 20
116.6021775535
 30
0.0
 10
151.6398548641
 20
117.9843765055
 30
0.0
 10
152.56516839
 20
118.5186033299
 30
0.0
  0
SPLINE
  5
297
100
AcDbEntity
  8
0
100
AcDbSpline
 62
7
  6
CONTINUOUS
 70
0
 71
3
 72
15
 73
11
 74
0
 42
0.0000001
 43
0.0000001
 44
0.0000000001
 40
0.0
 40
0.0
 40
0.0
 40
0.0
 40
0.1141441531
 40
0.2373312038
 40
0.3669729364
 40
0.4999983967
 40
0.63302408
 40
0.7626664638
 40
0.8858545409
 40
1.0
 40
1.0
 40
1.0
 40
1.0
 10
178.0211184953
 20
101.7806801243
 30
0.0
 10
177.5370927747
 20
101.5012294123
 30
0.0
 10
176.5809811614
 20
100.8309370852
 30
0.0
 10
175.2653360727
 20
99.6001982779
 30
0.0
 10
174.0530305481
 20
98.1451504555
 30
0.0
 10
172.9894583118
 20
96.5207674813
 30
0.0
 10
172.1144945793
 20
94.787488297
 30
0.0
 10
171.4605431465
 20
93.0100656245
 30
0.0
 10
171.0525157638
 20
91.2552989933
 30
0.0
 10
170.9500801232
 20
90.0921247351
 30
0.0
 10
170.9500801232
 20
89.5332144143
 30
0.0
  0
SPLINE
  5
298
100
AcDbEntity
  8
0
100
AcDbSpline
 62
7
  6
CONTINUOUS
 70
0
 71
3
 72
11
 73
7
 74
0
 42
0.0000001
 43
0.0000001
 44
0.0000000001
 40
0.0
 40
0.0
 40
0.0
 40
0.0
 40
0.217770101
 40
0.4509420879
 40
0.7102114603
 40
1.0
 40
1.0
 40
1.0
 40
1.0
 10
159.5221472558
 20
118.7294181465
 30
0.0
 10
159.1098246902
 20
118.9674126159
 30
0.0
 10
158.1624757765
 20
119.3115108493
 30
0.0
 10
156.5890509321
 20
119.3509968167
 30
0.0
 10
154.9118805962
 20
118.9464594768
 30
0.0
 10
153.8209254929
 20
118.4271223958
 30
0.0
 10
153.2722781152
 20
118.1103625754
 30
0.0
  0
SPLINE
  5
299
100
AcDbEntity
  8
0
100
AcDbSpline
 62
7
  6
CONTINUOUS
 70
0
 71
3
 72
17
 73
13
 74
0
 42
0.0000001
 43
0.0000001
 44
0.0000000001
 40
0.0
 40
0.0
 40
0.0
 40
0.0
 40
0.042858088
 40
0.0874876643
 40
0.135322232
 40
0.1872858431
 40
0.304551408
 40
0.4382205923
 40
0.5825655318
 40
0.7297215281
 40
0.8713086325
 40
1.0
 40
1.0
 40
1.0
 40
1.0
 10
148.2723973497
 20
99.2438389261
 30
0.0
 10
148.0258689349
 20
99.3861714935
 30
0.0
 10
147.5585036998
 20
99.7438330356
 30
0.0
 10
146.99610774
 20
100.4549948317
 30
0.0
 10
146.5758223721
 20
101.3247585058
 30
0.0
 10
146.1983392186
 20
102.7231726381
 30
0.0
 10
146.1510717468
 20
104.7620809951
 30
0.0
 10
146.6788134733
 20
107.349657783
 30
0.0
 10
147.7421797058
 20
109.9815121554
 30
0.0
 10
149.2560666334
 20
112.4435827332
 30
0.0
 10
151.0951127261
 20
114.5359984797
 30
0.0
 10
152.5320190459
 20
115.6417203108
 30
0.0
 10
153.2722781152
 20
116.0691065325
 30
0.0
  0
SPLINE
  5
29A
100
AcDbEntity
  8
0
100
AcDbSpline
 62
7
  6
CONTINUOUS
 70
0
 71
3
 72
11
 73
7
 74
0
 42
0.0000001
 43
0.0000001
 44
0.0000000001
 40
0.0
 40
0.0
 40
0.0
 40
0.0
 40
0.2897728319
 40
0.5490651401
 40
0.7822238182
 40
1.0
 40
1.0
 40
1.0
 40
1.0
 10
170.9500801232
 20
89.5332144143
 30
0.0
 10
170.9500801232
 20
89.0264055106
 30
0.0
 10
171.0267017378
 20
88.0628005884
 30
0.0
 10
171.4172159494
 20
86.7389247867
 30
0.0
 10
172.0740851469
 20
85.6646401325
 30
0.0
 10
172.6913664049
 20
85.1458340271
 30
0.0
 10
173.0212266885
 20
84.9553933944
 30
0.0
  0
SPLINE
  5
29B
100
AcDbEntity
  8
0
100
AcDbSpline
 62
7
  6
CONTINUOUS
 70
0
 71
3
 72
11
 73
7
 74
0
 42
0.0000001
 43
0.0000001
 44
0.0000000001
 40
0.0
 40
0.0
 40
0.0
 40
0.0
 40
0.2177775995
 40
0.4509368668
 40
0.7102286427
 40
1.0
 40
1.0
 40
1.0
 40
1.0
 10
183.0210103021
 20
102.2759185117
 30
0.0
 10
182.6911609386
 20
102.4663528397
 30
0.0
 10
181.9332449879
 20
102.7415106557
 30
0.0
 10
180.674500508
 20
102.7732272921
 30
0.0
 10
179.3327891182
 20
102.4494983864
 30
0.0
 10
178.4600089151
 20
102.0340721138
 30
0.0
 10
178.0211184953
 20
101.7806801243
 30
0.0
  0
SPLINE
  5
29C
100
AcDbEntity
  8
0
100
AcDbSpline
 62
7
  6
CONTINUOUS
 70
0
 71
3
 72
19
 73
15
 74
0
 42
0.0000001
 43
0.0000001
 44
0.0000000001
 40
0.0
 40
0.0
 40
0.0
 40
0.0
 40
0.0568677031
 40
0.107875912
 40
0.1545668334
 40
0.1995421224
 40
0.2459224287
 40
0.296401097
 40
0.3525846782
 40
0.4149591588
 40
0.5557396198
 40
0.7094913073
 40
0.8621487595
 40
1.0
 40
1.0
 40
1.0
 40
1.0
 10
179.1111404081
 20
97.3225747943
 30
0.0
 10
179.3127583034
 20
97.4125081093
 30
0.0
 10
179.7115287787
 20
97.5509194723
 30
0.0
 10
180.3144441023
 20
97.6152260734
 30
0.0
 10
180.8684322744
 20
97.5163093373
 30
0.0
 10
181.3460822439
 20
97.2516791993
 30
0.0
 10
181.7203307858
 20
96.8354899898
 30
0.0
 10
181.9781417014
 20
96.2928384686
 30
0.0
 10
182.1167544676
 20
95.6466133967
 30
0.0
 10
182.1418987384
 20
94.6356562486
 30
0.0
 10
181.8514946456
 20
93.2621909498
 30
0.0
 10
181.1153537255
 20
91.6762568259
 30
0.0
 10
180.0723571441
 20
90.2877015353
 30
0.0
 10
179.191684882
 20
89.5557788274
 30
0.0
 10
178.7282282205
 20
89.2882035963
 30
0.0
  0
SPLINE
  5
29D
100
AcDbEntity
  8
0
100
AcDbSpline
 62
7
  6
CONTINUOUS
 70
0
 71
3
 72
16
 73
12
 74
0
 42
0.0000001
 43
0.0000001
 44
0.0000000001
 40
0.0
 40
0.0
 40
0.0
 40
0.0
 40
0.0428754974
 40
0.0875229036
 40
0.1869229067
 40
0.3042341567
 40
0.43795482
 40
0.5823566599
 40
0.7295682564
 40
0.8712589284
 40
1.0
 40
1.0
 40
1.0
 40
1.0
 10
169.1936936919
 20
142.0129633285
 30
0.0
 10
169.2553240723
 20
141.9773833084
 30
0.0
 10
169.3722354848
 20
141.8880649247
 30
0.0
 10
169.566250644
 20
141.6424849074
 30
0.0
 10
169.710974225
 20
141.2212961205
 30
0.0
 10
169.7238252166
 20
140.6340817932
 30
0.0
 10
169.5921994683
 20
139.9864901467
 30
0.0
 10
169.3262762167
 20
139.3287991373
 30
0.0
 10
168.9479052401
 20
138.7131276387
 30
0.0
 10
168.4880587314
 20
138.1900576283
 30
0.0
 10
168.1288194858
 20
137.9135603693
 30
0.0
 10
167.943766355
 20
137.8067205321
 30
0.0
  0
SPLINE
  5
29E
100
AcDbEntity
  8
0
100
AcDbSpline
 62
7
  6
CONTINUOUS
 70
0
 71
3
 72
15
 73
11
 74
0
 42
0.0000001
 43
0.0000001
 44
0.0000000001
 40
0.0
 40
0.0
 40
0.0
 40
0.0
 40
0.0892976453
 40
0.1930857234
 40
0.3136388175
 40
0.4482589425
 40
0.5912911501
 40
0.7356309641
 40
0.8739783901
 40
1.0
 40
1.0
 40
1.0
 40
1.0
 10
178.5431114095
 20
96.9777937396
 30
0.0
 10
178.6769305349
 20
96.8537097111
 30
0.0
 10
178.8991468126
 20
96.5108202661
 30
0.0
 10
179.0325133247
 20
95.874550226
 30
0.0
 10
178.9961664519
 20
95.1357234714
 30
0.0
 10
178.7947963696
 20
94.3426499312
 30
0.0
 10
178.4441827146
 20
93.5506819012
 30
0.0
 10
177.9694613801
 20
92.8170782024
 30
0.0
 10
177.4058327982
 20
92.1957317454
 30
0.0
 10
176.9713632374
 20
91.8664543092
 30
0.0
 10
176.7483209901
 20
91.7376815764
 30
0.0
  0
SPLINE
  5
29F
100
AcDbEntity
  8
0
100
AcDbSpline
 62
7
  6
CONTINUOUS
 70
0
 71
3
 72
23
 73
19
 74
0
 42
0.0000001
 43
0.0000001
 44
0.0000000001
 40
0.0
 40
0.0
 40
0.0
 40
0.0
 40
0.0623923609
 40
0.1287434881
 40
0.1983465761
 40
0.2703343655
 40
0.3437234967
 40
0.4174679115
 40
0.4905046248
 40
0.5618029563
 40
0.6304113032
 40
0.6955092416
 40
0.7564664726
 40
0.8129127144
 40
0.8648215535
 40
0.9126040679
 40
0.9571857476
 40
1.0
 40
1.0
 40
1.0
 40
1.0
 10
79.8038126009
 20
117.7425489111
 30
0.0
 10
79.8038126009
 20
119.3978176904
 30
0.0
 10
80.0280811951
 20
122.8156590162
 30
0.0
 10
80.9508008884
 20
128.0051717028
 30
0.0
 10
82.4510878381
 20
133.3227495889
 30
0.0
 10
84.4966662867
 20
138.6546637982
 30
0.0
 10
87.0441575375
 20
143.8879266578
 30
0.0
 10
90.0391400433
 20
148.9108875165
 30
0.0
 10
93.4177655463
 20
153.6163776253
 30
0.0
 10
97.108022806
 20
157.9041021479
 30
0.0
 10
101.0316249539
 20
161.6829100371
 30
0.0
 10
105.1059962922
 20
164.872708242
 30
0.0
 10
109.2465407555
 20
167.4059122354
 30
0.0
 10
113.3691591049
 20
169.2279677074
 30
0.0
 10
117.3917930471
 20
170.2967909322
 30
0.0
 10
121.235457553
 20
170.579771915
 30
0.0
 10
124.8148385959
 20
170.0552321148
 30
0.0
 10
126.983217747
 20
169.1540057014
 30
0.0
 10
127.9669084517
 20
168.5860845112
 30
0.0
  0
SPLINE
  5
2A0
100
AcDbEntity
  8
0
100
AcDbSpline
 62
7
  6
CONTINUOUS
 70
0
 71
3
 72
11
 73
7
 74
0
 42
0.0000001
 43
0.0000001
 44
0.0000000001
 40
0.0
 40
0.0
 40
0.0
 40
0.0
 40
0.2177231375
 40
0.4508717887
 40
0.7104673698
 40
1.0
 40
1.0
 40
1.0
 40
1.0
 10
134.1938364057
 20
121.8059029679
 30
0.0
 10
134.2762810449
 20
121.7583088379
 30
0.0
 10
134.4306683925
 20
121.628751732
 30
0.0
 10
134.5949599459
 20
121.3600664134
 30
0.0
 10
134.6923391976
 20
121.0290216283
 30
0.0
 10
134.7116716672
 20
120.788126143
 30
0.0
 10
134.7116716672
 20
120.6615322889
 30
0.0
  0
SPLINE
  5
2A1
100
AcDbEntity
  8
0
100
AcDbSpline
 62
7
  6
CONTINUOUS
 70
0
 71
3
 72
18
 73
14
 74
0
 42
0.0000001
 43
0.0000001
 44
0.0000000001
 40
0.0
 40
0.0
 40
0.0
 40
0.0
 40
0.1286539461
 40
0.2702024877
 40
0.4173169538
 40
0.5616268102
 40
0.6952638754
 40
0.7562701509
 40
0.8127614292
 40
0.8647129789
 40
0.9125345001
 40
0.9571518328
 40
1.0
 40
1.0
 40
1.0
 40
1.0
 10
153.2722781152
 20
118.1103625754
 30
0.0
 10
152.3469775835
 20
117.5761432532
 30
0.0
 10
150.5508848123
 20
116.1939677329
 30
0.0
 10
148.2520424506
 20
113.5787266253
 30
0.0
 10
146.3596414762
 20
110.5005057928
 30
0.0
 10
145.0308403903
 20
107.2127486137
 30
0.0
 10
144.4636326433
 20
104.4325882033
 30
0.0
 10
144.4100531406
 20
102.342725099
 30
0.0
 10
144.5616162013
 20
100.9387343581
 30
0.0
 10
144.901691179
 20
99.6799167845
 30
0.0
 10
145.4270086564
 20
98.592722641
 30
0.0
 10
146.1301119992
 20
97.7038602093
 30
0.0
 10
146.7142188628
 20
97.2566353171
 30
0.0
 10
147.0224089745
 20
97.078746576
 30
0.0
  0
SPLINE
  5
2A2
100
AcDbEntity
  8
0
100
AcDbSpline
 62
7
  6
CONTINUOUS
 70
0
 71
3
 72
11
 73
7
 74
0
 42
0.0000001
 43
0.0000001
 44
0.0000000001
 40
0.0
 40
0.0
 40
0.0
 40
0.0
 40
0.2897733922
 40
0.5490663609
 40
0.7822257979
 40
1.0
 40
1.0
 40
1.0
 40
1.0
 10
153.2722781152
 20
116.0691065325
 30
0.0
 10
153.7111708911
 20
116.3224998823
 30
0.0
 10
154.5839558156
 20
116.7379268827
 30
0.0
 10
155.9256722211
 20
117.0616489066
 30
0.0
 10
157.1844123255
 20
117.0299280143
 30
0.0
 10
157.9423166727
 20
116.7547593753
 30
0.0
 10
158.2721588807
 20
116.5643257964
 30
0.0
  0
SPLINE
  5
2A3
100
AcDbEntity
  8
0
100
AcDbSpline
 62
7
  6
CONTINUOUS
 70
0
 71
3
 72
22
 73
18
 74
0
 42
0.0000001
 43
0.0000001
 44
0.0000000001
 40
0.0
 40
0.0
 40
0.0
 40
0.0
 40
0.0623970514
 40
0.1287621285
 40
0.198371947
 40
0.2703701565
 40
0.4173891078
 40
0.490436027
 40
0.5617440825
 40
0.6303616121
 40
0.6954682195
 40
0.7564337016
 40
0.8128877174
 40
0.8648036309
 40
0.9125924341
 40
0.9571799142
 40
1.0
 40
1.0
 40
1.0
 40
1.0
 10
152.56516839
 20
132.8073956297
 30
0.0
 10
151.4873962636
 20
132.1851473167
 30
0.0
 10
149.3461678574
 20
130.7541225618
 30
0.0
 10
146.3139204641
 20
128.2024605788
 30
0.0
 10
143.4151656764
 20
125.22607871
 30
0.0
 10
139.7882556206
 20
120.7483188703
 30
0.0
 10
136.7200483582
 20
115.7566051135
 30
0.0
 10
134.3241376797
 20
110.4562922551
 30
0.0
 10
132.9194901821
 20
106.4410098839
 30
0.0
 10
131.934048097
 20
102.4656016998
 30
0.0
 10
131.3887842868
 20
98.6133452324
 30
0.0
 10
131.2959272711
 20
94.9648745093
 30
0.0
 10
131.659383323
 20
91.5954206884
 30
0.0
 10
132.4757293118
 20
88.5742528815
 30
0.0
 10
133.7365344628
 20
85.9650882077
 30
0.0
 10
135.4237886557
 20
83.8316039968
 30
0.0
 10
136.8258487213
 20
82.7585177996
 30
0.0
 10
137.5654738281
 20
82.3315024357
 30
0.0
  0
SPLINE
  5
2A4
100
AcDbEntity
  8
0
100
AcDbSpline
 62
7
  6
CONTINUOUS
 70
0
 71
3
 72
11
 73
7
 74
0
 42
0.0000001
 43
0.0000001
 44
0.0000000001
 40
0.0
 40
0.0
 40
0.0
 40
0.0
 40
0.2897897688
 40
0.5490567024
 40
0.782229104
 40
1.0
 40
1.0
 40
1.0
 40
1.0
 10
152.56516839
 20
118.5186033299
 30
0.0
 10
153.113818455
 20
118.8353647018
 30
0.0
 10
154.2047710693
 20
119.3547042058
 30
0.0
 10
155.8819409404
 20
119.7592356041
 30
0.0
 10
157.4553648189
 20
119.7197625586
 30
0.0
 10
158.4027162354
 20
119.3756596654
 30
0.0
 10
158.8150409828
 20
119.1376648739
 30
0.0
  0
SPLINE
  5
2A5
100
AcDbEntity
  8
0
100
AcDbSpline
 62
7
  6
CONTINUOUS
 70
0
 71
3
 72
14
 73
10
 74
0
 42
0.0000001
 43
0.0000001
 44
0.0000000001
 40
0.0
 40
0.0
 40
0.0
 40
0.0
 40
0.2892804681
 40
0.4225398028
 40
0.54849452
 40
0.6678943187
 40
0.781867295
 40
0.8919508864
 40
1.0
 40
1.0
 40
1.0
 40
1.0
 10
122.159685726
 20
93.2072792245
 30
0.0
 10
122.159685726
 20
91.1797814386
 30
0.0
 10
122.396404777
 20
88.2037483158
 30
0.0
 10
123.3112746802
 20
84.4631626677
 30
0.0
 10
124.2422132462
 20
81.9706659927
 30
0.0
 10
125.4284366039
 20
79.7400664138
 30
0.0
 10
126.8613780083
 20
77.7940089886
 30
0.0
 10
128.5274863653
 20
76.1544180869
 30
0.0
 10
129.7883512246
 20
75.2744879754
 30
0.0
 10
130.4441875219
 20
74.8958488454
 30
0.0
  0
SPLINE
  5
2A6
100
AcDbEntity
  8
0
100
AcDbSpline
 62
7
  6
CONTINUOUS
 70
0
 71
3
 72
17
 73
13
 74
0
 42
0.0000001
 43
0.0000001
 44
0.0000000001
 40
0.0
 40
0.0
 40
0.0
 40
0.0
 40
0.1286919748
 40
0.2702758777
 40
0.4174319456
 40
0.5617767567
 40
0.6954475635
 40
0.8127103163
 40
0.8646766011
 40
0.9125093574
 40
0.9571395515
 40
1.0
 40
1.0
 40
1.0
 40
1.0
 10
48.6202743108
 20
129.5405495661
 30
0.0
 10
48.0650756268
 20
129.8610864242
 30
0.0
 10
46.9873906239
 20
130.6903496261
 30
0.0
 10
45.6081318102
 20
132.2596651747
 30
0.0
 10
44.4727140771
 20
134.106196258
 30
0.0
 10
43.6751582885
 20
136.0800645773
 30
0.0
 10
43.2792443678
 20
138.0207536057
 30
0.0
 10
43.3149034776
 20
139.5498932604
 30
0.0
 10
43.5977839905
 20
140.5987715684
 30
0.0
 10
43.9131802722
 20
141.251008367
 30
0.0
 10
44.3348564525
 20
141.7844768269
 30
0.0
 10
44.6854259805
 20
142.0526913568
 30
0.0
 10
44.8703134707
 20
142.15947915
 30
0.0
  0
SPLINE
  5
2A7
100
AcDbEntity
  8
0
100
AcDbSpline
 62
7
  6
CONTINUOUS
 70
0
 71
3
 72
16
 73
12
 74
0
 42
0.0000001
 43
0.0000001
 44
0.0000000001
 40
0.0
 40
0.0
 40
0.0
 40
0.0
 40
0.0428754974
 40
0.0875229036
 40
0.1869229067
 40
0.3042341567
 40
0.43795482
 40
0.5823566599
 40
0.7295682564
 40
0.8712589284
 40
1.0
 40
1.0
 40
1.0
 40
1.0
 10
134.1938394111
 20
81.3911009372
 30
0.0
 10
134.2554697915
 20
81.3555209171
 30
0.0
 10
134.372381204
 20
81.2662025334
 30
0.0
 10
134.5663963632
 20
81.0206225161
 30
0.0
 10
134.7111199442
 20
80.5994337292
 30
0.0
 10
134.7239709358
 20
80.0122194019
 30
0.0
 10
134.5923451876
 20
79.3646277554
 30
0.0
 10
134.3264219359
 20
78.706936746
 30
0.0
 10
133.9480509593
 20
78.0912652474
 30
0.0
 10
133.4882044507
 20
77.568195237
 30
0.0
 10
133.128965205
 20
77.291697978
 30
0.0
 10
132.9439120742
 20
77.1848581409
 30
0.0
  0
SPLINE
  5
2A8
100
AcDbEntity
  8
0
100
AcDbSpline
 62
7
  6
CONTINUOUS
 70
0
 71
3
 72
14
 73
10
 74
0
 42
0.0000001
 43
0.0000001
 44
0.0000000001
 40
0.0
 40
0.0
 40
0.0
 40
0.0
 40
0.2892790594
 40
0.4225450596
 40
0.5484933594
 40
0.6678928167
 40
0.7818678196
 40
0.8919516395
 40
1.0
 40
1.0
 40
1.0
 40
1.0
 10
150.4438392146
 20
134.0321178932
 30
0.0
 10
151.7606799661
 20
134.7923917173
 30
0.0
 10
153.7823783047
 20
135.7546390932
 30
0.0
 10
156.5549301094
 20
136.5630568551
 30
0.0
 10
158.5228718828
 20
136.8930880618
 30
0.0
 10
160.4164281776
 20
136.9590340056
 30
0.0
 10
162.2177028497
 20
136.7580768043
 30
0.0
 10
163.9074490694
 20
136.2909716253
 30
0.0
 10
164.9516797158
 20
135.8018314978
 30
0.0
 10
165.4435334933
 20
135.5178653847
 30
0.0
  0
SPLINE
  5
2A9
100
AcDbEntity
  8
0
100
AcDbSpline
 62
7
  6
CONTINUOUS
 70
0
 71
3
 72
11
 73
7
 74
0
 42
0.0000001
 43
0.0000001
 44
0.0000000001
 40
0.0
 40
0.0
 40
0.0
 40
0.0
 40
0.2895448512
 40
0.5491358493
 40
0.7822770651
 40
1.0
 40
1.0
 40
1.0
 40
1.0
 10
132.9439120742
 20
77.1848581409
 30
0.0
 10
132.834277882
 20
77.1215611883
 30
0.0
 10
132.6159953404
 20
77.0178568427
 30
0.0
 10
132.2806239467
 20
76.9366765995
 30
0.0
 10
131.9658065151
 20
76.9446116734
 30
0.0
 10
131.7764252557
 20
77.0135334468
 30
0.0
 10
131.6939847373
 20
77.0611274301
 30
0.0
  0
SPLINE
  5
2AA
100
AcDbEntity
  8
0
100
AcDbSpline
 62
7
  6
CONTINUOUS
 70
0
 71
3
 72
11
 73
7
 74
0
 42
0.0000001
 43
0.0000001
 44
0.0000000001
 40
0.0
 40
0.0
 40
0.0
 40
0.0
 40
0.2868277548
 40
0.5466662645
 40
0.7818475317
 40
1.0
 40
1.0
 40
1.0
 40
1.0
 10
108.4061660546
 20
165.9771534705
 30
0.0
 10
108.1871536401
 20
165.8507073488
 30
0.0
 10
107.7861931509
 20
165.5786602136
 30
0.0
 10
107.2924344364
 20
165.09092851
 30
0.0
 10
106.952313923
 20
164.5546073936
 30
0.0
 10
106.8367425767
 20
164.1648961067
 30
0.0
 10
106.8114025269
 20
163.9742296024
 30
0.0
  0
SPLINE
  5
2AB
100
AcDbEntity
  8
0
100
AcDbSpline
 62
7
  6
CONTINUOUS
 70
0
 71
3
 72
17
 73
13
 74
0
 42
0.0000001
 43
0.0000001
 44
0.0000000001
 40
0.0
 40
0.0
 40
0.0
 40
0.0
 40
0.1293882457
 40
0.2714630183
 40
0.4201717507
 40
0.5673525154
 40
0.7040253729
 40
0.8223441211
 40
0.8734049084
 40
0.919230786
 40
0.9608173294
 40
1.0
 40
1.0
 40
1.0
 40
1.0
 10
80.1927229498
 20
117.5180164961
 30
0.0
 10
80.1927229498
 20
117.0508229698
 30
0.0
 10
80.3427294472
 20
116.0690890308
 30
0.0
 10
80.8996799297
 20
114.648317916
 30
0.0
 10
81.7371366595
 20
113.2977530407
 30
0.0
 10
82.7660006037
 20
112.1136481136
 30
0.0
 10
83.8860736968
 20
111.1802403753
 30
0.0
 10
84.8622567915
 20
110.6381586009
 30
0.0
 10
85.6095064343
 20
110.4140579737
 30
0.0
 10
86.1096018091
 20
110.3568861527
 30
0.0
 10
86.5683724341
 20
110.4069955201
 30
0.0
 10
86.8436139922
 20
110.5163519428
 30
0.0
 10
86.9661369764
 20
110.587096543
 30
0.0
  0
SPLINE
  5
2AC
100
AcDbEntity
  8
0
100
AcDbSpline
 62
7
  6
CONTINUOUS
 70
0
 71
3
 72
16
 73
12
 74
0
 42
0.0000001
 43
0.0000001
 44
0.0000000001
 40
0.0
 40
0.0
 40
0.0
 40
0.0
 40
0.1287410646
 40
0.2704217334
 40
0.4176260079
 40
0.5620272452
 40
0.6957527047
 40
0.8130676178
 40
0.9124709781
 40
0.9571206991
 40
1.0
 40
1.0
 40
1.0
 40
1.0
 10
134.7116716672
 20
120.6615322889
 30
0.0
 10
134.7116716672
 20
120.4478538489
 30
0.0
 10
134.6518446435
 20
119.9985157827
 30
0.0
 10
134.4287962453
 20
119.3387740571
 30
0.0
 10
134.0848368677
 20
118.7032792964
 30
0.0
 10
133.6482448232
 20
118.1441348311
 30
0.0
 10
133.1532382913
 20
117.7063252998
 30
0.0
 10
132.6382691717
 20
117.4238218999
 30
0.0
 10
132.201139444
 20
117.3385395748
 30
0.0
 10
131.8914388497
 20
117.3837674152
 30
0.0
 10
131.7556236843
 20
117.4403592789
 30
0.0
 10
131.6939877427
 20
117.4759408406
 30
0.0
  0
SPLINE
  5
2AD
100
AcDbEntity
  8
0
100
AcDbSpline
 62
7
  6
CONTINUOUS
 70
0
 71
3
 72
18
 73
14
 74
0
 42
0.0000001
 43
0.0000001
 44
0.0000000001
 40
0.0
 40
0.0
 40
0.0
 40
0.0
 40
0.1270756318
 40
0.2666997668
 40
0.4121602993
 40
0.4847199946
 40
0.555831139
 40
0.6900455317
 40
0.8092154525
 40
0.8624167475
 40
0.9114379029
 40
0.9569269074
 40
1.0
 40
1.0
 40
1.0
 40
1.0
 10
80.5462748684
 20
117.722138573
 30
0.0
 10
80.5462748684
 20
117.2680259505
 30
0.0
 10
80.6690660457
 20
116.3138272
 30
0.0
 10
81.1302855855
 20
114.9082358355
 30
0.0
 10
81.7262108845
 20
113.7704138737
 30
0.0
 10
82.3141307359
 20
112.9195261074
 30
0.0
 10
82.9462922668
 20
112.152371371
 30
0.0
 10
83.7974532877
 20
111.3552145062
 30
0.0
 10
84.7457716998
 20
110.7820711055
 30
0.0
 10
85.4980421545
 20
110.5275596928
 30
0.0
 10
86.0222705731
 20
110.4440767196
 30
0.0
 10
86.5170610842
 20
110.4633067415
 30
0.0
 10
86.8257201057
 20
110.5478685589
 30
0.0
 10
86.9679758667
 20
110.6066563674
 30
0.0
  0
SPLINE
  5
2AE
100
AcDbEntity
  8
0
100
AcDbSpline
 62
7
  6
CONTINUOUS
 70
0
 71
3
 72
11
 73
7
 74
0
 42
0.0000001
 43
0.0000001
 44
0.0000000001
 40
0.0
 40
0.0
 40
0.0
 40
0.0
 40
0.2895448512
 40
0.5491358493
 40
0.7822770651
 40
1.0
 40
1.0
 40
1.0
 40
1.0
 10
167.943766355
 20
137.8067205321
 30
0.0
 10
167.8341321628
 20
137.7434235796
 30
0.0
 10
167.6158496212
 20
137.639719234
 30
0.0
 10
167.2804782275
 20
137.5585389907
 30
0.0
 10
166.9656607959
 20
137.5664740647
 30
0.0
 10
166.7762795365
 20
137.6353958381
 30
0.0
 10
166.6938390181
 20
137.6829898214
 30
0.0
  0
SPLINE
  5
2AF
100
AcDbEntity
  8
0
100
AcDbSpline
 62
7
  6
CONTINUOUS
 70
0
 71
3
 72
11
 73
7
 74
0
 42
0.0000001
 43
0.0000001
 44
0.0000000001
 40
0.0
 40
0.0
 40
0.0
 40
0.0
 40
0.2793238805
 40
0.5354603081
 40
0.7728252814
 40
1.0
 40
1.0
 40
1.0
 40
1.0
 10
108.4061660546
 20
166.385404679
 30
0.0
 10
108.1625661531
 20
166.2447630498
 30
0.0
 10
107.718779619
 20
165.9305356218
 30
0.0
 10
107.1961461898
 20
165.3433660734
 30
0.0
 10
106.8699522284
 20
164.6844249943
 30
0.0
 10
106.7952735729
 20
164.2137229268
 30
0.0
 10
106.7952696022
 20
163.9849536177
 30
0.0
  0
SPLINE
  5
2B0
100
AcDbEntity
  8
0
100
AcDbSpline
 62
7
  6
CONTINUOUS
 70
0
 71
3
 72
11
 73
7
 74
0
 42
0.0000001
 43
0.0000001
 44
0.0000000001
 40
0.0
 40
0.0
 40
0.0
 40
0.0
 40
0.2432202796
 40
0.4994797768
 40
0.7560456811
 40
1.0
 40
1.0
 40
1.0
 40
1.0
 10
175.6938488323
 20
92.9901174453
 30
0.0
 10
175.9072485707
 20
93.1691906831
 30
0.0
 10
176.30849248
 20
93.5821906864
 30
0.0
 10
176.8032448923
 20
94.2970802342
 30
0.0
 10
177.1806605719
 20
95.0812318525
 30
0.0
 10
177.3420674897
 20
95.6351388292
 30
0.0
 10
177.3930327715
 20
95.9098720707
 30
0.0
  0
ENDSEC
  0
SECTION
  2
OBJECTS
  0
DICTIONARY
  5
C
100
AcDbDictionary
280
0
281
1
  3
ACAD_GROUP
350
D
  3
ACAD_MLINESTYLE
350
17
  3
ACAD_LAYOUT
350
1A
  3
ACAD_PLOTSETTINGS
350
19
  3
ACAD_PLOTSTYLENAME
350
E
  0
DICTIONARY
  5
D
102
{ACAD_REACTORS
330
C
102
}
100
AcDbDictionary
280
0
281
1
  0
ACDBDICTIONARYWDFLT
  5
E
102
{ACAD_REACTORS
330
C
102
}
100
AcDbDictionary
281
1
  3
Normal
350
F
100
AcDbDictionaryWithDefault
340
F
  0
DICTIONARY
  5
17
102
{ACAD_REACTORS
330
C
102
}
100
AcDbDictionary
280
0
281
1
  3
Standard
350
18
  0
DICTIONARY
  5
19
102
{ACAD_REACTORS
330
C
102
}
100
AcDbDictionary
281
1
  0
DICTIONARY
  5
1A
102
{ACAD_REACTORS
330
C
102
}
100
AcDbDictionary
281
1
  3
Model
350
2B1
  3
Layout1
350
2B2
  0
ACDBPLACEHOLDER
  5
F
102
{ACAD_REACTORS
330
E
102
}
  0
MLINESTYLE
  5
18
102
{ACAD_REACTORS
330
17
102
}
100
AcDbMlineStyle
  2
STANDARD
 70
0
  3

 62
256
 51
90.0
 52
90.0
 71
2
 49
0.5
 62
256
  6
BYLAYER
 49
-0.5
 62
256
  6
BYLAYER
  0
LAYOUT
  5
2B1
102
{ACAD_REACTORS
330
1A
102
}
100
AcDbPlotSettings
  1

  2
none_device
  4

  6

 40
0.0
 41
0.0
 42
0.0
 43
0.0
 44
210.0
 45
297.0
 46
0.0
 47
0.0
 48
0.0
 49
0.0
140
0.0
141
0.0
142
1.0
143
1.0
 70
1024
 72
1
 73
0
 74
0
  7

 75
0
147
1.0
148
0.0
149
0.0
100
AcDbLayout
  1
Model
 70
0
 71
0
 10
0.0
 20
0.0
 11
210.0
 21
297.0
 12
0.0
 22
0.0
 32
0.0
 14
0.0
 24
0.0
 34
0.0
 15
0.0
 25
0.0
 35
0.0
146
0.0
 13
0.0
 23
0.0
 33
0.0
 16
1.0
 26
0.0
 36
0.0
 17
0.0
 27
1.0
 37
0.0
 76
0
330
210
345
0
346
0
  0
LAYOUT
  5
2B2
102
{ACAD_REACTORS
330
1A
102
}
100
AcDbPlotSettings
  1

  2
none_device
  4

  6

 40
0.0
 41
0.0
 42
0.0
 43
0.0
 44
210.0
 45
297.0
 46
0.0
 47
0.0
 48
0.0
 49
0.0
140
0.0
141
0.0
142
1.0
143
1.0
 70
0
 72
1
 73
0
 74
0
  7

 75
0
147
1.0
148
0.0
149
0.0
100
AcDbLayout
  1
Layout1
 70
0
 71
1
 10
0.0
 20
0.0
 11
210.0
 21
297.0
 12
0.0
 22
0.0
 32
0.0
 14
0.0
 24
0.0
 34
0.0
 15
0.0
 25
0.0
 35
0.0
146
0.0
 13
0.0
 23
0.0
 33
0.0
 16
1.0
 26
0.0
 36
0.0
 17
0.0
 27
1.0
 37
0.0
 76
0
330
211
345
0
346
0
  0
ENDSEC
  0
EOF
