999
DXF file: C:\Users\sesa63760\Dev\_Creo\CAD\MCADUE0001357_3D-CAD\drw0001_5.dxf
999
Pro/ENGINEER 2019471 by Parametric Technology Corporation
  0
SECTION
  2
HEADER
  9
$ACADVER
  1
AC1024
  9
$DWGCODEPAGE
  3
ANSI_1252
  9
$EXTMAX
 10
336.8377654092
 20
476.3848396501
 30
0.0
  9
$EXTMIN
 10
0.0
 20
0.0
 30
0.0
  9
$LIMMIN
 10
0.0
 20
0.0
  9
$LIMMAX
 10
336.8377654092
 20
476.3848396501
  9
$VIEWCTR
 10
168.4188827046
 20
238.1924198251
  9
$VIEWSIZE
 40
476.3848396501
  9
$CLAYER
  8
0
  9
$LTSCALE
 40
31.053233992
  9
$CELTYPE
  6
BYLAYER
  9
$DIMSCALE
 40
1.0
  9
$DIMASZ
 40
4.0099733977
  9
$DIMEXO
 40
1.0
  9
$DIMDLI
 40
21.4549616672
  9
$DIMEXE
 40
1.0
  9
$DIMCEN
 40
5.0814382896
  9
$DIMLFAC
 40
1.0
  9
$DIMBLK
  1
_FILLED
  9
$DIMALT
 70
0
  9
$DIMALTF
 40
0.0393700787
  9
$DIMTXT
 40
5.6139627568
  9
$DIMTOL
 70
1
  9
$DIMLIM
 70
0
  9
$DIMTFAC
 40
1.0
  9
$DIMTP
 40
0.01
  9
$DIMTM
 40
0.01
  9
$DIMGAP
 40
0.625
  9
$DIMDSEP
 70
46
  9
$AUNITS
 70
0
  9
$PDMODE
 70
3
  9
$PDSIZE
 40
0.3125
  9
$HANDSEED
  5
28B
  9
$TILEMODE
 70
1
  9
$MEASUREMENT
 70
1
  9
$INSUNITS
 70
4
  0
ENDSEC
  0
SECTION
  2
CLASSES
  0
CLASS
  1
ACDBDICTIONARYWDFLT
  2
AcDbDictionaryWithDefault
  3
AutoCAD 2000
 90
0
 91
1
280
0
281
0
  0
CLASS
  1
ACDBPLACEHOLDER
  2
AcDbPlaceHolder
  3
AutoCAD 2000
 90
0
 91
1
280
0
281
0
  0
CLASS
  1
LAYOUT
  2
AcDbLayout
  3
AutoCAD 2000
 90
0
 91
0
280
0
281
0
  0
ENDSEC
  0
SECTION
  2
TABLES
  0
TABLE
  2
VPORT
  5
8
100
AcDbSymbolTable
 70
2
  0
VPORT
  5
1F4
100
AcDbSymbolTableRecord
100
AcDbViewportTableRecord
  2
*ACTIVE
 70
0
 10
0.0
 20
0.0
 11
1.0
 21
1.0
 12
168.4188827046
 22
238.1924198251
 13
0.0
 23
0.0
 14
1.0
 24
1.0
 15
0.0
 25
0.0
 16
0.0
 26
0.0
 36
1.0
 17
0.0
 27
0.0
 37
0.0
 40
476.3848396501
 41
0.7070707071
 42
50.0
 43
0.0
 44
0.0
 50
0.0
 51
0.0
 71
0
 72
100
 73
1
 74
1
 75
0
 76
0
 77
0
 78
0
  0
ENDTAB
  0
TABLE
  2
LTYPE
  5
5
100
AcDbSymbolTable
 70
6
  0
LTYPE
  5
14
100
AcDbSymbolTableRecord
100
AcDbLinetypeTableRecord
  2
BYBLOCK
 70
0
  3

 72
65
 73
0
 40
0.0
  0
LTYPE
  5
15
100
AcDbSymbolTableRecord
100
AcDbLinetypeTableRecord
  2
BYLAYER
 70
0
  3

 72
65
 73
0
 40
0.0
  0
LTYPE
  5
16
100
AcDbSymbolTableRecord
100
AcDbLinetypeTableRecord
  2
CONTINUOUS
 70
64
  3
Solid line
 72
65
 73
0
 40
0.0
  0
LTYPE
  5
1F5
100
AcDbSymbolTableRecord
100
AcDbLinetypeTableRecord
  2
CENTER
 70
64
  3
____ _ ____ _ ____ _ ____ _ ____ _ ____ _ ____
 72
65
 73
4
 40
0.6
 49
0.375
 74
0
 49
-0.075
 74
0
 49
0.075
 74
0
 49
-0.075
 74
0
  0
LTYPE
  5
1F6
100
AcDbSymbolTableRecord
100
AcDbLinetypeTableRecord
  2
HIDDEN
 70
64
  3
- - - - - - - - - - - - - - - - - - - -
 72
65
 73
2
 40
0.2
 49
0.1
 74
0
 49
-0.1
 74
0
  0
LTYPE
  5
1F7
100
AcDbSymbolTableRecord
100
AcDbLinetypeTableRecord
  2
PHANTOM
 70
64
  3
_____ _ _ _____ _ _ _____ _ _ _____
 72
65
 73
6
 40
0.8
 49
0.45
 74
0
 49
-0.05
 74
0
 49
0.1
 74
0
 49
-0.05
 74
0
 49
0.1
 74
0
 49
-0.05
 74
0
  0
LTYPE
  5
1F8
100
AcDbSymbolTableRecord
100
AcDbLinetypeTableRecord
  2
DOT
 70
64
  3
. . . . . . . . . . . . . . . . . . . .
 72
65
 73
2
 40
0.2
 49
0.1
 74
0
 49
-0.1
 74
0
  0
LTYPE
  5
1F9
100
AcDbSymbolTableRecord
100
AcDbLinetypeTableRecord
  2
DASHED
 70
64
  3
- - - - - - - - - - - - - - - - - - - -
 72
65
 73
2
 40
0.2
 49
0.1
 74
0
 49
-0.1
 74
0
  0
ENDTAB
  0
TABLE
  2
LAYER
  5
2
100
AcDbSymbolTable
 70
36
  0
LAYER
  5
10
100
AcDbSymbolTableRecord
100
AcDbLayerTableRecord
  2
0
 70
0
 62
7
  6
CONTINUOUS
370
-3
390
F
  0
LAYER
  5
1FA
100
AcDbSymbolTableRecord
100
AcDbLayerTableRecord
  2
DEFAULT_1
 70
0
 62
7
  6
CENTER
370
-3
390
F
  0
LAYER
  5
1FB
100
AcDbSymbolTableRecord
100
AcDbLayerTableRecord
  2
DEFAULT_2
 70
0
 62
8
  6
HIDDEN
370
-3
390
F
  0
LAYER
  5
1FC
100
AcDbSymbolTableRecord
100
AcDbLayerTableRecord
  2
DEFAULT_3
 70
0
 62
7
  6
PHANTOM
370
-3
390
F
  0
LAYER
  5
1FD
100
AcDbSymbolTableRecord
100
AcDbLayerTableRecord
  2
00_COMPONENTS
 70
0
 62
7
  6
CONTINUOUS
370
-3
390
F
  0
LAYER
  5
1FE
100
AcDbSymbolTableRecord
100
AcDbLayerTableRecord
  2
01_1_DEFAULT_DATUMS
 70
0
 62
7
  6
CONTINUOUS
370
-3
390
F
  0
LAYER
  5
1FF
100
AcDbSymbolTableRecord
100
AcDbLayerTableRecord
  2
01_PLANES
 70
0
 62
7
  6
CONTINUOUS
370
-3
390
F
  0
LAYER
  5
200
100
AcDbSymbolTableRecord
100
AcDbLayerTableRecord
  2
02_COORD_SYS
 70
0
 62
7
  6
CONTINUOUS
370
-3
390
F
  0
LAYER
  5
201
100
AcDbSymbolTableRecord
100
AcDbLayerTableRecord
  2
03_AXES
 70
0
 62
7
  6
CONTINUOUS
370
-3
390
F
  0
LAYER
  5
202
100
AcDbSymbolTableRecord
100
AcDbLayerTableRecord
  2
04_POINTS
 70
0
 62
7
  6
CONTINUOUS
370
-3
390
F
  0
LAYER
  5
203
100
AcDbSymbolTableRecord
100
AcDbLayerTableRecord
  2
05_CURVES
 70
0
 62
7
  6
CONTINUOUS
370
-3
390
F
  0
LAYER
  5
204
100
AcDbSymbolTableRecord
100
AcDbLayerTableRecord
  2
06_SURFS
 70
0
 62
7
  6
CONTINUOUS
370
-3
390
F
  0
LAYER
  5
205
100
AcDbSymbolTableRecord
100
AcDbLayerTableRecord
  2
07_COSMETICS
 70
0
 62
7
  6
CONTINUOUS
370
-3
390
F
  0
LAYER
  5
206
100
AcDbSymbolTableRecord
100
AcDbLayerTableRecord
  2
10_NOTES
 70
0
 62
7
  6
CONTINUOUS
370
-3
390
F
  0
LAYER
  5
207
100
AcDbSymbolTableRecord
100
AcDbLayerTableRecord
  2
11_NOTES_PUB
 70
0
 62
7
  6
CONTINUOUS
370
-3
390
F
  0
LAYER
  5
208
100
AcDbSymbolTableRecord
100
AcDbLayerTableRecord
  2
13_REF_GTOL
 70
0
 62
7
  6
CONTINUOUS
370
-3
390
F
  0
LAYER
  5
209
100
AcDbSymbolTableRecord
100
AcDbLayerTableRecord
  2
16_MISC
 70
0
 62
7
  6
CONTINUOUS
370
-3
390
F
  0
LAYER
  5
20A
100
AcDbSymbolTableRecord
100
AcDbLayerTableRecord
  2
17_NO_PRINT
 70
0
 62
7
  6
CONTINUOUS
370
-3
390
F
  0
LAYER
  5
20B
100
AcDbSymbolTableRecord
100
AcDbLayerTableRecord
  2
18_DATUM_CAMS_JOINTS
 70
0
 62
7
  6
CONTINUOUS
370
-3
390
F
  0
LAYER
  5
20C
100
AcDbSymbolTableRecord
100
AcDbLayerTableRecord
  2
19_DATUM_FUNCTIONAL
 70
0
 62
7
  6
CONTINUOUS
370
-3
390
F
  0
LAYER
  5
20D
100
AcDbSymbolTableRecord
100
AcDbLayerTableRecord
  2
20_DATUM_KINEMATIC_SCHEME
 70
0
 62
7
  6
CONTINUOUS
370
-3
390
F
  0
ENDTAB
  0
TABLE
  2
STYLE
  5
3
100
AcDbSymbolTable
 70
1
  0
STYLE
  5
11
100
AcDbSymbolTableRecord
100
AcDbTextStyleTableRecord
  2
STANDARD
 70
0
 40
0.0
 41
0.8
 50
0.0
 71
0
 42
0.2
  3
txt
  4

  0
STYLE
  5
20E
100
AcDbSymbolTableRecord
100
AcDbTextStyleTableRecord
  2
TEXTSTYLE_1
 70
0
 40
0.0
 41
0.8
 50
0.0
 71
0
 42
0.2
  3
gdt
  4

  0
ENDTAB
  0
TABLE
  2
VIEW
  5
6
100
AcDbSymbolTable
 70
0
  0
ENDTAB
  0
TABLE
  2
UCS
  5
7
100
AcDbSymbolTable
 70
0
  0
ENDTAB
  0
TABLE
  2
APPID
  5
9
100
AcDbSymbolTable
 70
1
  0
APPID
  5
20F
100
AcDbSymbolTableRecord
100
AcDbRegAppTableRecord
  2
ACAD
 70
0
  0
ENDTAB
  0
TABLE
  2
BLOCK_RECORD
  5
1
100
AcDbSymbolTable
 70
0
  0
BLOCK_RECORD
  5
210
100
AcDbSymbolTableRecord
100
AcDbBlockTableRecord
  2
*Model_Space
  0
BLOCK_RECORD
  5
211
100
AcDbSymbolTableRecord
100
AcDbBlockTableRecord
  2
*Paper_Space
  0
BLOCK_RECORD
  5
212
100
AcDbSymbolTableRecord
100
AcDbBlockTableRecord
  2
_FILLED
  0
ENDTAB
  0
TABLE
  2
DIMSTYLE
  5
A
100
AcDbSymbolTable
 70
1
100
AcDbDimStyleTable
 71
0
  0
DIMSTYLE
105
213
100
AcDbSymbolTableRecord
100
AcDbDimStyleTableRecord
  2
STANDARD
 70
0
  3

  4

 40
1.0
 41
4.0099733977
 42
1.0
 43
0.38
 44
1.0
 45
0.0
 46
0.0
 47
0.01
 48
0.01
140
5.6139627568
141
0.09
142
0.0
143
25.4
144
1.0
145
0.0
146
1.0
147
0.625
 71
1
 72
0
 73
0
 74
0
 75
0
 76
0
 77
1
 78
8
 79
2
170
0
171
1
172
0
173
0
174
0
175
0
176
0
177
0
178
0
270
2
179
2
271
2
272
2
273
2
274
2
275
0
280
0
281
0
282
0
283
1
284
8
285
0
286
0
287
3
288
0
340
11
278
46
341
212
342
212
343
212
344
212
  0
ENDTAB
  0
ENDSEC
  0
SECTION
  2
BLOCKS
  0
BLOCK
  5
20
100
AcDbEntity
  8
0
100
AcDbBlockBegin
  2
*Model_Space
 70
0
 10
0.0
 20
0.0
 30
0.0
  3
*Model_Space
  1

  0
ENDBLK
  5
21
100
AcDbEntity
  8
0
100
AcDbBlockEnd
  0
BLOCK
  5
1C
100
AcDbEntity
  8
0
100
AcDbBlockBegin
  2
*Paper_Space
 70
0
 10
0.0
 20
0.0
 30
0.0
  3
*Paper_Space
  1

  0
ENDBLK
  5
1D
100
AcDbEntity
  8
0
100
AcDbBlockEnd
  0
BLOCK
  5
214
100
AcDbEntity
  8
0
100
AcDbBlockBegin
  2
_FILLED
 70
64
 10
0.0
 20
0.0
  3
_FILLED
  1

  0
SOLID
  5
215
100
AcDbEntity
  8
0
  6
BYBLOCK
 62
0
100
AcDbTrace
 10
0.0
 20
0.0
 11
-1.0
 21
0.25
 12
-1.0
 22
-0.25
 13
-1.0
 23
-0.25
  0
ENDBLK
  5
216
100
AcDbEntity
  8
0
  6
BYBLOCK
 62
0
100
AcDbBlockEnd
  0
ENDSEC
  0
SECTION
  2
ENTITIES
  0
LINE
  5
217
100
AcDbEntity
  8
0
100
AcDbLine
 62
7
  6
CONTINUOUS
 10
71.4630552044
 20
38.7755102041
 11
247.4630552044
 21
38.7755102041
  0
LINE
  5
218
100
AcDbEntity
  8
0
100
AcDbLine
 62
7
  6
CONTINUOUS
 10
71.4630552044
 20
39.7755102041
 11
247.4630552044
 21
39.7755102041
  0
LINE
  5
219
100
AcDbEntity
  8
0
100
AcDbLine
 62
7
  6
CONTINUOUS
 10
268.9630552044
 20
41.0755102041
 11
254.9630552044
 21
41.0755102041
  0
LINE
  5
21A
100
AcDbEntity
  8
0
100
AcDbLine
 62
7
  6
CONTINUOUS
 10
268.9630552044
 20
42.5755102041
 11
254.9630552044
 21
42.5755102041
  0
LINE
  5
21B
100
AcDbEntity
  8
0
100
AcDbLine
 62
7
  6
CONTINUOUS
 10
250.4630552044
 20
59.0755102041
 11
254.9630552044
 21
59.0755102041
  0
LINE
  5
21C
100
AcDbEntity
  8
0
100
AcDbLine
 62
7
  6
CONTINUOUS
 10
250.4630552044
 20
60.0755102041
 11
254.9630552044
 21
60.0755102041
  0
LINE
  5
21D
100
AcDbEntity
  8
0
100
AcDbLine
 62
7
  6
CONTINUOUS
 10
249.6630552044
 20
102.2755102041
 11
249.4630552044
 21
102.2755102041
  0
LINE
  5
21E
100
AcDbEntity
  8
0
100
AcDbLine
 62
7
  6
CONTINUOUS
 10
249.6630552044
 20
113.2755102041
 11
249.4630552044
 21
113.2755102041
  0
LINE
  5
21F
100
AcDbEntity
  8
0
100
AcDbLine
 62
7
  6
CONTINUOUS
 10
69.4630552044
 20
436.7755102041
 11
69.4630552044
 21
40.7755102041
  0
LINE
  5
220
100
AcDbEntity
  8
0
100
AcDbLine
 62
7
  6
CONTINUOUS
 10
71.4630552044
 20
38.7755102041
 11
71.4630552044
 21
438.7755102041
  0
LINE
  5
221
100
AcDbEntity
  8
0
100
AcDbLine
 62
7
  6
CONTINUOUS
 10
272.1955961341
 20
212.570418597
 11
272.8441322544
 21
212.7199158359
  0
LINE
  5
222
100
AcDbEntity
  8
0
100
AcDbLine
 62
7
  6
CONTINUOUS
 10
272.1955961341
 20
212.570418597
 11
271.4630552044
 21
212.5448377041
  0
LINE
  5
223
100
AcDbEntity
  8
0
100
AcDbLine
 62
7
  6
CONTINUOUS
 10
276.670563048
 20
222.6937508167
 11
276.7041302044
 21
222.6937508167
  0
LINE
  5
224
100
AcDbEntity
  8
0
100
AcDbLine
 62
7
  6
CONTINUOUS
 10
276.6005272553
 20
222.8937508167
 11
276.7041302044
 21
222.8937508167
  0
LINE
  5
225
100
AcDbEntity
  8
0
100
AcDbLine
 62
7
  6
CONTINUOUS
 10
276.6393518996
 20
223.3937508167
 11
276.5932017968
 21
223.3937508167
  0
LINE
  5
226
100
AcDbEntity
  8
0
100
AcDbLine
 62
7
  6
CONTINUOUS
 10
276.6929255174
 20
228.4937513502
 11
276.7033706528
 21
228.4937513797
  0
LINE
  5
227
100
AcDbEntity
  8
0
100
AcDbLine
 62
7
  6
CONTINUOUS
 10
250.5119120835
 20
365.7449535062
 11
249.6630552044
 21
364.2755102041
  0
LINE
  5
228
100
AcDbEntity
  8
0
100
AcDbLine
 62
7
  6
CONTINUOUS
 10
250.5119120835
 20
111.8060669019
 11
249.6630552044
 21
113.2755102041
  0
LINE
  5
229
100
AcDbEntity
  8
0
100
AcDbLine
 62
7
  6
CONTINUOUS
 10
271.4630552044
 20
256.2204627041
 11
272.1955961341
 21
256.1948818111
  0
LINE
  5
22A
100
AcDbEntity
  8
0
100
AcDbLine
 62
7
  6
CONTINUOUS
 10
272.1955961341
 20
256.1948818111
 11
272.8441322544
 21
256.0453845722
  0
LINE
  5
22B
100
AcDbEntity
  8
0
100
AcDbLine
 62
7
  6
CONTINUOUS
 10
247.4630552044
 20
438.7755102041
 11
247.4630552044
 21
38.7755102041
  0
LINE
  5
22C
100
AcDbEntity
  8
0
100
AcDbLine
 62
7
  6
CONTINUOUS
 10
249.4630552044
 20
40.7755102041
 11
249.4630552044
 21
436.7755102041
  0
LINE
  5
22D
100
AcDbEntity
  8
0
100
AcDbLine
 62
7
  6
CONTINUOUS
 10
249.6630552044
 20
375.2755102041
 11
249.6630552044
 21
364.2755102041
  0
LINE
  5
22E
100
AcDbEntity
  8
0
100
AcDbLine
 62
7
  6
CONTINUOUS
 10
249.6630552044
 20
113.2755102041
 11
249.6630552044
 21
102.2755102041
  0
LINE
  5
22F
100
AcDbEntity
  8
0
100
AcDbLine
 62
7
  6
CONTINUOUS
 10
250.4630552044
 20
59.0755102041
 11
250.4630552044
 21
103.6603781019
  0
LINE
  5
230
100
AcDbEntity
  8
0
100
AcDbLine
 62
7
  6
CONTINUOUS
 10
250.4630552044
 20
111.8906423063
 11
250.4630552044
 21
365.6603781019
  0
LINE
  5
231
100
AcDbEntity
  8
0
100
AcDbLine
 62
7
  6
CONTINUOUS
 10
250.4630552044
 20
373.8906423063
 11
250.4630552044
 21
418.4755102041
  0
LINE
  5
232
100
AcDbEntity
  8
0
100
AcDbLine
 62
7
  6
CONTINUOUS
 10
250.5119120835
 20
373.8060669019
 11
250.5119120835
 21
365.7449535062
  0
LINE
  5
233
100
AcDbEntity
  8
0
100
AcDbLine
 62
7
  6
CONTINUOUS
 10
250.5119120835
 20
111.8060669019
 11
250.5119120835
 21
103.7449535062
  0
LINE
  5
234
100
AcDbEntity
  8
0
100
AcDbLine
 62
7
  6
CONTINUOUS
 10
250.7130552044
 20
373.0557530959
 11
250.7130552044
 21
366.4952673123
  0
LINE
  5
235
100
AcDbEntity
  8
0
100
AcDbLine
 62
7
  6
CONTINUOUS
 10
250.7130552044
 20
111.0557530959
 11
250.7130552044
 21
104.4952673123
  0
LINE
  5
236
100
AcDbEntity
  8
0
100
AcDbLine
 62
7
  6
CONTINUOUS
 10
254.9630552044
 20
41.0755102041
 11
254.9630552044
 21
436.0755102041
  0
LINE
  5
237
100
AcDbEntity
  8
0
100
AcDbLine
 62
7
  6
CONTINUOUS
 10
268.9630552044
 20
436.0755102041
 11
268.9630552044
 21
41.0755102041
  0
LINE
  5
238
100
AcDbEntity
  8
0
100
AcDbLine
 62
7
  6
CONTINUOUS
 10
271.4630552044
 20
43.5755102041
 11
271.4630552044
 21
433.5755102041
  0
LINE
  5
239
100
AcDbEntity
  8
0
100
AcDbLine
 62
7
  6
CONTINUOUS
 10
272.1955961341
 20
256.1948818111
 11
272.1955961341
 21
253.6889110414
  0
LINE
  5
23A
100
AcDbEntity
  8
0
100
AcDbLine
 62
7
  6
CONTINUOUS
 10
272.1955961341
 20
215.0763892194
 11
272.1955961341
 21
212.570418597
  0
LINE
  5
23B
100
AcDbEntity
  8
0
100
AcDbLine
 62
7
  6
CONTINUOUS
 10
272.8441371412
 20
212.7199180078
 11
272.8441371412
 21
215.2087576992
  0
LINE
  5
23C
100
AcDbEntity
  8
0
100
AcDbLine
 62
7
  6
CONTINUOUS
 10
272.8441371412
 20
253.5565348701
 11
272.8441371412
 21
256.0453824004
  0
LINE
  5
23D
100
AcDbEntity
  8
0
100
AcDbLine
 62
7
  6
CONTINUOUS
 10
273.3320209464
 20
247.686611972
 11
273.3320209464
 21
221.0786884361
  0
LINE
  5
23E
100
AcDbEntity
  8
0
100
AcDbLine
 62
7
  6
CONTINUOUS
 10
276.7041302044
 20
228.7211987088
 11
276.7041302044
 21
228.6937508167
  0
LINE
  5
23F
100
AcDbEntity
  8
0
100
AcDbLine
 62
7
  6
CONTINUOUS
 10
276.7041302044
 20
250.1057317998
 11
276.7041302044
 21
229.1112788455
  0
LINE
  5
240
100
AcDbEntity
  8
0
100
AcDbLine
 62
7
  6
CONTINUOUS
 10
276.7041302044
 20
227.7197594251
 11
276.7041302044
 21
222.8937508167
  0
LINE
  5
241
100
AcDbEntity
  8
0
100
AcDbLine
 62
7
  6
CONTINUOUS
 10
276.7041302044
 20
222.6937508167
 11
276.7041302044
 21
218.6595686084
  0
LINE
  5
242
100
AcDbEntity
  8
0
100
AcDbLine
 62
7
  6
CONTINUOUS
 10
250.5119120835
 20
103.7449535062
 11
249.6630552044
 21
102.2755102041
  0
LINE
  5
243
100
AcDbEntity
  8
0
100
AcDbLine
 62
7
  6
CONTINUOUS
 10
249.6630552044
 20
364.2755102041
 11
249.4630552044
 21
364.2755102041
  0
LINE
  5
244
100
AcDbEntity
  8
0
100
AcDbLine
 62
7
  6
CONTINUOUS
 10
249.6630552044
 20
375.2755102041
 11
249.4630552044
 21
375.2755102041
  0
LINE
  5
245
100
AcDbEntity
  8
0
100
AcDbLine
 62
7
  6
CONTINUOUS
 10
250.5119120835
 20
373.8060669019
 11
249.6630552044
 21
375.2755102041
  0
LINE
  5
246
100
AcDbEntity
  8
0
100
AcDbLine
 62
7
  6
CONTINUOUS
 10
250.4630552044
 20
417.4755102041
 11
254.9630552044
 21
417.4755102041
  0
LINE
  5
247
100
AcDbEntity
  8
0
100
AcDbLine
 62
7
  6
CONTINUOUS
 10
250.4630552044
 20
418.4755102041
 11
254.9630552044
 21
418.4755102041
  0
LINE
  5
248
100
AcDbEntity
  8
0
100
AcDbLine
 62
7
  6
CONTINUOUS
 10
268.9630552044
 20
434.5755102041
 11
254.9630552044
 21
434.5755102041
  0
LINE
  5
249
100
AcDbEntity
  8
0
100
AcDbLine
 62
7
  6
CONTINUOUS
 10
268.9630552044
 20
436.0755102041
 11
254.9630552044
 21
436.0755102041
  0
LINE
  5
24A
100
AcDbEntity
  8
0
100
AcDbLine
 62
7
  6
CONTINUOUS
 10
71.4630552044
 20
437.7755102041
 11
247.4630552044
 21
437.7755102041
  0
LINE
  5
24B
100
AcDbEntity
  8
0
100
AcDbLine
 62
7
  6
CONTINUOUS
 10
71.4630552044
 20
438.7755102041
 11
247.4630552044
 21
438.7755102041
  0
ARC
  5
24C
100
AcDbEntity
  8
0
100
AcDbCircle
 62
7
  6
CONTINUOUS
 10
308.9796202866
 20
228.4339099194
 40
32.2763051083
100
AcDbArc
 50
179.754552225
 51
179.8937719501
  0
ARC
  5
24D
100
AcDbEntity
  8
0
100
AcDbCircle
 62
7
  6
CONTINUOUS
 10
264.3311593278
 20
228.7220944916
 40
12.3729709089
100
AcDbArc
 50
359.8713382733
 51
359.9958518798
  0
ARC
  5
24E
100
AcDbEntity
  8
0
100
AcDbCircle
 62
7
  6
CONTINUOUS
 10
285.3484669756
 20
228.6299814681
 40
8.6540001813
100
AcDbArc
 50
178.5091694837
 51
179.3936568664
  0
ARC
  5
24F
100
AcDbEntity
  8
0
100
AcDbCircle
 62
7
  6
CONTINUOUS
 10
283.4777935571
 20
228.6541584758
 40
6.7831770739
100
AcDbArc
 50
179.4306475179
 51
179.6655716205
  0
ARC
  5
250
100
AcDbEntity
  8
0
100
AcDbCircle
 62
7
  6
CONTINUOUS
 10
270.2044692773
 20
218.6594252041
 40
6.4996609271
100
AcDbArc
 50
293.9615778076
 51
360.0
  0
ARC
  5
251
100
AcDbEntity
  8
0
100
AcDbCircle
 62
7
  6
CONTINUOUS
 10
270.2044692773
 20
250.1058752041
 40
6.4996609271
100
AcDbArc
 50
0.0
 51
66.0384221924
  0
ARC
  5
252
100
AcDbEntity
  8
0
100
AcDbCircle
 62
7
  6
CONTINUOUS
 10
268.9630552044
 20
433.5755102041
 40
2.5
100
AcDbArc
 50
0.0
 51
90.0
  0
ARC
  5
253
100
AcDbEntity
  8
0
100
AcDbCircle
 62
7
  6
CONTINUOUS
 10
268.9630552044
 20
43.5755102041
 40
2.5
100
AcDbArc
 50
270.0
 51
360.0
  0
ARC
  5
254
100
AcDbEntity
  8
0
100
AcDbCircle
 62
7
  6
CONTINUOUS
 10
247.4630552044
 20
40.7755102041
 40
2.0
100
AcDbArc
 50
270.0
 51
360.0
  0
ARC
  5
255
100
AcDbEntity
  8
0
100
AcDbCircle
 62
7
  6
CONTINUOUS
 10
71.4630552044
 20
40.7755102041
 40
2.0
100
AcDbArc
 50
180.0
 51
270.0
  0
ARC
  5
256
100
AcDbEntity
  8
0
100
AcDbCircle
 62
7
  6
CONTINUOUS
 10
247.4630552044
 20
436.7755102041
 40
2.0
100
AcDbArc
 50
0.0
 51
90.0
  0
ARC
  5
257
100
AcDbEntity
  8
0
100
AcDbCircle
 62
7
  6
CONTINUOUS
 10
71.4630552044
 20
436.7755102041
 40
2.0
100
AcDbArc
 50
90.0
 51
180.0
  0
ARC
  5
258
100
AcDbEntity
  8
0
100
AcDbCircle
 62
7
  6
CONTINUOUS
 10
278.5721245084
 20
223.2937988681
 40
1.9332916697
100
AcDbArc
 50
183.1771445639
 51
185.7211762957
  0
ARC
  5
259
100
AcDbEntity
  8
0
100
AcDbCircle
 62
7
  6
CONTINUOUS
 10
249.2130552044
 20
111.0557530959
 40
1.5
100
AcDbArc
 50
0.0
 51
30.0138417934
  0
ARC
  5
25A
100
AcDbEntity
  8
0
100
AcDbCircle
 62
7
  6
CONTINUOUS
 10
249.2130552044
 20
104.4952673123
 40
1.5
100
AcDbArc
 50
329.9861582066
 51
360.0
  0
ARC
  5
25B
100
AcDbEntity
  8
0
100
AcDbCircle
 62
7
  6
CONTINUOUS
 10
249.2130552044
 20
373.0557530959
 40
1.5
100
AcDbArc
 50
0.0
 51
30.0138417934
  0
ARC
  5
25C
100
AcDbEntity
  8
0
100
AcDbCircle
 62
7
  6
CONTINUOUS
 10
249.2130552044
 20
366.4952673123
 40
1.5
100
AcDbArc
 50
329.9861582066
 51
360.0
  0
ARC
  5
25D
100
AcDbEntity
  8
0
100
AcDbCircle
 62
7
  6
CONTINUOUS
 10
250.4630552044
 20
58.0755102041
 40
1.0
100
AcDbArc
 50
90.0
 51
180.0
  0
ARC
  5
25E
100
AcDbEntity
  8
0
100
AcDbCircle
 62
7
  6
CONTINUOUS
 10
250.4630552044
 20
419.4755102041
 40
1.0
100
AcDbArc
 50
180.0
 51
270.0
  0
SPLINE
  5
25F
100
AcDbEntity
  8
0
100
AcDbSpline
 62
7
  6
CONTINUOUS
 70
0
 71
3
 72
9
 73
5
 74
0
 42
0.0000001
 43
0.0000001
 44
0.0000000001
 40
0.0
 40
0.0
 40
0.0
 40
0.0
 40
0.2667804393
 40
1.0
 40
1.0
 40
1.0
 40
1.0
 10
276.5867846486
 20
223.1937508167
 30
0.0
 10
276.5856877126
 20
223.1669707069
 30
0.0
 10
276.5837186772
 20
223.0665346737
 30
0.0
 10
276.5896444796
 20
222.9657724669
 30
0.0
 10
276.6002963493
 20
222.8928824744
 30
0.0
  0
SPLINE
  5
260
100
AcDbEntity
  8
0
100
AcDbSpline
 62
7
  6
CONTINUOUS
 70
0
 71
3
 72
11
 73
7
 74
0
 42
0.0000001
 43
0.0000001
 44
0.0000000001
 40
0.0
 40
0.0
 40
0.0
 40
0.0
 40
0.3941455405
 40
0.6976831037
 40
0.8988537193
 40
1.0
 40
1.0
 40
1.0
 40
1.0
 10
276.6002963493
 20
222.8928824744
 30
0.0
 10
276.6044009459
 20
222.8647950099
 30
0.0
 10
276.6131093754
 20
222.8156031307
 30
0.0
 10
276.6313065105
 20
222.7520864244
 30
0.0
 10
276.6468362546
 20
222.7138482904
 30
0.0
 10
276.6632787498
 20
222.6937508167
 30
0.0
 10
276.6705631595
 20
222.6937508167
 30
0.0
  0
SPLINE
  5
261
100
AcDbEntity
  8
0
100
AcDbSpline
 62
7
  6
CONTINUOUS
 70
0
 71
3
 72
9
 73
5
 74
0
 42
0.0000001
 43
0.0000001
 44
0.0000000001
 40
0.0
 40
0.0
 40
0.0
 40
0.0
 40
0.5000022591
 40
1.0
 40
1.0
 40
1.0
 40
1.0
 10
276.6947320313
 20
228.6937508167
 30
0.0
 10
276.6894075518
 20
227.7768850509
 30
0.0
 10
276.6719402936
 20
225.9431950461
 30
0.0
 10
276.6243090753
 20
224.1098555634
 30
0.0
 10
276.5867846486
 20
223.1937508167
 30
0.0
  0
SPLINE
  5
262
100
AcDbEntity
  8
0
100
AcDbSpline
 62
7
  6
CONTINUOUS
 70
0
 71
3
 72
9
 73
5
 74
0
 42
0.0000001
 43
0.0000001
 44
0.0000000001
 40
0.0
 40
0.0
 40
0.0
 40
0.0
 40
0.214279732
 40
1.0
 40
1.0
 40
1.0
 40
1.0
 10
276.7041302044
 20
229.1112788455
 30
0.0
 10
276.7041302044
 20
229.1029294901
 30
0.0
 10
276.7037699128
 20
229.0639648666
 30
0.0
 10
276.7025649478
 20
229.0250153199
 30
0.0
 10
276.7016085523
 20
228.9944148709
 30
0.0
  0
SPLINE
  5
263
100
AcDbEntity
  8
0
100
AcDbSpline
 62
7
  6
CONTINUOUS
 70
0
 71
3
 72
9
 73
5
 74
0
 42
0.0000001
 43
0.0000001
 44
0.0000000001
 40
0.0
 40
0.0
 40
0.0
 40
0.0
 40
0.2335087567
 40
1.0
 40
1.0
 40
1.0
 40
1.0
 10
276.7016085523
 20
228.9944148709
 30
0.0
 10
276.7012697276
 20
228.9835739697
 30
0.0
 10
276.6997818969
 20
228.9371490908
 30
0.0
 10
276.6983160717
 20
228.8907229791
 30
0.0
 10
276.6973961607
 20
228.8551322891
 30
0.0
  0
SPLINE
  5
264
100
AcDbEntity
  8
0
100
AcDbSpline
 62
7
  6
CONTINUOUS
 70
0
 71
3
 72
13
 73
9
 74
0
 42
0.0000001
 43
0.0000001
 44
0.0000000001
 40
0.0
 40
0.0
 40
0.0
 40
0.0
 40
0.3374225614
 40
0.6194305982
 40
0.7355864633
 40
0.835103456
 40
0.9210495461
 40
1.0
 40
1.0
 40
1.0
 40
1.0
 10
271.4630551141
 20
253.3027828688
 30
0.0
 10
271.5620398999
 20
253.3147243133
 30
0.0
 10
271.742829522
 20
253.3444288688
 30
0.0
 10
271.9516673339
 20
253.4120276182
 30
0.0
 10
272.0784092469
 20
253.4879376901
 30
0.0
 10
272.1448613342
 20
253.5486083242
 30
0.0
 10
272.1862039913
 20
253.6164445549
 30
0.0
 10
272.1955774512
 20
253.665582917
 30
0.0
 10
272.1955824019
 20
253.6889113998
 30
0.0
  0
SPLINE
  5
265
100
AcDbEntity
  8
0
100
AcDbSpline
 62
7
  6
CONTINUOUS
 70
0
 71
3
 72
19
 73
15
 74
0
 42
0.0000001
 43
0.0000001
 44
0.0000000001
 40
0.0
 40
0.0
 40
0.0
 40
0.0
 40
0.1768421827
 40
0.3565595548
 40
0.5289587457
 40
0.6831804164
 40
0.750438343
 40
0.8099265969
 40
0.8610316986
 40
0.9035777643
 40
0.9376879251
 40
0.9640595646
 40
0.9840150229
 40
1.0
 40
1.0
 40
1.0
 40
1.0
 10
273.3320208732
 20
247.6866133209
 30
0.0
 10
273.5392237878
 20
247.6853339701
 30
0.0
 10
273.9569875616
 20
247.676216212
 30
0.0
 10
274.5759597237
 20
247.6419033237
 30
0.0
 10
275.1667325321
 20
247.585727199
 30
0.0
 10
275.623805498
 20
247.5196349178
 30
0.0
 10
275.9466722966
 20
247.4549130784
 30
0.0
 10
276.14911557
 20
247.4051406739
 30
0.0
 10
276.3208132472
 20
247.3526103453
 30
0.0
 10
276.4605297461
 20
247.2983681628
 30
0.0
 10
276.5681838851
 20
247.2430339663
 30
0.0
 10
276.6447500542
 20
247.1871922698
 30
0.0
 10
276.6922839506
 20
247.1301516353
 30
0.0
 10
276.7041561501
 20
247.0878339366
 30
0.0
 10
276.704156263
 20
247.0691042595
 30
0.0
  0
SPLINE
  5
266
100
AcDbEntity
  8
0
100
AcDbSpline
 62
7
  6
CONTINUOUS
 70
0
 71
3
 72
9
 73
5
 74
0
 42
0.0000001
 43
0.0000001
 44
0.0000000001
 40
0.0
 40
0.0
 40
0.0
 40
0.0
 40
0.2492549977
 40
1.0
 40
1.0
 40
1.0
 40
1.0
 10
272.844133297
 20
253.556518833
 30
0.0
 10
272.7928162457
 20
253.5767076567
 30
0.0
 10
272.5833239583
 20
253.6482367345
 30
0.0
 10
272.3616125435
 20
253.6837299902
 30
0.0
 10
272.1955961325
 20
253.6888667468
 30
0.0
  0
SPLINE
  5
267
100
AcDbEntity
  8
0
100
AcDbSpline
 62
7
  6
CONTINUOUS
 70
0
 71
3
 72
14
 73
10
 74
0
 42
0.0000001
 43
0.0000001
 44
0.0000000001
 40
0.0
 40
0.0
 40
0.0
 40
0.0
 40
0.3159338604
 40
0.4625676959
 40
0.5983223222
 40
0.7208451046
 40
0.8283780947
 40
0.920601251
 40
1.0
 40
1.0
 40
1.0
 40
1.0
 10
271.4630556963
 20
252.6389531318
 30
0.0
 10
271.6354049686
 20
252.6931593465
 30
0.0
 10
271.886490829
 20
252.7787806237
 30
0.0
 10
272.1954957202
 20
252.9265402085
 30
0.0
 10
272.3962831812
 20
253.0424117366
 30
0.0
 10
272.5670801784
 20
253.1638810356
 30
0.0
 10
272.7029383544
 20
253.2895188527
 30
0.0
 10
272.7981023264
 20
253.4193724613
 30
0.0
 10
272.8341284144
 20
253.5122152976
 30
0.0
 10
272.8442165985
 20
253.5564860587
 30
0.0
  0
LINE
  5
268
100
AcDbEntity
  8
0
100
AcDbLine
 62
7
  6
CONTINUOUS
 10
276.703611338
 20
228.5721770503
 11
276.7040990409
 21
228.6943101333
  0
SPLINE
  5
269
100
AcDbEntity
  8
0
100
AcDbSpline
 62
7
  6
CONTINUOUS
 70
0
 71
3
 72
13
 73
9
 74
0
 42
0.0000001
 43
0.0000001
 44
0.0000000001
 40
0.0
 40
0.0
 40
0.0
 40
0.0
 40
0.0789504455
 40
0.1648965159
 40
0.2644134741
 40
0.3805693123
 40
0.6625773054
 40
1.0
 40
1.0
 40
1.0
 40
1.0
 10
272.1955824065
 20
215.0763888611
 30
0.0
 10
272.1955774767
 20
215.0997173453
 30
0.0
 10
272.1862040505
 20
215.1488557153
 30
0.0
 10
272.1448614375
 20
215.2166919671
 30
0.0
 10
272.0784093828
 20
215.2773626261
 30
0.0
 10
271.9516674902
 20
215.3532727219
 30
0.0
 10
271.7428296351
 20
215.420871522
 30
0.0
 10
271.562039955
 20
215.4505760861
 30
0.0
 10
271.4630551133
 20
215.462517536
 30
0.0
  0
SPLINE
  5
26A
100
AcDbEntity
  8
0
100
AcDbSpline
 62
7
  6
CONTINUOUS
 70
0
 71
3
 72
11
 73
7
 74
0
 42
0.0000001
 43
0.0000001
 44
0.0000000001
 40
0.0
 40
0.0
 40
0.0
 40
0.0
 40
0.2326896514
 40
0.4776530729
 40
0.7341269888
 40
1.0
 40
1.0
 40
1.0
 40
1.0
 10
271.4630542207
 20
217.1933913898
 30
0.0
 10
271.7721184127
 20
217.3567437961
 30
0.0
 10
272.3388204862
 20
217.8280645171
 30
0.0
 10
272.9225881764
 20
218.7801285627
 30
0.0
 10
273.2625052781
 20
219.892021322
 30
0.0
 10
273.3320214567
 20
220.6792584178
 30
0.0
 10
273.3320219384
 20
221.0786888133
 30
0.0
  0
SPLINE
  5
26B
100
AcDbEntity
  8
0
100
AcDbSpline
 62
7
  6
CONTINUOUS
 70
0
 71
3
 72
11
 73
7
 74
0
 42
0.0000001
 43
0.0000001
 44
0.0000000001
 40
0.0
 40
0.0
 40
0.0
 40
0.0
 40
0.2658730153
 40
0.5223469293
 40
0.767310349
 40
1.0
 40
1.0
 40
1.0
 40
1.0
 10
273.3320219341
 20
247.6866115947
 30
0.0
 10
273.3320214558
 20
248.0860419964
 30
0.0
 10
273.262505277
 20
248.8732790962
 30
0.0
 10
272.9225881719
 20
249.985171855
 30
0.0
 10
272.3388204832
 20
250.937235894
 30
0.0
 10
271.7721184118
 20
251.408556612
 30
0.0
 10
271.4630542206
 20
251.5719090184
 30
0.0
  0
SPLINE
  5
26C
100
AcDbEntity
  8
0
100
AcDbSpline
 62
7
  6
CONTINUOUS
 70
0
 71
3
 72
19
 73
15
 74
0
 42
0.0000001
 43
0.0000001
 44
0.0000000001
 40
0.0
 40
0.0
 40
0.0
 40
0.0
 40
0.0159849775
 40
0.0359404353
 40
0.0623120739
 40
0.0964222336
 40
0.1389682983
 40
0.1900733991
 40
0.2495616523
 40
0.3168195784
 40
0.4710412489
 40
0.6434404407
 40
0.8231578147
 40
1.0
 40
1.0
 40
1.0
 40
1.0
 10
276.704156269
 20
221.6961947615
 30
0.0
 10
276.7041561562
 20
221.6774650842
 30
0.0
 10
276.6922839574
 20
221.6351473861
 30
0.0
 10
276.6447500604
 20
221.5781067547
 30
0.0
 10
276.5681838906
 20
221.5222650663
 30
0.0
 10
276.4605297513
 20
221.4669308825
 30
0.0
 10
276.320813252
 20
221.4126887174
 30
0.0
 10
276.1491155745
 20
221.3601584108
 30
0.0
 10
275.9466723006
 20
221.3103860328
 30
0.0
 10
275.6238055006
 20
221.2456642362
 30
0.0
 10
275.1667325332
 20
221.1795720167
 30
0.0
 10
274.5759597239
 20
221.1233959732
 30
0.0
 10
273.9569875611
 20
221.0890831711
 30
0.0
 10
273.5392237876
 20
221.0799654717
 30
0.0
 10
273.3320208732
 20
221.0786861501
 30
0.0
  0
SPLINE
  5
26D
100
AcDbEntity
  8
0
100
AcDbSpline
 62
7
  6
CONTINUOUS
 70
0
 71
3
 72
13
 73
9
 74
0
 42
0.0000001
 43
0.0000001
 44
0.0000000001
 40
0.0
 40
0.0
 40
0.0
 40
0.0
 40
0.125720834
 40
0.2513919152
 40
0.3769477024
 40
0.5023532663
 40
0.7518830317
 40
1.0
 40
1.0
 40
1.0
 40
1.0
 10
272.8441371412
 20
215.2087511324
 30
0.0
 10
273.1442826729
 20
215.3524954076
 30
0.0
 10
273.722002096
 20
215.6895288758
 30
0.0
 10
274.4973838386
 20
216.323412871
 30
0.0
 10
275.1684891434
 20
217.0657526581
 30
0.0
 10
275.9091080389
 20
218.1688580811
 30
0.0
 10
276.5365038079
 20
219.7164243297
 30
0.0
 10
276.7041212823
 20
221.0394163623
 30
0.0
 10
276.7041302044
 20
221.6961973966
 30
0.0
  0
SPLINE
  5
26E
100
AcDbEntity
  8
0
100
AcDbSpline
 62
7
  6
CONTINUOUS
 70
0
 71
3
 72
9
 73
5
 74
0
 42
0.0000001
 43
0.0000001
 44
0.0000000001
 40
0.0
 40
0.0
 40
0.0
 40
0.0
 40
0.75074519
 40
1.0
 40
1.0
 40
1.0
 40
1.0
 10
272.195596132
 20
215.0764281821
 30
0.0
 10
272.3616124052
 20
215.0815638271
 30
0.0
 10
272.5833237855
 20
215.1170555588
 30
0.0
 10
272.792816237
 20
215.1885832835
 30
0.0
 10
272.8441333014
 20
215.2087717668
 30
0.0
  0
SPLINE
  5
26F
100
AcDbEntity
  8
0
100
AcDbSpline
 62
7
  6
CONTINUOUS
 70
0
 71
3
 72
14
 73
10
 74
0
 42
0.0000001
 43
0.0000001
 44
0.0000000001
 40
0.0
 40
0.0
 40
0.0
 40
0.0
 40
0.0793932293
 40
0.1716094324
 40
0.2791393293
 40
0.4016608781
 40
0.5374162633
 40
0.6840550889
 40
1.0
 40
1.0
 40
1.0
 40
1.0
 10
272.8442185779
 20
215.2087988895
 30
0.0
 10
272.8340915843
 20
215.2530579661
 30
0.0
 10
272.7981348265
 20
215.3459099499
 30
0.0
 10
272.7029615392
 20
215.4757630045
 30
0.0
 10
272.5671086274
 20
215.6013927801
 30
0.0
 10
272.396314266
 20
215.7228662894
 30
0.0
 10
272.1955394725
 20
215.8387692942
 30
0.0
 10
271.8865005846
 20
215.9864924781
 30
0.0
 10
271.6353998394
 20
216.0720924498
 30
0.0
 10
271.4630558768
 20
216.1263419626
 30
0.0
  0
SPLINE
  5
270
100
AcDbEntity
  8
0
100
AcDbSpline
 62
7
  6
CONTINUOUS
 70
0
 71
3
 72
9
 73
5
 74
0
 42
0.0000001
 43
0.0000001
 44
0.0000000001
 40
0.0
 40
0.0
 40
0.0
 40
0.0
 40
0.4999985203
 40
1.0
 40
1.0
 40
1.0
 40
1.0
 10
276.6393518996
 20
223.3937508167
 30
0.0
 10
276.6645345575
 20
224.243462195
 30
0.0
 10
276.6944106483
 20
225.9434962397
 30
0.0
 10
276.7019168748
 20
227.6436631292
 30
0.0
 10
276.7033706528
 20
228.4937513797
 30
0.0
  0
SPLINE
  5
271
100
AcDbEntity
  8
0
100
AcDbSpline
 62
7
  6
CONTINUOUS
 70
0
 71
3
 72
11
 73
7
 74
0
 42
0.0000001
 43
0.0000001
 44
0.0000000001
 40
0.0
 40
0.0
 40
0.0
 40
0.0
 40
0.087352189
 40
0.282454251
 40
0.5888552645
 40
1.0
 40
1.0
 40
1.0
 40
1.0
 10
276.6949136525
 20
222.8937508167
 30
0.0
 10
276.6919248085
 20
222.8937508167
 30
0.0
 10
276.6859060544
 20
222.9041912654
 30
0.0
 10
276.6794490529
 20
222.921367381
 30
0.0
 10
276.6710863423
 20
222.9524932692
 30
0.0
 10
276.666279895
 20
222.9762695617
 30
0.0
 10
276.6637499823
 20
222.9901079403
 30
0.0
  0
SPLINE
  5
272
100
AcDbEntity
  8
0
100
AcDbSpline
 62
7
  6
CONTINUOUS
 70
0
 71
3
 72
9
 73
5
 74
0
 42
0.0000001
 43
0.0000001
 44
0.0000000001
 40
0.0
 40
0.0
 40
0.0
 40
0.0
 40
0.2208447509
 40
1.0
 40
1.0
 40
1.0
 40
1.0
 10
276.6637499823
 20
222.9901079403
 30
0.0
 10
276.6622668367
 20
222.9982206041
 30
0.0
 10
276.6560070725
 20
223.0350381879
 30
0.0
 10
276.6513765057
 20
223.0721236641
 30
0.0
 10
276.6484629632
 20
223.1010738324
 30
0.0
  0
SPLINE
  5
273
100
AcDbEntity
  8
0
100
AcDbSpline
 62
7
  6
CONTINUOUS
 70
0
 71
3
 72
9
 73
5
 74
0
 42
0.0000001
 43
0.0000001
 44
0.0000000001
 40
0.0
 40
0.0
 40
0.0
 40
0.0
 40
0.239970746
 40
1.0
 40
1.0
 40
1.0
 40
1.0
 10
276.6418044007
 20
223.1866496187
 30
0.0
 10
276.6408685585
 20
223.203193301
 30
0.0
 10
276.6377753042
 20
223.2721780694
 30
0.0
 10
276.6377972324
 20
223.3412933529
 30
0.0
 10
276.6393518996
 20
223.3937508167
 30
0.0
  0
SPLINE
  5
274
100
AcDbEntity
  8
0
100
AcDbSpline
 62
7
  6
CONTINUOUS
 70
0
 71
3
 72
13
 73
9
 74
0
 42
0.0000001
 43
0.0000001
 44
0.0000000001
 40
0.0
 40
0.0
 40
0.0
 40
0.0
 40
0.2481035855
 40
0.4976424522
 40
0.6230549926
 40
0.7486167519
 40
0.8742863714
 40
1.0
 40
1.0
 40
1.0
 40
1.0
 10
276.7041302044
 20
247.0691029993
 30
0.0
 10
276.7041213465
 20
247.725848562
 30
0.0
 10
276.5365127418
 20
249.0488280683
 30
0.0
 10
275.909128052
 20
250.5964077295
 30
0.0
 10
275.1684800544
 20
251.6995648819
 30
0.0
 10
274.4973469723
 20
252.4419206162
 30
0.0
 10
273.7219701644
 20
253.0757996759
 30
0.0
 10
273.1442654462
 20
253.4128121606
 30
0.0
 10
272.8441371412
 20
253.556548194
 30
0.0
  0
SPLINE
  5
275
100
AcDbEntity
  8
0
100
AcDbSpline
 62
7
  6
CONTINUOUS
 70
0
 71
3
 72
9
 73
5
 74
0
 42
0.0000001
 43
0.0000001
 44
0.0000000001
 40
0.0
 40
0.0
 40
0.0
 40
0.0
 40
0.2607542008
 40
1.0
 40
1.0
 40
1.0
 40
1.0
 10
268.9630552044
 20
42.5755102041
 30
0.0
 10
269.0739484826
 20
42.6037489455
 30
0.0
 10
269.4991802392
 20
42.7121446318
 30
0.0
 10
269.9238772035
 20
42.823295736
 30
0.0
 10
270.2349672079
 20
42.915331608
 30
0.0
  0
SPLINE
  5
276
100
AcDbEntity
  8
0
100
AcDbSpline
 62
7
  6
CONTINUOUS
 70
0
 71
3
 72
10
 73
6
 74
0
 42
0.0000001
 43
0.0000001
 44
0.0000000001
 40
0.0
 40
0.0
 40
0.0
 40
0.0
 40
0.6660015205
 40
0.8713654257
 40
1.0
 40
1.0
 40
1.0
 40
1.0
 10
270.2349672079
 20
42.915331608
 30
0.0
 10
270.5411988755
 20
43.0059301427
 30
0.0
 10
270.9441593235
 20
43.1349569173
 30
0.0
 10
271.3617847142
 20
43.3660415267
 30
0.0
 10
271.4630552044
 20
43.5138290316
 30
0.0
 10
271.4630552044
 20
43.5755102041
 30
0.0
  0
SPLINE
  5
277
100
AcDbEntity
  8
0
100
AcDbSpline
 62
7
  6
CONTINUOUS
 70
0
 71
3
 72
10
 73
6
 74
0
 42
0.0000001
 43
0.0000001
 44
0.0000000001
 40
0.0
 40
0.0
 40
0.0
 40
0.0
 40
0.1286346861
 40
0.333998573
 40
1.0
 40
1.0
 40
1.0
 40
1.0
 10
271.4630552044
 20
433.5755102041
 30
0.0
 10
271.4630552044
 20
433.6371912188
 30
0.0
 10
271.3617852486
 20
433.7849783467
 30
0.0
 10
270.9441614576
 20
434.0160626115
 30
0.0
 10
270.5412025016
 20
434.1450890752
 30
0.0
 10
270.2349719581
 20
434.2356873948
 30
0.0
  0
SPLINE
  5
278
100
AcDbEntity
  8
0
100
AcDbSpline
 62
7
  6
CONTINUOUS
 70
0
 71
3
 72
9
 73
5
 74
0
 42
0.0000001
 43
0.0000001
 44
0.0000000001
 40
0.0
 40
0.0
 40
0.0
 40
0.0
 40
0.2350550806
 40
1.0
 40
1.0
 40
1.0
 40
1.0
 10
270.2349719581
 20
434.2356873948
 30
0.0
 10
270.1360532455
 20
434.2649525002
 30
0.0
 10
269.7138494285
 20
434.3848305662
 30
0.0
 10
269.2883789315
 20
434.4926671973
 30
0.0
 10
268.9630552044
 20
434.5755102041
 30
0.0
  0
SPLINE
  5
279
100
AcDbEntity
  8
0
100
AcDbSpline
 62
7
  6
CONTINUOUS
 70
0
 71
3
 72
10
 73
6
 74
0
 42
0.0000001
 43
0.0000001
 44
0.0000000001
 40
0.0
 40
0.0
 40
0.0
 40
0.0
 40
0.3574790078
 40
0.6430185413
 40
1.0
 40
1.0
 40
1.0
 40
1.0
 10
69.4630552044
 20
40.7755102041
 30
0.0
 10
69.4630552044
 20
40.6598897122
 30
0.0
 10
69.6414896701
 20
40.4861577144
 30
0.0
 10
69.913966412
 20
40.3346093187
 30
0.0
 10
70.1067324021
 20
40.2486559856
 30
0.0
 10
70.2136553287
 20
40.2050853574
 30
0.0
  0
SPLINE
  5
27A
100
AcDbEntity
  8
0
100
AcDbSpline
 62
7
  6
CONTINUOUS
 70
0
 71
3
 72
9
 73
5
 74
0
 42
0.0000001
 43
0.0000001
 44
0.0000000001
 40
0.0
 40
0.0
 40
0.0
 40
0.0
 40
0.2329783003
 40
1.0
 40
1.0
 40
1.0
 40
1.0
 10
70.2136553287
 20
40.2050853574
 30
0.0
 10
70.2624730167
 20
40.1851923616
 30
0.0
 10
70.4731305811
 20
40.1025504671
 30
0.0
 10
70.6869859283
 20
40.0283383962
 30
0.0
 10
70.8515836067
 20
39.9733134751
 30
0.0
  0
SPLINE
  5
27B
100
AcDbEntity
  8
0
100
AcDbSpline
 62
7
  6
CONTINUOUS
 70
0
 71
3
 72
9
 73
5
 74
0
 42
0.0000001
 43
0.0000001
 44
0.0000000001
 40
0.0
 40
0.0
 40
0.0
 40
0.0
 40
0.2451957529
 40
1.0
 40
1.0
 40
1.0
 40
1.0
 10
70.8515836067
 20
39.9733134751
 30
0.0
 10
70.9014005659
 20
39.9566596906
 30
0.0
 10
71.104831418
 20
39.8895117112
 30
0.0
 10
71.3089751648
 20
39.8245554039
 30
0.0
 10
71.4630552044
 20
39.7755102041
 30
0.0
  0
SPLINE
  5
27C
100
AcDbEntity
  8
0
100
AcDbSpline
 62
7
  6
CONTINUOUS
 70
0
 71
3
 72
9
 73
5
 74
0
 42
0.0000001
 43
0.0000001
 44
0.0000000001
 40
0.0
 40
0.0
 40
0.0
 40
0.0
 40
0.7548041433
 40
1.0
 40
1.0
 40
1.0
 40
1.0
 10
71.4630552044
 20
437.7755102041
 30
0.0
 10
71.3089767879
 20
437.7264655209
 30
0.0
 10
71.1048351641
 20
437.6615098878
 30
0.0
 10
70.9014064114
 20
437.5943626538
 30
0.0
 10
70.8515899437
 20
437.5777090516
 30
0.0
  0
SPLINE
  5
27D
100
AcDbEntity
  8
0
100
AcDbSpline
 62
7
  6
CONTINUOUS
 70
0
 71
3
 72
9
 73
5
 74
0
 42
0.0000001
 43
0.0000001
 44
0.0000000001
 40
0.0
 40
0.0
 40
0.0
 40
0.0
 40
0.273008133
 40
1.0
 40
1.0
 40
1.0
 40
1.0
 10
70.8515899437
 20
437.5777090516
 30
0.0
 10
70.7763622238
 20
437.5525604896
 30
0.0
 10
70.501472691
 20
437.4587024097
 30
0.0
 10
70.228627426
 20
437.357216418
 30
0.0
 10
70.0363228332
 20
437.2698485123
 30
0.0
  0
SPLINE
  5
27E
100
AcDbEntity
  8
0
100
AcDbSpline
 62
7
  6
CONTINUOUS
 70
0
 71
3
 72
10
 73
6
 74
0
 42
0.0000001
 43
0.0000001
 44
0.0000000001
 40
0.0
 40
0.0
 40
0.0
 40
0.0
 40
0.3497481686
 40
0.6304141619
 40
1.0
 40
1.0
 40
1.0
 40
1.0
 10
70.0363228332
 20
437.2698485123
 30
0.0
 10
69.9534587491
 20
437.2322016658
 30
0.0
 10
69.8050198369
 20
437.1578309646
 30
0.0
 10
69.5906529345
 20
437.0222480905
 30
0.0
 10
69.4630552044
 20
436.8716876282
 30
0.0
 10
69.4630552044
 20
436.7755102041
 30
0.0
  0
SPLINE
  5
27F
100
AcDbEntity
  8
0
100
AcDbSpline
 62
7
  6
CONTINUOUS
 70
0
 71
3
 72
10
 73
6
 74
0
 42
0.0000001
 43
0.0000001
 44
0.0000000001
 40
0.0
 40
0.0
 40
0.0
 40
0.0
 40
0.3574790078
 40
0.6430185413
 40
1.0
 40
1.0
 40
1.0
 40
1.0
 10
249.4630552044
 20
436.7755102041
 30
0.0
 10
249.4630552044
 20
436.891130696
 30
0.0
 10
249.2846207386
 20
437.0648626938
 30
0.0
 10
249.0121439967
 20
437.2164110895
 30
0.0
 10
248.8193780066
 20
437.3023644226
 30
0.0
 10
248.71245508
 20
437.3459350508
 30
0.0
  0
SPLINE
  5
280
100
AcDbEntity
  8
0
100
AcDbSpline
 62
7
  6
CONTINUOUS
 70
0
 71
3
 72
9
 73
5
 74
0
 42
0.0000001
 43
0.0000001
 44
0.0000000001
 40
0.0
 40
0.0
 40
0.0
 40
0.0
 40
0.2329783003
 40
1.0
 40
1.0
 40
1.0
 40
1.0
 10
248.71245508
 20
437.3459350508
 30
0.0
 10
248.663637392
 20
437.3658280466
 30
0.0
 10
248.4529798276
 20
437.4484699411
 30
0.0
 10
248.2391244804
 20
437.522682012
 30
0.0
 10
248.074526802
 20
437.5777069331
 30
0.0
  0
SPLINE
  5
281
100
AcDbEntity
  8
0
100
AcDbSpline
 62
7
  6
CONTINUOUS
 70
0
 71
3
 72
9
 73
5
 74
0
 42
0.0000001
 43
0.0000001
 44
0.0000000001
 40
0.0
 40
0.0
 40
0.0
 40
0.0
 40
0.2451957529
 40
1.0
 40
1.0
 40
1.0
 40
1.0
 10
248.074526802
 20
437.5777069331
 30
0.0
 10
248.0247098428
 20
437.5943607175
 30
0.0
 10
247.8212789908
 20
437.661508697
 30
0.0
 10
247.6171352439
 20
437.7264650042
 30
0.0
 10
247.4630552044
 20
437.7755102041
 30
0.0
  0
SPLINE
  5
282
100
AcDbEntity
  8
0
100
AcDbSpline
 62
7
  6
CONTINUOUS
 70
0
 71
3
 72
9
 73
5
 74
0
 42
0.0000001
 43
0.0000001
 44
0.0000000001
 40
0.0
 40
0.0
 40
0.0
 40
0.0
 40
0.7548041433
 40
1.0
 40
1.0
 40
1.0
 40
1.0
 10
247.4630552044
 20
39.7755102041
 30
0.0
 10
247.6171336208
 20
39.8245548873
 30
0.0
 10
247.8212752447
 20
39.8895105204
 30
0.0
 10
248.0247039973
 20
39.9566577543
 30
0.0
 10
248.074520465
 20
39.9733113566
 30
0.0
  0
SPLINE
  5
283
100
AcDbEntity
  8
0
100
AcDbSpline
 62
7
  6
CONTINUOUS
 70
0
 71
3
 72
9
 73
5
 74
0
 42
0.0000001
 43
0.0000001
 44
0.0000000001
 40
0.0
 40
0.0
 40
0.0
 40
0.0
 40
0.2730081329
 40
1.0
 40
1.0
 40
1.0
 40
1.0
 10
248.074520465
 20
39.9733113566
 30
0.0
 10
248.1497481849
 20
39.9984599186
 30
0.0
 10
248.4246377177
 20
40.0923179985
 30
0.0
 10
248.6974829827
 20
40.1938039902
 30
0.0
 10
248.8897875754
 20
40.2811718958
 30
0.0
  0
SPLINE
  5
284
100
AcDbEntity
  8
0
100
AcDbSpline
 62
7
  6
CONTINUOUS
 70
0
 71
3
 72
10
 73
6
 74
0
 42
0.0000001
 43
0.0000001
 44
0.0000000001
 40
0.0
 40
0.0
 40
0.0
 40
0.0
 40
0.3497481686
 40
0.6304141619
 40
1.0
 40
1.0
 40
1.0
 40
1.0
 10
248.8897875754
 20
40.2811718958
 30
0.0
 10
248.9726516596
 20
40.3188187423
 30
0.0
 10
249.1210905718
 20
40.3931894436
 30
0.0
 10
249.3354574742
 20
40.5287723177
 30
0.0
 10
249.4630552044
 20
40.67933278
 30
0.0
 10
249.4630552044
 20
40.7755102041
 30
0.0
  0
SPLINE
  5
285
100
AcDbEntity
  8
0
100
AcDbSpline
 62
7
  6
CONTINUOUS
 70
0
 71
3
 72
9
 73
5
 74
0
 42
0.0000001
 43
0.0000001
 44
0.0000000001
 40
0.0
 40
0.0
 40
0.0
 40
0.0
 40
0.4713652251
 40
1.0
 40
1.0
 40
1.0
 40
1.0
 10
249.4630552083
 20
58.0755102041
 30
0.0
 10
249.4630552083
 20
58.3068111907
 30
0.0
 10
249.5769465493
 20
58.7990134831
 30
0.0
 10
249.8340027541
 20
59.2213954894
 30
0.0
 10
249.981021126
 20
59.4351142896
 30
0.0
  0
SPLINE
  5
286
100
AcDbEntity
  8
0
100
AcDbSpline
 62
7
  6
CONTINUOUS
 70
0
 71
3
 72
9
 73
5
 74
0
 42
0.0000001
 43
0.0000001
 44
0.0000000001
 40
0.0
 40
0.0
 40
0.0
 40
0.0
 40
0.2449486559
 40
1.0
 40
1.0
 40
1.0
 40
1.0
 10
249.981021126
 20
59.4351142896
 30
0.0
 10
250.0181172283
 20
59.4890404375
 30
0.0
 10
250.1732304151
 20
59.7066817387
 30
0.0
 10
250.3384349171
 20
59.9168387256
 30
0.0
 10
250.4630552044
 20
60.0755102041
 30
0.0
  0
SPLINE
  5
287
100
AcDbEntity
  8
0
100
AcDbSpline
 62
7
  6
CONTINUOUS
 70
0
 71
3
 72
9
 73
5
 74
0
 42
0.0000001
 43
0.0000001
 44
0.0000000001
 40
0.0
 40
0.0
 40
0.0
 40
0.0
 40
0.254552657
 40
1.0
 40
1.0
 40
1.0
 40
1.0
 10
250.4630552044
 20
417.4755102041
 30
0.0
 10
250.41656334
 20
417.5347054845
 30
0.0
 10
250.2340207135
 20
417.7672610451
 30
0.0
 10
250.0551734589
 20
418.003250123
 30
0.0
 10
249.9330646865
 20
418.1867623398
 30
0.0
  0
SPLINE
  5
288
100
AcDbEntity
  8
0
100
AcDbSpline
 62
7
  6
CONTINUOUS
 70
0
 71
3
 72
9
 73
5
 74
0
 42
0.0000001
 43
0.0000001
 44
0.0000000001
 40
0.0
 40
0.0
 40
0.0
 40
0.0
 40
0.2607049
 40
1.0
 40
1.0
 40
1.0
 40
1.0
 10
249.9330646865
 20
418.1867623398
 30
0.0
 10
249.8989957163
 20
418.2379631842
 30
0.0
 10
249.7718654572
 20
418.4365513675
 30
0.0
 10
249.6607589495
 20
418.6464992957
 30
0.0
 10
249.597032225
 20
418.80883737
 30
0.0
  0
ENDSEC
  0
SECTION
  2
OBJECTS
  0
DICTIONARY
  5
C
100
AcDbDictionary
280
0
281
1
  3
ACAD_GROUP
350
D
  3
ACAD_MLINESTYLE
350
17
  3
ACAD_LAYOUT
350
1A
  3
ACAD_PLOTSETTINGS
350
19
  3
ACAD_PLOTSTYLENAME
350
E
  0
DICTIONARY
  5
D
102
{ACAD_REACTORS
330
C
102
}
100
AcDbDictionary
280
0
281
1
  0
ACDBDICTIONARYWDFLT
  5
E
102
{ACAD_REACTORS
330
C
102
}
100
AcDbDictionary
281
1
  3
Normal
350
F
100
AcDbDictionaryWithDefault
340
F
  0
DICTIONARY
  5
17
102
{ACAD_REACTORS
330
C
102
}
100
AcDbDictionary
280
0
281
1
  3
Standard
350
18
  0
DICTIONARY
  5
19
102
{ACAD_REACTORS
330
C
102
}
100
AcDbDictionary
281
1
  0
DICTIONARY
  5
1A
102
{ACAD_REACTORS
330
C
102
}
100
AcDbDictionary
281
1
  3
Model
350
289
  3
Layout1
350
28A
  0
ACDBPLACEHOLDER
  5
F
102
{ACAD_REACTORS
330
E
102
}
  0
MLINESTYLE
  5
18
102
{ACAD_REACTORS
330
17
102
}
100
AcDbMlineStyle
  2
STANDARD
 70
0
  3

 62
256
 51
90.0
 52
90.0
 71
2
 49
0.5
 62
256
  6
BYLAYER
 49
-0.5
 62
256
  6
BYLAYER
  0
LAYOUT
  5
289
102
{ACAD_REACTORS
330
1A
102
}
100
AcDbPlotSettings
  1

  2
none_device
  4

  6

 40
0.0
 41
0.0
 42
0.0
 43
0.0
 44
210.0
 45
297.0
 46
0.0
 47
0.0
 48
0.0
 49
0.0
140
0.0
141
0.0
142
1.0
143
1.0
 70
1024
 72
1
 73
0
 74
0
  7

 75
0
147
1.0
148
0.0
149
0.0
100
AcDbLayout
  1
Model
 70
0
 71
0
 10
0.0
 20
0.0
 11
210.0
 21
297.0
 12
0.0
 22
0.0
 32
0.0
 14
0.0
 24
0.0
 34
0.0
 15
0.0
 25
0.0
 35
0.0
146
0.0
 13
0.0
 23
0.0
 33
0.0
 16
1.0
 26
0.0
 36
0.0
 17
0.0
 27
1.0
 37
0.0
 76
0
330
210
345
0
346
0
  0
LAYOUT
  5
28A
102
{ACAD_REACTORS
330
1A
102
}
100
AcDbPlotSettings
  1

  2
none_device
  4

  6

 40
0.0
 41
0.0
 42
0.0
 43
0.0
 44
210.0
 45
297.0
 46
0.0
 47
0.0
 48
0.0
 49
0.0
140
0.0
141
0.0
142
1.0
143
1.0
 70
0
 72
1
 73
0
 74
0
  7

 75
0
147
1.0
148
0.0
149
0.0
100
AcDbLayout
  1
Layout1
 70
0
 71
1
 10
0.0
 20
0.0
 11
210.0
 21
297.0
 12
0.0
 22
0.0
 32
0.0
 14
0.0
 24
0.0
 34
0.0
 15
0.0
 25
0.0
 35
0.0
146
0.0
 13
0.0
 23
0.0
 33
0.0
 16
1.0
 26
0.0
 36
0.0
 17
0.0
 27
1.0
 37
0.0
 76
0
330
211
345
0
346
0
  0
ENDSEC
  0
EOF
