999
DXF file: C:\Users\sesa63760\Dev\_Creo\CAD\MCADID0003859_3D-CAD\drw0001_5.dxf
999
Pro/ENGINEER 2019471 by Parametric Technology Corporation
  0
SECTION
  2
HEADER
  9
$ACADVER
  1
AC1024
  9
$DWGCODEPAGE
  3
ANSI_1252
  9
$EXTMAX
 10
86.8402984089
 20
122.8169934641
 30
0.0
  9
$EXTMIN
 10
0.0
 20
0.0
 30
0.0
  9
$LIMMIN
 10
0.0
 20
0.0
  9
$LIMMAX
 10
86.8402984089
 20
122.8169934641
  9
$VIEWCTR
 10
43.4201492045
 20
61.408496732
  9
$VIEWSIZE
 40
122.8169934641
  9
$CLAYER
  8
0
  9
$LTSCALE
 40
8.0058484628
  9
$CELTYPE
  6
BYLAYER
  9
$DIMSCALE
 40
1.0
  9
$DIMASZ
 40
1.0338130763
  9
$DIMEXO
 40
1.0
  9
$DIMDLI
 40
5.5313134834
  9
$DIMEXE
 40
1.0
  9
$DIMCEN
 40
1.3100479303
  9
$DIMLFAC
 40
1.0
  9
$DIMBLK
  1
_FILLED
  9
$DIMALT
 70
0
  9
$DIMALTF
 40
0.0393700787
  9
$DIMTXT
 40
1.4473383068
  9
$DIMTOL
 70
1
  9
$DIMLIM
 70
0
  9
$DIMTFAC
 40
1.0
  9
$DIMTP
 40
0.01
  9
$DIMTM
 40
0.01
  9
$DIMGAP
 40
0.625
  9
$DIMDSEP
 70
46
  9
$AUNITS
 70
0
  9
$PDMODE
 70
3
  9
$PDSIZE
 40
0.3125
  9
$HANDSEED
  5
31C
  9
$TILEMODE
 70
1
  9
$MEASUREMENT
 70
1
  9
$INSUNITS
 70
4
  0
ENDSEC
  0
SECTION
  2
CLASSES
  0
CLASS
  1
ACDBDICTIONARYWDFLT
  2
AcDbDictionaryWithDefault
  3
AutoCAD 2000
 90
0
 91
1
280
0
281
0
  0
CLASS
  1
ACDBPLACEHOLDER
  2
AcDbPlaceHolder
  3
AutoCAD 2000
 90
0
 91
1
280
0
281
0
  0
CLASS
  1
LAYOUT
  2
AcDbLayout
  3
AutoCAD 2000
 90
0
 91
0
280
0
281
0
  0
ENDSEC
  0
SECTION
  2
TABLES
  0
TABLE
  2
VPORT
  5
8
100
AcDbSymbolTable
 70
2
  0
VPORT
  5
1F4
100
AcDbSymbolTableRecord
100
AcDbViewportTableRecord
  2
*ACTIVE
 70
0
 10
0.0
 20
0.0
 11
1.0
 21
1.0
 12
43.4201492045
 22
61.408496732
 13
0.0
 23
0.0
 14
1.0
 24
1.0
 15
0.0
 25
0.0
 16
0.0
 26
0.0
 36
1.0
 17
0.0
 27
0.0
 37
0.0
 40
122.8169934641
 41
0.7070707071
 42
50.0
 43
0.0
 44
0.0
 50
0.0
 51
0.0
 71
0
 72
100
 73
1
 74
1
 75
0
 76
0
 77
0
 78
0
  0
ENDTAB
  0
TABLE
  2
LTYPE
  5
5
100
AcDbSymbolTable
 70
6
  0
LTYPE
  5
14
100
AcDbSymbolTableRecord
100
AcDbLinetypeTableRecord
  2
BYBLOCK
 70
0
  3

 72
65
 73
0
 40
0.0
  0
LTYPE
  5
15
100
AcDbSymbolTableRecord
100
AcDbLinetypeTableRecord
  2
BYLAYER
 70
0
  3

 72
65
 73
0
 40
0.0
  0
LTYPE
  5
16
100
AcDbSymbolTableRecord
100
AcDbLinetypeTableRecord
  2
CONTINUOUS
 70
64
  3
Solid line
 72
65
 73
0
 40
0.0
  0
LTYPE
  5
1F5
100
AcDbSymbolTableRecord
100
AcDbLinetypeTableRecord
  2
CENTER
 70
64
  3
____ _ ____ _ ____ _ ____ _ ____ _ ____ _ ____
 72
65
 73
4
 40
0.6
 49
0.375
 74
0
 49
-0.075
 74
0
 49
0.075
 74
0
 49
-0.075
 74
0
  0
LTYPE
  5
1F6
100
AcDbSymbolTableRecord
100
AcDbLinetypeTableRecord
  2
HIDDEN
 70
64
  3
- - - - - - - - - - - - - - - - - - - -
 72
65
 73
2
 40
0.2
 49
0.1
 74
0
 49
-0.1
 74
0
  0
LTYPE
  5
1F7
100
AcDbSymbolTableRecord
100
AcDbLinetypeTableRecord
  2
PHANTOM
 70
64
  3
_____ _ _ _____ _ _ _____ _ _ _____
 72
65
 73
6
 40
0.8
 49
0.45
 74
0
 49
-0.05
 74
0
 49
0.1
 74
0
 49
-0.05
 74
0
 49
0.1
 74
0
 49
-0.05
 74
0
  0
LTYPE
  5
1F8
100
AcDbSymbolTableRecord
100
AcDbLinetypeTableRecord
  2
DOT
 70
64
  3
. . . . . . . . . . . . . . . . . . . .
 72
65
 73
2
 40
0.2
 49
0.1
 74
0
 49
-0.1
 74
0
  0
LTYPE
  5
1F9
100
AcDbSymbolTableRecord
100
AcDbLinetypeTableRecord
  2
DASHED
 70
64
  3
- - - - - - - - - - - - - - - - - - - -
 72
65
 73
2
 40
0.2
 49
0.1
 74
0
 49
-0.1
 74
0
  0
ENDTAB
  0
TABLE
  2
LAYER
  5
2
100
AcDbSymbolTable
 70
36
  0
LAYER
  5
10
100
AcDbSymbolTableRecord
100
AcDbLayerTableRecord
  2
0
 70
0
 62
7
  6
CONTINUOUS
370
-3
390
F
  0
LAYER
  5
1FA
100
AcDbSymbolTableRecord
100
AcDbLayerTableRecord
  2
DEFAULT_1
 70
0
 62
7
  6
CENTER
370
-3
390
F
  0
LAYER
  5
1FB
100
AcDbSymbolTableRecord
100
AcDbLayerTableRecord
  2
DEFAULT_2
 70
0
 62
7
  6
HIDDEN
370
-3
390
F
  0
LAYER
  5
1FC
100
AcDbSymbolTableRecord
100
AcDbLayerTableRecord
  2
DEFAULT_3
 70
0
 62
7
  6
PHANTOM
370
-3
390
F
  0
LAYER
  5
1FD
100
AcDbSymbolTableRecord
100
AcDbLayerTableRecord
  2
00_COMPONENTS
 70
0
 62
7
  6
CONTINUOUS
370
-3
390
F
  0
LAYER
  5
1FE
100
AcDbSymbolTableRecord
100
AcDbLayerTableRecord
  2
01_1_DEFAULT_DATUMS
 70
0
 62
7
  6
CONTINUOUS
370
-3
390
F
  0
LAYER
  5
1FF
100
AcDbSymbolTableRecord
100
AcDbLayerTableRecord
  2
01_PLANES
 70
0
 62
7
  6
CONTINUOUS
370
-3
390
F
  0
LAYER
  5
200
100
AcDbSymbolTableRecord
100
AcDbLayerTableRecord
  2
02_COORD_SYS
 70
0
 62
7
  6
CONTINUOUS
370
-3
390
F
  0
LAYER
  5
201
100
AcDbSymbolTableRecord
100
AcDbLayerTableRecord
  2
03_AXES
 70
0
 62
7
  6
CONTINUOUS
370
-3
390
F
  0
LAYER
  5
202
100
AcDbSymbolTableRecord
100
AcDbLayerTableRecord
  2
04_POINTS
 70
0
 62
7
  6
CONTINUOUS
370
-3
390
F
  0
LAYER
  5
203
100
AcDbSymbolTableRecord
100
AcDbLayerTableRecord
  2
05_CURVES
 70
0
 62
7
  6
CONTINUOUS
370
-3
390
F
  0
LAYER
  5
204
100
AcDbSymbolTableRecord
100
AcDbLayerTableRecord
  2
06_SURFS
 70
0
 62
7
  6
CONTINUOUS
370
-3
390
F
  0
LAYER
  5
205
100
AcDbSymbolTableRecord
100
AcDbLayerTableRecord
  2
07_COSMETICS
 70
0
 62
7
  6
CONTINUOUS
370
-3
390
F
  0
LAYER
  5
206
100
AcDbSymbolTableRecord
100
AcDbLayerTableRecord
  2
10_NOTES
 70
0
 62
7
  6
CONTINUOUS
370
-3
390
F
  0
LAYER
  5
207
100
AcDbSymbolTableRecord
100
AcDbLayerTableRecord
  2
11_NOTES_PUB
 70
0
 62
7
  6
CONTINUOUS
370
-3
390
F
  0
LAYER
  5
208
100
AcDbSymbolTableRecord
100
AcDbLayerTableRecord
  2
13_REF_GTOL
 70
0
 62
7
  6
CONTINUOUS
370
-3
390
F
  0
LAYER
  5
209
100
AcDbSymbolTableRecord
100
AcDbLayerTableRecord
  2
16_MISC
 70
0
 62
7
  6
CONTINUOUS
370
-3
390
F
  0
LAYER
  5
20A
100
AcDbSymbolTableRecord
100
AcDbLayerTableRecord
  2
17_NO_PRINT
 70
0
 62
7
  6
CONTINUOUS
370
-3
390
F
  0
LAYER
  5
20B
100
AcDbSymbolTableRecord
100
AcDbLayerTableRecord
  2
18_DATUM_CAMS_JOINTS
 70
0
 62
7
  6
CONTINUOUS
370
-3
390
F
  0
LAYER
  5
20C
100
AcDbSymbolTableRecord
100
AcDbLayerTableRecord
  2
19_DATUM_FUNCTIONAL
 70
0
 62
7
  6
CONTINUOUS
370
-3
390
F
  0
LAYER
  5
20D
100
AcDbSymbolTableRecord
100
AcDbLayerTableRecord
  2
20_DATUM_KINEMATIC_SCHEME
 70
0
 62
7
  6
CONTINUOUS
370
-3
390
F
  0
ENDTAB
  0
TABLE
  2
STYLE
  5
3
100
AcDbSymbolTable
 70
1
  0
STYLE
  5
11
100
AcDbSymbolTableRecord
100
AcDbTextStyleTableRecord
  2
STANDARD
 70
0
 40
0.0
 41
1.0
 50
0.0
 71
0
 42
0.2
  3
ARIAL.TTF
  4

  0
STYLE
  5
20E
100
AcDbSymbolTableRecord
100
AcDbTextStyleTableRecord
  2
TEXTSTYLE_1
 70
0
 40
0.0
 41
0.8
 50
0.0
 71
0
 42
0.2
  3
gdt
  4

  0
ENDTAB
  0
TABLE
  2
VIEW
  5
6
100
AcDbSymbolTable
 70
0
  0
ENDTAB
  0
TABLE
  2
UCS
  5
7
100
AcDbSymbolTable
 70
0
  0
ENDTAB
  0
TABLE
  2
APPID
  5
9
100
AcDbSymbolTable
 70
1
  0
APPID
  5
20F
100
AcDbSymbolTableRecord
100
AcDbRegAppTableRecord
  2
ACAD
 70
0
  0
ENDTAB
  0
TABLE
  2
BLOCK_RECORD
  5
1
100
AcDbSymbolTable
 70
0
  0
BLOCK_RECORD
  5
210
100
AcDbSymbolTableRecord
100
AcDbBlockTableRecord
  2
*Model_Space
  0
BLOCK_RECORD
  5
211
100
AcDbSymbolTableRecord
100
AcDbBlockTableRecord
  2
*Paper_Space
  0
BLOCK_RECORD
  5
212
100
AcDbSymbolTableRecord
100
AcDbBlockTableRecord
  2
_FILLED
  0
ENDTAB
  0
TABLE
  2
DIMSTYLE
  5
A
100
AcDbSymbolTable
 70
1
100
AcDbDimStyleTable
 71
0
  0
DIMSTYLE
105
213
100
AcDbSymbolTableRecord
100
AcDbDimStyleTableRecord
  2
STANDARD
 70
0
  3

  4

 40
1.0
 41
1.0338130763
 42
1.0
 43
0.38
 44
1.0
 45
0.0
 46
0.0
 47
0.01
 48
0.01
140
1.4473383068
141
0.09
142
0.0
143
25.4
144
1.0
145
0.0
146
1.0
147
0.625
 71
1
 72
0
 73
0
 74
0
 75
0
 76
0
 77
1
 78
8
 79
2
170
0
171
1
172
0
173
0
174
0
175
0
176
0
177
0
178
0
270
2
179
2
271
2
272
2
273
2
274
2
275
0
280
0
281
0
282
0
283
1
284
8
285
0
286
0
287
3
288
0
340
11
278
46
341
212
342
212
343
212
344
212
  0
ENDTAB
  0
ENDSEC
  0
SECTION
  2
BLOCKS
  0
BLOCK
  5
20
100
AcDbEntity
  8
0
100
AcDbBlockBegin
  2
*Model_Space
 70
0
 10
0.0
 20
0.0
 30
0.0
  3
*Model_Space
  1

  0
ENDBLK
  5
21
100
AcDbEntity
  8
0
100
AcDbBlockEnd
  0
BLOCK
  5
1C
100
AcDbEntity
  8
0
100
AcDbBlockBegin
  2
*Paper_Space
 70
0
 10
0.0
 20
0.0
 30
0.0
  3
*Paper_Space
  1

  0
ENDBLK
  5
1D
100
AcDbEntity
  8
0
100
AcDbBlockEnd
  0
BLOCK
  5
214
100
AcDbEntity
  8
0
100
AcDbBlockBegin
  2
_FILLED
 70
64
 10
0.0
 20
0.0
  3
_FILLED
  1

  0
SOLID
  5
215
100
AcDbEntity
  8
0
  6
BYBLOCK
 62
0
100
AcDbTrace
 10
0.0
 20
0.0
 11
-1.0
 21
0.25
 12
-1.0
 22
-0.25
 13
-1.0
 23
-0.25
  0
ENDBLK
  5
216
100
AcDbEntity
  8
0
  6
BYBLOCK
 62
0
100
AcDbBlockEnd
  0
ENDSEC
  0
SECTION
  2
ENTITIES
  0
LINE
  5
217
100
AcDbEntity
  8
0
100
AcDbLine
 62
7
  6
BYLAYER
 10
10.1227635835
 20
56.5088237045
 11
10.1227635835
 21
66.6088287221
  0
LINE
  5
218
100
AcDbEntity
  8
0
100
AcDbLine
 62
7
  6
BYLAYER
 10
10.3227635835
 20
56.3588235294
 11
10.3227635835
 21
66.7588235294
  0
LINE
  5
219
100
AcDbEntity
  8
0
100
AcDbLine
 62
7
  6
BYLAYER
 10
10.5227635835
 20
55.7591394998
 11
10.5227635835
 21
67.3587901296
  0
LINE
  5
21A
100
AcDbEntity
  8
0
100
AcDbLine
 62
7
  6
BYLAYER
 10
10.7227635835
 20
55.5588235294
 11
10.7227635835
 21
67.5588235294
  0
LINE
  5
21B
100
AcDbEntity
  8
0
100
AcDbLine
 62
7
  6
BYLAYER
 10
13.1227635835
 20
53.058826397
 11
13.1227635835
 21
70.0588206619
  0
LINE
  5
21C
100
AcDbEntity
  8
0
100
AcDbLine
 62
7
  6
BYLAYER
 10
13.1227635835
 20
70.0588235294
 11
13.7736997866
 21
71.1862781056
  0
LINE
  5
21D
100
AcDbEntity
  8
0
100
AcDbLine
 62
7
  6
BYLAYER
 10
13.1227635835
 20
53.0588235294
 11
13.7736997866
 21
51.9313689532
  0
LINE
  5
21E
100
AcDbEntity
  8
0
100
AcDbLine
 62
7
  6
BYLAYER
 10
16.1227635835
 20
70.0588206619
 11
16.1227635835
 21
53.058826397
  0
LINE
  5
21F
100
AcDbEntity
  8
0
100
AcDbLine
 62
7
  6
BYLAYER
 10
16.8227635835
 20
68.674912608
 11
16.8227635835
 21
68.37381045
  0
LINE
  5
220
100
AcDbEntity
  8
0
100
AcDbLine
 62
7
  6
BYLAYER
 10
16.8227635835
 20
68.2697981132
 11
16.8227635835
 21
68.0210740497
  0
LINE
  5
221
100
AcDbEntity
  8
0
100
AcDbLine
 62
7
  6
BYLAYER
 10
16.8227635835
 20
67.7386266824
 11
16.8227635835
 21
67.4606356004
  0
LINE
  5
222
100
AcDbEntity
  8
0
100
AcDbLine
 62
7
  6
BYLAYER
 10
16.8227635835
 20
67.0088312935
 11
16.8227635835
 21
66.7105080552
  0
LINE
  5
223
100
AcDbEntity
  8
0
100
AcDbLine
 62
7
  6
BYLAYER
 10
16.8227635835
 20
66.1038681708
 11
16.8227635835
 21
65.7948011305
  0
LINE
  5
224
100
AcDbEntity
  8
0
100
AcDbLine
 62
7
  6
BYLAYER
 10
16.8227635835
 20
65.0528235736
 11
16.8227635835
 21
64.7429464003
  0
LINE
  5
225
100
AcDbEntity
  8
0
100
AcDbLine
 62
7
  6
BYLAYER
 10
16.8227635835
 20
63.8894789401
 11
16.8227635835
 21
63.5887513411
  0
LINE
  5
226
100
AcDbEntity
  8
0
100
AcDbLine
 62
7
  6
BYLAYER
 10
16.8227635835
 20
62.6512251241
 11
16.8227635835
 21
62.3693127319
  0
LINE
  5
227
100
AcDbEntity
  8
0
100
AcDbLine
 62
7
  6
BYLAYER
 10
16.8227635835
 20
61.3778606219
 11
16.8227635835
 21
61.1012621783
  0
LINE
  5
228
100
AcDbEntity
  8
0
100
AcDbLine
 62
7
  6
BYLAYER
 10
16.8227635835
 20
60.132874571
 11
16.8227635835
 21
59.8403770665
  0
LINE
  5
229
100
AcDbEntity
  8
0
100
AcDbLine
 62
7
  6
BYLAYER
 10
16.8227635835
 20
58.9412606495
 11
16.8227635835
 21
58.6347242379
  0
LINE
  5
22A
100
AcDbEntity
  8
0
100
AcDbLine
 62
7
  6
BYLAYER
 10
16.8227635835
 20
57.8337773527
 11
16.8227635835
 21
57.5230543665
  0
LINE
  5
22B
100
AcDbEntity
  8
0
100
AcDbLine
 62
7
  6
BYLAYER
 10
16.8227635835
 20
56.8460201049
 11
16.8227635835
 21
56.5410974366
  0
LINE
  5
22C
100
AcDbEntity
  8
0
100
AcDbLine
 62
7
  6
BYLAYER
 10
16.8227635835
 20
56.009736237
 11
16.8227635835
 21
55.720414352
  0
LINE
  5
22D
100
AcDbEntity
  8
0
100
AcDbLine
 62
7
  6
BYLAYER
 10
16.8227635835
 20
55.3518046004
 11
16.8227635835
 21
55.0873825422
  0
LINE
  5
22E
100
AcDbEntity
  8
0
100
AcDbLine
 62
7
  6
BYLAYER
 10
16.8227635835
 20
54.8933716593
 11
16.8227635835
 21
54.6623481704
  0
LINE
  5
22F
100
AcDbEntity
  8
0
100
AcDbLine
 62
7
  6
BYLAYER
 10
16.8227635835
 20
54.6491718257
 11
16.8227635835
 21
54.4589721911
  0
LINE
  5
230
100
AcDbEntity
  8
0
100
AcDbLine
 62
7
  6
BYLAYER
 10
10.5227635836
 20
67.3588235294
 11
10.7227635836
 21
67.5588235294
  0
LINE
  5
231
100
AcDbEntity
  8
0
100
AcDbLine
 62
7
  6
BYLAYER
 10
10.5227635836
 20
55.7588235294
 11
10.7227635836
 21
55.5588235294
  0
LINE
  5
232
100
AcDbEntity
  8
0
100
AcDbLine
 62
7
  6
BYLAYER
 10
19.4227635835
 20
54.4589721911
 11
19.4227635835
 21
54.6491718257
  0
LINE
  5
233
100
AcDbEntity
  8
0
100
AcDbLine
 62
7
  6
BYLAYER
 10
19.4227635835
 20
54.6623481704
 11
19.4227635835
 21
54.8933716593
  0
LINE
  5
234
100
AcDbEntity
  8
0
100
AcDbLine
 62
7
  6
BYLAYER
 10
19.4227635835
 20
55.0873825422
 11
19.4227635835
 21
55.3518046004
  0
LINE
  5
235
100
AcDbEntity
  8
0
100
AcDbLine
 62
7
  6
BYLAYER
 10
19.4227635835
 20
55.720414352
 11
19.4227635835
 21
56.009736237
  0
LINE
  5
236
100
AcDbEntity
  8
0
100
AcDbLine
 62
7
  6
BYLAYER
 10
19.4227635835
 20
56.5410974366
 11
19.4227635835
 21
56.8460201049
  0
LINE
  5
237
100
AcDbEntity
  8
0
100
AcDbLine
 62
7
  6
BYLAYER
 10
19.4227635835
 20
57.5230543665
 11
19.4227635835
 21
57.8337773527
  0
LINE
  5
238
100
AcDbEntity
  8
0
100
AcDbLine
 62
7
  6
BYLAYER
 10
19.4227635835
 20
58.6347242379
 11
19.4227635835
 21
58.9412606495
  0
LINE
  5
239
100
AcDbEntity
  8
0
100
AcDbLine
 62
7
  6
BYLAYER
 10
19.4227635835
 20
59.8403770665
 11
19.4227635835
 21
60.132874571
  0
LINE
  5
23A
100
AcDbEntity
  8
0
100
AcDbLine
 62
7
  6
BYLAYER
 10
19.4227635835
 20
61.1012621783
 11
19.4227635835
 21
61.3778606219
  0
LINE
  5
23B
100
AcDbEntity
  8
0
100
AcDbLine
 62
7
  6
BYLAYER
 10
19.4227635835
 20
62.3693127319
 11
19.4227635835
 21
62.6512251241
  0
LINE
  5
23C
100
AcDbEntity
  8
0
100
AcDbLine
 62
7
  6
BYLAYER
 10
19.4227635835
 20
63.5887513411
 11
19.4227635835
 21
63.8894789401
  0
LINE
  5
23D
100
AcDbEntity
  8
0
100
AcDbLine
 62
7
  6
BYLAYER
 10
19.4227635835
 20
64.7429464003
 11
19.4227635835
 21
65.0528235736
  0
LINE
  5
23E
100
AcDbEntity
  8
0
100
AcDbLine
 62
7
  6
BYLAYER
 10
19.4227635835
 20
65.7948011305
 11
19.4227635835
 21
66.1038681708
  0
LINE
  5
23F
100
AcDbEntity
  8
0
100
AcDbLine
 62
7
  6
BYLAYER
 10
19.4227635835
 20
66.7105080552
 11
19.4227635835
 21
67.0088312935
  0
LINE
  5
240
100
AcDbEntity
  8
0
100
AcDbLine
 62
7
  6
BYLAYER
 10
19.4227635835
 20
67.4606356004
 11
19.4227635835
 21
67.7386266824
  0
LINE
  5
241
100
AcDbEntity
  8
0
100
AcDbLine
 62
7
  6
BYLAYER
 10
19.4227635835
 20
68.0210740497
 11
19.4227635835
 21
68.2697981132
  0
LINE
  5
242
100
AcDbEntity
  8
0
100
AcDbLine
 62
7
  6
BYLAYER
 10
19.4227635835
 20
68.37381045
 11
19.4227635835
 21
68.674912608
  0
LINE
  5
243
100
AcDbEntity
  8
0
100
AcDbLine
 62
7
  6
BYLAYER
 10
20.1227635835
 20
53.058826397
 11
20.1227635835
 21
70.0588206619
  0
LINE
  5
244
100
AcDbEntity
  8
0
100
AcDbLine
 62
7
  6
BYLAYER
 10
20.1227635835
 20
70.0588235294
 11
20.7736997866
 21
71.1862781056
  0
LINE
  5
245
100
AcDbEntity
  8
0
100
AcDbLine
 62
7
  6
BYLAYER
 10
20.1227635835
 20
53.0588235294
 11
20.7736997866
 21
51.9313689532
  0
LINE
  5
246
100
AcDbEntity
  8
0
100
AcDbLine
 62
7
  6
BYLAYER
 10
23.1227635835
 20
70.0588206619
 11
23.1227635835
 21
53.058826397
  0
LINE
  5
247
100
AcDbEntity
  8
0
100
AcDbLine
 62
7
  6
BYLAYER
 10
16.1227635835
 20
53.0588235294
 11
15.4718273805
 21
51.9313689532
  0
LINE
  5
248
100
AcDbEntity
  8
0
100
AcDbLine
 62
7
  6
BYLAYER
 10
16.1227635835
 20
70.0588235294
 11
15.4718273805
 21
71.1862781056
  0
LINE
  5
249
100
AcDbEntity
  8
0
100
AcDbLine
 62
7
  6
BYLAYER
 10
23.1227635835
 20
53.0588235294
 11
22.4718273805
 21
51.9313689532
  0
LINE
  5
24A
100
AcDbEntity
  8
0
100
AcDbLine
 62
7
  6
BYLAYER
 10
23.1227635835
 20
70.0588235294
 11
22.4718273805
 21
71.1862781056
  0
LINE
  5
24B
100
AcDbEntity
  8
0
100
AcDbLine
 62
7
  6
BYLAYER
 10
19.9227635835
 20
54.3074133679
 11
20.1227635835
 21
54.2538235294
  0
LINE
  5
24C
100
AcDbEntity
  8
0
100
AcDbLine
 62
7
  6
BYLAYER
 10
15.4481610484
 20
51.8938689532
 11
13.7973661187
 21
51.8938689532
  0
LINE
  5
24D
100
AcDbEntity
  8
0
100
AcDbLine
 62
7
  6
BYLAYER
 10
20.7973661187
 20
51.8938689532
 11
22.4481610566
 21
51.8938689532
  0
LINE
  5
24E
100
AcDbEntity
  8
0
100
AcDbLine
 62
7
  6
BYLAYER
 10
15.5022559716
 20
51.9938689532
 11
13.7432712149
 21
51.9938689532
  0
LINE
  5
24F
100
AcDbEntity
  8
0
100
AcDbLine
 62
7
  6
BYLAYER
 10
20.7432711955
 20
51.9938689532
 11
22.502255874
 21
51.9938689532
  0
LINE
  5
250
100
AcDbEntity
  8
0
100
AcDbLine
 62
7
  6
BYLAYER
 10
10.7227635836
 20
55.5588235294
 11
13.1227635835
 21
55.5588235294
  0
LINE
  5
251
100
AcDbEntity
  8
0
100
AcDbLine
 62
7
  6
BYLAYER
 10
16.6181332376
 20
55.5588235294
 11
19.6273965831
 21
55.5588235294
  0
LINE
  5
252
100
AcDbEntity
  8
0
100
AcDbLine
 62
7
  6
BYLAYER
 10
23.1227635835
 20
55.5588235294
 11
56.1227635835
 21
55.5588235294
  0
LINE
  5
253
100
AcDbEntity
  8
0
100
AcDbLine
 62
7
  6
BYLAYER
 10
10.1904762235
 20
56.3588235294
 11
10.5227635835
 21
56.3588235294
  0
LINE
  5
254
100
AcDbEntity
  8
0
100
AcDbLine
 62
7
  6
BYLAYER
 10
15.502255968
 20
56.4013462413
 11
13.7432712951
 21
56.4013462413
  0
LINE
  5
255
100
AcDbEntity
  8
0
100
AcDbLine
 62
7
  6
BYLAYER
 10
20.743271199
 20
56.4013462413
 11
22.5022559489
 21
56.4013462413
  0
LINE
  5
256
100
AcDbEntity
  8
0
100
AcDbLine
 62
7
  6
BYLAYER
 10
57.1227635835
 20
56.5588235294
 11
64.8227635835
 21
56.5588235294
  0
LINE
  5
257
100
AcDbEntity
  8
0
100
AcDbLine
 62
7
  6
BYLAYER
 10
64.9227635835
 20
56.5588235294
 11
66.9227635835
 21
56.5588235294
  0
LINE
  5
258
100
AcDbEntity
  8
0
100
AcDbLine
 62
7
  6
BYLAYER
 10
64.8227635835
 20
56.6088235294
 11
64.9227635835
 21
56.6088235294
  0
LINE
  5
259
100
AcDbEntity
  8
0
100
AcDbLine
 62
7
  6
BYLAYER
 10
15.4481610494
 20
56.9513462413
 11
13.7973661094
 21
56.9513462413
  0
LINE
  5
25A
100
AcDbEntity
  8
0
100
AcDbLine
 62
7
  6
BYLAYER
 10
20.7973661176
 20
56.9513462413
 11
22.4481610494
 21
56.9513462413
  0
LINE
  5
25B
100
AcDbEntity
  8
0
100
AcDbLine
 62
7
  6
BYLAYER
 10
68.9332307747
 20
58.3859391414
 11
67.1227635835
 21
58.2910565764
  0
LINE
  5
25C
100
AcDbEntity
  8
0
100
AcDbLine
 62
7
  6
BYLAYER
 10
79.1227635835
 20
58.7910565764
 11
69.1227635835
 21
58.7910565764
  0
LINE
  5
25D
100
AcDbEntity
  8
0
100
AcDbLine
 62
7
  6
BYLAYER
 10
16.3227635835
 20
54.3074133679
 11
16.1227635835
 21
54.2538235294
  0
LINE
  5
25E
100
AcDbEntity
  8
0
100
AcDbLine
 62
7
  6
BYLAYER
 10
79.1227635835
 20
60.7910565764
 11
69.1227635835
 21
60.7910565764
  0
LINE
  5
25F
100
AcDbEntity
  8
0
100
AcDbLine
 62
7
  6
BYLAYER
 10
16.8227635835
 20
68.6762590947
 11
16.1227635835
 21
68.8638235294
  0
LINE
  5
260
100
AcDbEntity
  8
0
100
AcDbLine
 62
7
  6
BYLAYER
 10
68.9332307747
 20
61.1961740115
 11
67.1227635835
 21
61.2910565764
  0
LINE
  5
261
100
AcDbEntity
  8
0
100
AcDbLine
 62
7
  6
BYLAYER
 10
15.4481610494
 20
66.1663008175
 11
13.7973661176
 21
66.1663008175
  0
LINE
  5
262
100
AcDbEntity
  8
0
100
AcDbLine
 62
7
  6
BYLAYER
 10
20.7973661176
 20
66.1663008175
 11
22.4481610577
 21
66.1663008175
  0
LINE
  5
263
100
AcDbEntity
  8
0
100
AcDbLine
 62
7
  6
BYLAYER
 10
64.8227635835
 20
66.5088235294
 11
64.9227635835
 21
66.5088235294
  0
LINE
  5
264
100
AcDbEntity
  8
0
100
AcDbLine
 62
7
  6
BYLAYER
 10
57.1227635835
 20
66.5588235294
 11
64.8227635835
 21
66.5588235294
  0
LINE
  5
265
100
AcDbEntity
  8
0
100
AcDbLine
 62
7
  6
BYLAYER
 10
64.9227635835
 20
66.5588235294
 11
66.9227635835
 21
66.5588235294
  0
LINE
  5
266
100
AcDbEntity
  8
0
100
AcDbLine
 62
7
  6
BYLAYER
 10
15.5022559716
 20
66.7163008175
 11
13.7432712149
 21
66.7163008175
  0
LINE
  5
267
100
AcDbEntity
  8
0
100
AcDbLine
 62
7
  6
BYLAYER
 10
20.7432711955
 20
66.7163008175
 11
22.5022559715
 21
66.7163008175
  0
LINE
  5
268
100
AcDbEntity
  8
0
100
AcDbLine
 62
7
  6
BYLAYER
 10
10.1904762235
 20
66.7588235294
 11
10.5227635835
 21
66.7588235294
  0
LINE
  5
269
100
AcDbEntity
  8
0
100
AcDbLine
 62
7
  6
BYLAYER
 10
10.7227635836
 20
67.5588235294
 11
13.1227635835
 21
67.5588235294
  0
LINE
  5
26A
100
AcDbEntity
  8
0
100
AcDbLine
 62
7
  6
BYLAYER
 10
16.8227635835
 20
67.5588235294
 11
19.4227635835
 21
67.5588235294
  0
LINE
  5
26B
100
AcDbEntity
  8
0
100
AcDbLine
 62
7
  6
BYLAYER
 10
23.1227635835
 20
67.5588235294
 11
56.1227635835
 21
67.5588235294
  0
LINE
  5
26C
100
AcDbEntity
  8
0
100
AcDbLine
 62
7
  6
BYLAYER
 10
15.502255968
 20
71.1237781056
 11
13.7432711991
 21
71.1237781056
  0
LINE
  5
26D
100
AcDbEntity
  8
0
100
AcDbLine
 62
7
  6
BYLAYER
 10
20.743271199
 20
71.1237781056
 11
22.5022559489
 21
71.1237781056
  0
LINE
  5
26E
100
AcDbEntity
  8
0
100
AcDbLine
 62
7
  6
BYLAYER
 10
15.4481610494
 20
71.2237781056
 11
13.7973661094
 21
71.2237781056
  0
LINE
  5
26F
100
AcDbEntity
  8
0
100
AcDbLine
 62
7
  6
BYLAYER
 10
20.7973661176
 20
71.2237781056
 11
22.4481610178
 21
71.2237781056
  0
LINE
  5
270
100
AcDbEntity
  8
0
100
AcDbLine
 62
7
  6
BYLAYER
 10
56.1227635835
 20
67.5588235294
 11
56.1227635835
 21
55.5588235294
  0
LINE
  5
271
100
AcDbEntity
  8
0
100
AcDbLine
 62
7
  6
BYLAYER
 10
57.1227635835
 20
56.5588235294
 11
57.1227635835
 21
66.5588235294
  0
LINE
  5
272
100
AcDbEntity
  8
0
100
AcDbLine
 62
7
  6
BYLAYER
 10
57.1227635835
 20
56.5588235294
 11
56.1227635835
 21
55.5588235294
  0
LINE
  5
273
100
AcDbEntity
  8
0
100
AcDbLine
 62
7
  6
BYLAYER
 10
19.4227635835
 20
68.6762590947
 11
20.1227635835
 21
68.8638235294
  0
LINE
  5
274
100
AcDbEntity
  8
0
100
AcDbLine
 62
7
  6
BYLAYER
 10
57.1227635835
 20
66.5588235294
 11
56.1227635835
 21
67.5588235294
  0
LINE
  5
275
100
AcDbEntity
  8
0
100
AcDbLine
 62
7
  6
BYLAYER
 10
64.8227635835
 20
66.5585384372
 11
64.8227635835
 21
56.5591086216
  0
LINE
  5
276
100
AcDbEntity
  8
0
100
AcDbLine
 62
7
  6
BYLAYER
 10
64.9227635835
 20
56.5591327686
 11
64.9227635835
 21
66.5586978504
  0
LINE
  5
277
100
AcDbEntity
  8
0
100
AcDbLine
 62
7
  6
BYLAYER
 10
66.9227635835
 20
66.5588235294
 11
66.9227635835
 21
56.5588235294
  0
LINE
  5
278
100
AcDbEntity
  8
0
100
AcDbLine
 62
7
  6
BYLAYER
 10
67.1227635835
 20
66.3586510692
 11
67.1227635835
 21
56.7591051843
  0
LINE
  5
279
100
AcDbEntity
  8
0
100
AcDbLine
 62
7
  6
BYLAYER
 10
68.9332307747
 20
61.1961740115
 11
68.9332307747
 21
58.3859391414
  0
LINE
  5
27A
100
AcDbEntity
  8
0
100
AcDbLine
 62
7
  6
BYLAYER
 10
69.1227635835
 20
60.9962951924
 11
69.1227635835
 21
58.585813975
  0
LINE
  5
27B
100
AcDbEntity
  8
0
100
AcDbLine
 62
7
  6
BYLAYER
 10
79.1227635835
 20
60.79092295
 11
79.1227635835
 21
58.7911902028
  0
ARC
  5
27C
100
AcDbEntity
  8
0
100
AcDbCircle
 62
7
  6
BYLAYER
 10
4.8677535118
 20
55.6330563973
 40
10.6622188955
100
AcDbArc
 50
4.1321556769
 51
7.1022952201
  0
ARC
  5
27D
100
AcDbEntity
  8
0
100
AcDbCircle
 62
7
  6
BYLAYER
 10
24.3776199633
 20
67.4845750801
 40
10.6620644645
100
AcDbArc
 50
184.1321316823
 51
187.1023142424
  0
ARC
  5
27E
100
AcDbEntity
  8
0
100
AcDbCircle
 62
7
  6
BYLAYER
 10
11.8844827239
 20
67.4829448052
 40
10.6454145683
100
AcDbArc
 50
352.8953624901
 51
355.8701915893
  0
ARC
  5
27F
100
AcDbEntity
  8
0
100
AcDbCircle
 62
7
  6
BYLAYER
 10
31.3610396718
 20
55.6347022574
 40
10.6454098249
100
AcDbArc
 50
172.8953593285
 51
175.8701897663
  0
ARC
  5
280
100
AcDbEntity
  8
0
100
AcDbCircle
 62
7
  6
BYLAYER
 10
11.9129892955
 20
55.6375060617
 40
10.6167801181
100
AcDbArc
 50
4.1257954746
 51
7.108649775
  0
ARC
  5
281
100
AcDbEntity
  8
0
100
AcDbCircle
 62
7
  6
BYLAYER
 10
31.3325284726
 20
67.480140667
 40
10.6167707423
100
AcDbArc
 50
184.125797338
 51
187.1086542895
  0
ARC
  5
282
100
AcDbEntity
  8
0
100
AcDbCircle
 62
7
  6
BYLAYER
 10
4.934036389
 20
67.4780715175
 40
10.5956387134
100
AcDbArc
 50
352.8883705172
 51
355.8771778512
  0
ARC
  5
283
100
AcDbEntity
  8
0
100
AcDbCircle
 62
7
  6
BYLAYER
 10
24.3112499463
 20
55.6395998225
 40
10.5953967365
100
AcDbArc
 50
172.8883395837
 51
175.877215175
  0
ARC
  5
284
100
AcDbEntity
  8
0
100
AcDbCircle
 62
7
  6
BYLAYER
 10
10.3227635835
 20
56.5088235294
 40
0.2
100
AcDbArc
 50
180.0
 51
228.5903778907
  0
ARC
  5
285
100
AcDbEntity
  8
0
100
AcDbCircle
 62
7
  6
BYLAYER
 10
10.3227635835
 20
66.6088235294
 40
0.2
100
AcDbArc
 50
131.4096221093
 51
180.0
  0
ARC
  5
286
100
AcDbEntity
  8
0
100
AcDbCircle
 62
7
  6
BYLAYER
 10
66.9227635835
 20
66.3588235294
 40
0.2
100
AcDbArc
 50
0.0
 51
90.0
  0
ARC
  5
287
100
AcDbEntity
  8
0
100
AcDbCircle
 62
7
  6
BYLAYER
 10
66.9227635835
 20
56.7588235294
 40
0.2
100
AcDbArc
 50
270.0
 51
360.0
  0
ARC
  5
288
100
AcDbEntity
  8
0
100
AcDbCircle
 62
7
  6
BYLAYER
 10
68.9227635835
 20
58.5856650484
 40
0.2
100
AcDbArc
 50
273.0
 51
360.0
  0
ARC
  5
289
100
AcDbEntity
  8
0
100
AcDbCircle
 62
7
  6
BYLAYER
 10
68.9227635835
 20
60.9964481045
 40
0.2
100
AcDbArc
 50
0.0
 51
87.0
  0
SPLINE
  5
28A
100
AcDbEntity
  8
0
100
AcDbSpline
 62
7
  6
BYLAYER
 70
0
 71
3
 72
9
 73
5
 74
0
 42
0.0000001
 43
0.0000001
 44
0.0000000001
 40
0.0
 40
0.0
 40
0.0
 40
0.0
 40
0.2456457997
 40
1.0
 40
1.0
 40
1.0
 40
1.0
 10
13.7736985949
 20
71.1862781197
 30
0.0
 10
13.7755141411
 20
71.1894231987
 30
0.0
 10
13.7830359
 20
71.2021507253
 30
0.0
 10
13.7910661596
 20
71.2145761099
 30
0.0
 10
13.7973661094
 20
71.2237781056
 30
0.0
  0
SPLINE
  5
28B
100
AcDbEntity
  8
0
100
AcDbSpline
 62
7
  6
BYLAYER
 70
0
 71
3
 72
9
 73
5
 74
0
 42
0.0000001
 43
0.0000001
 44
0.0000000001
 40
0.0
 40
0.0
 40
0.0
 40
0.0
 40
0.2456457548
 40
1.0
 40
1.0
 40
1.0
 40
1.0
 10
15.4718285072
 20
51.9313689399
 30
0.0
 10
15.4700129668
 20
51.928223861
 30
0.0
 10
15.4624912322
 20
51.9154963314
 30
0.0
 10
15.4544609942
 20
51.9030709436
 30
0.0
 10
15.4481610484
 20
51.8938689532
 30
0.0
  0
LINE
  5
28C
100
AcDbEntity
  8
0
100
AcDbLine
 62
7
  6
BYLAYER
 10
16.8227635835
 20
61.3778606219
 11
16.6442322947
 21
61.5588235709
  0
LINE
  5
28D
100
AcDbEntity
  8
0
100
AcDbLine
 62
7
  6
BYLAYER
 10
16.6442322947
 20
61.5588235709
 11
16.3227635835
 21
61.8841568161
  0
SPLINE
  5
28E
100
AcDbEntity
  8
0
100
AcDbSpline
 62
7
  6
BYLAYER
 70
0
 71
3
 72
9
 73
5
 74
0
 42
0.0000001
 43
0.0000001
 44
0.0000000001
 40
0.0
 40
0.0
 40
0.0
 40
0.0
 40
0.2544693665
 40
1.0
 40
1.0
 40
1.0
 40
1.0
 10
15.4481610494
 20
71.2237781056
 30
0.0
 10
15.4502862262
 20
71.2206739748
 30
0.0
 10
15.4585278379
 20
71.2084009361
 30
0.0
 10
15.4663183977
 20
71.1958233367
 30
0.0
 10
15.471828507
 20
71.1862781189
 30
0.0
  0
SPLINE
  5
28F
100
AcDbEntity
  8
0
100
AcDbSpline
 62
7
  6
BYLAYER
 70
0
 71
3
 72
9
 73
5
 74
0
 42
0.0000001
 43
0.0000001
 44
0.0000000001
 40
0.0
 40
0.0
 40
0.0
 40
0.0
 40
0.2544692676
 40
1.0
 40
1.0
 40
1.0
 40
1.0
 10
13.7973661105
 20
51.8938689532
 30
0.0
 10
13.795240933
 20
51.8969730849
 30
0.0
 10
13.7869993097
 20
51.9092461278
 30
0.0
 10
13.7792087216
 20
51.9218237213
 30
0.0
 10
13.7736985944
 20
51.9313689391
 30
0.0
  0
SPLINE
  5
290
100
AcDbEntity
  8
0
100
AcDbSpline
 62
7
  6
BYLAYER
 70
0
 71
3
 72
11
 73
7
 74
0
 42
0.0000001
 43
0.0000001
 44
0.0000000001
 40
0.0
 40
0.0
 40
0.0
 40
0.0
 40
0.2601224562
 40
0.5124280319
 40
0.7581437597
 40
1.0
 40
1.0
 40
1.0
 40
1.0
 10
15.502255968
 20
71.1237781056
 30
0.0
 10
15.5963257952
 20
70.9468004729
 30
0.0
 10
15.768144191
 20
70.5906484464
 30
0.0
 10
15.967687855
 20
70.0403132523
 30
0.0
 10
16.0938276769
 20
69.4826403349
 30
0.0
 10
16.1227635821
 20
69.1063904046
 30
0.0
 10
16.1227635835
 20
68.9200394899
 30
0.0
  0
SPLINE
  5
291
100
AcDbEntity
  8
0
100
AcDbSpline
 62
7
  6
BYLAYER
 70
0
 71
3
 72
11
 73
7
 74
0
 42
0.0000001
 43
0.0000001
 44
0.0000000001
 40
0.0
 40
0.0
 40
0.0
 40
0.0
 40
0.2418538575
 40
0.4875643753
 40
0.7398751941
 40
1.0
 40
1.0
 40
1.0
 40
1.0
 10
16.1227635835
 20
68.9200394899
 30
0.0
 10
16.122763585
 20
68.7336908249
 30
0.0
 10
16.093786948
 20
68.3574532157
 30
0.0
 10
15.9677197637
 20
67.7997662649
 30
0.0
 10
15.7680943225
 20
67.2494588586
 30
0.0
 10
15.5963264397
 20
66.8932796561
 30
0.0
 10
15.5022559716
 20
66.7163008175
 30
0.0
  0
SPLINE
  5
292
100
AcDbEntity
  8
0
100
AcDbSpline
 62
7
  6
BYLAYER
 70
0
 71
3
 72
11
 73
7
 74
0
 42
0.0000001
 43
0.0000001
 44
0.0000000001
 40
0.0
 40
0.0
 40
0.0
 40
0.0
 40
0.2500090906
 40
0.5000113781
 40
0.750006891
 40
1.0
 40
1.0
 40
1.0
 40
1.0
 10
15.4481610494
 20
66.1663008175
 30
0.0
 10
15.5514032786
 20
65.7910587928
 30
0.0
 10
15.7398025287
 20
65.0354100067
 30
0.0
 10
15.9555634094
 20
63.8871937582
 30
0.0
 10
16.0916501289
 20
62.7266450867
 30
0.0
 10
16.1227635835
 20
61.9479843844
 30
0.0
 10
16.1227635835
 20
61.5588235294
 30
0.0
  0
SPLINE
  5
293
100
AcDbEntity
  8
0
100
AcDbSpline
 62
7
  6
BYLAYER
 70
0
 71
3
 72
11
 73
7
 74
0
 42
0.0000001
 43
0.0000001
 44
0.0000000001
 40
0.0
 40
0.0
 40
0.0
 40
0.0
 40
0.2499931421
 40
0.4999886579
 40
0.7499909321
 40
1.0
 40
1.0
 40
1.0
 40
1.0
 10
16.1227635835
 20
61.5588235294
 30
0.0
 10
16.1227635835
 20
61.1696626229
 30
0.0
 10
16.0916501551
 20
60.3910018631
 30
0.0
 10
15.9555633829
 20
59.2304531602
 30
0.0
 10
15.7398024682
 20
58.0822369727
 30
0.0
 10
15.5514032692
 20
57.3265882319
 30
0.0
 10
15.4481610494
 20
56.9513462413
 30
0.0
  0
SPLINE
  5
294
100
AcDbEntity
  8
0
100
AcDbSpline
 62
7
  6
BYLAYER
 70
0
 71
3
 72
11
 73
7
 74
0
 42
0.0000001
 43
0.0000001
 44
0.0000000001
 40
0.0
 40
0.0
 40
0.0
 40
0.0
 40
0.2601224562
 40
0.512428032
 40
0.7581437597
 40
1.0
 40
1.0
 40
1.0
 40
1.0
 10
15.502255968
 20
56.4013462413
 30
0.0
 10
15.5963257963
 20
56.2243686064
 30
0.0
 10
15.768144194
 20
55.8682165755
 30
0.0
 10
15.9676878594
 20
55.3178813744
 30
0.0
 10
16.0938276805
 20
54.7602084498
 30
0.0
 10
16.1227635835
 20
54.3839585148
 30
0.0
 10
16.1227635835
 20
54.1976075978
 30
0.0
  0
SPLINE
  5
295
100
AcDbEntity
  8
0
100
AcDbSpline
 62
7
  6
BYLAYER
 70
0
 71
3
 72
11
 73
7
 74
0
 42
0.0000001
 43
0.0000001
 44
0.0000000001
 40
0.0
 40
0.0
 40
0.0
 40
0.0
 40
0.2500090906
 40
0.5000113781
 40
0.750006891
 40
1.0
 40
1.0
 40
1.0
 40
1.0
 10
13.7973661176
 20
56.9513462413
 30
0.0
 10
13.6941238907
 20
57.3265882667
 30
0.0
 10
13.505724637
 20
58.0822370517
 30
0.0
 10
13.2899637582
 20
59.2304533007
 30
0.0
 10
13.153877038
 20
60.3910019721
 30
0.0
 10
13.1227635835
 20
61.1696626744
 30
0.0
 10
13.1227635835
 20
61.5588235294
 30
0.0
  0
SPLINE
  5
296
100
AcDbEntity
  8
0
100
AcDbSpline
 62
7
  6
BYLAYER
 70
0
 71
3
 72
11
 73
7
 74
0
 42
0.0000001
 43
0.0000001
 44
0.0000000001
 40
0.0
 40
0.0
 40
0.0
 40
0.0
 40
0.2418538605
 40
0.4875643873
 40
0.7398751913
 40
1.0
 40
1.0
 40
1.0
 40
1.0
 10
13.1227635835
 20
54.1976076046
 30
0.0
 10
13.1227635839
 20
54.3839562685
 30
0.0
 10
13.1517403192
 20
54.7601938832
 30
0.0
 10
13.2778077118
 20
55.3178807564
 30
0.0
 10
13.4774328633
 20
55.8681882509
 30
0.0
 10
13.6492008326
 20
56.2243674016
 30
0.0
 10
13.7432712951
 20
56.4013462413
 30
0.0
  0
SPLINE
  5
297
100
AcDbEntity
  8
0
100
AcDbSpline
 62
7
  6
BYLAYER
 70
0
 71
3
 72
9
 73
5
 74
0
 42
0.0000001
 43
0.0000001
 44
0.0000000001
 40
0.0
 40
0.0
 40
0.0
 40
0.0
 40
0.2567405954
 40
1.0
 40
1.0
 40
1.0
 40
1.0
 10
15.471828507
 20
71.1862781189
 30
0.0
 10
15.4748041135
 20
71.1811234458
 30
0.0
 10
15.4860562925
 20
71.1608546143
 30
0.0
 10
15.495913882
 20
71.1397990649
 30
0.0
 10
15.502255968
 20
71.1237781056
 30
0.0
  0
SPLINE
  5
298
100
AcDbEntity
  8
0
100
AcDbSpline
 62
7
  6
BYLAYER
 70
0
 71
3
 72
11
 73
7
 74
0
 42
0.0000001
 43
0.0000001
 44
0.0000000001
 40
0.0
 40
0.0
 40
0.0
 40
0.0
 40
0.260120462
 40
0.5124282098
 40
0.7581430565
 40
1.0
 40
1.0
 40
1.0
 40
1.0
 10
13.7432712908
 20
51.9938689532
 30
0.0
 10
13.6492023461
 20
52.1708449376
 30
0.0
 10
13.4774133802
 20
52.5270089611
 30
0.0
 10
13.2778244752
 20
53.0773272719
 30
0.0
 10
13.1517311628
 20
53.6350111774
 30
0.0
 10
13.1227635832
 20
54.011256458
 30
0.0
 10
13.1227635835
 20
54.1976076046
 30
0.0
  0
SPLINE
  5
299
100
AcDbEntity
  8
0
100
AcDbSpline
 62
7
  6
BYLAYER
 70
0
 71
3
 72
9
 73
5
 74
0
 42
0.0000001
 43
0.0000001
 44
0.0000000001
 40
0.0
 40
0.0
 40
0.0
 40
0.0
 40
0.243725128
 40
1.0
 40
1.0
 40
1.0
 40
1.0
 10
15.5022559716
 20
51.9938689532
 30
0.0
 10
15.5001762683
 20
51.9886153441
 30
0.0
 10
15.4912117441
 20
51.9672317658
 30
0.0
 10
15.4805938716
 20
51.9465532688
 30
0.0
 10
15.4718285072
 20
51.9313689399
 30
0.0
  0
SPLINE
  5
29A
100
AcDbEntity
  8
0
100
AcDbSpline
 62
7
  6
BYLAYER
 70
0
 71
3
 72
11
 73
7
 74
0
 42
0.0000001
 43
0.0000001
 44
0.0000000001
 40
0.0
 40
0.0
 40
0.0
 40
0.0
 40
0.2418538575
 40
0.4875643753
 40
0.7398751942
 40
1.0
 40
1.0
 40
1.0
 40
1.0
 10
16.1227635835
 20
54.1976075978
 30
0.0
 10
16.1227635836
 20
54.011258935
 30
0.0
 10
16.0937869444
 20
53.6350213305
 30
0.0
 10
15.9677197593
 20
53.077334387
 30
0.0
 10
15.7680943194
 20
52.5270269877
 30
0.0
 10
15.5963264385
 20
52.1708477896
 30
0.0
 10
15.5022559716
 20
51.9938689532
 30
0.0
  0
SPLINE
  5
29B
100
AcDbEntity
  8
0
100
AcDbSpline
 62
7
  6
BYLAYER
 70
0
 71
3
 72
9
 73
5
 74
0
 42
0.0000001
 43
0.0000001
 44
0.0000000001
 40
0.0
 40
0.0
 40
0.0
 40
0.0
 40
0.2437250668
 40
1.0
 40
1.0
 40
1.0
 40
1.0
 10
13.7432712182
 20
71.1237781056
 30
0.0
 10
13.745350919
 20
71.129031711
 30
0.0
 10
13.7543153747
 20
71.1504153036
 30
0.0
 10
13.7649332136
 20
71.1710938095
 30
0.0
 10
13.7736985949
 20
71.1862781197
 30
0.0
  0
SPLINE
  5
29C
100
AcDbEntity
  8
0
100
AcDbSpline
 62
7
  6
BYLAYER
 70
0
 71
3
 72
11
 73
7
 74
0
 42
0.0000001
 43
0.0000001
 44
0.0000000001
 40
0.0
 40
0.0
 40
0.0
 40
0.0
 40
0.2418538576
 40
0.4875643752
 40
0.7398751938
 40
1.0
 40
1.0
 40
1.0
 40
1.0
 10
13.1227635835
 20
68.9200394605
 30
0.0
 10
13.1227635835
 20
69.1063881235
 30
0.0
 10
13.1517402296
 20
69.4826257277
 30
0.0
 10
13.2778074122
 20
70.0403126707
 30
0.0
 10
13.4774328435
 20
70.5906200744
 30
0.0
 10
13.6492007387
 20
70.9467992654
 30
0.0
 10
13.7432711991
 20
71.1237781056
 30
0.0
  0
SPLINE
  5
29D
100
AcDbEntity
  8
0
100
AcDbSpline
 62
7
  6
BYLAYER
 70
0
 71
3
 72
11
 73
7
 74
0
 42
0.0000001
 43
0.0000001
 44
0.0000000001
 40
0.0
 40
0.0
 40
0.0
 40
0.0
 40
0.2601224558
 40
0.5124280317
 40
0.7581437599
 40
1.0
 40
1.0
 40
1.0
 40
1.0
 10
13.7432711955
 20
66.7163008175
 30
0.0
 10
13.6492013745
 20
66.8932784559
 30
0.0
 10
13.47738297
 20
67.2494304829
 30
0.0
 10
13.2778393085
 20
67.7997656852
 30
0.0
 10
13.1516994716
 20
68.3574386072
 30
0.0
 10
13.1227635836
 20
68.7336885438
 30
0.0
 10
13.1227635835
 20
68.9200394605
 30
0.0
  0
SPLINE
  5
29E
100
AcDbEntity
  8
0
100
AcDbSpline
 62
7
  6
BYLAYER
 70
0
 71
3
 72
11
 73
7
 74
0
 42
0.0000001
 43
0.0000001
 44
0.0000000001
 40
0.0
 40
0.0
 40
0.0
 40
0.0
 40
0.2499931421
 40
0.4999886579
 40
0.7499909321
 40
1.0
 40
1.0
 40
1.0
 40
1.0
 10
13.1227635835
 20
61.5588235294
 30
0.0
 10
13.1227635835
 20
61.9479844359
 30
0.0
 10
13.1538770119
 20
62.7266451957
 30
0.0
 10
13.2899637847
 20
63.8871938985
 30
0.0
 10
13.5057246975
 20
65.0354100865
 30
0.0
 10
13.6941239001
 20
65.7910588263
 30
0.0
 10
13.7973661176
 20
66.1663008175
 30
0.0
  0
SPLINE
  5
29F
100
AcDbEntity
  8
0
100
AcDbSpline
 62
7
  6
BYLAYER
 70
0
 71
3
 72
9
 73
5
 74
0
 42
0.0000001
 43
0.0000001
 44
0.0000000001
 40
0.0
 40
0.0
 40
0.0
 40
0.0
 40
0.2567408467
 40
1.0
 40
1.0
 40
1.0
 40
1.0
 10
13.7736985944
 20
51.9313689391
 30
0.0
 10
13.770722979
 20
51.9365236107
 30
0.0
 10
13.7594707727
 20
51.9567924163
 30
0.0
 10
13.7496132939
 20
51.9778480061
 30
0.0
 10
13.7432712149
 20
51.9938689532
 30
0.0
  0
SPLINE
  5
2A0
100
AcDbEntity
  8
0
100
AcDbSpline
 62
7
  6
BYLAYER
 70
0
 71
3
 72
9
 73
5
 74
0
 42
0.0000001
 43
0.0000001
 44
0.0000000001
 40
0.0
 40
0.0
 40
0.0
 40
0.0
 40
0.2456243692
 40
1.0
 40
1.0
 40
1.0
 40
1.0
 10
22.4718320802
 20
71.186278161
 30
0.0
 10
22.4700172254
 20
71.1894234527
 30
0.0
 10
22.4624959405
 20
71.2021520433
 30
0.0
 10
22.4544614562
 20
71.2145754546
 30
0.0
 10
22.4481610577
 20
71.2237781056
 30
0.0
  0
SPLINE
  5
2A1
100
AcDbEntity
  8
0
100
AcDbSpline
 62
7
  6
BYLAYER
 70
0
 71
3
 72
9
 73
5
 74
0
 42
0.0000001
 43
0.0000001
 44
0.0000000001
 40
0.0
 40
0.0
 40
0.0
 40
0.0
 40
0.245624377
 40
1.0
 40
1.0
 40
1.0
 40
1.0
 10
20.7736950808
 20
51.9313688978
 30
0.0
 10
20.7755099369
 20
51.9282236059
 30
0.0
 10
20.7830312282
 20
51.9154950159
 30
0.0
 10
20.7910657194
 20
51.903071606
 30
0.0
 10
20.7973661187
 20
51.8938689532
 30
0.0
  0
SPLINE
  5
2A2
100
AcDbEntity
  8
0
100
AcDbSpline
 62
7
  6
BYLAYER
 70
0
 71
3
 72
9
 73
5
 74
0
 42
0.0000001
 43
0.0000001
 44
0.0000000001
 40
0.0
 40
0.0
 40
0.0
 40
0.0
 40
0.254471822
 40
1.0
 40
1.0
 40
1.0
 40
1.0
 10
22.4481610566
 20
51.8938689532
 30
0.0
 10
22.4502863437
 20
51.896973245
 30
0.0
 10
22.4585295044
 20
51.9092459493
 30
0.0
 10
22.4663235973
 20
51.9218222462
 30
0.0
 10
22.4718320807
 20
51.9313688978
 30
0.0
  0
SPLINE
  5
2A3
100
AcDbEntity
  8
0
100
AcDbSpline
 62
7
  6
BYLAYER
 70
0
 71
3
 72
9
 73
5
 74
0
 42
0.0000001
 43
0.0000001
 44
0.0000000001
 40
0.0
 40
0.0
 40
0.0
 40
0.0
 40
0.2544717996
 40
1.0
 40
1.0
 40
1.0
 40
1.0
 10
20.7973661176
 20
71.2237781056
 30
0.0
 10
20.7952408305
 20
71.2206738136
 30
0.0
 10
20.7869976675
 20
71.2084011083
 30
0.0
 10
20.7792035682
 20
71.195824813
 30
0.0
 10
20.7736950815
 20
71.186278161
 30
0.0
  0
LINE
  5
2A4
100
AcDbEntity
  8
0
100
AcDbLine
 62
7
  6
BYLAYER
 10
19.6012948724
 20
61.5588235709
 11
19.9227635835
 21
61.8841568161
  0
LINE
  5
2A5
100
AcDbEntity
  8
0
100
AcDbLine
 62
7
  6
BYLAYER
 10
19.4227635835
 20
61.3778606219
 11
19.6012948724
 21
61.5588235709
  0
SPLINE
  5
2A6
100
AcDbEntity
  8
0
100
AcDbSpline
 62
7
  6
BYLAYER
 70
0
 71
3
 72
11
 73
7
 74
0
 42
0.0000001
 43
0.0000001
 44
0.0000000001
 40
0.0
 40
0.0
 40
0.0
 40
0.0
 40
0.2499931421
 40
0.4999886579
 40
0.7499909321
 40
1.0
 40
1.0
 40
1.0
 40
1.0
 10
20.1227635835
 20
61.5588235294
 30
0.0
 10
20.1227635835
 20
61.9479844359
 30
0.0
 10
20.153877012
 20
62.7266451957
 30
0.0
 10
20.2899637843
 20
63.8871938986
 30
0.0
 10
20.5057246989
 20
65.0354100861
 30
0.0
 10
20.6941238979
 20
65.7910588269
 30
0.0
 10
20.7973661176
 20
66.1663008175
 30
0.0
  0
SPLINE
  5
2A7
100
AcDbEntity
  8
0
100
AcDbSpline
 62
7
  6
BYLAYER
 70
0
 71
3
 72
11
 73
7
 74
0
 42
0.0000001
 43
0.0000001
 44
0.0000000001
 40
0.0
 40
0.0
 40
0.0
 40
0.0
 40
0.2601204614
 40
0.5124282216
 40
0.7581430596
 40
1.0
 40
1.0
 40
1.0
 40
1.0
 10
20.7432711955
 20
66.7163008175
 30
0.0
 10
20.649202245
 20
66.8932768011
 30
0.0
 10
20.4774133338
 20
67.2494408597
 30
0.0
 10
20.2778241925
 20
67.7997590988
 30
0.0
 10
20.1517310652
 20
68.3574430692
 30
0.0
 10
20.1227635821
 20
68.7336883433
 30
0.0
 10
20.1227635835
 20
68.9200394899
 30
0.0
  0
SPLINE
  5
2A8
100
AcDbEntity
  8
0
100
AcDbSpline
 62
7
  6
BYLAYER
 70
0
 71
3
 72
11
 73
7
 74
0
 42
0.0000001
 43
0.0000001
 44
0.0000000001
 40
0.0
 40
0.0
 40
0.0
 40
0.0
 40
0.2418532609
 40
0.4875643675
 40
0.7398736047
 40
1.0
 40
1.0
 40
1.0
 40
1.0
 10
20.1227635835
 20
68.9200394899
 30
0.0
 10
20.122763585
 20
69.1063879492
 30
0.0
 10
20.1517172804
 20
69.4826288224
 30
0.0
 10
20.2778162786
 20
70.0403081987
 30
0.0
 10
20.4774091571
 20
70.5906280822
 30
0.0
 10
20.649200028
 20
70.9467979446
 30
0.0
 10
20.743271199
 20
71.1237781056
 30
0.0
  0
SPLINE
  5
2A9
100
AcDbEntity
  8
0
100
AcDbSpline
 62
7
  6
BYLAYER
 70
0
 71
3
 72
9
 73
5
 74
0
 42
0.0000001
 43
0.0000001
 44
0.0000000001
 40
0.0
 40
0.0
 40
0.0
 40
0.0
 40
0.2437475325
 40
1.0
 40
1.0
 40
1.0
 40
1.0
 10
22.5022559489
 20
71.1237781056
 30
0.0
 10
22.5001761091
 20
71.1290320623
 30
0.0
 10
22.4912049743
 20
71.1504122204
 30
0.0
 10
22.4805940303
 20
71.1710929842
 30
0.0
 10
22.4718320802
 20
71.186278161
 30
0.0
  0
SPLINE
  5
2AA
100
AcDbEntity
  8
0
100
AcDbSpline
 62
7
  6
BYLAYER
 70
0
 71
3
 72
9
 73
5
 74
0
 42
0.0000001
 43
0.0000001
 44
0.0000000001
 40
0.0
 40
0.0
 40
0.0
 40
0.0
 40
0.256707118
 40
1.0
 40
1.0
 40
1.0
 40
1.0
 10
22.4718320807
 20
51.9313688978
 30
0.0
 10
22.4748062263
 20
51.9365233351
 30
0.0
 10
22.4860490945
 20
51.9567965395
 30
0.0
 10
22.4959137513
 20
51.9778476981
 30
0.0
 10
22.5022559522
 20
51.9938689532
 30
0.0
  0
SPLINE
  5
2AB
100
AcDbEntity
  8
0
100
AcDbSpline
 62
7
  6
BYLAYER
 70
0
 71
3
 72
11
 73
7
 74
0
 42
0.0000001
 43
0.0000001
 44
0.0000000001
 40
0.0
 40
0.0
 40
0.0
 40
0.0
 40
0.2601204615
 40
0.5124282216
 40
0.7581430596
 40
1.0
 40
1.0
 40
1.0
 40
1.0
 10
22.502255968
 20
71.1237781056
 30
0.0
 10
22.5963249106
 20
70.9468021203
 30
0.0
 10
22.7681138325
 20
70.5906380725
 30
0.0
 10
22.9677029665
 20
70.0403198371
 30
0.0
 10
23.0937960917
 20
69.4826358741
 30
0.0
 10
23.1227635836
 20
69.106390605
 30
0.0
 10
23.1227635835
 20
68.9200394605
 30
0.0
  0
SPLINE
  5
2AC
100
AcDbEntity
  8
0
100
AcDbSpline
 62
7
  6
BYLAYER
 70
0
 71
3
 72
11
 73
7
 74
0
 42
0.0000001
 43
0.0000001
 44
0.0000000001
 40
0.0
 40
0.0
 40
0.0
 40
0.0
 40
0.2500090906
 40
0.5000113781
 40
0.750006891
 40
1.0
 40
1.0
 40
1.0
 40
1.0
 10
22.4481610494
 20
66.1663008175
 30
0.0
 10
22.5514032764
 20
65.7910587922
 30
0.0
 10
22.7398025301
 20
65.0354100071
 30
0.0
 10
22.9555634089
 20
63.8871937581
 30
0.0
 10
23.0916501291
 20
62.7266450867
 30
0.0
 10
23.1227635835
 20
61.9479843844
 30
0.0
 10
23.1227635835
 20
61.5588235294
 30
0.0
  0
SPLINE
  5
2AD
100
AcDbEntity
  8
0
100
AcDbSpline
 62
7
  6
BYLAYER
 70
0
 71
3
 72
11
 73
7
 74
0
 42
0.0000001
 43
0.0000001
 44
0.0000000001
 40
0.0
 40
0.0
 40
0.0
 40
0.0
 40
0.2418532607
 40
0.4875643676
 40
0.739873605
 40
1.0
 40
1.0
 40
1.0
 40
1.0
 10
23.1227635835
 20
68.9200394605
 30
0.0
 10
23.1227635835
 20
68.7336909993
 30
0.0
 10
23.0938099053
 20
68.3574501198
 30
0.0
 10
22.9677108922
 20
67.7997707389
 30
0.0
 10
22.7681180175
 20
67.2494508466
 30
0.0
 10
22.5963271368
 20
66.8932809841
 30
0.0
 10
22.5022559715
 20
66.7163008175
 30
0.0
  0
SPLINE
  5
2AE
100
AcDbEntity
  8
0
100
AcDbSpline
 62
7
  6
BYLAYER
 70
0
 71
3
 72
11
 73
7
 74
0
 42
0.0000001
 43
0.0000001
 44
0.0000000001
 40
0.0
 40
0.0
 40
0.0
 40
0.0
 40
0.2601204613
 40
0.5124282216
 40
0.7581430596
 40
1.0
 40
1.0
 40
1.0
 40
1.0
 10
20.7432711955
 20
51.9938689532
 30
0.0
 10
20.6492022462
 20
52.1708449346
 30
0.0
 10
20.4774133369
 20
52.5270089889
 30
0.0
 10
20.2778241968
 20
53.0773272209
 30
0.0
 10
20.1517310687
 20
53.6350111841
 30
0.0
 10
20.1227635835
 20
54.0112564535
 30
0.0
 10
20.1227635835
 20
54.1976075978
 30
0.0
  0
SPLINE
  5
2AF
100
AcDbEntity
  8
0
100
AcDbSpline
 62
7
  6
BYLAYER
 70
0
 71
3
 72
9
 73
5
 74
0
 42
0.0000001
 43
0.0000001
 44
0.0000000001
 40
0.0
 40
0.0
 40
0.0
 40
0.0
 40
0.2567071273
 40
1.0
 40
1.0
 40
1.0
 40
1.0
 10
20.7736950815
 20
71.186278161
 30
0.0
 10
20.7707209343
 20
71.181123724
 30
0.0
 10
20.7594780617
 20
71.1608505201
 30
0.0
 10
20.7496134022
 20
71.1397993609
 30
0.0
 10
20.743271199
 20
71.1237781056
 30
0.0
  0
SPLINE
  5
2B0
100
AcDbEntity
  8
0
100
AcDbSpline
 62
7
  6
BYLAYER
 70
0
 71
3
 72
9
 73
5
 74
0
 42
0.0000001
 43
0.0000001
 44
0.0000000001
 40
0.0
 40
0.0
 40
0.0
 40
0.0
 40
0.2437475264
 40
1.0
 40
1.0
 40
1.0
 40
1.0
 10
20.7432711955
 20
51.9938689532
 30
0.0
 10
20.7453510364
 20
51.9886149964
 30
0.0
 10
20.7543221764
 20
51.967234838
 30
0.0
 10
20.7649331248
 20
51.9465540734
 30
0.0
 10
20.7736950808
 20
51.9313688978
 30
0.0
  0
SPLINE
  5
2B1
100
AcDbEntity
  8
0
100
AcDbSpline
 62
7
  6
BYLAYER
 70
0
 71
3
 72
11
 73
7
 74
0
 42
0.0000001
 43
0.0000001
 44
0.0000000001
 40
0.0
 40
0.0
 40
0.0
 40
0.0
 40
0.2418538603
 40
0.487564387
 40
0.7398751911
 40
1.0
 40
1.0
 40
1.0
 40
1.0
 10
23.1227635835
 20
54.1976076046
 30
0.0
 10
23.1227635839
 20
54.0112589396
 30
0.0
 10
23.0937868597
 20
53.6350213216
 30
0.0
 10
22.9677194619
 20
53.0773344452
 30
0.0
 10
22.7680943105
 20
52.5270269464
 30
0.0
 10
22.5963263372
 20
52.1708477944
 30
0.0
 10
22.502255874
 20
51.9938689532
 30
0.0
  0
SPLINE
  5
2B2
100
AcDbEntity
  8
0
100
AcDbSpline
 62
7
  6
BYLAYER
 70
0
 71
3
 72
11
 73
7
 74
0
 42
0.0000001
 43
0.0000001
 44
0.0000000001
 40
0.0
 40
0.0
 40
0.0
 40
0.0
 40
0.2601204618
 40
0.5124282095
 40
0.7581430563
 40
1.0
 40
1.0
 40
1.0
 40
1.0
 10
22.5022558743
 20
56.4013462413
 30
0.0
 10
22.5963248183
 20
56.2243702583
 30
0.0
 10
22.7681137808
 20
55.8682062365
 30
0.0
 10
22.9677026845
 20
55.3178879294
 30
0.0
 10
23.0937959933
 20
54.7602040275
 30
0.0
 10
23.1227635832
 20
54.3839587501
 30
0.0
 10
23.1227635835
 20
54.1976076046
 30
0.0
  0
SPLINE
  5
2B3
100
AcDbEntity
  8
0
100
AcDbSpline
 62
7
  6
BYLAYER
 70
0
 71
3
 72
11
 73
7
 74
0
 42
0.0000001
 43
0.0000001
 44
0.0000000001
 40
0.0
 40
0.0
 40
0.0
 40
0.0
 40
0.2499931421
 40
0.4999886579
 40
0.7499909321
 40
1.0
 40
1.0
 40
1.0
 40
1.0
 10
23.1227635835
 20
61.5588235294
 30
0.0
 10
23.1227635835
 20
61.1696626229
 30
0.0
 10
23.0916501552
 20
60.3910018631
 30
0.0
 10
22.9555633824
 20
59.2304531603
 30
0.0
 10
22.7398024696
 20
58.0822369723
 30
0.0
 10
22.551403267
 20
57.3265882325
 30
0.0
 10
22.4481610494
 20
56.9513462413
 30
0.0
  0
SPLINE
  5
2B4
100
AcDbEntity
  8
0
100
AcDbSpline
 62
7
  6
BYLAYER
 70
0
 71
3
 72
11
 73
7
 74
0
 42
0.0000001
 43
0.0000001
 44
0.0000000001
 40
0.0
 40
0.0
 40
0.0
 40
0.0
 40
0.2418532609
 40
0.4875643675
 40
0.7398736046
 40
1.0
 40
1.0
 40
1.0
 40
1.0
 10
20.1227635835
 20
54.1976075978
 30
0.0
 10
20.1227635836
 20
54.3839560593
 30
0.0
 10
20.1517172768
 20
54.7601969372
 30
0.0
 10
20.2778162742
 20
55.3178763208
 30
0.0
 10
20.4774091541
 20
55.8681962113
 30
0.0
 10
20.6492000269
 20
56.2243660781
 30
0.0
 10
20.743271199
 20
56.4013462413
 30
0.0
  0
SPLINE
  5
2B5
100
AcDbEntity
  8
0
100
AcDbSpline
 62
7
  6
BYLAYER
 70
0
 71
3
 72
11
 73
7
 74
0
 42
0.0000001
 43
0.0000001
 44
0.0000000001
 40
0.0
 40
0.0
 40
0.0
 40
0.0
 40
0.2500090906
 40
0.5000113781
 40
0.750006891
 40
1.0
 40
1.0
 40
1.0
 40
1.0
 10
20.7973661176
 20
56.9513462413
 30
0.0
 10
20.6941238885
 20
57.3265882661
 30
0.0
 10
20.5057246384
 20
58.0822370521
 30
0.0
 10
20.2899637578
 20
59.2304533006
 30
0.0
 10
20.1538770382
 20
60.3910019721
 30
0.0
 10
20.1227635835
 20
61.1696626744
 30
0.0
 10
20.1227635835
 20
61.5588235294
 30
0.0
  0
ELLIPSE
  5
2B6
100
AcDbEntity
  8
0
100
AcDbEllipse
 62
7
  6
BYLAYER
 10
19.1621903278
 20
61.0518243069
 30
0.0
 11
6.769687539
 21
-4.761806636
 31
0.0
 40
0.8141833296
 41
4.9261133898
 42
4.9279264011
  0
ELLIPSE
  5
2B7
100
AcDbEntity
  8
0
100
AcDbEllipse
 62
7
  6
BYLAYER
 10
19.1621903278
 20
60.5611204566
 30
0.0
 11
6.7778954833
 21
-5.7498567937
 31
0.0
 40
0.6717760696
 41
-1.3775981148
 42
-1.3573799308
  0
ELLIPSE
  5
2B8
100
AcDbEntity
  8
0
100
AcDbEllipse
 62
7
  6
BYLAYER
 10
19.1621903278
 20
60.102483604
 30
0.0
 11
6.9892805436
 21
-6.3556937277
 31
0.0
 40
0.5452577243
 41
-1.4468268092
 42
-1.4150555219
  0
ELLIPSE
  5
2B9
100
AcDbEntity
  8
0
100
AcDbEllipse
 62
7
  6
BYLAYER
 10
19.1621903278
 20
59.6906547149
 30
0.0
 11
7.2216881888
 21
-6.8211355117
 31
0.0
 40
0.4325884012
 41
-1.5276013277
 42
-1.487467482
  0
ELLIPSE
  5
2BA
100
AcDbEntity
  8
0
100
AcDbEllipse
 62
7
  6
BYLAYER
 10
19.1621903278
 20
59.3388703086
 30
0.0
 11
7.4303153681
 21
-7.1896323761
 31
0.0
 40
0.3306136582
 41
-1.6125941643
 42
-1.5657448926
  0
ELLIPSE
  5
2BB
100
AcDbEntity
  8
0
100
AcDbEllipse
 62
7
  6
BYLAYER
 10
19.1621903278
 20
59.0584370253
 30
0.0
 11
7.5984400747
 21
-7.4711827883
 31
0.0
 40
0.2365500347
 41
-1.6995452328
 42
-1.6468358367
  0
ELLIPSE
  5
2BC
100
AcDbEntity
  8
0
100
AcDbEllipse
 62
7
  6
BYLAYER
 10
19.1621903278
 20
58.8583682217
 30
0.0
 11
7.7182939033
 21
-7.6671333883
 31
0.0
 40
0.1479991431
 41
-1.7875736354
 42
-1.7293886949
  0
ELLIPSE
  5
2BD
100
AcDbEntity
  8
0
100
AcDbEllipse
 62
7
  6
BYLAYER
 10
19.1621903278
 20
58.7450942736
 30
0.0
 11
7.785942562
 21
-7.776570827
 31
0.0
 40
0.0628349518
 41
-1.8761933735
 42
-1.8126840089
  0
ELLIPSE
  5
2BE
100
AcDbEntity
  8
0
100
AcDbEllipse
 62
7
  6
BYLAYER
 10
14.2294617792
 20
61.1850500593
 30
0.0
 11
6.4571461231
 21
5.3215173093
 31
0.0
 40
0.8263497679
 41
-1.8974052139
 42
-1.8302981196
  0
ELLIPSE
  5
2BF
100
AcDbEntity
  8
0
100
AcDbEllipse
 62
7
  6
BYLAYER
 10
14.2294617792
 20
61.5588235294
 30
0.0
 11
7.8123086895
 21
-0.0
 31
0.0
 40
0.963433044
 41
-1.2995325731
 42
-1.2324254787
  0
ELLIPSE
  5
2C0
100
AcDbEntity
  8
0
100
AcDbEllipse
 62
7
  6
BYLAYER
 10
14.2294617792
 20
60.8232899761
 30
0.0
 11
6.6270509456
 21
6.0601069723
 31
0.0
 40
0.6826531162
 41
-1.8575939396
 42
-1.7904868453
  0
ELLIPSE
  5
2C1
100
AcDbEntity
  8
0
100
AcDbEllipse
 62
7
  6
BYLAYER
 10
14.2294617792
 20
60.4851705466
 30
0.0
 11
6.9078851538
 21
6.5607671043
 31
0.0
 40
0.5561450433
 41
-1.7854840708
 42
-1.7183769765
  0
ELLIPSE
  5
2C2
100
AcDbEntity
  8
0
100
AcDbEllipse
 62
7
  6
BYLAYER
 10
14.2294617792
 20
60.1815592072
 30
0.0
 11
7.1783004868
 21
6.9596182974
 31
0.0
 40
0.4429672902
 41
-1.7051854317
 42
-1.6380783374
  0
ELLIPSE
  5
2C3
100
AcDbEntity
  8
0
100
AcDbEllipse
 62
7
  6
BYLAYER
 10
14.2294617792
 20
59.9222142764
 30
0.0
 11
7.4104872802
 21
7.279395874
 31
0.0
 40
0.3397569986
 41
-1.6216551135
 42
-1.5545480192
  0
ELLIPSE
  5
2C4
100
AcDbEntity
  8
0
100
AcDbEllipse
 62
7
  6
BYLAYER
 10
14.2294617792
 20
59.7154713137
 30
0.0
 11
7.5938540461
 21
7.5246575103
 31
0.0
 40
0.2438041777
 41
-1.536573414
 42
-1.4694663196
  0
ELLIPSE
  5
2C5
100
AcDbEntity
  8
0
100
AcDbEllipse
 62
7
  6
BYLAYER
 10
14.2294617792
 20
59.5679752078
 30
0.0
 11
7.7232380929
 21
7.6954506012
 31
0.0
 40
0.1528608948
 41
-1.450681815
 42
-1.3835747207
  0
ELLIPSE
  5
2C6
100
AcDbEntity
  8
0
100
AcDbEllipse
 62
7
  6
BYLAYER
 10
14.2294617792
 20
59.4844666051
 30
0.0
 11
7.7958900717
 21
7.7908030039
 31
0.0
 40
0.0649774206
 41
-1.3643765566
 42
-1.2972694622
  0
ELLIPSE
  5
2C7
100
AcDbEntity
  8
0
100
AcDbEllipse
 62
7
  6
BYLAYER
 10
14.2294617792
 20
61.7464656565
 30
0.0
 11
6.6576717293
 21
-4.5189586685
 31
0.0
 40
0.9045203251
 41
1.7830405902
 42
1.8501476846
  0
ELLIPSE
  5
2C8
100
AcDbEntity
  8
0
100
AcDbEllipse
 62
7
  6
BYLAYER
 10
14.2294617792
 20
62.1157189383
 30
0.0
 11
6.5090715451
 21
-5.7438845358
 31
0.0
 40
0.7521396115
 41
1.8183855327
 42
1.8854926271
  0
ELLIPSE
  5
2C9
100
AcDbEntity
  8
0
100
AcDbEllipse
 62
7
  6
BYLAYER
 10
14.2294617792
 20
62.4670731434
 30
0.0
 11
6.7654754064
 21
-6.3263364658
 31
0.0
 40
0.6174932746
 41
1.7560709431
 42
1.8231780374
  0
ELLIPSE
  5
2CA
100
AcDbEntity
  8
0
100
AcDbEllipse
 62
7
  6
BYLAYER
 10
14.2294617792
 20
62.7892354586
 30
0.0
 11
7.0468101624
 21
-6.7707526428
 31
0.0
 40
0.4981174544
 41
1.6788100772
 42
1.7459171715
  0
ELLIPSE
  5
2CB
100
AcDbEntity
  8
0
100
AcDbEllipse
 62
7
  6
BYLAYER
 10
14.2294617792
 20
63.0718513221
 30
0.0
 11
7.3000243014
 21
-7.128928855
 31
0.0
 40
0.3902986392
 41
1.5965778316
 42
1.663684926
  0
ELLIPSE
  5
2CC
100
AcDbEntity
  8
0
100
AcDbEllipse
 62
7
  6
BYLAYER
 10
14.2294617792
 20
63.3058372273
 30
0.0
 11
7.508671714
 21
-7.4112915527
 31
0.0
 40
0.2910225948
 41
1.5121428159
 42
1.5792499103
  0
ELLIPSE
  5
2CD
100
AcDbEntity
  8
0
100
AcDbEllipse
 62
7
  6
BYLAYER
 10
14.2294617792
 20
63.4836726749
 30
0.0
 11
7.6655060057
 21
-7.6194188564
 31
0.0
 40
0.1978335621
 41
1.4265921697
 42
1.493699264
  0
ELLIPSE
  5
2CE
100
AcDbEntity
  8
0
100
AcDbEllipse
 62
7
  6
BYLAYER
 10
14.2294617792
 20
63.5996418871
 30
0.0
 11
7.7667659793
 21
-7.7526181998
 31
0.0
 40
0.108650535
 41
1.3404558684
 42
1.4075629627
  0
ELLIPSE
  5
2CF
100
AcDbEntity
  8
0
100
AcDbEllipse
 62
7
  6
BYLAYER
 10
19.1621903278
 20
62.3142156637
 30
0.0
 11
6.7213029091
 21
5.3438259075
 31
0.0
 40
0.7410930986
 41
1.3429117237
 42
1.3551978658
  0
ELLIPSE
  5
2D0
100
AcDbEntity
  8
0
100
AcDbEllipse
 62
7
  6
BYLAYER
 10
19.1621903278
 20
62.7908046222
 30
0.0
 11
6.8756759107
 21
6.0762217966
 31
0.0
 40
0.6065857959
 41
1.3832861887
 42
1.4098291498
  0
ELLIPSE
  5
2D1
100
AcDbEntity
  8
0
100
AcDbEllipse
 62
7
  6
BYLAYER
 10
19.1621903278
 20
63.2277966947
 30
0.0
 11
7.1067502841
 21
6.6018876611
 31
0.0
 40
0.4873950986
 41
1.4502055444
 42
1.4864347757
  0
ELLIPSE
  5
2D2
100
AcDbEntity
  8
0
100
AcDbEllipse
 62
7
  6
BYLAYER
 10
19.1621903278
 20
63.6111465964
 30
0.0
 11
7.3303344293
 21
7.0165429758
 31
0.0
 40
0.3804483491
 41
1.5261255966
 42
1.569760596
  0
ELLIPSE
  5
2D3
100
AcDbEntity
  8
0
100
AcDbEllipse
 62
7
  6
BYLAYER
 10
19.1621903278
 20
63.9285331461
 30
0.0
 11
7.5200493134
 21
7.341096966
 31
0.0
 40
0.2827506224
 41
1.6060449324
 42
1.6558988179
  0
ELLIPSE
  5
2D4
100
AcDbEntity
  8
0
100
AcDbEllipse
 62
7
  6
BYLAYER
 10
19.1621903278
 20
64.1697552789
 30
0.0
 11
7.6647083204
 21
7.5798977311
 31
0.0
 40
0.1917233997
 41
1.6879833724
 42
1.743454256
  0
ELLIPSE
  5
2D5
100
AcDbEntity
  8
0
100
AcDbEllipse
 62
7
  6
BYLAYER
 10
19.1621903278
 20
64.327059917
 30
0.0
 11
7.7587971111
 21
7.7327395204
 31
0.0
 40
0.1051190463
 41
1.7709759127
 42
1.8315636138
  0
ELLIPSE
  5
2D6
100
AcDbEntity
  8
0
100
AcDbEllipse
 62
7
  6
BYLAYER
 10
19.1621903278
 20
64.3953911599
 30
0.0
 11
7.7995571123
 21
7.7985162524
 31
0.0
 40
0.0209057077
 41
1.8544612505
 42
1.9209338703
  0
ELLIPSE
  5
2D7
100
AcDbEntity
  8
0
100
AcDbEllipse
 62
7
  6
BYLAYER
 10
14.2294617792
 20
60.6505739154
 30
0.0
 11
6.7654754064
 21
6.3263364658
 31
0.0
 40
0.6174932746
 41
0.7087800143
 42
0.7758871087
  0
ELLIPSE
  5
2D8
100
AcDbEntity
  8
0
100
AcDbEllipse
 62
7
  6
BYLAYER
 10
14.2294617792
 20
60.3284116002
 30
0.0
 11
7.0468101624
 21
6.7707526428
 31
0.0
 40
0.4981174544
 41
0.7860408803
 42
0.8531479746
  0
ELLIPSE
  5
2D9
100
AcDbEntity
  8
0
100
AcDbEllipse
 62
7
  6
BYLAYER
 10
14.2294617792
 20
61.9325969995
 30
0.0
 11
6.4571461231
 21
-5.3215173093
 31
0.0
 40
0.8263497679
 41
-0.7016599322
 42
-0.6345528378
  0
ELLIPSE
  5
2DA
100
AcDbEntity
  8
0
100
AcDbEllipse
 62
7
  6
BYLAYER
 10
14.2294617792
 20
60.0457957368
 30
0.0
 11
7.3000243014
 21
7.128928855
 31
0.0
 40
0.3902986392
 41
0.8682731258
 42
0.9353802201
  0
ELLIPSE
  5
2DB
100
AcDbEntity
  8
0
100
AcDbEllipse
 62
7
  6
BYLAYER
 10
14.2294617792
 20
59.8118098315
 30
0.0
 11
7.508671714
 21
7.4112915527
 31
0.0
 40
0.2910225948
 41
0.9527081415
 42
1.0198152359
  0
ELLIPSE
  5
2DC
100
AcDbEntity
  8
0
100
AcDbEllipse
 62
7
  6
BYLAYER
 10
14.2294617792
 20
59.633974384
 30
0.0
 11
7.6655060057
 21
7.6194188564
 31
0.0
 40
0.1978335621
 41
1.0382587878
 42
1.1053658821
  0
ELLIPSE
  5
2DD
100
AcDbEntity
  8
0
100
AcDbEllipse
 62
7
  6
BYLAYER
 10
14.2294617792
 20
59.5180051717
 30
0.0
 11
7.7667659793
 21
7.7526181998
 31
0.0
 40
0.108650535
 41
1.1243950891
 42
1.1915021834
  0
ELLIPSE
  5
2DE
100
AcDbEntity
  8
0
100
AcDbEllipse
 62
7
  6
BYLAYER
 10
14.2294617792
 20
63.6331804538
 30
0.0
 11
7.7958900717
 21
-7.7908030039
 31
0.0
 40
0.0649774206
 41
-1.2346885895
 42
-1.1675814952
  0
ELLIPSE
  5
2DF
100
AcDbEntity
  8
0
100
AcDbEllipse
 62
7
  6
BYLAYER
 10
14.2294617792
 20
63.549671851
 30
0.0
 11
7.7232380929
 21
-7.6954506012
 31
0.0
 40
0.1528608948
 41
-1.1483833311
 42
-1.0812762368
  0
ELLIPSE
  5
2E0
100
AcDbEntity
  8
0
100
AcDbEllipse
 62
7
  6
BYLAYER
 10
14.2294617792
 20
63.4021757452
 30
0.0
 11
7.5938540461
 21
-7.5246575103
 31
0.0
 40
0.2438041777
 41
-1.0624917322
 42
-0.9953846378
  0
ELLIPSE
  5
2E1
100
AcDbEntity
  8
0
100
AcDbEllipse
 62
7
  6
BYLAYER
 10
14.2294617792
 20
59.4676295407
 30
0.0
 11
7.8104831204
 21
7.8099182007
 31
0.0
 40
0.0216237981
 41
1.2108066133
 42
1.2779137076
  0
ELLIPSE
  5
2E2
100
AcDbEntity
  8
0
100
AcDbEllipse
 62
7
  6
BYLAYER
 10
14.2294617792
 20
63.1954327824
 30
0.0
 11
7.4104872802
 21
-7.279395874
 31
0.0
 40
0.3397569986
 41
-0.9774100326
 42
-0.9103029382
  0
ELLIPSE
  5
2E3
100
AcDbEntity
  8
0
100
AcDbEllipse
 62
7
  6
BYLAYER
 10
14.2294617792
 20
62.9360878516
 30
0.0
 11
7.1783004868
 21
-6.9596182974
 31
0.0
 40
0.4429672902
 41
-0.8938797144
 42
-0.82677262
  0
ELLIPSE
  5
2E4
100
AcDbEntity
  8
0
100
AcDbEllipse
 62
7
  6
BYLAYER
 10
14.2294617792
 20
61.3711814023
 30
0.0
 11
6.6576717293
 21
4.5189586685
 31
0.0
 40
0.9045203251
 41
0.6818103672
 42
0.7489174616
  0
ELLIPSE
  5
2E5
100
AcDbEntity
  8
0
100
AcDbEllipse
 62
7
  6
BYLAYER
 10
14.2294617792
 20
62.6324765123
 30
0.0
 11
6.9078851538
 21
-6.5607671043
 31
0.0
 40
0.5561450433
 41
-0.8135810753
 42
-0.746473981
  0
ELLIPSE
  5
2E6
100
AcDbEntity
  8
0
100
AcDbEllipse
 62
7
  6
BYLAYER
 10
14.2294617792
 20
62.2943570827
 30
0.0
 11
6.6270509456
 21
-6.0601069723
 31
0.0
 40
0.6826531162
 41
-0.7414712065
 42
-0.6743641122
  0
ELLIPSE
  5
2E7
100
AcDbEntity
  8
0
100
AcDbEllipse
 62
7
  6
BYLAYER
 10
14.2294617792
 20
61.0019281206
 30
0.0
 11
6.5090715451
 21
5.7438845358
 31
0.0
 40
0.7521396115
 41
0.6464654247
 42
0.713572519
  0
ELLIPSE
  5
2E8
100
AcDbEntity
  8
0
100
AcDbEllipse
 62
7
  6
BYLAYER
 10
17.0833368393
 20
62.3142156637
 30
0.0
 11
6.7213029091
 21
-5.3438259075
 31
0.0
 40
0.7410930986
 41
1.7863947399
 42
1.7986809299
  0
ELLIPSE
  5
2E9
100
AcDbEntity
  8
0
100
AcDbEllipse
 62
7
  6
BYLAYER
 10
17.0833368392
 20
62.7908046222
 30
0.0
 11
6.8756759107
 21
-6.0762217966
 31
0.0
 40
0.6065857959
 41
1.7317634819
 42
1.7583064649
  0
ELLIPSE
  5
2EA
100
AcDbEntity
  8
0
100
AcDbEllipse
 62
7
  6
BYLAYER
 10
17.0833368393
 20
63.2277966947
 30
0.0
 11
7.1067502841
 21
-6.6018876611
 31
0.0
 40
0.4873950986
 41
1.6551578627
 42
1.6913871092
  0
ELLIPSE
  5
2EB
100
AcDbEntity
  8
0
100
AcDbEllipse
 62
7
  6
BYLAYER
 10
17.0833368393
 20
63.6111465964
 30
0.0
 11
7.3303344293
 21
-7.0165429758
 31
0.0
 40
0.3804483491
 41
1.5718320053
 42
1.615467057
  0
ELLIPSE
  5
2EC
100
AcDbEntity
  8
0
100
AcDbEllipse
 62
7
  6
BYLAYER
 10
17.0833368393
 20
63.9285331461
 30
0.0
 11
7.5200493134
 21
-7.341096966
 31
0.0
 40
0.2827506224
 41
1.4856941074
 42
1.5355477211
  0
ELLIPSE
  5
2ED
100
AcDbEntity
  8
0
100
AcDbEllipse
 62
7
  6
BYLAYER
 10
17.0833368393
 20
64.1697552789
 30
0.0
 11
7.6647083204
 21
-7.5798977311
 31
0.0
 40
0.1917233997
 41
1.3981386149
 42
1.4536092812
  0
ELLIPSE
  5
2EE
100
AcDbEntity
  8
0
100
AcDbEllipse
 62
7
  6
BYLAYER
 10
17.0833368393
 20
64.327059917
 30
0.0
 11
7.7587971111
 21
-7.7327395204
 31
0.0
 40
0.1051190463
 41
1.3100291931
 42
1.3706167409
  0
ELLIPSE
  5
2EF
100
AcDbEntity
  8
0
100
AcDbEllipse
 62
7
  6
BYLAYER
 10
17.0833368392
 20
64.3953911599
 30
0.0
 11
7.7995571123
 21
-7.7985162524
 31
0.0
 40
0.0209057077
 41
1.2206588168
 42
1.2871314031
  0
ELLIPSE
  5
2F0
100
AcDbEntity
  8
0
100
AcDbEllipse
 62
7
  6
BYLAYER
 10
22.0160653879
 20
61.1850500593
 30
0.0
 11
6.4571461231
 21
-5.3215173093
 31
0.0
 40
0.8263497679
 41
-1.311294534
 42
-1.2441874396
  0
ELLIPSE
  5
2F1
100
AcDbEntity
  8
0
100
AcDbEllipse
 62
7
  6
BYLAYER
 10
22.0160653879
 20
60.8232899761
 30
0.0
 11
6.6270509456
 21
-6.0601069723
 31
0.0
 40
0.6826531162
 41
-1.3511058083
 42
-1.283998714
  0
ELLIPSE
  5
2F2
100
AcDbEntity
  8
0
100
AcDbEllipse
 62
7
  6
BYLAYER
 10
22.0160653879
 20
60.4851705466
 30
0.0
 11
6.9078851538
 21
-6.5607671043
 31
0.0
 40
0.5561450433
 41
-1.4232156771
 42
-1.3561085828
  0
ELLIPSE
  5
2F3
100
AcDbEntity
  8
0
100
AcDbEllipse
 62
7
  6
BYLAYER
 10
22.0160653879
 20
60.1815592072
 30
0.0
 11
7.1783004868
 21
-6.9596182974
 31
0.0
 40
0.4429672902
 41
-1.5035143162
 42
-1.4364072218
  0
ELLIPSE
  5
2F4
100
AcDbEntity
  8
0
100
AcDbEllipse
 62
7
  6
BYLAYER
 10
22.0160653879
 20
59.9222142764
 30
0.0
 11
7.4104872802
 21
-7.279395874
 31
0.0
 40
0.3397569986
 41
-1.5870446344
 42
-1.5199375401
  0
ELLIPSE
  5
2F5
100
AcDbEntity
  8
0
100
AcDbEllipse
 62
7
  6
BYLAYER
 10
22.0160653879
 20
59.7154713137
 30
0.0
 11
7.5938540461
 21
-7.5246575103
 31
0.0
 40
0.2438041777
 41
-1.672126334
 42
-1.6050192396
  0
ELLIPSE
  5
2F6
100
AcDbEntity
  8
0
100
AcDbEllipse
 62
7
  6
BYLAYER
 10
22.0160653879
 20
59.5679752078
 30
0.0
 11
7.7232380929
 21
-7.6954506012
 31
0.0
 40
0.1528608948
 41
-1.7580179329
 42
-1.6909108386
  0
ELLIPSE
  5
2F7
100
AcDbEntity
  8
0
100
AcDbEllipse
 62
7
  6
BYLAYER
 10
22.0160653879
 20
59.4844666051
 30
0.0
 11
7.7958900717
 21
-7.7908030039
 31
0.0
 40
0.0649774206
 41
-1.8443231913
 42
-1.777216097
  0
ELLIPSE
  5
2F8
100
AcDbEntity
  8
0
100
AcDbEllipse
 62
7
  6
BYLAYER
 10
17.0833368393
 20
61.0518243069
 30
0.0
 11
6.769687539
 21
4.761806636
 31
0.0
 40
0.8141833296
 41
-1.7863337475
 42
-1.784520737
  0
ELLIPSE
  5
2F9
100
AcDbEntity
  8
0
100
AcDbEllipse
 62
7
  6
BYLAYER
 10
22.0160653879
 20
61.5588235294
 30
0.0
 11
7.8123086895
 21
0.0
 31
0.0
 40
0.963433044
 41
4.3740181323
 42
4.4411252267
  0
ELLIPSE
  5
2FA
100
AcDbEntity
  8
0
100
AcDbEllipse
 62
7
  6
BYLAYER
 10
17.0833368392
 20
60.5611204566
 30
0.0
 11
6.7778954833
 21
5.7498567937
 31
0.0
 40
0.6717760696
 41
-1.7842127228
 42
-1.7639946709
  0
ELLIPSE
  5
2FB
100
AcDbEntity
  8
0
100
AcDbEllipse
 62
7
  6
BYLAYER
 10
17.0833368393
 20
60.102483604
 30
0.0
 11
6.9892805436
 21
6.3556937277
 31
0.0
 40
0.5452577243
 41
-1.7265371317
 42
-1.6947658549
  0
ELLIPSE
  5
2FC
100
AcDbEntity
  8
0
100
AcDbEllipse
 62
7
  6
BYLAYER
 10
17.0833368393
 20
59.6906547149
 30
0.0
 11
7.2216881888
 21
6.8211355117
 31
0.0
 40
0.4325884012
 41
-1.6541251716
 42
-1.613991356
  0
ELLIPSE
  5
2FD
100
AcDbEntity
  8
0
100
AcDbEllipse
 62
7
  6
BYLAYER
 10
17.0833368393
 20
59.3388703086
 30
0.0
 11
7.4303153681
 21
7.1896323761
 31
0.0
 40
0.3306136582
 41
-1.575847761
 42
-1.5289981995
  0
ELLIPSE
  5
2FE
100
AcDbEntity
  8
0
100
AcDbEllipse
 62
7
  6
BYLAYER
 10
17.0833368393
 20
59.0584370253
 30
0.0
 11
7.5984400747
 21
7.4711827883
 31
0.0
 40
0.2365500347
 41
-1.4947568169
 42
-1.4420471734
  0
ELLIPSE
  5
2FF
100
AcDbEntity
  8
0
100
AcDbEllipse
 62
7
  6
BYLAYER
 10
17.0833368393
 20
58.8583682217
 30
0.0
 11
7.7182939033
 21
7.6671333883
 31
0.0
 40
0.1479991431
 41
-1.4122039587
 42
-1.3540188368
  0
ELLIPSE
  5
300
100
AcDbEntity
  8
0
100
AcDbEllipse
 62
7
  6
BYLAYER
 10
17.0833368393
 20
58.7450942736
 30
0.0
 11
7.785942562
 21
7.776570827
 31
0.0
 40
0.0628349518
 41
-1.3289086446
 42
-1.265399183
  0
ELLIPSE
  5
301
100
AcDbEntity
  8
0
100
AcDbEllipse
 62
7
  6
BYLAYER
 10
22.0160653879
 20
63.5996418871
 30
0.0
 11
7.7667659793
 21
7.7526181998
 31
0.0
 40
0.108650535
 41
1.7340296909
 42
1.8011367852
  0
ELLIPSE
  5
302
100
AcDbEntity
  8
0
100
AcDbEllipse
 62
7
  6
BYLAYER
 10
22.0160653879
 20
63.4836726749
 30
0.0
 11
7.6655060057
 21
7.6194188564
 31
0.0
 40
0.1978335621
 41
1.6478933896
 42
1.7150004839
  0
ELLIPSE
  5
303
100
AcDbEntity
  8
0
100
AcDbEllipse
 62
7
  6
BYLAYER
 10
22.0160653879
 20
63.3058372273
 30
0.0
 11
7.508671714
 21
7.4112915527
 31
0.0
 40
0.2910225948
 41
1.5623427433
 42
1.6294498377
  0
ELLIPSE
  5
304
100
AcDbEntity
  8
0
100
AcDbEllipse
 62
7
  6
BYLAYER
 10
22.0160653879
 20
63.0718513221
 30
0.0
 11
7.3000243014
 21
7.128928855
 31
0.0
 40
0.3902986392
 41
1.4779077276
 42
1.545014822
  0
ELLIPSE
  5
305
100
AcDbEntity
  8
0
100
AcDbEllipse
 62
7
  6
BYLAYER
 10
22.0160653879
 20
62.7892354586
 30
0.0
 11
7.0468101624
 21
6.7707526428
 31
0.0
 40
0.4981174544
 41
1.3956754821
 42
1.4627825764
  0
ELLIPSE
  5
306
100
AcDbEntity
  8
0
100
AcDbEllipse
 62
7
  6
BYLAYER
 10
22.0160653879
 20
62.4670731434
 30
0.0
 11
6.7654754064
 21
6.3263364658
 31
0.0
 40
0.6174932746
 41
1.3184146161
 42
1.3855217105
  0
ELLIPSE
  5
307
100
AcDbEntity
  8
0
100
AcDbEllipse
 62
7
  6
BYLAYER
 10
22.0160653879
 20
62.1157189383
 30
0.0
 11
6.5090715451
 21
5.7438845358
 31
0.0
 40
0.7521396115
 41
1.2561000265
 42
1.3232071208
  0
ELLIPSE
  5
308
100
AcDbEntity
  8
0
100
AcDbEllipse
 62
7
  6
BYLAYER
 10
22.0160653879
 20
61.7464656565
 30
0.0
 11
6.6576717293
 21
4.5189586685
 31
0.0
 40
0.9045203251
 41
1.291444969
 42
1.3585520634
  0
ELLIPSE
  5
309
100
AcDbEntity
  8
0
100
AcDbEllipse
 62
7
  6
BYLAYER
 10
22.0160653879
 20
62.2943570827
 30
0.0
 11
6.6270509456
 21
6.0601069723
 31
0.0
 40
0.6826531162
 41
-2.4672285414
 42
-2.4001214471
  0
ELLIPSE
  5
30A
100
AcDbEntity
  8
0
100
AcDbEllipse
 62
7
  6
BYLAYER
 10
22.0160653879
 20
62.6324765123
 30
0.0
 11
6.9078851538
 21
6.5607671043
 31
0.0
 40
0.5561450433
 41
-2.3951186726
 42
-2.3280115783
  0
ELLIPSE
  5
30B
100
AcDbEntity
  8
0
100
AcDbEllipse
 62
7
  6
BYLAYER
 10
22.0160653879
 20
62.9360878516
 30
0.0
 11
7.1783004868
 21
6.9596182974
 31
0.0
 40
0.4429672902
 41
-2.3148200336
 42
-2.2477129392
  0
ELLIPSE
  5
30C
100
AcDbEntity
  8
0
100
AcDbEllipse
 62
7
  6
BYLAYER
 10
22.0160653879
 20
63.1954327824
 30
0.0
 11
7.4104872802
 21
7.279395874
 31
0.0
 40
0.3397569986
 41
-2.2312897153
 42
-2.164182621
  0
ELLIPSE
  5
30D
100
AcDbEntity
  8
0
100
AcDbEllipse
 62
7
  6
BYLAYER
 10
22.0160653879
 20
59.4676295407
 30
0.0
 11
7.8104831204
 21
-7.8099182007
 31
0.0
 40
0.0216237981
 41
1.863678946
 42
1.9307860403
  0
ELLIPSE
  5
30E
100
AcDbEntity
  8
0
100
AcDbEllipse
 62
7
  6
BYLAYER
 10
22.0160653879
 20
59.5180051717
 30
0.0
 11
7.7667659793
 21
-7.7526181998
 31
0.0
 40
0.108650535
 41
1.9500904702
 42
2.0171975645
  0
ELLIPSE
  5
30F
100
AcDbEntity
  8
0
100
AcDbEllipse
 62
7
  6
BYLAYER
 10
22.0160653879
 20
59.633974384
 30
0.0
 11
7.6655060057
 21
-7.6194188564
 31
0.0
 40
0.1978335621
 41
2.0362267715
 42
2.1033338658
  0
ELLIPSE
  5
310
100
AcDbEntity
  8
0
100
AcDbEllipse
 62
7
  6
BYLAYER
 10
22.0160653879
 20
59.8118098315
 30
0.0
 11
7.508671714
 21
-7.4112915527
 31
0.0
 40
0.2910225948
 41
2.1217774177
 42
2.1888845121
  0
ELLIPSE
  5
311
100
AcDbEntity
  8
0
100
AcDbEllipse
 62
7
  6
BYLAYER
 10
22.0160653879
 20
60.0457957368
 30
0.0
 11
7.3000243014
 21
-7.128928855
 31
0.0
 40
0.3902986392
 41
2.2062124334
 42
2.2733195278
  0
ELLIPSE
  5
312
100
AcDbEntity
  8
0
100
AcDbEllipse
 62
7
  6
BYLAYER
 10
22.0160653879
 20
60.3284116002
 30
0.0
 11
7.0468101624
 21
-6.7707526428
 31
0.0
 40
0.4981174544
 41
2.288444679
 42
2.3555517733
  0
ELLIPSE
  5
313
100
AcDbEntity
  8
0
100
AcDbEllipse
 62
7
  6
BYLAYER
 10
22.0160653879
 20
60.6505739154
 30
0.0
 11
6.7654754064
 21
-6.3263364658
 31
0.0
 40
0.6174932746
 41
2.3657055449
 42
2.4328126392
  0
ELLIPSE
  5
314
100
AcDbEntity
  8
0
100
AcDbEllipse
 62
7
  6
BYLAYER
 10
22.0160653879
 20
61.0019281206
 30
0.0
 11
6.5090715451
 21
-5.7438845358
 31
0.0
 40
0.7521396115
 41
2.4280201346
 42
2.4951272289
  0
ELLIPSE
  5
315
100
AcDbEntity
  8
0
100
AcDbEllipse
 62
7
  6
BYLAYER
 10
22.0160653879
 20
61.3711814023
 30
0.0
 11
6.6576717293
 21
-4.5189586685
 31
0.0
 40
0.9045203251
 41
2.392675192
 42
2.4597822864
  0
ELLIPSE
  5
316
100
AcDbEntity
  8
0
100
AcDbEllipse
 62
7
  6
BYLAYER
 10
22.0160653879
 20
63.4021757452
 30
0.0
 11
7.5938540461
 21
7.5246575103
 31
0.0
 40
0.2438041777
 41
-2.1462080158
 42
-2.0791009214
  0
ELLIPSE
  5
317
100
AcDbEntity
  8
0
100
AcDbEllipse
 62
7
  6
BYLAYER
 10
22.0160653879
 20
63.549671851
 30
0.0
 11
7.7232380929
 21
7.6954506012
 31
0.0
 40
0.1528608948
 41
-2.0603164168
 42
-1.9932093225
  0
ELLIPSE
  5
318
100
AcDbEntity
  8
0
100
AcDbEllipse
 62
7
  6
BYLAYER
 10
22.0160653879
 20
63.6331804538
 30
0.0
 11
7.7958900717
 21
7.7908030039
 31
0.0
 40
0.0649774206
 41
-1.9740111584
 42
-1.9069040641
  0
ELLIPSE
  5
319
100
AcDbEntity
  8
0
100
AcDbEllipse
 62
7
  6
BYLAYER
 10
22.0160653879
 20
61.9325969995
 30
0.0
 11
6.4571461231
 21
5.3215173093
 31
0.0
 40
0.8263497679
 41
-2.5070398158
 42
-2.4399327214
  0
ENDSEC
  0
SECTION
  2
OBJECTS
  0
DICTIONARY
  5
C
100
AcDbDictionary
280
0
281
1
  3
ACAD_GROUP
350
D
  3
ACAD_MLINESTYLE
350
17
  3
ACAD_LAYOUT
350
1A
  3
ACAD_PLOTSETTINGS
350
19
  3
ACAD_PLOTSTYLENAME
350
E
  0
DICTIONARY
  5
D
102
{ACAD_REACTORS
330
C
102
}
100
AcDbDictionary
280
0
281
1
  0
ACDBDICTIONARYWDFLT
  5
E
102
{ACAD_REACTORS
330
C
102
}
100
AcDbDictionary
281
1
  3
Normal
350
F
100
AcDbDictionaryWithDefault
340
F
  0
DICTIONARY
  5
17
102
{ACAD_REACTORS
330
C
102
}
100
AcDbDictionary
280
0
281
1
  3
Standard
350
18
  0
DICTIONARY
  5
19
102
{ACAD_REACTORS
330
C
102
}
100
AcDbDictionary
281
1
  0
DICTIONARY
  5
1A
102
{ACAD_REACTORS
330
C
102
}
100
AcDbDictionary
281
1
  3
Model
350
31A
  3
Layout1
350
31B
  0
ACDBPLACEHOLDER
  5
F
102
{ACAD_REACTORS
330
E
102
}
  0
MLINESTYLE
  5
18
102
{ACAD_REACTORS
330
17
102
}
100
AcDbMlineStyle
  2
STANDARD
 70
0
  3

 62
256
 51
90.0
 52
90.0
 71
2
 49
0.5
 62
256
  6
BYLAYER
 49
-0.5
 62
256
  6
BYLAYER
  0
LAYOUT
  5
31A
102
{ACAD_REACTORS
330
1A
102
}
100
AcDbPlotSettings
  1

  2
none_device
  4

  6

 40
0.0
 41
0.0
 42
0.0
 43
0.0
 44
210.0
 45
297.0
 46
0.0
 47
0.0
 48
0.0
 49
0.0
140
0.0
141
0.0
142
1.0
143
1.0
 70
1024
 72
1
 73
0
 74
0
  7

 75
0
147
1.0
148
0.0
149
0.0
100
AcDbLayout
  1
Model
 70
0
 71
0
 10
0.0
 20
0.0
 11
210.0
 21
297.0
 12
0.0
 22
0.0
 32
0.0
 14
0.0
 24
0.0
 34
0.0
 15
0.0
 25
0.0
 35
0.0
146
0.0
 13
0.0
 23
0.0
 33
0.0
 16
1.0
 26
0.0
 36
0.0
 17
0.0
 27
1.0
 37
0.0
 76
0
330
210
345
0
346
0
  0
LAYOUT
  5
31B
102
{ACAD_REACTORS
330
1A
102
}
100
AcDbPlotSettings
  1

  2
none_device
  4

  6

 40
0.0
 41
0.0
 42
0.0
 43
0.0
 44
210.0
 45
297.0
 46
0.0
 47
0.0
 48
0.0
 49
0.0
140
0.0
141
0.0
142
1.0
143
1.0
 70
0
 72
1
 73
0
 74
0
  7

 75
0
147
1.0
148
0.0
149
0.0
100
AcDbLayout
  1
Layout1
 70
0
 71
1
 10
0.0
 20
0.0
 11
210.0
 21
297.0
 12
0.0
 22
0.0
 32
0.0
 14
0.0
 24
0.0
 34
0.0
 15
0.0
 25
0.0
 35
0.0
146
0.0
 13
0.0
 23
0.0
 33
0.0
 16
1.0
 26
0.0
 36
0.0
 17
0.0
 27
1.0
 37
0.0
 76
0
330
211
345
0
346
0
  0
ENDSEC
  0
EOF
