999
DXF file: C:\Users\sesa63760\Dev\_Creo\CAD\MCADID0003859_3D-CAD\drw0001_6.dxf
999
Pro/ENGINEER 2019471 by Parametric Technology Corporation
  0
SECTION
  2
HEADER
  9
$ACADVER
  1
AC1024
  9
$DWGCODEPAGE
  3
ANSI_1252
  9
$EXTMAX
 10
87.2203434785
 20
123.3544857768
 30
0.0
  9
$EXTMIN
 10
0.0
 20
0.0
 30
0.0
  9
$LIMMIN
 10
0.0
 20
0.0
  9
$LIMMAX
 10
87.2203434785
 20
123.3544857768
  9
$VIEWCTR
 10
43.6101717393
 20
61.6772428884
  9
$VIEWSIZE
 40
123.3544857768
  9
$CLAYER
  8
0
  9
$LTSCALE
 40
8.0408849988
  9
$CELTYPE
  6
BYLAYER
  9
$DIMSCALE
 40
1.0
  9
$DIMASZ
 40
1.0383374224
  9
$DIMEXO
 40
1.0
  9
$DIMDLI
 40
5.5555205446
  9
$DIMEXE
 40
1.0
  9
$DIMCEN
 40
1.3157811816
  9
$DIMLFAC
 40
1.0
  9
$DIMBLK
  1
_FILLED
  9
$DIMALT
 70
0
  9
$DIMALTF
 40
0.0393700787
  9
$DIMTXT
 40
1.4536723913
  9
$DIMTOL
 70
1
  9
$DIMLIM
 70
0
  9
$DIMTFAC
 40
1.0
  9
$DIMTP
 40
0.01
  9
$DIMTM
 40
0.01
  9
$DIMGAP
 40
0.625
  9
$DIMDSEP
 70
46
  9
$AUNITS
 70
0
  9
$PDMODE
 70
3
  9
$PDSIZE
 40
0.3125
  9
$HANDSEED
  5
310
  9
$TILEMODE
 70
1
  9
$MEASUREMENT
 70
1
  9
$INSUNITS
 70
4
  0
ENDSEC
  0
SECTION
  2
CLASSES
  0
CLASS
  1
ACDBDICTIONARYWDFLT
  2
AcDbDictionaryWithDefault
  3
AutoCAD 2000
 90
0
 91
1
280
0
281
0
  0
CLASS
  1
ACDBPLACEHOLDER
  2
AcDbPlaceHolder
  3
AutoCAD 2000
 90
0
 91
1
280
0
281
0
  0
CLASS
  1
LAYOUT
  2
AcDbLayout
  3
AutoCAD 2000
 90
0
 91
0
280
0
281
0
  0
ENDSEC
  0
SECTION
  2
TABLES
  0
TABLE
  2
VPORT
  5
8
100
AcDbSymbolTable
 70
2
  0
VPORT
  5
1F4
100
AcDbSymbolTableRecord
100
AcDbViewportTableRecord
  2
*ACTIVE
 70
0
 10
0.0
 20
0.0
 11
1.0
 21
1.0
 12
43.6101717393
 22
61.6772428884
 13
0.0
 23
0.0
 14
1.0
 24
1.0
 15
0.0
 25
0.0
 16
0.0
 26
0.0
 36
1.0
 17
0.0
 27
0.0
 37
0.0
 40
123.3544857768
 41
0.7070707071
 42
50.0
 43
0.0
 44
0.0
 50
0.0
 51
0.0
 71
0
 72
100
 73
1
 74
1
 75
0
 76
0
 77
0
 78
0
  0
ENDTAB
  0
TABLE
  2
LTYPE
  5
5
100
AcDbSymbolTable
 70
6
  0
LTYPE
  5
14
100
AcDbSymbolTableRecord
100
AcDbLinetypeTableRecord
  2
BYBLOCK
 70
0
  3

 72
65
 73
0
 40
0.0
  0
LTYPE
  5
15
100
AcDbSymbolTableRecord
100
AcDbLinetypeTableRecord
  2
BYLAYER
 70
0
  3

 72
65
 73
0
 40
0.0
  0
LTYPE
  5
16
100
AcDbSymbolTableRecord
100
AcDbLinetypeTableRecord
  2
CONTINUOUS
 70
64
  3
Solid line
 72
65
 73
0
 40
0.0
  0
LTYPE
  5
1F5
100
AcDbSymbolTableRecord
100
AcDbLinetypeTableRecord
  2
CENTER
 70
64
  3
____ _ ____ _ ____ _ ____ _ ____ _ ____ _ ____
 72
65
 73
4
 40
0.6
 49
0.375
 74
0
 49
-0.075
 74
0
 49
0.075
 74
0
 49
-0.075
 74
0
  0
LTYPE
  5
1F6
100
AcDbSymbolTableRecord
100
AcDbLinetypeTableRecord
  2
HIDDEN
 70
64
  3
- - - - - - - - - - - - - - - - - - - -
 72
65
 73
2
 40
0.2
 49
0.1
 74
0
 49
-0.1
 74
0
  0
LTYPE
  5
1F7
100
AcDbSymbolTableRecord
100
AcDbLinetypeTableRecord
  2
PHANTOM
 70
64
  3
_____ _ _ _____ _ _ _____ _ _ _____
 72
65
 73
6
 40
0.8
 49
0.45
 74
0
 49
-0.05
 74
0
 49
0.1
 74
0
 49
-0.05
 74
0
 49
0.1
 74
0
 49
-0.05
 74
0
  0
LTYPE
  5
1F8
100
AcDbSymbolTableRecord
100
AcDbLinetypeTableRecord
  2
DOT
 70
64
  3
. . . . . . . . . . . . . . . . . . . .
 72
65
 73
2
 40
0.2
 49
0.1
 74
0
 49
-0.1
 74
0
  0
LTYPE
  5
1F9
100
AcDbSymbolTableRecord
100
AcDbLinetypeTableRecord
  2
DASHED
 70
64
  3
- - - - - - - - - - - - - - - - - - - -
 72
65
 73
2
 40
0.2
 49
0.1
 74
0
 49
-0.1
 74
0
  0
ENDTAB
  0
TABLE
  2
LAYER
  5
2
100
AcDbSymbolTable
 70
36
  0
LAYER
  5
10
100
AcDbSymbolTableRecord
100
AcDbLayerTableRecord
  2
0
 70
0
 62
7
  6
CONTINUOUS
370
-3
390
F
  0
LAYER
  5
1FA
100
AcDbSymbolTableRecord
100
AcDbLayerTableRecord
  2
DEFAULT_1
 70
0
 62
7
  6
CENTER
370
-3
390
F
  0
LAYER
  5
1FB
100
AcDbSymbolTableRecord
100
AcDbLayerTableRecord
  2
DEFAULT_2
 70
0
 62
7
  6
HIDDEN
370
-3
390
F
  0
LAYER
  5
1FC
100
AcDbSymbolTableRecord
100
AcDbLayerTableRecord
  2
DEFAULT_3
 70
0
 62
7
  6
PHANTOM
370
-3
390
F
  0
LAYER
  5
1FD
100
AcDbSymbolTableRecord
100
AcDbLayerTableRecord
  2
00_COMPONENTS
 70
0
 62
7
  6
CONTINUOUS
370
-3
390
F
  0
LAYER
  5
1FE
100
AcDbSymbolTableRecord
100
AcDbLayerTableRecord
  2
01_1_DEFAULT_DATUMS
 70
0
 62
7
  6
CONTINUOUS
370
-3
390
F
  0
LAYER
  5
1FF
100
AcDbSymbolTableRecord
100
AcDbLayerTableRecord
  2
01_PLANES
 70
0
 62
7
  6
CONTINUOUS
370
-3
390
F
  0
LAYER
  5
200
100
AcDbSymbolTableRecord
100
AcDbLayerTableRecord
  2
02_COORD_SYS
 70
0
 62
7
  6
CONTINUOUS
370
-3
390
F
  0
LAYER
  5
201
100
AcDbSymbolTableRecord
100
AcDbLayerTableRecord
  2
03_AXES
 70
0
 62
7
  6
CONTINUOUS
370
-3
390
F
  0
LAYER
  5
202
100
AcDbSymbolTableRecord
100
AcDbLayerTableRecord
  2
04_POINTS
 70
0
 62
7
  6
CONTINUOUS
370
-3
390
F
  0
LAYER
  5
203
100
AcDbSymbolTableRecord
100
AcDbLayerTableRecord
  2
05_CURVES
 70
0
 62
7
  6
CONTINUOUS
370
-3
390
F
  0
LAYER
  5
204
100
AcDbSymbolTableRecord
100
AcDbLayerTableRecord
  2
06_SURFS
 70
0
 62
7
  6
CONTINUOUS
370
-3
390
F
  0
LAYER
  5
205
100
AcDbSymbolTableRecord
100
AcDbLayerTableRecord
  2
07_COSMETICS
 70
0
 62
7
  6
CONTINUOUS
370
-3
390
F
  0
LAYER
  5
206
100
AcDbSymbolTableRecord
100
AcDbLayerTableRecord
  2
10_NOTES
 70
0
 62
7
  6
CONTINUOUS
370
-3
390
F
  0
LAYER
  5
207
100
AcDbSymbolTableRecord
100
AcDbLayerTableRecord
  2
11_NOTES_PUB
 70
0
 62
7
  6
CONTINUOUS
370
-3
390
F
  0
LAYER
  5
208
100
AcDbSymbolTableRecord
100
AcDbLayerTableRecord
  2
13_REF_GTOL
 70
0
 62
7
  6
CONTINUOUS
370
-3
390
F
  0
LAYER
  5
209
100
AcDbSymbolTableRecord
100
AcDbLayerTableRecord
  2
16_MISC
 70
0
 62
7
  6
CONTINUOUS
370
-3
390
F
  0
LAYER
  5
20A
100
AcDbSymbolTableRecord
100
AcDbLayerTableRecord
  2
17_NO_PRINT
 70
0
 62
7
  6
CONTINUOUS
370
-3
390
F
  0
LAYER
  5
20B
100
AcDbSymbolTableRecord
100
AcDbLayerTableRecord
  2
18_DATUM_CAMS_JOINTS
 70
0
 62
7
  6
CONTINUOUS
370
-3
390
F
  0
LAYER
  5
20C
100
AcDbSymbolTableRecord
100
AcDbLayerTableRecord
  2
19_DATUM_FUNCTIONAL
 70
0
 62
7
  6
CONTINUOUS
370
-3
390
F
  0
LAYER
  5
20D
100
AcDbSymbolTableRecord
100
AcDbLayerTableRecord
  2
20_DATUM_KINEMATIC_SCHEME
 70
0
 62
7
  6
CONTINUOUS
370
-3
390
F
  0
ENDTAB
  0
TABLE
  2
STYLE
  5
3
100
AcDbSymbolTable
 70
1
  0
STYLE
  5
11
100
AcDbSymbolTableRecord
100
AcDbTextStyleTableRecord
  2
STANDARD
 70
0
 40
0.0
 41
1.0
 50
0.0
 71
0
 42
0.2
  3
ARIAL.TTF
  4

  0
STYLE
  5
20E
100
AcDbSymbolTableRecord
100
AcDbTextStyleTableRecord
  2
TEXTSTYLE_1
 70
0
 40
0.0
 41
0.8
 50
0.0
 71
0
 42
0.2
  3
gdt
  4

  0
ENDTAB
  0
TABLE
  2
VIEW
  5
6
100
AcDbSymbolTable
 70
0
  0
ENDTAB
  0
TABLE
  2
UCS
  5
7
100
AcDbSymbolTable
 70
0
  0
ENDTAB
  0
TABLE
  2
APPID
  5
9
100
AcDbSymbolTable
 70
1
  0
APPID
  5
20F
100
AcDbSymbolTableRecord
100
AcDbRegAppTableRecord
  2
ACAD
 70
0
  0
ENDTAB
  0
TABLE
  2
BLOCK_RECORD
  5
1
100
AcDbSymbolTable
 70
0
  0
BLOCK_RECORD
  5
210
100
AcDbSymbolTableRecord
100
AcDbBlockTableRecord
  2
*Model_Space
  0
BLOCK_RECORD
  5
211
100
AcDbSymbolTableRecord
100
AcDbBlockTableRecord
  2
*Paper_Space
  0
BLOCK_RECORD
  5
212
100
AcDbSymbolTableRecord
100
AcDbBlockTableRecord
  2
_FILLED
  0
ENDTAB
  0
TABLE
  2
DIMSTYLE
  5
A
100
AcDbSymbolTable
 70
1
100
AcDbDimStyleTable
 71
0
  0
DIMSTYLE
105
213
100
AcDbSymbolTableRecord
100
AcDbDimStyleTableRecord
  2
STANDARD
 70
0
  3

  4

 40
1.0
 41
1.0383374224
 42
1.0
 43
0.38
 44
1.0
 45
0.0
 46
0.0
 47
0.01
 48
0.01
140
1.4536723913
141
0.09
142
0.0
143
25.4
144
1.0
145
0.0
146
1.0
147
0.625
 71
1
 72
0
 73
0
 74
0
 75
0
 76
0
 77
1
 78
8
 79
2
170
0
171
1
172
0
173
0
174
0
175
0
176
0
177
0
178
0
270
2
179
2
271
2
272
2
273
2
274
2
275
0
280
0
281
0
282
0
283
1
284
8
285
0
286
0
287
3
288
0
340
11
278
46
341
212
342
212
343
212
344
212
  0
ENDTAB
  0
ENDSEC
  0
SECTION
  2
BLOCKS
  0
BLOCK
  5
20
100
AcDbEntity
  8
0
100
AcDbBlockBegin
  2
*Model_Space
 70
0
 10
0.0
 20
0.0
 30
0.0
  3
*Model_Space
  1

  0
ENDBLK
  5
21
100
AcDbEntity
  8
0
100
AcDbBlockEnd
  0
BLOCK
  5
1C
100
AcDbEntity
  8
0
100
AcDbBlockBegin
  2
*Paper_Space
 70
0
 10
0.0
 20
0.0
 30
0.0
  3
*Paper_Space
  1

  0
ENDBLK
  5
1D
100
AcDbEntity
  8
0
100
AcDbBlockEnd
  0
BLOCK
  5
214
100
AcDbEntity
  8
0
100
AcDbBlockBegin
  2
_FILLED
 70
64
 10
0.0
 20
0.0
  3
_FILLED
  1

  0
SOLID
  5
215
100
AcDbEntity
  8
0
  6
BYBLOCK
 62
0
100
AcDbTrace
 10
0.0
 20
0.0
 11
-1.0
 21
0.25
 12
-1.0
 22
-0.25
 13
-1.0
 23
-0.25
  0
ENDBLK
  5
216
100
AcDbEntity
  8
0
  6
BYBLOCK
 62
0
100
AcDbBlockEnd
  0
ENDSEC
  0
SECTION
  2
ENTITIES
  0
LINE
  5
217
100
AcDbEntity
  8
0
100
AcDbLine
 62
7
  6
BYLAYER
 10
9.8650951528
 20
58.9096095618
 11
9.8650951528
 21
60.909342309
  0
LINE
  5
218
100
AcDbEntity
  8
0
100
AcDbLine
 62
7
  6
BYLAYER
 10
19.8650951528
 20
58.704233334
 11
19.8650951528
 21
61.1147145514
  0
LINE
  5
219
100
AcDbEntity
  8
0
100
AcDbLine
 62
7
  6
BYLAYER
 10
20.0546279616
 20
58.5043585004
 11
20.0546279616
 21
61.3145933705
  0
LINE
  5
21A
100
AcDbEntity
  8
0
100
AcDbLine
 62
7
  6
BYLAYER
 10
21.8650951528
 20
56.8775245433
 11
21.8650951528
 21
66.4770704282
  0
LINE
  5
21B
100
AcDbEntity
  8
0
100
AcDbLine
 62
7
  6
BYLAYER
 10
22.0650951528
 20
56.6772428884
 11
22.0650951528
 21
66.6772428884
  0
LINE
  5
21C
100
AcDbEntity
  8
0
100
AcDbLine
 62
7
  6
BYLAYER
 10
24.0650951528
 20
66.6771172094
 11
24.0650951528
 21
56.6775521276
  0
LINE
  5
21D
100
AcDbEntity
  8
0
100
AcDbLine
 62
7
  6
BYLAYER
 10
24.1650951528
 20
56.6775279806
 11
24.1650951528
 21
66.6769577962
  0
LINE
  5
21E
100
AcDbEntity
  8
0
100
AcDbLine
 62
7
  6
BYLAYER
 10
31.8650951528
 20
66.6772428884
 11
31.8650951528
 21
56.6772428884
  0
LINE
  5
21F
100
AcDbEntity
  8
0
100
AcDbLine
 62
7
  6
BYLAYER
 10
31.8650951528
 20
66.6772428884
 11
32.8650951528
 21
67.6772428884
  0
LINE
  5
220
100
AcDbEntity
  8
0
100
AcDbLine
 62
7
  6
BYLAYER
 10
69.0650951528
 20
54.4258327269
 11
68.8650951528
 21
54.3722428884
  0
LINE
  5
221
100
AcDbEntity
  8
0
100
AcDbLine
 62
7
  6
BYLAYER
 10
31.8650951528
 20
56.6772428884
 11
32.8650951528
 21
55.6772428884
  0
LINE
  5
222
100
AcDbEntity
  8
0
100
AcDbLine
 62
7
  6
BYLAYER
 10
32.8650951528
 20
55.6772428884
 11
32.8650951528
 21
67.6772428884
  0
LINE
  5
223
100
AcDbEntity
  8
0
100
AcDbLine
 62
7
  6
BYLAYER
 10
68.1904926176
 20
52.0122883122
 11
66.5396976798
 21
52.0122883122
  0
LINE
  5
224
100
AcDbEntity
  8
0
100
AcDbLine
 62
7
  6
BYLAYER
 10
73.539697688
 20
52.0122883122
 11
75.1904926177
 21
52.0122883122
  0
LINE
  5
225
100
AcDbEntity
  8
0
100
AcDbLine
 62
7
  6
BYLAYER
 10
78.2650951528
 20
55.6772428884
 11
75.8650951528
 21
55.6772428884
  0
LINE
  5
226
100
AcDbEntity
  8
0
100
AcDbLine
 62
7
  6
BYLAYER
 10
72.3697281524
 20
55.6772428884
 11
69.3604648069
 21
55.6772428884
  0
LINE
  5
227
100
AcDbEntity
  8
0
100
AcDbLine
 62
7
  6
BYLAYER
 10
65.8650951528
 20
55.6772428884
 11
32.8650951528
 21
55.6772428884
  0
LINE
  5
228
100
AcDbEntity
  8
0
100
AcDbLine
 62
7
  6
BYLAYER
 10
78.4650951528
 20
56.4772428884
 11
78.7973825129
 21
56.4772428884
  0
LINE
  5
229
100
AcDbEntity
  8
0
100
AcDbLine
 62
7
  6
BYLAYER
 10
68.1904926187
 20
56.6197656003
 11
66.5396976869
 21
56.6197656003
  0
LINE
  5
22A
100
AcDbEntity
  8
0
100
AcDbLine
 62
7
  6
BYLAYER
 10
73.5396976869
 20
56.6197656003
 11
75.190492627
 21
56.6197656003
  0
LINE
  5
22B
100
AcDbEntity
  8
0
100
AcDbLine
 62
7
  6
BYLAYER
 10
31.8650951528
 20
56.6772428884
 11
24.1650951528
 21
56.6772428884
  0
LINE
  5
22C
100
AcDbEntity
  8
0
100
AcDbLine
 62
7
  6
BYLAYER
 10
24.0650951528
 20
56.6772428884
 11
22.0650951528
 21
56.6772428884
  0
LINE
  5
22D
100
AcDbEntity
  8
0
100
AcDbLine
 62
7
  6
BYLAYER
 10
24.1650951528
 20
56.7272428884
 11
24.0650951528
 21
56.7272428884
  0
LINE
  5
22E
100
AcDbEntity
  8
0
100
AcDbLine
 62
7
  6
BYLAYER
 10
68.2445875408
 20
57.2697656003
 11
66.4856027842
 21
57.2697656003
  0
LINE
  5
22F
100
AcDbEntity
  8
0
100
AcDbLine
 62
7
  6
BYLAYER
 10
73.4856027648
 20
57.2697656003
 11
75.2445874433
 21
57.2697656003
  0
LINE
  5
230
100
AcDbEntity
  8
0
100
AcDbLine
 62
7
  6
BYLAYER
 10
9.8650951528
 20
58.9094759354
 11
19.8650951528
 21
58.9094759354
  0
LINE
  5
231
100
AcDbEntity
  8
0
100
AcDbLine
 62
7
  6
BYLAYER
 10
20.0546279616
 20
58.5043585004
 11
21.8650951528
 21
58.4094759354
  0
LINE
  5
232
100
AcDbEntity
  8
0
100
AcDbLine
 62
7
  6
BYLAYER
 10
72.1650951528
 20
68.7946784537
 11
72.8650951528
 21
68.9822428884
  0
LINE
  5
233
100
AcDbEntity
  8
0
100
AcDbLine
 62
7
  6
BYLAYER
 10
9.8650951528
 20
60.9094759354
 11
19.8650951528
 21
60.9094759354
  0
LINE
  5
234
100
AcDbEntity
  8
0
100
AcDbLine
 62
7
  6
BYLAYER
 10
72.6650951528
 20
54.4258327269
 11
72.8650951528
 21
54.3722428884
  0
LINE
  5
235
100
AcDbEntity
  8
0
100
AcDbLine
 62
7
  6
BYLAYER
 10
20.0546279616
 20
61.3145933705
 11
21.8650951528
 21
61.4094759354
  0
LINE
  5
236
100
AcDbEntity
  8
0
100
AcDbLine
 62
7
  6
BYLAYER
 10
68.2445875408
 20
66.0847201765
 11
66.4856028624
 21
66.0847201765
  0
LINE
  5
237
100
AcDbEntity
  8
0
100
AcDbLine
 62
7
  6
BYLAYER
 10
73.4856027648
 20
66.0847201765
 11
75.2445875215
 21
66.0847201765
  0
LINE
  5
238
100
AcDbEntity
  8
0
100
AcDbLine
 62
7
  6
BYLAYER
 10
24.1650951528
 20
66.6272428884
 11
24.0650951528
 21
66.6272428884
  0
LINE
  5
239
100
AcDbEntity
  8
0
100
AcDbLine
 62
7
  6
BYLAYER
 10
31.8650951528
 20
66.6772428884
 11
24.1650951528
 21
66.6772428884
  0
LINE
  5
23A
100
AcDbEntity
  8
0
100
AcDbLine
 62
7
  6
BYLAYER
 10
24.0650951528
 20
66.6772428884
 11
22.0650951528
 21
66.6772428884
  0
LINE
  5
23B
100
AcDbEntity
  8
0
100
AcDbLine
 62
7
  6
BYLAYER
 10
68.1904926176
 20
66.7347201765
 11
66.5396976798
 21
66.7347201765
  0
LINE
  5
23C
100
AcDbEntity
  8
0
100
AcDbLine
 62
7
  6
BYLAYER
 10
73.539697688
 20
66.7347201765
 11
75.1904925865
 21
66.7347201765
  0
LINE
  5
23D
100
AcDbEntity
  8
0
100
AcDbLine
 62
7
  6
BYLAYER
 10
78.4650951528
 20
66.8772428884
 11
78.7973825129
 21
66.8772428884
  0
LINE
  5
23E
100
AcDbEntity
  8
0
100
AcDbLine
 62
7
  6
BYLAYER
 10
78.2650951528
 20
67.6772428884
 11
75.8650951528
 21
67.6772428884
  0
LINE
  5
23F
100
AcDbEntity
  8
0
100
AcDbLine
 62
7
  6
BYLAYER
 10
72.1650951528
 20
67.6772428884
 11
69.5650951528
 21
67.6772428884
  0
LINE
  5
240
100
AcDbEntity
  8
0
100
AcDbLine
 62
7
  6
BYLAYER
 10
65.8650951528
 20
67.6772428884
 11
32.8650951528
 21
67.6772428884
  0
LINE
  5
241
100
AcDbEntity
  8
0
100
AcDbLine
 62
7
  6
BYLAYER
 10
68.1904926187
 20
71.3421974646
 11
66.5396977186
 21
71.3421974646
  0
LINE
  5
242
100
AcDbEntity
  8
0
100
AcDbLine
 62
7
  6
BYLAYER
 10
73.5396976869
 20
71.3421974646
 11
75.190492627
 21
71.3421974646
  0
LINE
  5
243
100
AcDbEntity
  8
0
100
AcDbLine
 62
7
  6
BYLAYER
 10
65.8650951528
 20
70.1772428884
 11
66.5160313559
 21
71.3046974646
  0
LINE
  5
244
100
AcDbEntity
  8
0
100
AcDbLine
 62
7
  6
BYLAYER
 10
69.5650951528
 20
68.7946784537
 11
68.8650951528
 21
68.9822428884
  0
LINE
  5
245
100
AcDbEntity
  8
0
100
AcDbLine
 62
7
  6
BYLAYER
 10
65.8650951528
 20
53.1772428884
 11
66.5160313559
 21
52.0497883122
  0
LINE
  5
246
100
AcDbEntity
  8
0
100
AcDbLine
 62
7
  6
BYLAYER
 10
65.8650951528
 20
53.177245756
 11
65.8650951528
 21
70.1772400208
  0
LINE
  5
247
100
AcDbEntity
  8
0
100
AcDbLine
 62
7
  6
BYLAYER
 10
72.8650951528
 20
70.1772428884
 11
73.5160313559
 21
71.3046974646
  0
LINE
  5
248
100
AcDbEntity
  8
0
100
AcDbLine
 62
7
  6
BYLAYER
 10
72.8650951528
 20
53.1772428884
 11
73.5160313559
 21
52.0497883122
  0
LINE
  5
249
100
AcDbEntity
  8
0
100
AcDbLine
 62
7
  6
BYLAYER
 10
68.8650951528
 20
70.1772400208
 11
68.8650951528
 21
53.177245756
  0
LINE
  5
24A
100
AcDbEntity
  8
0
100
AcDbLine
 62
7
  6
BYLAYER
 10
69.5650951528
 20
68.793331967
 11
69.5650951528
 21
68.492229809
  0
LINE
  5
24B
100
AcDbEntity
  8
0
100
AcDbLine
 62
7
  6
BYLAYER
 10
69.5650951528
 20
68.3882174722
 11
69.5650951528
 21
68.1394934087
  0
LINE
  5
24C
100
AcDbEntity
  8
0
100
AcDbLine
 62
7
  6
BYLAYER
 10
69.5650951528
 20
67.8570460414
 11
69.5650951528
 21
67.5790549594
  0
LINE
  5
24D
100
AcDbEntity
  8
0
100
AcDbLine
 62
7
  6
BYLAYER
 10
69.5650951528
 20
67.1272506525
 11
69.5650951528
 21
66.8289274142
  0
LINE
  5
24E
100
AcDbEntity
  8
0
100
AcDbLine
 62
7
  6
BYLAYER
 10
69.5650951528
 20
66.2222875298
 11
69.5650951528
 21
65.9132204895
  0
LINE
  5
24F
100
AcDbEntity
  8
0
100
AcDbLine
 62
7
  6
BYLAYER
 10
69.5650951528
 20
65.1712429326
 11
69.5650951528
 21
64.8613657593
  0
LINE
  5
250
100
AcDbEntity
  8
0
100
AcDbLine
 62
7
  6
BYLAYER
 10
69.5650951528
 20
64.0078982991
 11
69.5650951528
 21
63.7071707001
  0
LINE
  5
251
100
AcDbEntity
  8
0
100
AcDbLine
 62
7
  6
BYLAYER
 10
69.5650951528
 20
62.7696444831
 11
69.5650951528
 21
62.4877320909
  0
LINE
  5
252
100
AcDbEntity
  8
0
100
AcDbLine
 62
7
  6
BYLAYER
 10
69.5650951528
 20
61.4962799809
 11
69.5650951528
 21
61.2196815373
  0
LINE
  5
253
100
AcDbEntity
  8
0
100
AcDbLine
 62
7
  6
BYLAYER
 10
69.5650951528
 20
60.25129393
 11
69.5650951528
 21
59.9587964255
  0
LINE
  5
254
100
AcDbEntity
  8
0
100
AcDbLine
 62
7
  6
BYLAYER
 10
69.5650951528
 20
59.0596800085
 11
69.5650951528
 21
58.7531435969
  0
LINE
  5
255
100
AcDbEntity
  8
0
100
AcDbLine
 62
7
  6
BYLAYER
 10
69.5650951528
 20
57.9521967117
 11
69.5650951528
 21
57.6414737255
  0
LINE
  5
256
100
AcDbEntity
  8
0
100
AcDbLine
 62
7
  6
BYLAYER
 10
69.5650951528
 20
56.9644394639
 11
69.5650951528
 21
56.6595167956
  0
LINE
  5
257
100
AcDbEntity
  8
0
100
AcDbLine
 62
7
  6
BYLAYER
 10
69.5650951528
 20
56.128155596
 11
69.5650951528
 21
55.838833711
  0
LINE
  5
258
100
AcDbEntity
  8
0
100
AcDbLine
 62
7
  6
BYLAYER
 10
69.5650951528
 20
55.4702239594
 11
69.5650951528
 21
55.2058019012
  0
LINE
  5
259
100
AcDbEntity
  8
0
100
AcDbLine
 62
7
  6
BYLAYER
 10
69.5650951528
 20
55.0117910183
 11
69.5650951528
 21
54.7807675294
  0
LINE
  5
25A
100
AcDbEntity
  8
0
100
AcDbLine
 62
7
  6
BYLAYER
 10
69.5650951528
 20
54.7675911847
 11
69.5650951528
 21
54.5773915501
  0
LINE
  5
25B
100
AcDbEntity
  8
0
100
AcDbLine
 62
7
  6
BYLAYER
 10
68.8650951528
 20
53.1772428884
 11
68.2141589498
 21
52.0497883122
  0
LINE
  5
25C
100
AcDbEntity
  8
0
100
AcDbLine
 62
7
  6
BYLAYER
 10
68.8650951528
 20
70.1772428884
 11
68.2141589498
 21
71.3046974646
  0
LINE
  5
25D
100
AcDbEntity
  8
0
100
AcDbLine
 62
7
  6
BYLAYER
 10
72.1650951528
 20
54.5773915501
 11
72.1650951528
 21
54.7675911847
  0
LINE
  5
25E
100
AcDbEntity
  8
0
100
AcDbLine
 62
7
  6
BYLAYER
 10
72.1650951528
 20
54.7807675294
 11
72.1650951528
 21
55.0117910183
  0
LINE
  5
25F
100
AcDbEntity
  8
0
100
AcDbLine
 62
7
  6
BYLAYER
 10
72.1650951528
 20
55.2058019012
 11
72.1650951528
 21
55.4702239594
  0
LINE
  5
260
100
AcDbEntity
  8
0
100
AcDbLine
 62
7
  6
BYLAYER
 10
72.1650951528
 20
55.838833711
 11
72.1650951528
 21
56.128155596
  0
LINE
  5
261
100
AcDbEntity
  8
0
100
AcDbLine
 62
7
  6
BYLAYER
 10
72.1650951528
 20
56.6595167956
 11
72.1650951528
 21
56.9644394639
  0
LINE
  5
262
100
AcDbEntity
  8
0
100
AcDbLine
 62
7
  6
BYLAYER
 10
72.1650951528
 20
57.6414737255
 11
72.1650951528
 21
57.9521967117
  0
LINE
  5
263
100
AcDbEntity
  8
0
100
AcDbLine
 62
7
  6
BYLAYER
 10
72.1650951528
 20
58.7531435969
 11
72.1650951528
 21
59.0596800085
  0
LINE
  5
264
100
AcDbEntity
  8
0
100
AcDbLine
 62
7
  6
BYLAYER
 10
72.1650951528
 20
59.9587964255
 11
72.1650951528
 21
60.25129393
  0
LINE
  5
265
100
AcDbEntity
  8
0
100
AcDbLine
 62
7
  6
BYLAYER
 10
72.1650951528
 20
61.2196815373
 11
72.1650951528
 21
61.4962799809
  0
LINE
  5
266
100
AcDbEntity
  8
0
100
AcDbLine
 62
7
  6
BYLAYER
 10
72.1650951528
 20
62.4877320909
 11
72.1650951528
 21
62.7696444831
  0
LINE
  5
267
100
AcDbEntity
  8
0
100
AcDbLine
 62
7
  6
BYLAYER
 10
72.1650951528
 20
63.7071707001
 11
72.1650951528
 21
64.0078982991
  0
LINE
  5
268
100
AcDbEntity
  8
0
100
AcDbLine
 62
7
  6
BYLAYER
 10
72.1650951528
 20
64.8613657593
 11
72.1650951528
 21
65.1712429326
  0
LINE
  5
269
100
AcDbEntity
  8
0
100
AcDbLine
 62
7
  6
BYLAYER
 10
72.1650951528
 20
65.9132204895
 11
72.1650951528
 21
66.2222875298
  0
LINE
  5
26A
100
AcDbEntity
  8
0
100
AcDbLine
 62
7
  6
BYLAYER
 10
72.1650951528
 20
66.8289274142
 11
72.1650951528
 21
67.1272506525
  0
LINE
  5
26B
100
AcDbEntity
  8
0
100
AcDbLine
 62
7
  6
BYLAYER
 10
72.1650951528
 20
67.5790549594
 11
72.1650951528
 21
67.8570460414
  0
LINE
  5
26C
100
AcDbEntity
  8
0
100
AcDbLine
 62
7
  6
BYLAYER
 10
72.1650951528
 20
68.1394934087
 11
72.1650951528
 21
68.3882174722
  0
LINE
  5
26D
100
AcDbEntity
  8
0
100
AcDbLine
 62
7
  6
BYLAYER
 10
72.1650951528
 20
68.492229809
 11
72.1650951528
 21
68.793331967
  0
LINE
  5
26E
100
AcDbEntity
  8
0
100
AcDbLine
 62
7
  6
BYLAYER
 10
72.8650951528
 20
53.177245756
 11
72.8650951528
 21
70.1772400208
  0
LINE
  5
26F
100
AcDbEntity
  8
0
100
AcDbLine
 62
7
  6
BYLAYER
 10
78.4650951528
 20
55.8772428884
 11
78.2650951528
 21
55.6772428884
  0
LINE
  5
270
100
AcDbEntity
  8
0
100
AcDbLine
 62
7
  6
BYLAYER
 10
78.4650951528
 20
67.4772428884
 11
78.2650951528
 21
67.6772428884
  0
LINE
  5
271
100
AcDbEntity
  8
0
100
AcDbLine
 62
7
  6
BYLAYER
 10
75.8650951528
 20
70.1772400208
 11
75.8650951528
 21
53.177245756
  0
LINE
  5
272
100
AcDbEntity
  8
0
100
AcDbLine
 62
7
  6
BYLAYER
 10
78.2650951528
 20
67.6772428884
 11
78.2650951528
 21
55.6772428884
  0
LINE
  5
273
100
AcDbEntity
  8
0
100
AcDbLine
 62
7
  6
BYLAYER
 10
78.4650951528
 20
67.4772094886
 11
78.4650951528
 21
55.8775588588
  0
LINE
  5
274
100
AcDbEntity
  8
0
100
AcDbLine
 62
7
  6
BYLAYER
 10
78.6650951528
 20
66.8772428884
 11
78.6650951528
 21
56.4772428884
  0
LINE
  5
275
100
AcDbEntity
  8
0
100
AcDbLine
 62
7
  6
BYLAYER
 10
78.8650951528
 20
66.7272480811
 11
78.8650951528
 21
56.6272430635
  0
LINE
  5
276
100
AcDbEntity
  8
0
100
AcDbLine
 62
7
  6
BYLAYER
 10
75.8650951528
 20
53.1772428884
 11
75.2141589498
 21
52.0497883122
  0
LINE
  5
277
100
AcDbEntity
  8
0
100
AcDbLine
 62
7
  6
BYLAYER
 10
75.8650951528
 20
70.1772428884
 11
75.2141589498
 21
71.3046974646
  0
ARC
  5
278
100
AcDbEntity
  8
0
100
AcDbCircle
 62
7
  6
BYLAYER
 10
88.246650275
 20
65.1835130982
 40
14.7885326451
100
AcDbArc
 50
173.9790233616
 51
176.5062541393
  0
ARC
  5
279
100
AcDbEntity
  8
0
100
AcDbCircle
 62
7
  6
BYLAYER
 10
53.4835400306
 20
65.183513098
 40
14.7885326452
100
AcDbArc
 50
3.4937458616
 51
6.0209766393
  0
ARC
  5
27A
100
AcDbEntity
  8
0
100
AcDbCircle
 62
7
  6
BYLAYER
 10
88.2466502745
 20
58.1709726544
 40
14.7885326432
100
AcDbArc
 50
183.493745767
 51
186.0209765448
  0
ARC
  5
27B
100
AcDbEntity
  8
0
100
AcDbCircle
 62
7
  6
BYLAYER
 10
53.4835400311
 20
58.1709726539
 40
14.7885326432
100
AcDbArc
 50
353.979023457
 51
356.5062542347
  0
ARC
  5
27C
100
AcDbEntity
  8
0
100
AcDbCircle
 62
7
  6
BYLAYER
 10
81.246641052
 20
65.1835144917
 40
14.788523335
100
AcDbArc
 50
173.9790249857
 51
176.5062573459
  0
ARC
  5
27D
100
AcDbEntity
  8
0
100
AcDbCircle
 62
7
  6
BYLAYER
 10
60.4835492658
 20
65.1835144929
 40
14.7885233228
100
AcDbArc
 50
3.4937426522
 51
6.0209750144
  0
ARC
  5
27E
100
AcDbEntity
  8
0
100
AcDbCircle
 62
7
  6
BYLAYER
 10
60.4835496784
 20
58.1709712241
 40
14.7885229073
100
AcDbArc
 50
353.9790250487
 51
356.5062574816
  0
ARC
  5
27F
100
AcDbEntity
  8
0
100
AcDbCircle
 62
7
  6
BYLAYER
 10
81.2466406154
 20
58.1709712227
 40
14.7885228954
100
AcDbArc
 50
183.4937425157
 51
186.0209749506
  0
ARC
  5
280
100
AcDbEntity
  8
0
100
AcDbCircle
 62
7
  6
BYLAYER
 10
78.6650951528
 20
56.6272428884
 40
0.2
100
AcDbArc
 50
311.4096221093
 51
360.0
  0
ARC
  5
281
100
AcDbEntity
  8
0
100
AcDbCircle
 62
7
  6
BYLAYER
 10
78.6650951528
 20
66.7272428884
 40
0.2
100
AcDbArc
 50
0.0
 51
48.5903778907
  0
ARC
  5
282
100
AcDbEntity
  8
0
100
AcDbCircle
 62
7
  6
BYLAYER
 10
22.0650951528
 20
66.4772428884
 40
0.2
100
AcDbArc
 50
90.0
 51
180.0
  0
ARC
  5
283
100
AcDbEntity
  8
0
100
AcDbCircle
 62
7
  6
BYLAYER
 10
22.0650951528
 20
56.8772428884
 40
0.2
100
AcDbArc
 50
180.0
 51
270.0
  0
ARC
  5
284
100
AcDbEntity
  8
0
100
AcDbCircle
 62
7
  6
BYLAYER
 10
20.0650951528
 20
61.1148674635
 40
0.2
100
AcDbArc
 50
93.0
 51
180.0
  0
ARC
  5
285
100
AcDbEntity
  8
0
100
AcDbCircle
 62
7
  6
BYLAYER
 10
20.0650951528
 20
58.7040844073
 40
0.2
100
AcDbArc
 50
180.0
 51
267.0
  0
SPLINE
  5
286
100
AcDbEntity
  8
0
100
AcDbSpline
 62
7
  6
BYLAYER
 70
0
 71
3
 72
9
 73
5
 74
0
 42
0.0000001
 43
0.0000001
 44
0.0000000001
 40
0.0
 40
0.0
 40
0.0
 40
0.0
 40
0.2456457997
 40
1.0
 40
1.0
 40
1.0
 40
1.0
 10
75.2141601415
 20
71.3046974787
 30
0.0
 10
75.2123445953
 20
71.3078425577
 30
0.0
 10
75.2048228364
 20
71.3205700843
 30
0.0
 10
75.1967925768
 20
71.3329954689
 30
0.0
 10
75.190492627
 20
71.3421974646
 30
0.0
  0
SPLINE
  5
287
100
AcDbEntity
  8
0
100
AcDbSpline
 62
7
  6
BYLAYER
 70
0
 71
3
 72
9
 73
5
 74
0
 42
0.0000001
 43
0.0000001
 44
0.0000000001
 40
0.0
 40
0.0
 40
0.0
 40
0.0
 40
0.2456457548
 40
1.0
 40
1.0
 40
1.0
 40
1.0
 10
73.5160302292
 20
52.0497882989
 30
0.0
 10
73.5178457696
 20
52.04664322
 30
0.0
 10
73.5253675042
 20
52.0339156904
 30
0.0
 10
73.5333977422
 20
52.0214903026
 30
0.0
 10
73.539697688
 20
52.0122883122
 30
0.0
  0
SPLINE
  5
288
100
AcDbEntity
  8
0
100
AcDbSpline
 62
7
  6
BYLAYER
 70
0
 71
3
 72
9
 73
5
 74
0
 42
0.0000001
 43
0.0000001
 44
0.0000000001
 40
0.0
 40
0.0
 40
0.0
 40
0.0
 40
0.2544693665
 40
1.0
 40
1.0
 40
1.0
 40
1.0
 10
73.5396976869
 20
71.3421974646
 30
0.0
 10
73.5375725102
 20
71.3390933338
 30
0.0
 10
73.5293308985
 20
71.3268202951
 30
0.0
 10
73.5215403387
 20
71.3142426957
 30
0.0
 10
73.5160302294
 20
71.3046974779
 30
0.0
  0
SPLINE
  5
289
100
AcDbEntity
  8
0
100
AcDbSpline
 62
7
  6
BYLAYER
 70
0
 71
3
 72
9
 73
5
 74
0
 42
0.0000001
 43
0.0000001
 44
0.0000000001
 40
0.0
 40
0.0
 40
0.0
 40
0.0
 40
0.2544692676
 40
1.0
 40
1.0
 40
1.0
 40
1.0
 10
75.1904926259
 20
52.0122883122
 30
0.0
 10
75.1926178034
 20
52.0153924439
 30
0.0
 10
75.2008594267
 20
52.0276654868
 30
0.0
 10
75.2086500148
 20
52.0402430803
 30
0.0
 10
75.214160142
 20
52.0497882981
 30
0.0
  0
LINE
  5
28A
100
AcDbEntity
  8
0
100
AcDbLine
 62
7
  6
BYLAYER
 10
72.3436264417
 20
61.6772429299
 11
72.6650951528
 21
62.0025761751
  0
LINE
  5
28B
100
AcDbEntity
  8
0
100
AcDbLine
 62
7
  6
BYLAYER
 10
72.1650951528
 20
61.4962799809
 11
72.3436264417
 21
61.6772429299
  0
SPLINE
  5
28C
100
AcDbEntity
  8
0
100
AcDbSpline
 62
7
  6
BYLAYER
 70
0
 71
3
 72
11
 73
7
 74
0
 42
0.0000001
 43
0.0000001
 44
0.0000000001
 40
0.0
 40
0.0
 40
0.0
 40
0.0
 40
0.2412762173
 40
0.4867357478
 40
0.7392604005
 40
1.0
 40
1.0
 40
1.0
 40
1.0
 10
72.8650951528
 20
69.0384588204
 30
0.0
 10
72.8650951528
 20
69.2334924407
 30
0.0
 10
72.8969059684
 20
69.6275867864
 30
0.0
 10
73.0348058009
 20
70.2109771313
 30
0.0
 10
73.2521367915
 20
70.7859418547
 30
0.0
 10
73.4380869835
 20
71.1575414067
 30
0.0
 10
73.5396976869
 20
71.3421974646
 30
0.0
  0
SPLINE
  5
28D
100
AcDbEntity
  8
0
100
AcDbSpline
 62
7
  6
BYLAYER
 70
0
 71
3
 72
12
 73
8
 74
0
 42
0.0000001
 43
0.0000001
 44
0.0000000001
 40
0.0
 40
0.0
 40
0.0
 40
0.0
 40
0.2606932857
 40
0.5131700517
 40
0.7585851535
 40
0.8795744756
 40
1.0
 40
1.0
 40
1.0
 40
1.0
 10
75.1904926187
 20
56.6197656003
 30
0.0
 10
75.2921041092
 20
56.4351081079
 30
0.0
 10
75.4780750776
 20
56.0634946998
 30
0.0
 10
75.6953851007
 20
55.4886188282
 30
0.0
 10
75.8108494363
 20
54.9998425923
 30
0.0
 10
75.8572994691
 20
54.6086644853
 30
0.0
 10
75.8650951528
 20
54.4133899765
 30
0.0
 10
75.8650951528
 20
54.3160269572
 30
0.0
  0
SPLINE
  5
28E
100
AcDbEntity
  8
0
100
AcDbSpline
 62
7
  6
BYLAYER
 70
0
 71
3
 72
11
 73
7
 74
0
 42
0.0000001
 43
0.0000001
 44
0.0000000001
 40
0.0
 40
0.0
 40
0.0
 40
0.0
 40
0.2499942762
 40
0.4999901455
 40
0.7499920033
 40
1.0
 40
1.0
 40
1.0
 40
1.0
 10
75.8650951528
 20
61.6772428884
 30
0.0
 10
75.8650951528
 20
61.3053374721
 30
0.0
 10
75.8366769953
 20
60.5612317268
 30
0.0
 10
75.7122010038
 20
59.4515765871
 30
0.0
 10
75.5139777621
 20
58.352853319
 30
0.0
 10
75.340117072
 20
57.6292136652
 30
0.0
 10
75.2445874433
 20
57.2697656003
 30
0.0
  0
SPLINE
  5
28F
100
AcDbEntity
  8
0
100
AcDbSpline
 62
7
  6
BYLAYER
 70
0
 71
3
 72
11
 73
7
 74
0
 42
0.0000001
 43
0.0000001
 44
0.0000000001
 40
0.0
 40
0.0
 40
0.0
 40
0.0
 40
0.2412762173
 40
0.4867357477
 40
0.7392604004
 40
1.0
 40
1.0
 40
1.0
 40
1.0
 10
72.8650951528
 20
54.3160269135
 30
0.0
 10
72.8650951506
 20
54.5110605373
 30
0.0
 10
72.8969059628
 20
54.9051548902
 30
0.0
 10
73.0348057939
 20
55.4885452462
 30
0.0
 10
73.2521367867
 20
56.0635099803
 30
0.0
 10
73.4380869817
 20
56.4351095391
 30
0.0
 10
73.5396976869
 20
56.6197656003
 30
0.0
  0
SPLINE
  5
290
100
AcDbEntity
  8
0
100
AcDbSpline
 62
7
  6
BYLAYER
 70
0
 71
3
 72
11
 73
7
 74
0
 42
0.0000001
 43
0.0000001
 44
0.0000000001
 40
0.0
 40
0.0
 40
0.0
 40
0.0
 40
0.2500021378
 40
0.5000026229
 40
0.7500023753
 40
1.0
 40
1.0
 40
1.0
 40
1.0
 10
73.4856027648
 20
57.2697656003
 30
0.0
 10
73.3900753071
 20
57.6292054728
 30
0.0
 10
73.216157743
 20
58.3528222108
 30
0.0
 10
73.0180240345
 20
59.4515569387
 30
0.0
 10
72.8934710535
 20
60.5612122365
 30
0.0
 10
72.8650951528
 20
61.3053322498
 30
0.0
 10
72.8650951528
 20
61.6772428884
 30
0.0
  0
SPLINE
  5
291
100
AcDbEntity
  8
0
100
AcDbSpline
 62
7
  6
BYLAYER
 70
0
 71
3
 72
11
 73
7
 74
0
 42
0.0000001
 43
0.0000001
 44
0.0000000001
 40
0.0
 40
0.0
 40
0.0
 40
0.0
 40
0.2412762174
 40
0.4867357478
 40
0.7392604005
 40
1.0
 40
1.0
 40
1.0
 40
1.0
 10
75.8650951528
 20
54.3160269572
 30
0.0
 10
75.8650951529
 20
54.1209933368
 30
0.0
 10
75.8332843311
 20
53.7268989915
 30
0.0
 10
75.6953845027
 20
53.1435086462
 30
0.0
 10
75.478053514
 20
52.5685439216
 30
0.0
 10
75.2921033193
 20
52.1969443711
 30
0.0
 10
75.1904926177
 20
52.0122883122
 30
0.0
  0
SPLINE
  5
292
100
AcDbEntity
  8
0
100
AcDbSpline
 62
7
  6
BYLAYER
 70
0
 71
3
 72
12
 73
8
 74
0
 42
0.0000001
 43
0.0000001
 44
0.0000000001
 40
0.0
 40
0.0
 40
0.0
 40
0.0
 40
0.2606932856
 40
0.5131700517
 40
0.7585851532
 40
0.8795744756
 40
1.0
 40
1.0
 40
1.0
 40
1.0
 10
73.539697688
 20
52.0122883122
 30
0.0
 10
73.4380861976
 20
52.1969458003
 30
0.0
 10
73.252115236
 20
52.5685592035
 30
0.0
 10
73.0348052108
 20
53.1434350628
 30
0.0
 10
72.919340887
 20
53.6322112921
 30
0.0
 10
72.872890845
 20
54.0233893905
 30
0.0
 10
72.865095154
 20
54.218663896
 30
0.0
 10
72.8650951528
 20
54.3160269135
 30
0.0
  0
SPLINE
  5
293
100
AcDbEntity
  8
0
100
AcDbSpline
 62
7
  6
BYLAYER
 70
0
 71
3
 72
11
 73
7
 74
0
 42
0.0000001
 43
0.0000001
 44
0.0000000001
 40
0.0
 40
0.0
 40
0.0
 40
0.0
 40
0.2607396198
 40
0.5132642736
 40
0.7587238104
 40
1.0
 40
1.0
 40
1.0
 40
1.0
 10
75.1904925871
 20
71.3421974646
 30
0.0
 10
75.2921032959
 20
71.1575413934
 30
0.0
 10
75.4780535015
 20
70.7859418261
 30
0.0
 10
75.6953842691
 20
70.210977007
 30
0.0
 10
75.8332842571
 20
69.6275867359
 30
0.0
 10
75.8650951532
 20
69.2334924096
 30
0.0
 10
75.8650951528
 20
69.0384588137
 30
0.0
  0
SPLINE
  5
294
100
AcDbEntity
  8
0
100
AcDbSpline
 62
7
  6
BYLAYER
 70
0
 71
3
 72
11
 73
7
 74
0
 42
0.0000001
 43
0.0000001
 44
0.0000000001
 40
0.0
 40
0.0
 40
0.0
 40
0.0
 40
0.2499942119
 40
0.4999901773
 40
0.7499920107
 40
1.0
 40
1.0
 40
1.0
 40
1.0
 10
72.8650951528
 20
61.6772428884
 30
0.0
 10
72.8650951528
 20
62.0491483561
 30
0.0
 10
72.8934896996
 20
62.7932559062
 30
0.0
 10
73.0179990859
 20
63.9029076615
 30
0.0
 10
73.216186755
 20
65.001637687
 30
0.0
 10
73.3900730952
 20
65.7252719817
 30
0.0
 10
73.4856027648
 20
66.0847201765
 30
0.0
  0
SPLINE
  5
295
100
AcDbEntity
  8
0
100
AcDbSpline
 62
7
  6
BYLAYER
 70
0
 71
3
 72
12
 73
8
 74
0
 42
0.0000001
 43
0.0000001
 44
0.0000000001
 40
0.0
 40
0.0
 40
0.0
 40
0.0
 40
0.2606932857
 40
0.5131700517
 40
0.7585851532
 40
0.8795744755
 40
1.0
 40
1.0
 40
1.0
 40
1.0
 10
73.539697688
 20
66.7347201765
 30
0.0
 10
73.4380861958
 20
66.9193776679
 30
0.0
 10
73.2521152311
 20
67.2909910778
 30
0.0
 10
73.0348052039
 20
67.8658669479
 30
0.0
 10
72.9193408811
 20
68.3546431864
 30
0.0
 10
72.8728908418
 20
68.7458212921
 30
0.0
 10
72.8650951528
 20
68.9410958011
 30
0.0
 10
72.8650951528
 20
69.0384588204
 30
0.0
  0
SPLINE
  5
296
100
AcDbEntity
  8
0
100
AcDbSpline
 62
7
  6
BYLAYER
 70
0
 71
3
 72
11
 73
7
 74
0
 42
0.0000001
 43
0.0000001
 44
0.0000000001
 40
0.0
 40
0.0
 40
0.0
 40
0.0
 40
0.2500021179
 40
0.5000026405
 40
0.7500023583
 40
1.0
 40
1.0
 40
1.0
 40
1.0
 10
75.2445874456
 20
66.0847201765
 30
0.0
 10
75.3401148443
 20
65.7252805022
 30
0.0
 10
75.5139994836
 20
65.001656978
 30
0.0
 10
75.7121828019
 20
63.9029313623
 30
0.0
 10
75.8366867344
 20
62.7932709426
 30
0.0
 10
75.8650951528
 20
62.0491533752
 30
0.0
 10
75.8650951528
 20
61.6772428884
 30
0.0
  0
SPLINE
  5
297
100
AcDbEntity
  8
0
100
AcDbSpline
 62
7
  6
BYLAYER
 70
0
 71
3
 72
11
 73
7
 74
0
 42
0.0000001
 43
0.0000001
 44
0.0000000001
 40
0.0
 40
0.0
 40
0.0
 40
0.0
 40
0.2412762218
 40
0.4867357629
 40
0.7392604068
 40
1.0
 40
1.0
 40
1.0
 40
1.0
 10
75.8650951528
 20
69.0384588137
 30
0.0
 10
75.8650951525
 20
68.843425193
 30
0.0
 10
75.8332842542
 20
68.4493308397
 30
0.0
 10
75.6953842431
 20
67.8659405539
 30
0.0
 10
75.4780534396
 20
67.2909757829
 30
0.0
 10
75.2921032842
 20
66.9193762276
 30
0.0
 10
75.1904925865
 20
66.7347201765
 30
0.0
  0
SPLINE
  5
298
100
AcDbEntity
  8
0
100
AcDbSpline
 62
7
  6
BYLAYER
 70
0
 71
3
 72
9
 73
5
 74
0
 42
0.0000001
 43
0.0000001
 44
0.0000000001
 40
0.0
 40
0.0
 40
0.0
 40
0.0
 40
0.2456243692
 40
1.0
 40
1.0
 40
1.0
 40
1.0
 10
66.5160266562
 20
71.30469752
 30
0.0
 10
66.517841511
 20
71.3078428117
 30
0.0
 10
66.5253627959
 20
71.3205714023
 30
0.0
 10
66.5333972802
 20
71.3329948136
 30
0.0
 10
66.5396976787
 20
71.3421974646
 30
0.0
  0
SPLINE
  5
299
100
AcDbEntity
  8
0
100
AcDbSpline
 62
7
  6
BYLAYER
 70
0
 71
3
 72
9
 73
5
 74
0
 42
0.0000001
 43
0.0000001
 44
0.0000000001
 40
0.0
 40
0.0
 40
0.0
 40
0.0
 40
0.245624377
 40
1.0
 40
1.0
 40
1.0
 40
1.0
 10
68.2141636556
 20
52.0497882568
 30
0.0
 10
68.2123487995
 20
52.0466429649
 30
0.0
 10
68.2048275082
 20
52.0339143749
 30
0.0
 10
68.1967930169
 20
52.021490965
 30
0.0
 10
68.1904926176
 20
52.0122883122
 30
0.0
  0
SPLINE
  5
29A
100
AcDbEntity
  8
0
100
AcDbSpline
 62
7
  6
BYLAYER
 70
0
 71
3
 72
9
 73
5
 74
0
 42
0.0000001
 43
0.0000001
 44
0.0000000001
 40
0.0
 40
0.0
 40
0.0
 40
0.0
 40
0.254471822
 40
1.0
 40
1.0
 40
1.0
 40
1.0
 10
66.5396976798
 20
52.0122883122
 30
0.0
 10
66.5375723927
 20
52.015392604
 30
0.0
 10
66.529329232
 20
52.0276653083
 30
0.0
 10
66.5215351391
 20
52.0402416052
 30
0.0
 10
66.5160266557
 20
52.0497882568
 30
0.0
  0
LINE
  5
29B
100
AcDbEntity
  8
0
100
AcDbLine
 62
7
  6
BYLAYER
 10
69.5650951528
 20
61.4962799809
 11
69.386563864
 21
61.6772429299
  0
SPLINE
  5
29C
100
AcDbEntity
  8
0
100
AcDbSpline
 62
7
  6
BYLAYER
 70
0
 71
3
 72
9
 73
5
 74
0
 42
0.0000001
 43
0.0000001
 44
0.0000000001
 40
0.0
 40
0.0
 40
0.0
 40
0.0
 40
0.2544717996
 40
1.0
 40
1.0
 40
1.0
 40
1.0
 10
68.1904926187
 20
71.3421974646
 30
0.0
 10
68.1926179059
 20
71.3390931726
 30
0.0
 10
68.2008610689
 20
71.3268204673
 30
0.0
 10
68.2086551682
 20
71.314244172
 30
0.0
 10
68.2141636549
 20
71.30469752
 30
0.0
  0
LINE
  5
29D
100
AcDbEntity
  8
0
100
AcDbLine
 62
7
  6
BYLAYER
 10
69.386563864
 20
61.6772429299
 11
69.0650951528
 21
62.0025761751
  0
SPLINE
  5
29E
100
AcDbEntity
  8
0
100
AcDbSpline
 62
7
  6
BYLAYER
 70
0
 71
3
 72
11
 73
7
 74
0
 42
0.0000001
 43
0.0000001
 44
0.0000000001
 40
0.0
 40
0.0
 40
0.0
 40
0.0
 40
0.2500021179
 40
0.5000026405
 40
0.7500023583
 40
1.0
 40
1.0
 40
1.0
 40
1.0
 10
66.4856028601
 20
57.2697656003
 30
0.0
 10
66.3900754614
 20
57.6292052746
 30
0.0
 10
66.2161908221
 20
58.3528287988
 30
0.0
 10
66.0180075038
 20
59.4515544145
 30
0.0
 10
65.8935035712
 20
60.5612148342
 30
0.0
 10
65.8650951528
 20
61.3053324016
 30
0.0
 10
65.8650951528
 20
61.6772428884
 30
0.0
  0
SPLINE
  5
29F
100
AcDbEntity
  8
0
100
AcDbSpline
 62
7
  6
BYLAYER
 70
0
 71
3
 72
12
 73
8
 74
0
 42
0.0000001
 43
0.0000001
 44
0.0000000001
 40
0.0
 40
0.0
 40
0.0
 40
0.0
 40
0.1204255339
 40
0.2414148775
 40
0.4868299847
 40
0.7393067406
 40
1.0
 40
1.0
 40
1.0
 40
1.0
 10
65.8650951528
 20
54.3160269572
 30
0.0
 10
65.8650951529
 20
54.4133899841
 30
0.0
 10
65.872890884
 20
54.6086645148
 30
0.0
 10
65.919340822
 20
54.9998426613
 30
0.0
 10
66.0348052444
 20
55.4886188984
 30
0.0
 10
66.2521152806
 20
56.0634947299
 30
0.0
 10
66.4380862069
 20
56.4351081267
 30
0.0
 10
66.5396976869
 20
56.6197656003
 30
0.0
  0
SPLINE
  5
2A0
100
AcDbEntity
  8
0
100
AcDbSpline
 62
7
  6
BYLAYER
 70
0
 71
3
 72
11
 73
7
 74
0
 42
0.0000001
 43
0.0000001
 44
0.0000000001
 40
0.0
 40
0.0
 40
0.0
 40
0.0
 40
0.2499942119
 40
0.4999901773
 40
0.7499920107
 40
1.0
 40
1.0
 40
1.0
 40
1.0
 10
68.8650951528
 20
61.6772428884
 30
0.0
 10
68.8650951528
 20
61.3053374207
 30
0.0
 10
68.8367006061
 20
60.5612298706
 30
0.0
 10
68.7121912198
 20
59.4515781153
 30
0.0
 10
68.5140035507
 20
58.3528480898
 30
0.0
 10
68.3401172104
 20
57.6292137951
 30
0.0
 10
68.2445875408
 20
57.2697656003
 30
0.0
  0
SPLINE
  5
2A1
100
AcDbEntity
  8
0
100
AcDbSpline
 62
7
  6
BYLAYER
 70
0
 71
3
 72
11
 73
7
 74
0
 42
0.0000001
 43
0.0000001
 44
0.0000000001
 40
0.0
 40
0.0
 40
0.0
 40
0.0
 40
0.260739626
 40
0.5132642885
 40
0.7587238147
 40
1.0
 40
1.0
 40
1.0
 40
1.0
 10
68.1904926187
 20
56.6197656003
 30
0.0
 10
68.2921033343
 20
56.4351095203
 30
0.0
 10
68.4780535752
 20
56.0635099507
 30
0.0
 10
68.6953845318
 20
55.4885451724
 30
0.0
 10
68.8332843351
 20
54.9051548343
 30
0.0
 10
68.8650951551
 20
54.5110605115
 30
0.0
 10
68.8650951528
 20
54.3160269135
 30
0.0
  0
SPLINE
  5
2A2
100
AcDbEntity
  8
0
100
AcDbSpline
 62
7
  6
BYLAYER
 70
0
 71
3
 72
11
 73
7
 74
0
 42
0.0000001
 43
0.0000001
 44
0.0000000001
 40
0.0
 40
0.0
 40
0.0
 40
0.0
 40
0.2607396259
 40
0.5132642883
 40
0.7587238146
 40
1.0
 40
1.0
 40
1.0
 40
1.0
 10
66.539697688
 20
52.0122883122
 30
0.0
 10
66.438086976
 20
52.1969443898
 30
0.0
 10
66.2521367354
 20
52.5685439512
 30
0.0
 10
66.0348057829
 20
53.14350872
 30
0.0
 10
65.8969059824
 20
53.7268990475
 30
0.0
 10
65.8650951528
 20
54.1209933626
 30
0.0
 10
65.8650951528
 20
54.3160269572
 30
0.0
  0
SPLINE
  5
2A3
100
AcDbEntity
  8
0
100
AcDbSpline
 62
7
  6
BYLAYER
 70
0
 71
3
 72
11
 73
7
 74
0
 42
0.0000001
 43
0.0000001
 44
0.0000000001
 40
0.0
 40
0.0
 40
0.0
 40
0.0
 40
0.2607396259
 40
0.5132642884
 40
0.7587238147
 40
1.0
 40
1.0
 40
1.0
 40
1.0
 10
68.1904926187
 20
71.3421974646
 30
0.0
 10
68.2921033325
 20
71.157541388
 30
0.0
 10
68.4780535704
 20
70.785941825
 30
0.0
 10
68.6953845249
 20
70.2109770575
 30
0.0
 10
68.8332843294
 20
69.6275867304
 30
0.0
 10
68.8650951529
 20
69.233492415
 30
0.0
 10
68.8650951528
 20
69.0384588204
 30
0.0
  0
SPLINE
  5
2A4
100
AcDbEntity
  8
0
100
AcDbSpline
 62
7
  6
BYLAYER
 70
0
 71
3
 72
12
 73
8
 74
0
 42
0.0000001
 43
0.0000001
 44
0.0000000001
 40
0.0
 40
0.0
 40
0.0
 40
0.0
 40
0.120425534
 40
0.2414148778
 40
0.4868299846
 40
0.7393067405
 40
1.0
 40
1.0
 40
1.0
 40
1.0
 10
68.8650951528
 20
69.0384588204
 30
0.0
 10
68.8650951528
 20
68.9410957935
 30
0.0
 10
68.8572994164
 20
68.7458212626
 30
0.0
 10
68.8108494718
 20
68.3546431175
 30
0.0
 10
68.6953850624
 20
67.8658668777
 30
0.0
 10
68.4780750221
 20
67.2909910477
 30
0.0
 10
68.2921040995
 20
66.9193776491
 30
0.0
 10
68.1904926176
 20
66.7347201765
 30
0.0
  0
SPLINE
  5
2A5
100
AcDbEntity
  8
0
100
AcDbSpline
 62
7
  6
BYLAYER
 70
0
 71
3
 72
11
 73
7
 74
0
 42
0.0000001
 43
0.0000001
 44
0.0000000001
 40
0.0
 40
0.0
 40
0.0
 40
0.0
 40
0.2500021378
 40
0.5000026229
 40
0.7500023753
 40
1.0
 40
1.0
 40
1.0
 40
1.0
 10
68.2445875408
 20
66.0847201765
 30
0.0
 10
68.3401149986
 20
65.725280304
 30
0.0
 10
68.5140325627
 20
65.001663566
 30
0.0
 10
68.7121662712
 20
63.9029288381
 30
0.0
 10
68.8367192522
 20
62.7932735403
 30
0.0
 10
68.8650951528
 20
62.049153527
 30
0.0
 10
68.8650951528
 20
61.6772428884
 30
0.0
  0
SPLINE
  5
2A6
100
AcDbEntity
  8
0
100
AcDbSpline
 62
7
  6
BYLAYER
 70
0
 71
3
 72
11
 73
7
 74
0
 42
0.0000001
 43
0.0000001
 44
0.0000000001
 40
0.0
 40
0.0
 40
0.0
 40
0.0
 40
0.2412762216
 40
0.4867357626
 40
0.7392604066
 40
1.0
 40
1.0
 40
1.0
 40
1.0
 10
65.8650951528
 20
69.0384588137
 30
0.0
 10
65.8650951525
 20
69.2334924354
 30
0.0
 10
65.8969060407
 20
69.6275867919
 30
0.0
 10
66.0348060567
 20
70.2109770808
 30
0.0
 10
66.2521368604
 20
70.7859418558
 30
0.0
 10
66.4380870201
 20
71.1575414122
 30
0.0
 10
66.5396977186
 20
71.3421974646
 30
0.0
  0
SPLINE
  5
2A7
100
AcDbEntity
  8
0
100
AcDbSpline
 62
7
  6
BYLAYER
 70
0
 71
3
 72
12
 73
8
 74
0
 42
0.0000001
 43
0.0000001
 44
0.0000000001
 40
0.0
 40
0.0
 40
0.0
 40
0.0
 40
0.1204255339
 40
0.2414148778
 40
0.4868299847
 40
0.7393067407
 40
1.0
 40
1.0
 40
1.0
 40
1.0
 10
68.8650951528
 20
54.3160269135
 30
0.0
 10
68.8650951517
 20
54.2186638884
 30
0.0
 10
68.8572994133
 20
54.023389361
 30
0.0
 10
68.810849466
 20
53.6322112231
 30
0.0
 10
68.6953850554
 20
53.1434349926
 30
0.0
 10
68.4780750173
 20
52.5685591733
 30
0.0
 10
68.2921040977
 20
52.1969457815
 30
0.0
 10
68.1904926176
 20
52.0122883122
 30
0.0
  0
SPLINE
  5
2A8
100
AcDbEntity
  8
0
100
AcDbSpline
 62
7
  6
BYLAYER
 70
0
 71
3
 72
11
 73
7
 74
0
 42
0.0000001
 43
0.0000001
 44
0.0000000001
 40
0.0
 40
0.0
 40
0.0
 40
0.0
 40
0.2607396195
 40
0.5132642733
 40
0.7587238102
 40
1.0
 40
1.0
 40
1.0
 40
1.0
 10
66.5396977192
 20
66.7347201765
 30
0.0
 10
66.4380870112
 20
66.9193762464
 30
0.0
 10
66.2521368099
 20
67.2909758125
 30
0.0
 10
66.0348060426
 20
67.8659406277
 30
0.0
 10
65.8969060593
 20
68.4493308956
 30
0.0
 10
65.8650951532
 20
68.8434252188
 30
0.0
 10
65.8650951528
 20
69.0384588137
 30
0.0
  0
SPLINE
  5
2A9
100
AcDbEntity
  8
0
100
AcDbSpline
 62
7
  6
BYLAYER
 70
0
 71
3
 72
11
 73
7
 74
0
 42
0.0000001
 43
0.0000001
 44
0.0000000001
 40
0.0
 40
0.0
 40
0.0
 40
0.0
 40
0.2499942762
 40
0.4999901455
 40
0.7499920033
 40
1.0
 40
1.0
 40
1.0
 40
1.0
 10
65.8650951528
 20
61.6772428884
 30
0.0
 10
65.8650951528
 20
62.0491483047
 30
0.0
 10
65.8935133104
 20
62.79325405
 30
0.0
 10
66.0179893019
 20
63.9029091897
 30
0.0
 10
66.2162125435
 20
65.0016324578
 30
0.0
 10
66.3900732337
 20
65.7252721116
 30
0.0
 10
66.4856028624
 20
66.0847201765
 30
0.0
  0
ELLIPSE
  5
2AA
100
AcDbEntity
  8
0
100
AcDbEllipse
 62
7
  6
BYLAYER
 10
69.8256684085
 20
60.6795398156
 30
0.0
 11
6.7778954833
 21
5.7498567937
 31
0.0
 40
0.6717760696
 41
-1.7842127228
 42
-1.7639946709
  0
ELLIPSE
  5
2AB
100
AcDbEntity
  8
0
100
AcDbEllipse
 62
7
  6
BYLAYER
 10
69.8256684085
 20
60.220902963
 30
0.0
 11
6.9892805436
 21
6.3556937277
 31
0.0
 40
0.5452577243
 41
-1.7265371317
 42
-1.6947658549
  0
ELLIPSE
  5
2AC
100
AcDbEntity
  8
0
100
AcDbEllipse
 62
7
  6
BYLAYER
 10
74.7583969572
 20
61.3034694183
 30
0.0
 11
6.4571461231
 21
-5.3215173093
 31
0.0
 40
0.8263497679
 41
-1.311294534
 42
-1.2441874396
  0
ELLIPSE
  5
2AD
100
AcDbEntity
  8
0
100
AcDbEllipse
 62
7
  6
BYLAYER
 10
74.7583969572
 20
60.9417093351
 30
0.0
 11
6.6270509456
 21
-6.0601069723
 31
0.0
 40
0.6826531162
 41
-1.3511058083
 42
-1.283998714
  0
ELLIPSE
  5
2AE
100
AcDbEntity
  8
0
100
AcDbEllipse
 62
7
  6
BYLAYER
 10
74.7583969572
 20
60.6035899055
 30
0.0
 11
6.9078851538
 21
-6.5607671043
 31
0.0
 40
0.5561450433
 41
-1.4232156771
 42
-1.3561085828
  0
ELLIPSE
  5
2AF
100
AcDbEntity
  8
0
100
AcDbEllipse
 62
7
  6
BYLAYER
 10
74.7583969572
 20
60.2999785662
 30
0.0
 11
7.1783004868
 21
-6.9596182974
 31
0.0
 40
0.4429672902
 41
-1.5035143162
 42
-1.4364072218
  0
ELLIPSE
  5
2B0
100
AcDbEntity
  8
0
100
AcDbEllipse
 62
7
  6
BYLAYER
 10
74.7583969572
 20
60.0406336354
 30
0.0
 11
7.4104872802
 21
-7.279395874
 31
0.0
 40
0.3397569986
 41
-1.5870446344
 42
-1.5199375401
  0
ELLIPSE
  5
2B1
100
AcDbEntity
  8
0
100
AcDbEllipse
 62
7
  6
BYLAYER
 10
74.7583969572
 20
59.8338906726
 30
0.0
 11
7.5938540461
 21
-7.5246575103
 31
0.0
 40
0.2438041777
 41
-1.672126334
 42
-1.6050192396
  0
ELLIPSE
  5
2B2
100
AcDbEntity
  8
0
100
AcDbEllipse
 62
7
  6
BYLAYER
 10
74.7583969572
 20
59.6863945668
 30
0.0
 11
7.7232380929
 21
-7.6954506012
 31
0.0
 40
0.1528608948
 41
-1.7580179329
 42
-1.6909108386
  0
ELLIPSE
  5
2B3
100
AcDbEntity
  8
0
100
AcDbEllipse
 62
7
  6
BYLAYER
 10
74.7583969572
 20
59.602885964
 30
0.0
 11
7.7958900717
 21
-7.7908030039
 31
0.0
 40
0.0649774206
 41
-1.8443231913
 42
-1.777216097
  0
ELLIPSE
  5
2B4
100
AcDbEntity
  8
0
100
AcDbEllipse
 62
7
  6
BYLAYER
 10
69.8256684085
 20
59.8090740739
 30
0.0
 11
7.2216881888
 21
6.8211355117
 31
0.0
 40
0.4325884012
 41
-1.6541251716
 42
-1.613991356
  0
ELLIPSE
  5
2B5
100
AcDbEntity
  8
0
100
AcDbEllipse
 62
7
  6
BYLAYER
 10
69.8256684085
 20
59.4572896675
 30
0.0
 11
7.4303153681
 21
7.1896323761
 31
0.0
 40
0.3306136582
 41
-1.575847761
 42
-1.5289981995
  0
ELLIPSE
  5
2B6
100
AcDbEntity
  8
0
100
AcDbEllipse
 62
7
  6
BYLAYER
 10
69.8256684086
 20
59.1768563843
 30
0.0
 11
7.5984400747
 21
7.4711827883
 31
0.0
 40
0.2365500347
 41
-1.4947568169
 42
-1.4420471734
  0
ELLIPSE
  5
2B7
100
AcDbEntity
  8
0
100
AcDbEllipse
 62
7
  6
BYLAYER
 10
69.8256684085
 20
58.9767875807
 30
0.0
 11
7.7182939033
 21
7.6671333883
 31
0.0
 40
0.1479991431
 41
-1.4122039587
 42
-1.3540188368
  0
ELLIPSE
  5
2B8
100
AcDbEntity
  8
0
100
AcDbEllipse
 62
7
  6
BYLAYER
 10
74.7583969572
 20
61.6772428884
 30
0.0
 11
7.8123086895
 21
0.0
 31
0.0
 40
0.963433044
 41
4.3740181323
 42
4.4411252267
  0
ELLIPSE
  5
2B9
100
AcDbEntity
  8
0
100
AcDbEllipse
 62
7
  6
BYLAYER
 10
69.8256684085
 20
61.1702436659
 30
0.0
 11
6.769687539
 21
4.761806636
 31
0.0
 40
0.8141833296
 41
-1.7863337475
 42
-1.784520737
  0
ELLIPSE
  5
2BA
100
AcDbEntity
  8
0
100
AcDbEllipse
 62
7
  6
BYLAYER
 10
69.8256684085
 20
58.8635136326
 30
0.0
 11
7.785942562
 21
7.776570827
 31
0.0
 40
0.0628349518
 41
-1.3289086446
 42
-1.265399183
  0
ELLIPSE
  5
2BB
100
AcDbEntity
  8
0
100
AcDbEllipse
 62
7
  6
BYLAYER
 10
74.7583969572
 20
63.7180612461
 30
0.0
 11
7.7667659793
 21
7.7526181998
 31
0.0
 40
0.108650535
 41
1.7340296909
 42
1.8011367852
  0
ELLIPSE
  5
2BC
100
AcDbEntity
  8
0
100
AcDbEllipse
 62
7
  6
BYLAYER
 10
74.7583969572
 20
63.6020920339
 30
0.0
 11
7.6655060057
 21
7.6194188564
 31
0.0
 40
0.1978335621
 41
1.6478933896
 42
1.7150004839
  0
ELLIPSE
  5
2BD
100
AcDbEntity
  8
0
100
AcDbEllipse
 62
7
  6
BYLAYER
 10
74.7583969572
 20
63.4242565863
 30
0.0
 11
7.508671714
 21
7.4112915527
 31
0.0
 40
0.2910225948
 41
1.5623427433
 42
1.6294498377
  0
ELLIPSE
  5
2BE
100
AcDbEntity
  8
0
100
AcDbEllipse
 62
7
  6
BYLAYER
 10
74.7583969572
 20
63.190270681
 30
0.0
 11
7.3000243014
 21
7.128928855
 31
0.0
 40
0.3902986392
 41
1.4779077276
 42
1.545014822
  0
ELLIPSE
  5
2BF
100
AcDbEntity
  8
0
100
AcDbEllipse
 62
7
  6
BYLAYER
 10
74.7583969572
 20
62.9076548176
 30
0.0
 11
7.0468101624
 21
6.7707526428
 31
0.0
 40
0.4981174544
 41
1.3956754821
 42
1.4627825764
  0
ELLIPSE
  5
2C0
100
AcDbEntity
  8
0
100
AcDbEllipse
 62
7
  6
BYLAYER
 10
74.7583969572
 20
62.5854925024
 30
0.0
 11
6.7654754064
 21
6.3263364658
 31
0.0
 40
0.6174932746
 41
1.3184146161
 42
1.3855217105
  0
ELLIPSE
  5
2C1
100
AcDbEntity
  8
0
100
AcDbEllipse
 62
7
  6
BYLAYER
 10
74.7583969572
 20
62.2341382973
 30
0.0
 11
6.5090715451
 21
5.7438845358
 31
0.0
 40
0.7521396115
 41
1.2561000265
 42
1.3232071208
  0
ELLIPSE
  5
2C2
100
AcDbEntity
  8
0
100
AcDbEllipse
 62
7
  6
BYLAYER
 10
74.7583969572
 20
61.8648850155
 30
0.0
 11
6.6576717293
 21
4.5189586685
 31
0.0
 40
0.9045203251
 41
1.291444969
 42
1.3585520634
  0
ELLIPSE
  5
2C3
100
AcDbEntity
  8
0
100
AcDbEllipse
 62
7
  6
BYLAYER
 10
69.8256684085
 20
64.5138105189
 30
0.0
 11
7.7995571123
 21
-7.7985162524
 31
0.0
 40
0.0209057077
 41
1.2206588168
 42
1.2871314031
  0
ELLIPSE
  5
2C4
100
AcDbEntity
  8
0
100
AcDbEllipse
 62
7
  6
BYLAYER
 10
69.8256684085
 20
64.445479276
 30
0.0
 11
7.7587971111
 21
-7.7327395204
 31
0.0
 40
0.1051190463
 41
1.3100291931
 42
1.3706167409
  0
ELLIPSE
  5
2C5
100
AcDbEntity
  8
0
100
AcDbEllipse
 62
7
  6
BYLAYER
 10
69.8256684085
 20
64.2881746379
 30
0.0
 11
7.6647083204
 21
-7.5798977311
 31
0.0
 40
0.1917233997
 41
1.3981386149
 42
1.4536092812
  0
ELLIPSE
  5
2C6
100
AcDbEntity
  8
0
100
AcDbEllipse
 62
7
  6
BYLAYER
 10
69.8256684085
 20
64.0469525051
 30
0.0
 11
7.5200493134
 21
-7.341096966
 31
0.0
 40
0.2827506224
 41
1.4856941074
 42
1.5355477211
  0
ELLIPSE
  5
2C7
100
AcDbEntity
  8
0
100
AcDbEllipse
 62
7
  6
BYLAYER
 10
69.8256684085
 20
63.7295659554
 30
0.0
 11
7.3303344293
 21
-7.0165429758
 31
0.0
 40
0.3804483491
 41
1.5718320053
 42
1.615467057
  0
ELLIPSE
  5
2C8
100
AcDbEntity
  8
0
100
AcDbEllipse
 62
7
  6
BYLAYER
 10
69.8256684085
 20
63.3462160537
 30
0.0
 11
7.1067502841
 21
-6.6018876611
 31
0.0
 40
0.4873950986
 41
1.6551578627
 42
1.6913871092
  0
ELLIPSE
  5
2C9
100
AcDbEntity
  8
0
100
AcDbEllipse
 62
7
  6
BYLAYER
 10
69.8256684085
 20
62.9092239812
 30
0.0
 11
6.8756759107
 21
-6.0762217966
 31
0.0
 40
0.6065857959
 41
1.7317634819
 42
1.7583064649
  0
ELLIPSE
  5
2CA
100
AcDbEntity
  8
0
100
AcDbEllipse
 62
7
  6
BYLAYER
 10
69.8256684085
 20
62.4326350227
 30
0.0
 11
6.7213029091
 21
-5.3438259075
 31
0.0
 40
0.7410930986
 41
1.7863947399
 42
1.7986809299
  0
ELLIPSE
  5
2CB
100
AcDbEntity
  8
0
100
AcDbEllipse
 62
7
  6
BYLAYER
 10
74.7583969572
 20
63.66809121
 30
0.0
 11
7.7232380929
 21
7.6954506012
 31
0.0
 40
0.1528608948
 41
-2.0603164168
 42
-1.9932093225
  0
ELLIPSE
  5
2CC
100
AcDbEntity
  8
0
100
AcDbEllipse
 62
7
  6
BYLAYER
 10
74.7583969572
 20
63.0545072106
 30
0.0
 11
7.1783004868
 21
6.9596182974
 31
0.0
 40
0.4429672902
 41
-2.3148200336
 42
-2.2477129392
  0
ELLIPSE
  5
2CD
100
AcDbEntity
  8
0
100
AcDbEllipse
 62
7
  6
BYLAYER
 10
74.7583969572
 20
63.3138521414
 30
0.0
 11
7.4104872802
 21
7.279395874
 31
0.0
 40
0.3397569986
 41
-2.2312897153
 42
-2.164182621
  0
ELLIPSE
  5
2CE
100
AcDbEntity
  8
0
100
AcDbEllipse
 62
7
  6
BYLAYER
 10
74.7583969572
 20
59.5860488997
 30
0.0
 11
7.8104831204
 21
-7.8099182007
 31
0.0
 40
0.0216237981
 41
1.863678946
 42
1.9307860403
  0
ELLIPSE
  5
2CF
100
AcDbEntity
  8
0
100
AcDbEllipse
 62
7
  6
BYLAYER
 10
74.7583969572
 20
59.6364245307
 30
0.0
 11
7.7667659793
 21
-7.7526181998
 31
0.0
 40
0.108650535
 41
1.9500904702
 42
2.0171975645
  0
ELLIPSE
  5
2D0
100
AcDbEntity
  8
0
100
AcDbEllipse
 62
7
  6
BYLAYER
 10
74.7583969572
 20
59.7523937429
 30
0.0
 11
7.6655060057
 21
-7.6194188564
 31
0.0
 40
0.1978335621
 41
2.0362267715
 42
2.1033338658
  0
ELLIPSE
  5
2D1
100
AcDbEntity
  8
0
100
AcDbEllipse
 62
7
  6
BYLAYER
 10
74.7583969572
 20
59.9302291905
 30
0.0
 11
7.508671714
 21
-7.4112915527
 31
0.0
 40
0.2910225948
 41
2.1217774177
 42
2.1888845121
  0
ELLIPSE
  5
2D2
100
AcDbEntity
  8
0
100
AcDbEllipse
 62
7
  6
BYLAYER
 10
74.7583969572
 20
60.1642150958
 30
0.0
 11
7.3000243014
 21
-7.128928855
 31
0.0
 40
0.3902986392
 41
2.2062124334
 42
2.2733195278
  0
ELLIPSE
  5
2D3
100
AcDbEntity
  8
0
100
AcDbEllipse
 62
7
  6
BYLAYER
 10
74.7583969572
 20
60.4468309592
 30
0.0
 11
7.0468101624
 21
-6.7707526428
 31
0.0
 40
0.4981174544
 41
2.288444679
 42
2.3555517733
  0
ELLIPSE
  5
2D4
100
AcDbEntity
  8
0
100
AcDbEllipse
 62
7
  6
BYLAYER
 10
74.7583969572
 20
60.7689932744
 30
0.0
 11
6.7654754064
 21
-6.3263364658
 31
0.0
 40
0.6174932746
 41
2.3657055449
 42
2.4328126392
  0
ELLIPSE
  5
2D5
100
AcDbEntity
  8
0
100
AcDbEllipse
 62
7
  6
BYLAYER
 10
74.7583969572
 20
61.1203474795
 30
0.0
 11
6.5090715451
 21
-5.7438845358
 31
0.0
 40
0.7521396115
 41
2.4280201346
 42
2.4951272289
  0
ELLIPSE
  5
2D6
100
AcDbEntity
  8
0
100
AcDbEllipse
 62
7
  6
BYLAYER
 10
74.7583969572
 20
61.4896007613
 30
0.0
 11
6.6576717293
 21
-4.5189586685
 31
0.0
 40
0.9045203251
 41
2.392675192
 42
2.4597822864
  0
ELLIPSE
  5
2D7
100
AcDbEntity
  8
0
100
AcDbEllipse
 62
7
  6
BYLAYER
 10
74.7583969572
 20
63.7515998128
 30
0.0
 11
7.7958900717
 21
7.7908030039
 31
0.0
 40
0.0649774206
 41
-1.9740111584
 42
-1.9069040641
  0
ELLIPSE
  5
2D8
100
AcDbEntity
  8
0
100
AcDbEllipse
 62
7
  6
BYLAYER
 10
74.7583969572
 20
62.0510163585
 30
0.0
 11
6.4571461231
 21
5.3215173093
 31
0.0
 40
0.8263497679
 41
-2.5070398158
 42
-2.4399327214
  0
ELLIPSE
  5
2D9
100
AcDbEntity
  8
0
100
AcDbEllipse
 62
7
  6
BYLAYER
 10
74.7583969572
 20
63.5205951042
 30
0.0
 11
7.5938540461
 21
7.5246575103
 31
0.0
 40
0.2438041777
 41
-2.1462080158
 42
-2.0791009214
  0
ELLIPSE
  5
2DA
100
AcDbEntity
  8
0
100
AcDbEllipse
 62
7
  6
BYLAYER
 10
74.7583969572
 20
62.7508958713
 30
0.0
 11
6.9078851538
 21
6.5607671043
 31
0.0
 40
0.5561450433
 41
-2.3951186726
 42
-2.3280115783
  0
ELLIPSE
  5
2DB
100
AcDbEntity
  8
0
100
AcDbEllipse
 62
7
  6
BYLAYER
 10
74.7583969572
 20
62.4127764417
 30
0.0
 11
6.6270509456
 21
6.0601069723
 31
0.0
 40
0.6826531162
 41
-2.4672285414
 42
-2.4001214471
  0
ELLIPSE
  5
2DC
100
AcDbEntity
  8
0
100
AcDbEllipse
 62
7
  6
BYLAYER
 10
71.9045218971
 20
60.6795398156
 30
0.0
 11
6.7778954833
 21
-5.7498567937
 31
0.0
 40
0.6717760696
 41
-1.3775981148
 42
-1.3573799308
  0
ELLIPSE
  5
2DD
100
AcDbEntity
  8
0
100
AcDbEllipse
 62
7
  6
BYLAYER
 10
71.9045218971
 20
60.220902963
 30
0.0
 11
6.9892805436
 21
-6.3556937277
 31
0.0
 40
0.5452577243
 41
-1.4468268092
 42
-1.4150555219
  0
ELLIPSE
  5
2DE
100
AcDbEntity
  8
0
100
AcDbEllipse
 62
7
  6
BYLAYER
 10
71.9045218971
 20
59.8090740739
 30
0.0
 11
7.2216881888
 21
-6.8211355117
 31
0.0
 40
0.4325884012
 41
-1.5276013277
 42
-1.487467482
  0
ELLIPSE
  5
2DF
100
AcDbEntity
  8
0
100
AcDbEllipse
 62
7
  6
BYLAYER
 10
71.9045218971
 20
59.4572896675
 30
0.0
 11
7.4303153681
 21
-7.1896323761
 31
0.0
 40
0.3306136582
 41
-1.6125941643
 42
-1.5657448926
  0
ELLIPSE
  5
2E0
100
AcDbEntity
  8
0
100
AcDbEllipse
 62
7
  6
BYLAYER
 10
71.9045218971
 20
59.1768563843
 30
0.0
 11
7.5984400747
 21
-7.4711827883
 31
0.0
 40
0.2365500347
 41
-1.6995452328
 42
-1.6468358367
  0
ELLIPSE
  5
2E1
100
AcDbEntity
  8
0
100
AcDbEllipse
 62
7
  6
BYLAYER
 10
71.9045218971
 20
58.9767875807
 30
0.0
 11
7.7182939033
 21
-7.6671333883
 31
0.0
 40
0.1479991431
 41
-1.7875736354
 42
-1.7293886949
  0
ELLIPSE
  5
2E2
100
AcDbEntity
  8
0
100
AcDbEllipse
 62
7
  6
BYLAYER
 10
71.9045218971
 20
58.8635136326
 30
0.0
 11
7.785942562
 21
-7.776570827
 31
0.0
 40
0.0628349518
 41
-1.8761933735
 42
-1.8126840089
  0
ELLIPSE
  5
2E3
100
AcDbEntity
  8
0
100
AcDbEllipse
 62
7
  6
BYLAYER
 10
71.9045218971
 20
61.1702436659
 30
0.0
 11
6.769687539
 21
-4.761806636
 31
0.0
 40
0.8141833296
 41
4.9261133898
 42
4.9279264011
  0
ELLIPSE
  5
2E4
100
AcDbEntity
  8
0
100
AcDbEllipse
 62
7
  6
BYLAYER
 10
66.9717933485
 20
61.3034694183
 30
0.0
 11
6.4571461231
 21
5.3215173093
 31
0.0
 40
0.8263497679
 41
-1.8974052139
 42
-1.8302981196
  0
ELLIPSE
  5
2E5
100
AcDbEntity
  8
0
100
AcDbEllipse
 62
7
  6
BYLAYER
 10
66.9717933485
 20
60.9417093351
 30
0.0
 11
6.6270509456
 21
6.0601069723
 31
0.0
 40
0.6826531162
 41
-1.8575939396
 42
-1.7904868453
  0
ELLIPSE
  5
2E6
100
AcDbEntity
  8
0
100
AcDbEllipse
 62
7
  6
BYLAYER
 10
66.9717933485
 20
61.6772428884
 30
0.0
 11
7.8123086895
 21
-0.0
 31
0.0
 40
0.963433044
 41
-1.2995325731
 42
-1.2324254787
  0
ELLIPSE
  5
2E7
100
AcDbEntity
  8
0
100
AcDbEllipse
 62
7
  6
BYLAYER
 10
66.9717933485
 20
60.6035899055
 30
0.0
 11
6.9078851538
 21
6.5607671043
 31
0.0
 40
0.5561450433
 41
-1.7854840708
 42
-1.7183769765
  0
ELLIPSE
  5
2E8
100
AcDbEntity
  8
0
100
AcDbEllipse
 62
7
  6
BYLAYER
 10
66.9717933485
 20
60.2999785662
 30
0.0
 11
7.1783004868
 21
6.9596182974
 31
0.0
 40
0.4429672902
 41
-1.7051854317
 42
-1.6380783374
  0
ELLIPSE
  5
2E9
100
AcDbEntity
  8
0
100
AcDbEllipse
 62
7
  6
BYLAYER
 10
66.9717933485
 20
60.0406336354
 30
0.0
 11
7.4104872802
 21
7.279395874
 31
0.0
 40
0.3397569986
 41
-1.6216551135
 42
-1.5545480192
  0
ELLIPSE
  5
2EA
100
AcDbEntity
  8
0
100
AcDbEllipse
 62
7
  6
BYLAYER
 10
66.9717933485
 20
59.8338906726
 30
0.0
 11
7.5938540461
 21
7.5246575103
 31
0.0
 40
0.2438041777
 41
-1.536573414
 42
-1.4694663196
  0
ELLIPSE
  5
2EB
100
AcDbEntity
  8
0
100
AcDbEllipse
 62
7
  6
BYLAYER
 10
66.9717933485
 20
59.6863945668
 30
0.0
 11
7.7232380929
 21
7.6954506012
 31
0.0
 40
0.1528608948
 41
-1.450681815
 42
-1.3835747207
  0
ELLIPSE
  5
2EC
100
AcDbEntity
  8
0
100
AcDbEllipse
 62
7
  6
BYLAYER
 10
66.9717933485
 20
59.602885964
 30
0.0
 11
7.7958900717
 21
7.7908030039
 31
0.0
 40
0.0649774206
 41
-1.3643765566
 42
-1.2972694622
  0
ELLIPSE
  5
2ED
100
AcDbEntity
  8
0
100
AcDbEllipse
 62
7
  6
BYLAYER
 10
71.9045218971
 20
64.5138105189
 30
0.0
 11
7.7995571123
 21
7.7985162524
 31
0.0
 40
0.0209057077
 41
1.8544612505
 42
1.9209338703
  0
ELLIPSE
  5
2EE
100
AcDbEntity
  8
0
100
AcDbEllipse
 62
7
  6
BYLAYER
 10
71.9045218971
 20
64.445479276
 30
0.0
 11
7.7587971111
 21
7.7327395204
 31
0.0
 40
0.1051190463
 41
1.7709759127
 42
1.8315636138
  0
ELLIPSE
  5
2EF
100
AcDbEntity
  8
0
100
AcDbEllipse
 62
7
  6
BYLAYER
 10
71.9045218971
 20
64.2881746379
 30
0.0
 11
7.6647083204
 21
7.5798977311
 31
0.0
 40
0.1917233997
 41
1.6879833724
 42
1.743454256
  0
ELLIPSE
  5
2F0
100
AcDbEntity
  8
0
100
AcDbEllipse
 62
7
  6
BYLAYER
 10
71.9045218971
 20
64.0469525051
 30
0.0
 11
7.5200493134
 21
7.341096966
 31
0.0
 40
0.2827506224
 41
1.6060449324
 42
1.6558988179
  0
ELLIPSE
  5
2F1
100
AcDbEntity
  8
0
100
AcDbEllipse
 62
7
  6
BYLAYER
 10
71.9045218971
 20
63.7295659554
 30
0.0
 11
7.3303344293
 21
7.0165429758
 31
0.0
 40
0.3804483491
 41
1.5261255966
 42
1.569760596
  0
ELLIPSE
  5
2F2
100
AcDbEntity
  8
0
100
AcDbEllipse
 62
7
  6
BYLAYER
 10
71.9045218971
 20
63.3462160537
 30
0.0
 11
7.1067502841
 21
6.6018876611
 31
0.0
 40
0.4873950986
 41
1.4502055444
 42
1.4864347757
  0
ELLIPSE
  5
2F3
100
AcDbEntity
  8
0
100
AcDbEllipse
 62
7
  6
BYLAYER
 10
66.9717933485
 20
61.8648850155
 30
0.0
 11
6.6576717293
 21
-4.5189586685
 31
0.0
 40
0.9045203251
 41
1.7830405902
 42
1.8501476846
  0
ELLIPSE
  5
2F4
100
AcDbEntity
  8
0
100
AcDbEllipse
 62
7
  6
BYLAYER
 10
66.9717933485
 20
62.2341382973
 30
0.0
 11
6.5090715451
 21
-5.7438845358
 31
0.0
 40
0.7521396115
 41
1.8183855327
 42
1.8854926271
  0
ELLIPSE
  5
2F5
100
AcDbEntity
  8
0
100
AcDbEllipse
 62
7
  6
BYLAYER
 10
66.9717933485
 20
62.5854925024
 30
0.0
 11
6.7654754064
 21
-6.3263364658
 31
0.0
 40
0.6174932746
 41
1.7560709431
 42
1.8231780374
  0
ELLIPSE
  5
2F6
100
AcDbEntity
  8
0
100
AcDbEllipse
 62
7
  6
BYLAYER
 10
66.9717933485
 20
62.9076548176
 30
0.0
 11
7.0468101624
 21
-6.7707526428
 31
0.0
 40
0.4981174544
 41
1.6788100772
 42
1.7459171715
  0
ELLIPSE
  5
2F7
100
AcDbEntity
  8
0
100
AcDbEllipse
 62
7
  6
BYLAYER
 10
66.9717933485
 20
63.190270681
 30
0.0
 11
7.3000243014
 21
-7.128928855
 31
0.0
 40
0.3902986392
 41
1.5965778316
 42
1.663684926
  0
ELLIPSE
  5
2F8
100
AcDbEntity
  8
0
100
AcDbEllipse
 62
7
  6
BYLAYER
 10
66.9717933485
 20
63.4242565863
 30
0.0
 11
7.508671714
 21
-7.4112915527
 31
0.0
 40
0.2910225948
 41
1.5121428159
 42
1.5792499103
  0
ELLIPSE
  5
2F9
100
AcDbEntity
  8
0
100
AcDbEllipse
 62
7
  6
BYLAYER
 10
66.9717933485
 20
63.6020920339
 30
0.0
 11
7.6655060057
 21
-7.6194188564
 31
0.0
 40
0.1978335621
 41
1.4265921697
 42
1.493699264
  0
ELLIPSE
  5
2FA
100
AcDbEntity
  8
0
100
AcDbEllipse
 62
7
  6
BYLAYER
 10
66.9717933485
 20
63.7180612461
 30
0.0
 11
7.7667659793
 21
-7.7526181998
 31
0.0
 40
0.108650535
 41
1.3404558684
 42
1.4075629627
  0
ELLIPSE
  5
2FB
100
AcDbEntity
  8
0
100
AcDbEllipse
 62
7
  6
BYLAYER
 10
71.9045218971
 20
62.9092239812
 30
0.0
 11
6.8756759107
 21
6.0762217966
 31
0.0
 40
0.6065857959
 41
1.3832861887
 42
1.4098291498
  0
ELLIPSE
  5
2FC
100
AcDbEntity
  8
0
100
AcDbEllipse
 62
7
  6
BYLAYER
 10
71.9045218971
 20
62.4326350227
 30
0.0
 11
6.7213029091
 21
5.3438259075
 31
0.0
 40
0.7410930986
 41
1.3429117237
 42
1.3551978658
  0
ELLIPSE
  5
2FD
100
AcDbEntity
  8
0
100
AcDbEllipse
 62
7
  6
BYLAYER
 10
66.9717933485
 20
59.5860488997
 30
0.0
 11
7.8104831204
 21
7.8099182007
 31
0.0
 40
0.0216237981
 41
1.2108066133
 42
1.2779137076
  0
ELLIPSE
  5
2FE
100
AcDbEntity
  8
0
100
AcDbEllipse
 62
7
  6
BYLAYER
 10
66.9717933485
 20
59.6364245307
 30
0.0
 11
7.7667659793
 21
7.7526181998
 31
0.0
 40
0.108650535
 41
1.1243950891
 42
1.1915021834
  0
ELLIPSE
  5
2FF
100
AcDbEntity
  8
0
100
AcDbEllipse
 62
7
  6
BYLAYER
 10
66.9717933485
 20
63.7515998128
 30
0.0
 11
7.7958900717
 21
-7.7908030039
 31
0.0
 40
0.0649774206
 41
-1.2346885895
 42
-1.1675814952
  0
ELLIPSE
  5
300
100
AcDbEntity
  8
0
100
AcDbEllipse
 62
7
  6
BYLAYER
 10
66.9717933485
 20
59.7523937429
 30
0.0
 11
7.6655060057
 21
7.6194188564
 31
0.0
 40
0.1978335621
 41
1.0382587878
 42
1.1053658821
  0
ELLIPSE
  5
301
100
AcDbEntity
  8
0
100
AcDbEllipse
 62
7
  6
BYLAYER
 10
66.9717933485
 20
63.66809121
 30
0.0
 11
7.7232380929
 21
-7.6954506012
 31
0.0
 40
0.1528608948
 41
-1.1483833311
 42
-1.0812762368
  0
ELLIPSE
  5
302
100
AcDbEntity
  8
0
100
AcDbEllipse
 62
7
  6
BYLAYER
 10
66.9717933485
 20
63.5205951042
 30
0.0
 11
7.5938540461
 21
-7.5246575103
 31
0.0
 40
0.2438041777
 41
-1.0624917322
 42
-0.9953846378
  0
ELLIPSE
  5
303
100
AcDbEntity
  8
0
100
AcDbEllipse
 62
7
  6
BYLAYER
 10
66.9717933485
 20
63.3138521414
 30
0.0
 11
7.4104872802
 21
-7.279395874
 31
0.0
 40
0.3397569986
 41
-0.9774100326
 42
-0.9103029382
  0
ELLIPSE
  5
304
100
AcDbEntity
  8
0
100
AcDbEllipse
 62
7
  6
BYLAYER
 10
66.9717933485
 20
63.0545072106
 30
0.0
 11
7.1783004868
 21
-6.9596182974
 31
0.0
 40
0.4429672902
 41
-0.8938797144
 42
-0.82677262
  0
ELLIPSE
  5
305
100
AcDbEntity
  8
0
100
AcDbEllipse
 62
7
  6
BYLAYER
 10
66.9717933485
 20
62.7508958713
 30
0.0
 11
6.9078851538
 21
-6.5607671043
 31
0.0
 40
0.5561450433
 41
-0.8135810753
 42
-0.746473981
  0
ELLIPSE
  5
306
100
AcDbEntity
  8
0
100
AcDbEllipse
 62
7
  6
BYLAYER
 10
66.9717933485
 20
62.4127764417
 30
0.0
 11
6.6270509456
 21
-6.0601069723
 31
0.0
 40
0.6826531162
 41
-0.7414712065
 42
-0.6743641122
  0
ELLIPSE
  5
307
100
AcDbEntity
  8
0
100
AcDbEllipse
 62
7
  6
BYLAYER
 10
66.9717933485
 20
62.0510163585
 30
0.0
 11
6.4571461231
 21
-5.3215173093
 31
0.0
 40
0.8263497679
 41
-0.7016599322
 42
-0.6345528378
  0
ELLIPSE
  5
308
100
AcDbEntity
  8
0
100
AcDbEllipse
 62
7
  6
BYLAYER
 10
66.9717933485
 20
59.9302291905
 30
0.0
 11
7.508671714
 21
7.4112915527
 31
0.0
 40
0.2910225948
 41
0.9527081415
 42
1.0198152359
  0
ELLIPSE
  5
309
100
AcDbEntity
  8
0
100
AcDbEllipse
 62
7
  6
BYLAYER
 10
66.9717933485
 20
60.1642150958
 30
0.0
 11
7.3000243014
 21
7.128928855
 31
0.0
 40
0.3902986392
 41
0.8682731258
 42
0.9353802201
  0
ELLIPSE
  5
30A
100
AcDbEntity
  8
0
100
AcDbEllipse
 62
7
  6
BYLAYER
 10
66.9717933485
 20
60.4468309592
 30
0.0
 11
7.0468101624
 21
6.7707526428
 31
0.0
 40
0.4981174544
 41
0.7860408803
 42
0.8531479746
  0
ELLIPSE
  5
30B
100
AcDbEntity
  8
0
100
AcDbEllipse
 62
7
  6
BYLAYER
 10
66.9717933485
 20
60.7689932744
 30
0.0
 11
6.7654754064
 21
6.3263364658
 31
0.0
 40
0.6174932746
 41
0.7087800143
 42
0.7758871087
  0
ELLIPSE
  5
30C
100
AcDbEntity
  8
0
100
AcDbEllipse
 62
7
  6
BYLAYER
 10
66.9717933485
 20
61.1203474795
 30
0.0
 11
6.5090715451
 21
5.7438845358
 31
0.0
 40
0.7521396115
 41
0.6464654247
 42
0.713572519
  0
ELLIPSE
  5
30D
100
AcDbEntity
  8
0
100
AcDbEllipse
 62
7
  6
BYLAYER
 10
66.9717933485
 20
61.4896007613
 30
0.0
 11
6.6576717293
 21
4.5189586685
 31
0.0
 40
0.9045203251
 41
0.6818103672
 42
0.7489174616
  0
ENDSEC
  0
SECTION
  2
OBJECTS
  0
DICTIONARY
  5
C
100
AcDbDictionary
280
0
281
1
  3
ACAD_GROUP
350
D
  3
ACAD_MLINESTYLE
350
17
  3
ACAD_LAYOUT
350
1A
  3
ACAD_PLOTSETTINGS
350
19
  3
ACAD_PLOTSTYLENAME
350
E
  0
DICTIONARY
  5
D
102
{ACAD_REACTORS
330
C
102
}
100
AcDbDictionary
280
0
281
1
  0
ACDBDICTIONARYWDFLT
  5
E
102
{ACAD_REACTORS
330
C
102
}
100
AcDbDictionary
281
1
  3
Normal
350
F
100
AcDbDictionaryWithDefault
340
F
  0
DICTIONARY
  5
17
102
{ACAD_REACTORS
330
C
102
}
100
AcDbDictionary
280
0
281
1
  3
Standard
350
18
  0
DICTIONARY
  5
19
102
{ACAD_REACTORS
330
C
102
}
100
AcDbDictionary
281
1
  0
DICTIONARY
  5
1A
102
{ACAD_REACTORS
330
C
102
}
100
AcDbDictionary
281
1
  3
Model
350
30E
  3
Layout1
350
30F
  0
ACDBPLACEHOLDER
  5
F
102
{ACAD_REACTORS
330
E
102
}
  0
MLINESTYLE
  5
18
102
{ACAD_REACTORS
330
17
102
}
100
AcDbMlineStyle
  2
STANDARD
 70
0
  3

 62
256
 51
90.0
 52
90.0
 71
2
 49
0.5
 62
256
  6
BYLAYER
 49
-0.5
 62
256
  6
BYLAYER
  0
LAYOUT
  5
30E
102
{ACAD_REACTORS
330
1A
102
}
100
AcDbPlotSettings
  1

  2
none_device
  4

  6

 40
0.0
 41
0.0
 42
0.0
 43
0.0
 44
210.0
 45
297.0
 46
0.0
 47
0.0
 48
0.0
 49
0.0
140
0.0
141
0.0
142
1.0
143
1.0
 70
1024
 72
1
 73
0
 74
0
  7

 75
0
147
1.0
148
0.0
149
0.0
100
AcDbLayout
  1
Model
 70
0
 71
0
 10
0.0
 20
0.0
 11
210.0
 21
297.0
 12
0.0
 22
0.0
 32
0.0
 14
0.0
 24
0.0
 34
0.0
 15
0.0
 25
0.0
 35
0.0
146
0.0
 13
0.0
 23
0.0
 33
0.0
 16
1.0
 26
0.0
 36
0.0
 17
0.0
 27
1.0
 37
0.0
 76
0
330
210
345
0
346
0
  0
LAYOUT
  5
30F
102
{ACAD_REACTORS
330
1A
102
}
100
AcDbPlotSettings
  1

  2
none_device
  4

  6

 40
0.0
 41
0.0
 42
0.0
 43
0.0
 44
210.0
 45
297.0
 46
0.0
 47
0.0
 48
0.0
 49
0.0
140
0.0
141
0.0
142
1.0
143
1.0
 70
0
 72
1
 73
0
 74
0
  7

 75
0
147
1.0
148
0.0
149
0.0
100
AcDbLayout
  1
Layout1
 70
0
 71
1
 10
0.0
 20
0.0
 11
210.0
 21
297.0
 12
0.0
 22
0.0
 32
0.0
 14
0.0
 24
0.0
 34
0.0
 15
0.0
 25
0.0
 35
0.0
146
0.0
 13
0.0
 23
0.0
 33
0.0
 16
1.0
 26
0.0
 36
0.0
 17
0.0
 27
1.0
 37
0.0
 76
0
330
211
345
0
346
0
  0
ENDSEC
  0
EOF
