999
DXF file: C:\Users\sesa63760\Dev\_Creo\CAD\MCADUE0001048_3D-CAD\drw0001_2.dxf
999
Pro/ENGINEER 2019471 by Parametric Technology Corporation
  0
SECTION
  2
HEADER
  9
$ACADVER
  1
AC1024
  9
$DWGCODEPAGE
  3
ANSI_1252
  9
$EXTMAX
 10
629.2800007235
 20
889.981715309
 30
0.0
  9
$EXTMIN
 10
0.0
 20
0.0
 30
0.0
  9
$LIMMIN
 10
0.0
 20
0.0
  9
$LIMMAX
 10
629.2800007235
 20
889.981715309
  9
$VIEWCTR
 10
314.6400003618
 20
444.9908576545
  9
$VIEWSIZE
 40
889.981715309
  9
$CLAYER
  8
0
  9
$LTSCALE
 40
58.0136229238
  9
$CELTYPE
  6
BYLAYER
  9
$DIMSCALE
 40
1.0
  9
$DIMASZ
 40
7.49142858
  9
$DIMEXO
 40
1.0
  9
$DIMDLI
 40
40.0821394747
  9
$DIMEXE
 40
1.0
  9
$DIMCEN
 40
9.4931382966
  9
$DIMLFAC
 40
1.0
  9
$DIMBLK
  1
_FILLED
  9
$DIMALT
 70
0
  9
$DIMALTF
 40
0.0393700787
  9
$DIMTXT
 40
10.4880000121
  9
$DIMTOL
 70
1
  9
$DIMLIM
 70
0
  9
$DIMTFAC
 40
1.0
  9
$DIMTP
 40
0.01
  9
$DIMTM
 40
0.01
  9
$DIMGAP
 40
0.625
  9
$DIMDSEP
 70
46
  9
$AUNITS
 70
0
  9
$PDMODE
 70
3
  9
$PDSIZE
 40
0.3125
  9
$HANDSEED
  5
269
  9
$TILEMODE
 70
1
  9
$MEASUREMENT
 70
1
  9
$INSUNITS
 70
4
  0
ENDSEC
  0
SECTION
  2
CLASSES
  0
CLASS
  1
ACDBDICTIONARYWDFLT
  2
AcDbDictionaryWithDefault
  3
AutoCAD 2000
 90
0
 91
1
280
0
281
0
  0
CLASS
  1
ACDBPLACEHOLDER
  2
AcDbPlaceHolder
  3
AutoCAD 2000
 90
0
 91
1
280
0
281
0
  0
CLASS
  1
LAYOUT
  2
AcDbLayout
  3
AutoCAD 2000
 90
0
 91
0
280
0
281
0
  0
ENDSEC
  0
SECTION
  2
TABLES
  0
TABLE
  2
VPORT
  5
8
100
AcDbSymbolTable
 70
2
  0
VPORT
  5
1F4
100
AcDbSymbolTableRecord
100
AcDbViewportTableRecord
  2
*ACTIVE
 70
0
 10
0.0
 20
0.0
 11
1.0
 21
1.0
 12
314.6400003618
 22
444.9908576545
 13
0.0
 23
0.0
 14
1.0
 24
1.0
 15
0.0
 25
0.0
 16
0.0
 26
0.0
 36
1.0
 17
0.0
 27
0.0
 37
0.0
 40
889.981715309
 41
0.7070707071
 42
50.0
 43
0.0
 44
0.0
 50
0.0
 51
0.0
 71
0
 72
100
 73
1
 74
1
 75
0
 76
0
 77
0
 78
0
  0
ENDTAB
  0
TABLE
  2
LTYPE
  5
5
100
AcDbSymbolTable
 70
6
  0
LTYPE
  5
14
100
AcDbSymbolTableRecord
100
AcDbLinetypeTableRecord
  2
BYBLOCK
 70
0
  3

 72
65
 73
0
 40
0.0
  0
LTYPE
  5
15
100
AcDbSymbolTableRecord
100
AcDbLinetypeTableRecord
  2
BYLAYER
 70
0
  3

 72
65
 73
0
 40
0.0
  0
LTYPE
  5
16
100
AcDbSymbolTableRecord
100
AcDbLinetypeTableRecord
  2
CONTINUOUS
 70
64
  3
Solid line
 72
65
 73
0
 40
0.0
  0
LTYPE
  5
1F5
100
AcDbSymbolTableRecord
100
AcDbLinetypeTableRecord
  2
CENTER
 70
64
  3
____ _ ____ _ ____ _ ____ _ ____ _ ____ _ ____
 72
65
 73
4
 40
0.6
 49
0.375
 74
0
 49
-0.075
 74
0
 49
0.075
 74
0
 49
-0.075
 74
0
  0
LTYPE
  5
1F6
100
AcDbSymbolTableRecord
100
AcDbLinetypeTableRecord
  2
HIDDEN
 70
64
  3
- - - - - - - - - - - - - - - - - - - -
 72
65
 73
2
 40
0.2
 49
0.1
 74
0
 49
-0.1
 74
0
  0
LTYPE
  5
1F7
100
AcDbSymbolTableRecord
100
AcDbLinetypeTableRecord
  2
PHANTOM
 70
64
  3
_____ _ _ _____ _ _ _____ _ _ _____
 72
65
 73
6
 40
0.8
 49
0.45
 74
0
 49
-0.05
 74
0
 49
0.1
 74
0
 49
-0.05
 74
0
 49
0.1
 74
0
 49
-0.05
 74
0
  0
LTYPE
  5
1F8
100
AcDbSymbolTableRecord
100
AcDbLinetypeTableRecord
  2
DOT
 70
64
  3
. . . . . . . . . . . . . . . . . . . .
 72
65
 73
2
 40
0.2
 49
0.1
 74
0
 49
-0.1
 74
0
  0
LTYPE
  5
1F9
100
AcDbSymbolTableRecord
100
AcDbLinetypeTableRecord
  2
DASHED
 70
64
  3
- - - - - - - - - - - - - - - - - - - -
 72
65
 73
2
 40
0.2
 49
0.1
 74
0
 49
-0.1
 74
0
  0
ENDTAB
  0
TABLE
  2
LAYER
  5
2
100
AcDbSymbolTable
 70
36
  0
LAYER
  5
10
100
AcDbSymbolTableRecord
100
AcDbLayerTableRecord
  2
0
 70
0
 62
7
  6
CONTINUOUS
370
-3
390
F
  0
LAYER
  5
1FA
100
AcDbSymbolTableRecord
100
AcDbLayerTableRecord
  2
DEFAULT_1
 70
0
 62
7
  6
CENTER
370
-3
390
F
  0
LAYER
  5
1FB
100
AcDbSymbolTableRecord
100
AcDbLayerTableRecord
  2
DEFAULT_2
 70
0
 62
8
  6
HIDDEN
370
-3
390
F
  0
LAYER
  5
1FC
100
AcDbSymbolTableRecord
100
AcDbLayerTableRecord
  2
DEFAULT_3
 70
0
 62
7
  6
PHANTOM
370
-3
390
F
  0
LAYER
  5
1FD
100
AcDbSymbolTableRecord
100
AcDbLayerTableRecord
  2
00_COMPONENTS
 70
0
 62
7
  6
CONTINUOUS
370
-3
390
F
  0
LAYER
  5
1FE
100
AcDbSymbolTableRecord
100
AcDbLayerTableRecord
  2
01_1_DEFAULT_DATUMS
 70
0
 62
7
  6
CONTINUOUS
370
-3
390
F
  0
LAYER
  5
1FF
100
AcDbSymbolTableRecord
100
AcDbLayerTableRecord
  2
01_PLANES
 70
0
 62
7
  6
CONTINUOUS
370
-3
390
F
  0
LAYER
  5
200
100
AcDbSymbolTableRecord
100
AcDbLayerTableRecord
  2
02_COORD_SYS
 70
0
 62
7
  6
CONTINUOUS
370
-3
390
F
  0
LAYER
  5
201
100
AcDbSymbolTableRecord
100
AcDbLayerTableRecord
  2
03_AXES
 70
0
 62
7
  6
CONTINUOUS
370
-3
390
F
  0
LAYER
  5
202
100
AcDbSymbolTableRecord
100
AcDbLayerTableRecord
  2
04_POINTS
 70
0
 62
7
  6
CONTINUOUS
370
-3
390
F
  0
LAYER
  5
203
100
AcDbSymbolTableRecord
100
AcDbLayerTableRecord
  2
05_CURVES
 70
0
 62
7
  6
CONTINUOUS
370
-3
390
F
  0
LAYER
  5
204
100
AcDbSymbolTableRecord
100
AcDbLayerTableRecord
  2
06_SURFS
 70
0
 62
7
  6
CONTINUOUS
370
-3
390
F
  0
LAYER
  5
205
100
AcDbSymbolTableRecord
100
AcDbLayerTableRecord
  2
07_COSMETICS
 70
0
 62
7
  6
CONTINUOUS
370
-3
390
F
  0
LAYER
  5
206
100
AcDbSymbolTableRecord
100
AcDbLayerTableRecord
  2
10_NOTES
 70
0
 62
7
  6
CONTINUOUS
370
-3
390
F
  0
LAYER
  5
207
100
AcDbSymbolTableRecord
100
AcDbLayerTableRecord
  2
11_NOTES_PUB
 70
0
 62
7
  6
CONTINUOUS
370
-3
390
F
  0
LAYER
  5
208
100
AcDbSymbolTableRecord
100
AcDbLayerTableRecord
  2
13_REF_GTOL
 70
0
 62
7
  6
CONTINUOUS
370
-3
390
F
  0
LAYER
  5
209
100
AcDbSymbolTableRecord
100
AcDbLayerTableRecord
  2
16_MISC
 70
0
 62
7
  6
CONTINUOUS
370
-3
390
F
  0
LAYER
  5
20A
100
AcDbSymbolTableRecord
100
AcDbLayerTableRecord
  2
17_NO_PRINT
 70
0
 62
7
  6
CONTINUOUS
370
-3
390
F
  0
LAYER
  5
20B
100
AcDbSymbolTableRecord
100
AcDbLayerTableRecord
  2
18_DATUM_CAMS_JOINTS
 70
0
 62
7
  6
CONTINUOUS
370
-3
390
F
  0
LAYER
  5
20C
100
AcDbSymbolTableRecord
100
AcDbLayerTableRecord
  2
19_DATUM_FUNCTIONAL
 70
0
 62
7
  6
CONTINUOUS
370
-3
390
F
  0
LAYER
  5
20D
100
AcDbSymbolTableRecord
100
AcDbLayerTableRecord
  2
20_DATUM_KINEMATIC_SCHEME
 70
0
 62
7
  6
CONTINUOUS
370
-3
390
F
  0
ENDTAB
  0
TABLE
  2
STYLE
  5
3
100
AcDbSymbolTable
 70
1
  0
STYLE
  5
11
100
AcDbSymbolTableRecord
100
AcDbTextStyleTableRecord
  2
STANDARD
 70
0
 40
0.0
 41
0.8
 50
0.0
 71
0
 42
0.2
  3
txt
  4

  0
STYLE
  5
20E
100
AcDbSymbolTableRecord
100
AcDbTextStyleTableRecord
  2
TEXTSTYLE_1
 70
0
 40
0.0
 41
0.8
 50
0.0
 71
0
 42
0.2
  3
gdt
  4

  0
ENDTAB
  0
TABLE
  2
VIEW
  5
6
100
AcDbSymbolTable
 70
0
  0
ENDTAB
  0
TABLE
  2
UCS
  5
7
100
AcDbSymbolTable
 70
0
  0
ENDTAB
  0
TABLE
  2
APPID
  5
9
100
AcDbSymbolTable
 70
1
  0
APPID
  5
20F
100
AcDbSymbolTableRecord
100
AcDbRegAppTableRecord
  2
ACAD
 70
0
  0
ENDTAB
  0
TABLE
  2
BLOCK_RECORD
  5
1
100
AcDbSymbolTable
 70
0
  0
BLOCK_RECORD
  5
210
100
AcDbSymbolTableRecord
100
AcDbBlockTableRecord
  2
*Model_Space
  0
BLOCK_RECORD
  5
211
100
AcDbSymbolTableRecord
100
AcDbBlockTableRecord
  2
*Paper_Space
  0
BLOCK_RECORD
  5
212
100
AcDbSymbolTableRecord
100
AcDbBlockTableRecord
  2
_FILLED
  0
ENDTAB
  0
TABLE
  2
DIMSTYLE
  5
A
100
AcDbSymbolTable
 70
1
100
AcDbDimStyleTable
 71
0
  0
DIMSTYLE
105
213
100
AcDbSymbolTableRecord
100
AcDbDimStyleTableRecord
  2
STANDARD
 70
0
  3

  4

 40
1.0
 41
7.49142858
 42
1.0
 43
0.38
 44
1.0
 45
0.0
 46
0.0
 47
0.01
 48
0.01
140
10.4880000121
141
0.09
142
0.0
143
25.4
144
1.0
145
0.0
146
1.0
147
0.625
 71
1
 72
0
 73
0
 74
0
 75
0
 76
0
 77
1
 78
8
 79
2
170
0
171
1
172
0
173
0
174
0
175
0
176
0
177
0
178
0
270
2
179
2
271
2
272
2
273
2
274
2
275
0
280
0
281
0
282
0
283
1
284
8
285
0
286
0
287
3
288
0
340
11
278
46
341
212
342
212
343
212
344
212
  0
ENDTAB
  0
ENDSEC
  0
SECTION
  2
BLOCKS
  0
BLOCK
  5
20
100
AcDbEntity
  8
0
100
AcDbBlockBegin
  2
*Model_Space
 70
0
 10
0.0
 20
0.0
 30
0.0
  3
*Model_Space
  1

  0
ENDBLK
  5
21
100
AcDbEntity
  8
0
100
AcDbBlockEnd
  0
BLOCK
  5
1C
100
AcDbEntity
  8
0
100
AcDbBlockBegin
  2
*Paper_Space
 70
0
 10
0.0
 20
0.0
 30
0.0
  3
*Paper_Space
  1

  0
ENDBLK
  5
1D
100
AcDbEntity
  8
0
100
AcDbBlockEnd
  0
BLOCK
  5
214
100
AcDbEntity
  8
0
100
AcDbBlockBegin
  2
_FILLED
 70
64
 10
0.0
 20
0.0
  3
_FILLED
  1

  0
SOLID
  5
215
100
AcDbEntity
  8
0
  6
BYBLOCK
 62
0
100
AcDbTrace
 10
0.0
 20
0.0
 11
-1.0
 21
0.25
 12
-1.0
 22
-0.25
 13
-1.0
 23
-0.25
  0
ENDBLK
  5
216
100
AcDbEntity
  8
0
  6
BYBLOCK
 62
0
100
AcDbBlockEnd
  0
ENDSEC
  0
SECTION
  2
ENTITIES
  0
LINE
  5
217
100
AcDbEntity
  8
0
100
AcDbLine
 62
7
  6
CONTINUOUS
 10
69.0435410988
 20
280.4068642971
 11
69.0204285401
 21
285.3568642971
  0
LINE
  5
218
100
AcDbEntity
  8
0
100
AcDbLine
 62
7
  6
CONTINUOUS
 10
69.0435410988
 20
580.4068642971
 11
69.0204285401
 21
585.3568642971
  0
LINE
  5
219
100
AcDbEntity
  8
0
100
AcDbLine
 62
7
  6
CONTINUOUS
 10
68.9973159814
 20
693.3568642971
 11
68.9973159814
 21
606.3068642971
  0
LINE
  5
21A
100
AcDbEntity
  8
0
100
AcDbLine
 62
7
  6
CONTINUOUS
 10
68.9973159814
 20
580.4068642971
 11
68.9973159814
 21
306.3068642971
  0
LINE
  5
21B
100
AcDbEntity
  8
0
100
AcDbLine
 62
7
  6
CONTINUOUS
 10
68.9973159814
 20
280.4068642971
 11
68.9973159814
 21
193.3568642971
  0
LINE
  5
21C
100
AcDbEntity
  8
0
100
AcDbLine
 62
7
  6
CONTINUOUS
 10
69.0204285401
 20
601.3568642971
 11
69.0204285401
 21
585.3568642971
  0
LINE
  5
21D
100
AcDbEntity
  8
0
100
AcDbLine
 62
7
  6
CONTINUOUS
 10
69.0204285401
 20
301.3568642971
 11
69.0204285401
 21
285.3568642971
  0
LINE
  5
21E
100
AcDbEntity
  8
0
100
AcDbLine
 62
7
  6
CONTINUOUS
 10
70.4973159814
 20
198.357367974
 11
70.4973159814
 21
688.357367974
  0
LINE
  5
21F
100
AcDbEntity
  8
0
100
AcDbLine
 62
7
  6
CONTINUOUS
 10
70.9273159814
 20
195.2968642971
 11
70.9273159814
 21
198.357367974
  0
LINE
  5
220
100
AcDbEntity
  8
0
100
AcDbLine
 62
7
  6
CONTINUOUS
 10
70.9273159814
 20
688.357367974
 11
70.9273159814
 21
691.4168642971
  0
LINE
  5
221
100
AcDbEntity
  8
0
100
AcDbLine
 62
7
  6
CONTINUOUS
 10
71.3573159814
 20
686.8740214847
 11
71.3573159814
 21
199.8307167508
  0
LINE
  5
222
100
AcDbEntity
  8
0
100
AcDbLine
 62
7
  6
CONTINUOUS
 10
75.34819188
 20
243.347367974
 11
75.34819188
 21
643.357367974
  0
LINE
  5
223
100
AcDbEntity
  8
0
100
AcDbLine
 62
7
  6
CONTINUOUS
 10
69.0204285401
 20
601.3568642971
 11
69.0435410988
 21
606.3068642971
  0
LINE
  5
224
100
AcDbEntity
  8
0
100
AcDbLine
 62
7
  6
CONTINUOUS
 10
69.0204285401
 20
301.3568642971
 11
69.0435410988
 21
306.3068642971
  0
LINE
  5
225
100
AcDbEntity
  8
0
100
AcDbLine
 62
7
  6
CONTINUOUS
 10
68.9973159814
 20
193.3568642971
 11
568.9973159814
 21
193.3568642971
  0
LINE
  5
226
100
AcDbEntity
  8
0
100
AcDbLine
 62
7
  6
CONTINUOUS
 10
567.0673159814
 20
195.2968642971
 11
70.9273159814
 21
195.2968642971
  0
LINE
  5
227
100
AcDbEntity
  8
0
100
AcDbLine
 62
7
  6
CONTINUOUS
 10
567.4973159814
 20
198.357367974
 11
70.4973159814
 21
198.357367974
  0
LINE
  5
228
100
AcDbEntity
  8
0
100
AcDbLine
 62
7
  6
CONTINUOUS
 10
71.2834543532
 20
199.1371525814
 11
566.7111776095
 21
199.1371525814
  0
LINE
  5
229
100
AcDbEntity
  8
0
100
AcDbLine
 62
7
  6
CONTINUOUS
 10
566.1712913574
 20
202.9252484194
 11
71.8233406054
 21
202.9252484194
  0
LINE
  5
22A
100
AcDbEntity
  8
0
100
AcDbLine
 62
7
  6
CONTINUOUS
 10
126.2473159814
 20
644.3987460176
 11
126.2473159814
 21
643.357367974
  0
LINE
  5
22B
100
AcDbEntity
  8
0
100
AcDbLine
 62
7
  6
CONTINUOUS
 10
126.2473159814
 20
243.347367974
 11
126.2473159814
 21
242.3163617797
  0
LINE
  5
22C
100
AcDbEntity
  8
0
100
AcDbLine
 62
7
  6
CONTINUOUS
 10
126.2473159814
 20
242.3163617797
 11
511.7473159814
 21
242.3163617797
  0
LINE
  5
22D
100
AcDbEntity
  8
0
100
AcDbLine
 62
7
  6
CONTINUOUS
 10
562.6421164386
 20
243.347367974
 11
511.7473159814
 21
243.347367974
  0
LINE
  5
22E
100
AcDbEntity
  8
0
100
AcDbLine
 62
7
  6
CONTINUOUS
 10
126.2473159814
 20
243.347367974
 11
75.3525155251
 21
243.347367974
  0
LINE
  5
22F
100
AcDbEntity
  8
0
100
AcDbLine
 62
7
  6
CONTINUOUS
 10
69.0435410988
 20
280.4068642971
 11
70.4973159814
 21
280.4068642971
  0
LINE
  5
230
100
AcDbEntity
  8
0
100
AcDbLine
 62
7
  6
CONTINUOUS
 10
567.4973159814
 20
280.4068642971
 11
568.9510908639
 21
280.4068642971
  0
LINE
  5
231
100
AcDbEntity
  8
0
100
AcDbLine
 62
7
  6
CONTINUOUS
 10
568.9510908639
 20
306.3068642971
 11
567.4973159814
 21
306.3068642971
  0
LINE
  5
232
100
AcDbEntity
  8
0
100
AcDbLine
 62
7
  6
CONTINUOUS
 10
70.4973159814
 20
306.3068642971
 11
69.0435410988
 21
306.3068642971
  0
LINE
  5
233
100
AcDbEntity
  8
0
100
AcDbLine
 62
7
  6
CONTINUOUS
 10
564.0048450817
 20
688.357367974
 11
567.0673159814
 21
691.4168642971
  0
LINE
  5
234
100
AcDbEntity
  8
0
100
AcDbLine
 62
7
  6
CONTINUOUS
 10
73.9907952142
 20
198.357367974
 11
70.9273159814
 21
195.2968642971
  0
LINE
  5
235
100
AcDbEntity
  8
0
100
AcDbLine
 62
7
  6
CONTINUOUS
 10
71.2834543532
 20
199.1371525814
 11
70.4973159814
 21
198.357367974
  0
LINE
  5
236
100
AcDbEntity
  8
0
100
AcDbLine
 62
7
  6
CONTINUOUS
 10
567.4973159814
 20
198.357367974
 11
566.7111776095
 21
199.1371525814
  0
LINE
  5
237
100
AcDbEntity
  8
0
100
AcDbLine
 62
7
  6
CONTINUOUS
 10
567.0673159814
 20
195.2968642971
 11
564.0037700543
 21
198.357367974
  0
LINE
  5
238
100
AcDbEntity
  8
0
100
AcDbLine
 62
7
  6
CONTINUOUS
 10
70.9273159814
 20
691.4168642971
 11
73.9898535534
 21
688.357367974
  0
LINE
  5
239
100
AcDbEntity
  8
0
100
AcDbLine
 62
7
  6
CONTINUOUS
 10
70.4973159814
 20
688.357367974
 11
71.2835162027
 21
687.5675239919
  0
LINE
  5
23A
100
AcDbEntity
  8
0
100
AcDbLine
 62
7
  6
CONTINUOUS
 10
566.7111157601
 20
687.5675239919
 11
567.4973159814
 21
688.357367974
  0
LINE
  5
23B
100
AcDbEntity
  8
0
100
AcDbLine
 62
7
  6
CONTINUOUS
 10
69.0435410988
 20
580.4068642971
 11
70.4973159814
 21
580.4068642971
  0
LINE
  5
23C
100
AcDbEntity
  8
0
100
AcDbLine
 62
7
  6
CONTINUOUS
 10
567.4973159814
 20
580.4068642971
 11
568.9510908639
 21
580.4068642971
  0
LINE
  5
23D
100
AcDbEntity
  8
0
100
AcDbLine
 62
7
  6
CONTINUOUS
 10
568.9510908639
 20
606.3068642971
 11
567.4973159814
 21
606.3068642971
  0
LINE
  5
23E
100
AcDbEntity
  8
0
100
AcDbLine
 62
7
  6
CONTINUOUS
 10
70.4973159814
 20
606.3068642971
 11
69.0435410988
 21
606.3068642971
  0
LINE
  5
23F
100
AcDbEntity
  8
0
100
AcDbLine
 62
7
  6
CONTINUOUS
 10
511.7473159814
 20
644.3959414268
 11
511.7473159814
 21
643.357367974
  0
LINE
  5
240
100
AcDbEntity
  8
0
100
AcDbLine
 62
7
  6
CONTINUOUS
 10
511.7473159814
 20
242.3163617797
 11
511.7473159814
 21
243.347367974
  0
LINE
  5
241
100
AcDbEntity
  8
0
100
AcDbLine
 62
7
  6
CONTINUOUS
 10
562.646440087
 20
643.357367974
 11
511.7473159814
 21
643.357367974
  0
LINE
  5
242
100
AcDbEntity
  8
0
100
AcDbLine
 62
7
  6
CONTINUOUS
 10
126.2473159814
 20
643.357367974
 11
75.34819188
 21
643.357367974
  0
LINE
  5
243
100
AcDbEntity
  8
0
100
AcDbLine
 62
7
  6
CONTINUOUS
 10
511.7473159814
 20
644.3987460176
 11
126.2473159814
 21
644.3987460176
  0
LINE
  5
244
100
AcDbEntity
  8
0
100
AcDbLine
 62
7
  6
CONTINUOUS
 10
568.9510908639
 20
306.3068642971
 11
568.9742034227
 21
301.3568642971
  0
LINE
  5
245
100
AcDbEntity
  8
0
100
AcDbLine
 62
7
  6
CONTINUOUS
 10
568.9510908639
 20
606.3068642971
 11
568.9742034227
 21
601.3568642971
  0
LINE
  5
246
100
AcDbEntity
  8
0
100
AcDbLine
 62
7
  6
CONTINUOUS
 10
562.646440087
 20
643.357367974
 11
562.646440087
 21
243.347367974
  0
LINE
  5
247
100
AcDbEntity
  8
0
100
AcDbLine
 62
7
  6
CONTINUOUS
 10
566.6373159814
 20
199.8307167508
 11
566.6373159814
 21
686.8740214847
  0
LINE
  5
248
100
AcDbEntity
  8
0
100
AcDbLine
 62
7
  6
CONTINUOUS
 10
567.0673159814
 20
691.4168642971
 11
567.0673159814
 21
688.357367974
  0
LINE
  5
249
100
AcDbEntity
  8
0
100
AcDbLine
 62
7
  6
CONTINUOUS
 10
567.0673159814
 20
198.357367974
 11
567.0673159814
 21
195.2968642971
  0
LINE
  5
24A
100
AcDbEntity
  8
0
100
AcDbLine
 62
7
  6
CONTINUOUS
 10
567.4973159814
 20
688.357367974
 11
567.4973159814
 21
198.357367974
  0
LINE
  5
24B
100
AcDbEntity
  8
0
100
AcDbLine
 62
7
  6
CONTINUOUS
 10
568.9742034227
 20
285.3568642971
 11
568.9742034227
 21
301.3568642971
  0
LINE
  5
24C
100
AcDbEntity
  8
0
100
AcDbLine
 62
7
  6
CONTINUOUS
 10
568.9742034227
 20
585.3568642971
 11
568.9742034227
 21
601.3568642971
  0
LINE
  5
24D
100
AcDbEntity
  8
0
100
AcDbLine
 62
7
  6
CONTINUOUS
 10
568.9973159814
 20
193.3568642971
 11
568.9973159814
 21
280.4068642971
  0
LINE
  5
24E
100
AcDbEntity
  8
0
100
AcDbLine
 62
7
  6
CONTINUOUS
 10
568.9973159814
 20
306.3068642971
 11
568.9973159814
 21
580.4068642971
  0
LINE
  5
24F
100
AcDbEntity
  8
0
100
AcDbLine
 62
7
  6
CONTINUOUS
 10
568.9973159814
 20
606.3068642971
 11
568.9973159814
 21
693.3568642971
  0
LINE
  5
250
100
AcDbEntity
  8
0
100
AcDbLine
 62
7
  6
CONTINUOUS
 10
568.9742034227
 20
585.3568642971
 11
568.9510908639
 21
580.4068642971
  0
LINE
  5
251
100
AcDbEntity
  8
0
100
AcDbLine
 62
7
  6
CONTINUOUS
 10
568.9742034227
 20
285.3568642971
 11
568.9510908639
 21
280.4068642971
  0
LINE
  5
252
100
AcDbEntity
  8
0
100
AcDbLine
 62
7
  6
CONTINUOUS
 10
71.8233405392
 20
683.779489901
 11
566.1712914236
 21
683.779489901
  0
LINE
  5
253
100
AcDbEntity
  8
0
100
AcDbLine
 62
7
  6
CONTINUOUS
 10
566.7111157601
 20
687.5675239919
 11
71.2835162027
 21
687.5675239919
  0
LINE
  5
254
100
AcDbEntity
  8
0
100
AcDbLine
 62
7
  6
CONTINUOUS
 10
567.4973159814
 20
688.357367974
 11
70.4973159814
 21
688.357367974
  0
LINE
  5
255
100
AcDbEntity
  8
0
100
AcDbLine
 62
7
  6
CONTINUOUS
 10
70.9273159814
 20
691.4168642971
 11
567.0673159814
 21
691.4168642971
  0
LINE
  5
256
100
AcDbEntity
  8
0
100
AcDbLine
 62
7
  6
CONTINUOUS
 10
568.9973159814
 20
693.3568642971
 11
68.9973159814
 21
693.3568642971
  0
SPLINE
  5
257
100
AcDbEntity
  8
0
100
AcDbSpline
 62
7
  6
CONTINUOUS
 70
0
 71
3
 72
9
 73
5
 74
0
 42
0.0000001
 43
0.0000001
 44
0.0000000001
 40
0.0
 40
0.0
 40
0.0
 40
0.0
 40
0.4355791409
 40
1.0
 40
1.0
 40
1.0
 40
1.0
 10
71.3572441342
 20
686.8753485775
 30
0.0
 10
71.3802268488
 20
686.4212402832
 30
0.0
 10
71.6557121431
 20
685.4057508947
 30
0.0
 10
71.8068506099
 20
684.3684446262
 30
0.0
 10
71.8232843677
 20
683.779489901
 30
0.0
  0
SPLINE
  5
258
100
AcDbEntity
  8
0
100
AcDbSpline
 62
7
  6
CONTINUOUS
 70
0
 71
3
 72
11
 73
7
 74
0
 42
0.0000001
 43
0.0000001
 44
0.0000000001
 40
0.0
 40
0.0
 40
0.0
 40
0.0
 40
0.0893414764
 40
0.2876870125
 40
0.5932868925
 40
1.0
 40
1.0
 40
1.0
 40
1.0
 10
71.2835162027
 20
687.5675239919
 30
0.0
 10
71.2982067206
 20
687.5527653887
 30
0.0
 10
71.3054566986
 20
687.4795067229
 30
0.0
 10
71.3279581326
 20
687.3482123446
 30
0.0
 10
71.3419831417
 20
687.133475242
 30
0.0
 10
71.3524675213
 20
686.9686941857
 30
0.0
 10
71.3573159814
 20
686.8740214847
 30
0.0
  0
SPLINE
  5
259
100
AcDbEntity
  8
0
100
AcDbSpline
 62
7
  6
CONTINUOUS
 70
0
 71
3
 72
11
 73
7
 74
0
 42
0.0000001
 43
0.0000001
 44
0.0000000001
 40
0.0
 40
0.0
 40
0.0
 40
0.0
 40
0.4067131068
 40
0.7123129879
 40
0.9106585235
 40
1.0
 40
1.0
 40
1.0
 40
1.0
 10
566.6373159814
 20
686.8740214847
 30
0.0
 10
566.6421644415
 20
686.9686941855
 30
0.0
 10
566.6526488211
 20
687.1334752419
 30
0.0
 10
566.66667383
 20
687.3482123446
 30
0.0
 10
566.6891752642
 20
687.479506723
 30
0.0
 10
566.6964252422
 20
687.5527653886
 30
0.0
 10
566.7111157601
 20
687.5675239919
 30
0.0
  0
SPLINE
  5
25A
100
AcDbEntity
  8
0
100
AcDbSpline
 62
7
  6
CONTINUOUS
 70
0
 71
3
 72
9
 73
5
 74
0
 42
0.0000001
 43
0.0000001
 44
0.0000000001
 40
0.0
 40
0.0
 40
0.0
 40
0.0
 40
0.5644209475
 40
1.0
 40
1.0
 40
1.0
 40
1.0
 10
566.1713475951
 20
683.779489901
 30
0.0
 10
566.1877813556
 20
684.3684447221
 30
0.0
 10
566.338919822
 20
685.4057509975
 30
0.0
 10
566.6144051191
 20
686.4212403918
 30
0.0
 10
566.6373878296
 20
686.8753485967
 30
0.0
  0
SPLINE
  5
25B
100
AcDbEntity
  8
0
100
AcDbSpline
 62
7
  6
CONTINUOUS
 70
0
 71
3
 72
24
 73
20
 74
0
 42
0.0000001
 43
0.0000001
 44
0.0000000001
 40
0.0
 40
0.0
 40
0.0
 40
0.0
 40
0.1250823703
 40
0.2501647524
 40
0.3752471371
 40
0.500329477
 40
0.5628708799
 40
0.6254123164
 40
0.6879537781
 40
0.7504952286
 40
0.8130365129
 40
0.8443075194
 40
0.8755785292
 40
0.9068493903
 40
0.9381193074
 40
0.9537549764
 40
0.9693896508
 40
0.9850152167
 40
1.0
 40
1.0
 40
1.0
 40
1.0
 10
71.8233406054
 20
202.9252484194
 30
0.0
 10
71.8707783763
 20
204.6253280495
 30
0.0
 10
71.9742899753
 20
208.0252545017
 30
0.0
 10
72.1591583515
 20
213.1241618942
 30
0.0
 10
72.3790401737
 20
218.2216900217
 30
0.0
 10
72.5982123018
 20
222.4679698284
 30
0.0
 10
72.8020976954
 20
225.8633625408
 30
0.0
 10
72.9721067314
 20
228.4088355139
 30
0.0
 10
73.1630247811
 20
230.9528452142
 30
0.0
 10
73.380754342
 20
233.4947000203
 30
0.0
 10
73.5923519673
 20
235.6102384134
 30
0.0
 10
73.7890393518
 20
237.2995618195
 30
0.0
 10
73.9546748729
 20
238.5645748138
 30
0.0
 10
74.1450519179
 20
239.8252668064
 30
0.0
 10
74.3356821022
 20
240.8734147606
 30
0.0
 10
74.5207385104
 20
241.6992968997
 30
0.0
 10
74.6925200734
 20
242.3269284179
 30
0.0
 10
74.88844319
 20
242.8755206064
 30
0.0
 10
75.1488160703
 20
243.3429360937
 30
0.0
 10
75.3525155251
 20
243.347367974
 30
0.0
  0
SPLINE
  5
25C
100
AcDbEntity
  8
0
100
AcDbSpline
 62
7
  6
CONTINUOUS
 70
0
 71
3
 72
24
 73
20
 74
0
 42
0.0000001
 43
0.0000001
 44
0.0000000001
 40
0.0
 40
0.0
 40
0.0
 40
0.0
 40
0.1250823703
 40
0.2501647525
 40
0.3752471372
 40
0.500329477
 40
0.5628708799
 40
0.6254123165
 40
0.6879537782
 40
0.7504952286
 40
0.8130365129
 40
0.8443075194
 40
0.8755785293
 40
0.9068493904
 40
0.9381193074
 40
0.9537549764
 40
0.9693896509
 40
0.9850152167
 40
1.0
 40
1.0
 40
1.0
 40
1.0
 10
71.8233405392
 20
683.779489901
 30
0.0
 10
71.8707783088
 20
682.079410172
 30
0.0
 10
71.9742899058
 20
678.6794835217
 30
0.0
 10
72.1591582806
 20
673.580575832
 30
0.0
 10
72.3790401032
 20
668.4830474074
 30
0.0
 10
72.5982122333
 20
664.236767353
 30
0.0
 10
72.8020976297
 20
660.8413744426
 30
0.0
 10
72.9721066684
 20
658.2959013208
 30
0.0
 10
73.1630247217
 20
655.7518914719
 30
0.0
 10
73.3807542871
 20
653.2100365173
 30
0.0
 10
73.5923519171
 20
651.0944980003
 30
0.0
 10
73.7890393063
 20
649.4051744951
 30
0.0
 10
73.9546748316
 20
648.1401614265
 30
0.0
 10
74.1450518814
 20
646.8794693596
 30
0.0
 10
74.3356820706
 20
645.8313213432
 30
0.0
 10
74.5207384839
 20
645.0054391551
 30
0.0
 10
74.6925200512
 20
644.3778075981
 30
0.0
 10
74.8884431738
 20
643.8292153793
 30
0.0
 10
75.1488160587
 20
643.3617998545
 30
0.0
 10
75.3525155247
 20
643.357367974
 30
0.0
  0
SPLINE
  5
25D
100
AcDbEntity
  8
0
100
AcDbSpline
 62
7
  6
CONTINUOUS
 70
0
 71
3
 72
24
 73
20
 74
0
 42
0.0000001
 43
0.0000001
 44
0.0000000001
 40
0.0
 40
0.0
 40
0.0
 40
0.0
 40
0.1250823703
 40
0.2501647524
 40
0.3752471371
 40
0.500329477
 40
0.5628708799
 40
0.6254123164
 40
0.6879537781
 40
0.7504952286
 40
0.8130365129
 40
0.8443075194
 40
0.8755785293
 40
0.9068493903
 40
0.9381193074
 40
0.9537549764
 40
0.9693896508
 40
0.9850152167
 40
1.0
 40
1.0
 40
1.0
 40
1.0
 10
566.1712914236
 20
683.779489901
 30
0.0
 10
566.123853654
 20
682.079410172
 30
0.0
 10
566.020342057
 20
678.6794835219
 30
0.0
 10
565.8354736822
 20
673.5805758325
 30
0.0
 10
565.6155918596
 20
668.4830474082
 30
0.0
 10
565.3964197296
 20
664.236767354
 30
0.0
 10
565.1925343332
 20
660.8413744437
 30
0.0
 10
565.0225252945
 20
658.2959013221
 30
0.0
 10
564.8316072412
 20
655.7518914733
 30
0.0
 10
564.6138776759
 20
653.2100365188
 30
0.0
 10
564.4022800458
 20
651.0944980019
 30
0.0
 10
564.2055926567
 20
649.4051744968
 30
0.0
 10
564.0399571314
 20
648.1401614282
 30
0.0
 10
563.8495800817
 20
646.8794693614
 30
0.0
 10
563.6589498925
 20
645.8313213451
 30
0.0
 10
563.4738934794
 20
645.0054391568
 30
0.0
 10
563.3021119122
 20
644.3778076005
 30
0.0
 10
563.1061887896
 20
643.8292153786
 30
0.0
 10
562.8458159046
 20
643.3617998587
 30
0.0
 10
562.6421164381
 20
643.357367974
 30
0.0
  0
SPLINE
  5
25E
100
AcDbEntity
  8
0
100
AcDbSpline
 62
7
  6
CONTINUOUS
 70
0
 71
3
 72
9
 73
5
 74
0
 42
0.0000001
 43
0.0000001
 44
0.0000000001
 40
0.0
 40
0.0
 40
0.0
 40
0.0
 40
0.564420954
 40
1.0
 40
1.0
 40
1.0
 40
1.0
 10
71.8232844339
 20
202.9252484194
 30
0.0
 10
71.8068506712
 20
202.33629357
 30
0.0
 10
71.6557121813
 20
201.2989872582
 30
0.0
 10
71.3802268426
 20
200.2834978332
 30
0.0
 10
71.3572441293
 20
199.8293896185
 30
0.0
  0
SPLINE
  5
25F
100
AcDbEntity
  8
0
100
AcDbSpline
 62
7
  6
CONTINUOUS
 70
0
 71
3
 72
9
 73
5
 74
0
 42
0.0000001
 43
0.0000001
 44
0.0000000001
 40
0.0
 40
0.0
 40
0.0
 40
0.0
 40
0.4355791343
 40
1.0
 40
1.0
 40
1.0
 40
1.0
 10
566.6373878324
 20
199.8293896378
 30
0.0
 10
566.6144051151
 20
200.2834979418
 30
0.0
 10
566.3389197792
 20
201.298987361
 30
0.0
 10
566.1877812889
 20
202.3362936659
 30
0.0
 10
566.1713475289
 20
202.9252484194
 30
0.0
  0
SPLINE
  5
260
100
AcDbEntity
  8
0
100
AcDbSpline
 62
7
  6
CONTINUOUS
 70
0
 71
3
 72
11
 73
7
 74
0
 42
0.0000001
 43
0.0000001
 44
0.0000000001
 40
0.0
 40
0.0
 40
0.0
 40
0.0
 40
0.0891066105
 40
0.2873708492
 40
0.5930525249
 40
1.0
 40
1.0
 40
1.0
 40
1.0
 10
566.7111776095
 20
199.1371525814
 30
0.0
 10
566.6964305751
 20
199.1517804266
 30
0.0
 10
566.6892479188
 20
199.2251129778
 30
0.0
 10
566.6666688248
 20
199.3562442059
 30
0.0
 10
566.6526706544
 20
199.5711265859
 30
0.0
 10
566.6421677874
 20
199.7359787255
 30
0.0
 10
566.6373159814
 20
199.8307167508
 30
0.0
  0
SPLINE
  5
261
100
AcDbEntity
  8
0
100
AcDbSpline
 62
7
  6
CONTINUOUS
 70
0
 71
3
 72
11
 73
7
 74
0
 42
0.0000001
 43
0.0000001
 44
0.0000000001
 40
0.0
 40
0.0
 40
0.0
 40
0.0
 40
0.4069474744
 40
0.7126291512
 40
0.9108933894
 40
1.0
 40
1.0
 40
1.0
 40
1.0
 10
71.3573159814
 20
199.8307167508
 30
0.0
 10
71.3524641753
 20
199.7359787257
 30
0.0
 10
71.3419613083
 20
199.571126586
 30
0.0
 10
71.327963138
 20
199.3562442059
 30
0.0
 10
71.3053840439
 20
199.2251129778
 30
0.0
 10
71.2982013877
 20
199.1517804266
 30
0.0
 10
71.2834543532
 20
199.1371525814
 30
0.0
  0
SPLINE
  5
262
100
AcDbEntity
  8
0
100
AcDbSpline
 62
7
  6
CONTINUOUS
 70
0
 71
3
 72
24
 73
20
 74
0
 42
0.0000001
 43
0.0000001
 44
0.0000000001
 40
0.0
 40
0.0
 40
0.0
 40
0.0
 40
0.1250823703
 40
0.2501647525
 40
0.3752471372
 40
0.500329477
 40
0.5628708799
 40
0.6254123165
 40
0.6879537782
 40
0.7504952286
 40
0.8130365129
 40
0.8443075194
 40
0.8755785293
 40
0.9068493904
 40
0.9381193074
 40
0.9537549764
 40
0.9693896508
 40
0.9850152167
 40
1.0
 40
1.0
 40
1.0
 40
1.0
 10
566.1712913574
 20
202.9252484194
 30
0.0
 10
566.1238535865
 20
204.6253280495
 30
0.0
 10
566.0203419875
 20
208.0252545018
 30
0.0
 10
565.8354736112
 20
213.1241618945
 30
0.0
 10
565.615591789
 20
218.2216900222
 30
0.0
 10
565.3964196609
 20
222.467969829
 30
0.0
 10
565.1925342673
 20
225.8633625415
 30
0.0
 10
565.0225252313
 20
228.4088355147
 30
0.0
 10
564.8316071816
 20
230.9528452151
 30
0.0
 10
564.6138776207
 20
233.4947000213
 30
0.0
 10
564.4022799954
 20
235.6102384145
 30
0.0
 10
564.2055926109
 20
237.2995618206
 30
0.0
 10
564.0399570897
 20
238.564574815
 30
0.0
 10
563.8495800447
 20
239.8252668076
 30
0.0
 10
563.6589498604
 20
240.8734147617
 30
0.0
 10
563.4738934521
 20
241.699296901
 30
0.0
 10
563.3021118891
 20
242.3269284186
 30
0.0
 10
563.1061887724
 20
242.8755206088
 30
0.0
 10
562.8458158927
 20
243.3429360896
 30
0.0
 10
562.6421164386
 20
243.347367974
 30
0.0
  0
SPLINE
  5
263
100
AcDbEntity
  8
0
100
AcDbSpline
 62
7
  6
CONTINUOUS
 70
0
 71
3
 72
13
 73
9
 74
0
 42
0.0000001
 43
0.0000001
 44
0.0000000001
 40
0.0
 40
0.0
 40
0.0
 40
0.0
 40
0.028537557
 40
0.1049696325
 40
0.2173784956
 40
0.3534562378
 40
0.6648518498
 40
1.0
 40
1.0
 40
1.0
 40
1.0
 10
68.9963323052
 20
693.3568642971
 30
0.0
 10
69.0033341684
 20
693.3317855763
 30
0.0
 10
69.0952107575
 20
693.2774377205
 30
0.0
 10
69.2131229304
 20
693.1242323245
 30
0.0
 10
69.4323703154
 20
692.9196726981
 30
0.0
 10
69.7882288879
 20
692.5552207779
 30
0.0
 10
70.2949875237
 20
692.0509071441
 30
0.0
 10
70.708328048
 20
691.6302972591
 30
0.0
 10
70.9273132596
 20
691.4168642971
 30
0.0
  0
SPLINE
  5
264
100
AcDbEntity
  8
0
100
AcDbSpline
 62
7
  6
CONTINUOUS
 70
0
 71
3
 72
13
 73
9
 74
0
 42
0.0000001
 43
0.0000001
 44
0.0000000001
 40
0.0
 40
0.0
 40
0.0
 40
0.0
 40
0.028537557
 40
0.1049696325
 40
0.2173784956
 40
0.3534562378
 40
0.6648518498
 40
1.0
 40
1.0
 40
1.0
 40
1.0
 10
568.9982996575
 20
193.3568642971
 30
0.0
 10
568.9912977943
 20
193.381943018
 30
0.0
 10
568.8994212053
 20
193.4362908737
 30
0.0
 10
568.7815090324
 20
193.5894962698
 30
0.0
 10
568.5622616473
 20
193.7940558961
 30
0.0
 10
568.2064030748
 20
194.1585078163
 30
0.0
 10
567.6996444391
 20
194.6628214502
 30
0.0
 10
567.2863039148
 20
195.0834313351
 30
0.0
 10
567.0673187032
 20
195.2968642971
 30
0.0
  0
SPLINE
  5
265
100
AcDbEntity
  8
0
100
AcDbSpline
 62
7
  6
CONTINUOUS
 70
0
 71
3
 72
13
 73
9
 74
0
 42
0.0000001
 43
0.0000001
 44
0.0000000001
 40
0.0
 40
0.0
 40
0.0
 40
0.0
 40
0.3351590931
 40
0.6465635874
 40
0.7826276781
 40
0.8950355625
 40
0.9714660259
 40
1.0
 40
1.0
 40
1.0
 40
1.0
 10
70.9273132599
 20
195.2968642971
 30
0.0
 10
70.7083209842
 20
195.0834244501
 30
0.0
 10
70.2949459559
 20
194.6628238157
 30
0.0
 10
69.788210797
 20
194.1584792001
 30
0.0
 10
69.4323487391
 20
193.7940383596
 30
0.0
 10
69.2131137478
 20
193.5894875063
 30
0.0
 10
69.0952067129
 20
193.4362850233
 30
0.0
 10
69.0033348872
 20
193.3819398595
 30
0.0
 10
68.996333906
 20
193.3568642971
 30
0.0
  0
SPLINE
  5
266
100
AcDbEntity
  8
0
100
AcDbSpline
 62
7
  6
CONTINUOUS
 70
0
 71
3
 72
13
 73
9
 74
0
 42
0.0000001
 43
0.0000001
 44
0.0000000001
 40
0.0
 40
0.0
 40
0.0
 40
0.0
 40
0.3351590931
 40
0.6465635874
 40
0.7826276781
 40
0.8950355625
 40
0.9714660259
 40
1.0
 40
1.0
 40
1.0
 40
1.0
 10
567.0673187029
 20
691.4168642971
 30
0.0
 10
567.2863109786
 20
691.6303041441
 30
0.0
 10
567.6996860069
 20
692.0509047785
 30
0.0
 10
568.2064211658
 20
692.5552493942
 30
0.0
 10
568.5622832237
 20
692.9196902347
 30
0.0
 10
568.7815182149
 20
693.1242410879
 30
0.0
 10
568.8994252499
 20
693.277443571
 30
0.0
 10
568.9912970756
 20
693.3317887347
 30
0.0
 10
568.9982980568
 20
693.3568642971
 30
0.0
  0
ENDSEC
  0
SECTION
  2
OBJECTS
  0
DICTIONARY
  5
C
100
AcDbDictionary
280
0
281
1
  3
ACAD_GROUP
350
D
  3
ACAD_MLINESTYLE
350
17
  3
ACAD_LAYOUT
350
1A
  3
ACAD_PLOTSETTINGS
350
19
  3
ACAD_PLOTSTYLENAME
350
E
  0
DICTIONARY
  5
D
102
{ACAD_REACTORS
330
C
102
}
100
AcDbDictionary
280
0
281
1
  0
ACDBDICTIONARYWDFLT
  5
E
102
{ACAD_REACTORS
330
C
102
}
100
AcDbDictionary
281
1
  3
Normal
350
F
100
AcDbDictionaryWithDefault
340
F
  0
DICTIONARY
  5
17
102
{ACAD_REACTORS
330
C
102
}
100
AcDbDictionary
280
0
281
1
  3
Standard
350
18
  0
DICTIONARY
  5
19
102
{ACAD_REACTORS
330
C
102
}
100
AcDbDictionary
281
1
  0
DICTIONARY
  5
1A
102
{ACAD_REACTORS
330
C
102
}
100
AcDbDictionary
281
1
  3
Model
350
267
  3
Layout1
350
268
  0
ACDBPLACEHOLDER
  5
F
102
{ACAD_REACTORS
330
E
102
}
  0
MLINESTYLE
  5
18
102
{ACAD_REACTORS
330
17
102
}
100
AcDbMlineStyle
  2
STANDARD
 70
0
  3

 62
256
 51
90.0
 52
90.0
 71
2
 49
0.5
 62
256
  6
BYLAYER
 49
-0.5
 62
256
  6
BYLAYER
  0
LAYOUT
  5
267
102
{ACAD_REACTORS
330
1A
102
}
100
AcDbPlotSettings
  1

  2
none_device
  4

  6

 40
0.0
 41
0.0
 42
0.0
 43
0.0
 44
210.0
 45
297.0
 46
0.0
 47
0.0
 48
0.0
 49
0.0
140
0.0
141
0.0
142
1.0
143
1.0
 70
1024
 72
1
 73
0
 74
0
  7

 75
0
147
1.0
148
0.0
149
0.0
100
AcDbLayout
  1
Model
 70
0
 71
0
 10
0.0
 20
0.0
 11
210.0
 21
297.0
 12
0.0
 22
0.0
 32
0.0
 14
0.0
 24
0.0
 34
0.0
 15
0.0
 25
0.0
 35
0.0
146
0.0
 13
0.0
 23
0.0
 33
0.0
 16
1.0
 26
0.0
 36
0.0
 17
0.0
 27
1.0
 37
0.0
 76
0
330
210
345
0
346
0
  0
LAYOUT
  5
268
102
{ACAD_REACTORS
330
1A
102
}
100
AcDbPlotSettings
  1

  2
none_device
  4

  6

 40
0.0
 41
0.0
 42
0.0
 43
0.0
 44
210.0
 45
297.0
 46
0.0
 47
0.0
 48
0.0
 49
0.0
140
0.0
141
0.0
142
1.0
143
1.0
 70
0
 72
1
 73
0
 74
0
  7

 75
0
147
1.0
148
0.0
149
0.0
100
AcDbLayout
  1
Layout1
 70
0
 71
1
 10
0.0
 20
0.0
 11
210.0
 21
297.0
 12
0.0
 22
0.0
 32
0.0
 14
0.0
 24
0.0
 34
0.0
 15
0.0
 25
0.0
 35
0.0
146
0.0
 13
0.0
 23
0.0
 33
0.0
 16
1.0
 26
0.0
 36
0.0
 17
0.0
 27
1.0
 37
0.0
 76
0
330
211
345
0
346
0
  0
ENDSEC
  0
EOF
