999
DXF file: C:\Users\sesa63760\Dev\_Creo\CAD\MCADID0005649_3D-CAD\mcadid0005649_3d-simplified_2.dxf
999
Pro/ENGINEER 2019471 by Parametric Technology Corporation
  0
SECTION
  2
HEADER
  9
$ACADVER
  1
AC1024
  9
$DWGCODEPAGE
  3
ANSI_1252
  9
$EXTMAX
 10
72.8030052009
 20
102.9642502128
 30
0.0
  9
$EXTMIN
 10
0.0
 20
0.0
 30
0.0
  9
$LIMMIN
 10
0.0
 20
0.0
  9
$LIMMAX
 10
72.8030052009
 20
102.9642502128
  9
$VIEWCTR
 10
36.4015026005
 20
51.4821251064
  9
$VIEWSIZE
 40
102.9642502128
  9
$CLAYER
  8
0
  9
$LTSCALE
 40
6.7117437176
  9
$CELTYPE
  6
BYLAYER
  9
$DIMSCALE
 40
1.0
  9
$DIMASZ
 40
0.8667024429
  9
$DIMEXO
 40
1.0
  9
$DIMDLI
 40
4.6372047503
  9
$DIMEXE
 40
1.0
  9
$DIMCEN
 40
1.0982853356
  9
$DIMLFAC
 40
1.0
  9
$DIMBLK
  1
_FILLED
  9
$DIMALT
 70
0
  9
$DIMALTF
 40
0.0393700787
  9
$DIMTXT
 40
1.21338342
  9
$DIMTOL
 70
1
  9
$DIMLIM
 70
0
  9
$DIMTFAC
 40
1.0
  9
$DIMTP
 40
0.01
  9
$DIMTM
 40
0.01
  9
$DIMGAP
 40
0.625
  9
$DIMDSEP
 70
46
  9
$AUNITS
 70
0
  9
$PDMODE
 70
3
  9
$PDSIZE
 40
0.3125
  9
$HANDSEED
  5
502
  9
$TILEMODE
 70
1
  9
$MEASUREMENT
 70
1
  9
$INSUNITS
 70
4
  0
ENDSEC
  0
SECTION
  2
CLASSES
  0
CLASS
  1
ACDBDICTIONARYWDFLT
  2
AcDbDictionaryWithDefault
  3
AutoCAD 2000
 90
0
 91
1
280
0
281
0
  0
CLASS
  1
ACDBPLACEHOLDER
  2
AcDbPlaceHolder
  3
AutoCAD 2000
 90
0
 91
1
280
0
281
0
  0
CLASS
  1
LAYOUT
  2
AcDbLayout
  3
AutoCAD 2000
 90
0
 91
0
280
0
281
0
  0
ENDSEC
  0
SECTION
  2
TABLES
  0
TABLE
  2
VPORT
  5
8
100
AcDbSymbolTable
 70
2
  0
VPORT
  5
1F4
100
AcDbSymbolTableRecord
100
AcDbViewportTableRecord
  2
*ACTIVE
 70
0
 10
0.0
 20
0.0
 11
1.0
 21
1.0
 12
36.4015026005
 22
51.4821251064
 13
0.0
 23
0.0
 14
1.0
 24
1.0
 15
0.0
 25
0.0
 16
0.0
 26
0.0
 36
1.0
 17
0.0
 27
0.0
 37
0.0
 40
102.9642502128
 41
0.7070707071
 42
50.0
 43
0.0
 44
0.0
 50
0.0
 51
0.0
 71
0
 72
100
 73
1
 74
1
 75
0
 76
0
 77
0
 78
0
  0
ENDTAB
  0
TABLE
  2
LTYPE
  5
5
100
AcDbSymbolTable
 70
6
  0
LTYPE
  5
14
100
AcDbSymbolTableRecord
100
AcDbLinetypeTableRecord
  2
BYBLOCK
 70
0
  3

 72
65
 73
0
 40
0.0
  0
LTYPE
  5
15
100
AcDbSymbolTableRecord
100
AcDbLinetypeTableRecord
  2
BYLAYER
 70
0
  3

 72
65
 73
0
 40
0.0
  0
LTYPE
  5
16
100
AcDbSymbolTableRecord
100
AcDbLinetypeTableRecord
  2
CONTINUOUS
 70
64
  3
Solid line
 72
65
 73
0
 40
0.0
  0
LTYPE
  5
1F5
100
AcDbSymbolTableRecord
100
AcDbLinetypeTableRecord
  2
CENTER
 70
64
  3
____ _ ____ _ ____ _ ____ _ ____ _ ____ _ ____
 72
65
 73
4
 40
0.6
 49
0.375
 74
0
 49
-0.075
 74
0
 49
0.075
 74
0
 49
-0.075
 74
0
  0
LTYPE
  5
1F6
100
AcDbSymbolTableRecord
100
AcDbLinetypeTableRecord
  2
HIDDEN
 70
64
  3
- - - - - - - - - - - - - - - - - - - -
 72
65
 73
2
 40
0.2
 49
0.1
 74
0
 49
-0.1
 74
0
  0
LTYPE
  5
1F7
100
AcDbSymbolTableRecord
100
AcDbLinetypeTableRecord
  2
PHANTOM
 70
64
  3
_____ _ _ _____ _ _ _____ _ _ _____
 72
65
 73
6
 40
0.8
 49
0.45
 74
0
 49
-0.05
 74
0
 49
0.1
 74
0
 49
-0.05
 74
0
 49
0.1
 74
0
 49
-0.05
 74
0
  0
LTYPE
  5
1F8
100
AcDbSymbolTableRecord
100
AcDbLinetypeTableRecord
  2
DOT
 70
64
  3
. . . . . . . . . . . . . . . . . . . .
 72
65
 73
2
 40
0.2
 49
0.1
 74
0
 49
-0.1
 74
0
  0
LTYPE
  5
1F9
100
AcDbSymbolTableRecord
100
AcDbLinetypeTableRecord
  2
DASHED
 70
64
  3
- - - - - - - - - - - - - - - - - - - -
 72
65
 73
2
 40
0.2
 49
0.1
 74
0
 49
-0.1
 74
0
  0
ENDTAB
  0
TABLE
  2
LAYER
  5
2
100
AcDbSymbolTable
 70
36
  0
LAYER
  5
10
100
AcDbSymbolTableRecord
100
AcDbLayerTableRecord
  2
0
 70
0
 62
7
  6
CONTINUOUS
370
-3
390
F
  0
LAYER
  5
1FA
100
AcDbSymbolTableRecord
100
AcDbLayerTableRecord
  2
DEFAULT_1
 70
0
 62
7
  6
CENTER
370
-3
390
F
  0
LAYER
  5
1FB
100
AcDbSymbolTableRecord
100
AcDbLayerTableRecord
  2
DEFAULT_2
 70
0
 62
7
  6
HIDDEN
370
-3
390
F
  0
LAYER
  5
1FC
100
AcDbSymbolTableRecord
100
AcDbLayerTableRecord
  2
DEFAULT_3
 70
0
 62
7
  6
PHANTOM
370
-3
390
F
  0
LAYER
  5
1FD
100
AcDbSymbolTableRecord
100
AcDbLayerTableRecord
  2
00_COMPONENTS
 70
0
 62
7
  6
CONTINUOUS
370
-3
390
F
  0
LAYER
  5
1FE
100
AcDbSymbolTableRecord
100
AcDbLayerTableRecord
  2
00_COMPONENTS_1
 70
0
 62
7
  6
CONTINUOUS
370
-3
390
F
  0
LAYER
  5
1FF
100
AcDbSymbolTableRecord
100
AcDbLayerTableRecord
  2
00_COMPONENTS_2
 70
0
 62
7
  6
CONTINUOUS
370
-3
390
F
  0
LAYER
  5
200
100
AcDbSymbolTableRecord
100
AcDbLayerTableRecord
  2
00_COMPONENTS_3
 70
0
 62
7
  6
CONTINUOUS
370
-3
390
F
  0
LAYER
  5
201
100
AcDbSymbolTableRecord
100
AcDbLayerTableRecord
  2
00_COMPONENTS_4
 70
0
 62
7
  6
CONTINUOUS
370
-3
390
F
  0
LAYER
  5
202
100
AcDbSymbolTableRecord
100
AcDbLayerTableRecord
  2
00_COMPONENTS_5
 70
0
 62
7
  6
CONTINUOUS
370
-3
390
F
  0
LAYER
  5
203
100
AcDbSymbolTableRecord
100
AcDbLayerTableRecord
  2
00_COMPONENTS_6
 70
0
 62
7
  6
CONTINUOUS
370
-3
390
F
  0
LAYER
  5
204
100
AcDbSymbolTableRecord
100
AcDbLayerTableRecord
  2
00_COMPONENTS_7
 70
0
 62
7
  6
CONTINUOUS
370
-3
390
F
  0
LAYER
  5
205
100
AcDbSymbolTableRecord
100
AcDbLayerTableRecord
  2
01_1_DEFAULT_DATUMS
 70
0
 62
7
  6
CONTINUOUS
370
-3
390
F
  0
LAYER
  5
206
100
AcDbSymbolTableRecord
100
AcDbLayerTableRecord
  2
01_PLANES
 70
0
 62
7
  6
CONTINUOUS
370
-3
390
F
  0
LAYER
  5
207
100
AcDbSymbolTableRecord
100
AcDbLayerTableRecord
  2
02_COORD_SYS
 70
0
 62
7
  6
CONTINUOUS
370
-3
390
F
  0
LAYER
  5
208
100
AcDbSymbolTableRecord
100
AcDbLayerTableRecord
  2
03_AXES
 70
0
 62
7
  6
CONTINUOUS
370
-3
390
F
  0
LAYER
  5
209
100
AcDbSymbolTableRecord
100
AcDbLayerTableRecord
  2
03_AXES_4
 70
0
 62
7
  6
CONTINUOUS
370
-3
390
F
  0
LAYER
  5
20A
100
AcDbSymbolTableRecord
100
AcDbLayerTableRecord
  2
03_AXES_7
 70
0
 62
7
  6
CONTINUOUS
370
-3
390
F
  0
LAYER
  5
20B
100
AcDbSymbolTableRecord
100
AcDbLayerTableRecord
  2
04_POINTS
 70
0
 62
7
  6
CONTINUOUS
370
-3
390
F
  0
LAYER
  5
20C
100
AcDbSymbolTableRecord
100
AcDbLayerTableRecord
  2
05_CURVES
 70
0
 62
7
  6
CONTINUOUS
370
-3
390
F
  0
LAYER
  5
20D
100
AcDbSymbolTableRecord
100
AcDbLayerTableRecord
  2
06_SURFS
 70
0
 62
7
  6
CONTINUOUS
370
-3
390
F
  0
LAYER
  5
20E
100
AcDbSymbolTableRecord
100
AcDbLayerTableRecord
  2
07_COSMETICS
 70
0
 62
7
  6
CONTINUOUS
370
-3
390
F
  0
LAYER
  5
20F
100
AcDbSymbolTableRecord
100
AcDbLayerTableRecord
  2
10_NOTES
 70
0
 62
7
  6
CONTINUOUS
370
-3
390
F
  0
LAYER
  5
210
100
AcDbSymbolTableRecord
100
AcDbLayerTableRecord
  2
11_NOTES_PUB
 70
0
 62
7
  6
CONTINUOUS
370
-3
390
F
  0
LAYER
  5
211
100
AcDbSymbolTableRecord
100
AcDbLayerTableRecord
  2
13_REF_GTOL
 70
0
 62
7
  6
CONTINUOUS
370
-3
390
F
  0
LAYER
  5
212
100
AcDbSymbolTableRecord
100
AcDbLayerTableRecord
  2
13_REF_GTOL_6
 70
0
 62
7
  6
CONTINUOUS
370
-3
390
F
  0
LAYER
  5
213
100
AcDbSymbolTableRecord
100
AcDbLayerTableRecord
  2
16_MISC
 70
0
 62
7
  6
CONTINUOUS
370
-3
390
F
  0
LAYER
  5
214
100
AcDbSymbolTableRecord
100
AcDbLayerTableRecord
  2
17_NO_PRINT
 70
0
 62
7
  6
CONTINUOUS
370
-3
390
F
  0
LAYER
  5
215
100
AcDbSymbolTableRecord
100
AcDbLayerTableRecord
  2
18_DATUM_CAMS_JOINTS
 70
0
 62
7
  6
CONTINUOUS
370
-3
390
F
  0
LAYER
  5
216
100
AcDbSymbolTableRecord
100
AcDbLayerTableRecord
  2
19_DATUM_FUNCTIONAL
 70
0
 62
7
  6
CONTINUOUS
370
-3
390
F
  0
LAYER
  5
217
100
AcDbSymbolTableRecord
100
AcDbLayerTableRecord
  2
20_DATUM_KINEMATIC_SCHEME
 70
0
 62
7
  6
CONTINUOUS
370
-3
390
F
  0
LAYER
  5
218
100
AcDbSymbolTableRecord
100
AcDbLayerTableRecord
  2
INTFCLR_115408
 70
0
 62
7
  6
CONTINUOUS
370
-3
390
F
  0
LAYER
  5
219
100
AcDbSymbolTableRecord
100
AcDbLayerTableRecord
  2
INTF_BLANK
 70
0
 62
7
  6
CONTINUOUS
370
-3
390
F
  0
LAYER
  5
21A
100
AcDbSymbolTableRecord
100
AcDbLayerTableRecord
  2
SHELL1
 70
0
 62
7
  6
CONTINUOUS
370
-3
390
F
  0
LAYER
  5
21B
100
AcDbSymbolTableRecord
100
AcDbLayerTableRecord
  2
SHELL2
 70
0
 62
7
  6
CONTINUOUS
370
-3
390
F
  0
LAYER
  5
21C
100
AcDbSymbolTableRecord
100
AcDbLayerTableRecord
  2
SHELL980
 70
0
 62
7
  6
CONTINUOUS
370
-3
390
F
  0
LAYER
  5
21D
100
AcDbSymbolTableRecord
100
AcDbLayerTableRecord
  2
_BLACK_HOLE
 70
0
 62
7
  6
CONTINUOUS
370
-3
390
F
  0
LAYER
  5
21E
100
AcDbSymbolTableRecord
100
AcDbLayerTableRecord
  2
black
 70
0
 62
7
  6
CONTINUOUS
370
-3
390
F
  0
ENDTAB
  0
TABLE
  2
STYLE
  5
3
100
AcDbSymbolTable
 70
1
  0
STYLE
  5
11
100
AcDbSymbolTableRecord
100
AcDbTextStyleTableRecord
  2
STANDARD
 70
0
 40
0.0
 41
1.0
 50
0.0
 71
0
 42
0.2
  3
ARIAL.TTF
  4

  0
STYLE
  5
21F
100
AcDbSymbolTableRecord
100
AcDbTextStyleTableRecord
  2
TEXTSTYLE_1
 70
0
 40
0.0
 41
0.8
 50
0.0
 71
0
 42
0.2
  3
gdt
  4

  0
ENDTAB
  0
TABLE
  2
VIEW
  5
6
100
AcDbSymbolTable
 70
0
  0
ENDTAB
  0
TABLE
  2
UCS
  5
7
100
AcDbSymbolTable
 70
0
  0
ENDTAB
  0
TABLE
  2
APPID
  5
9
100
AcDbSymbolTable
 70
1
  0
APPID
  5
220
100
AcDbSymbolTableRecord
100
AcDbRegAppTableRecord
  2
ACAD
 70
0
  0
ENDTAB
  0
TABLE
  2
BLOCK_RECORD
  5
1
100
AcDbSymbolTable
 70
0
  0
BLOCK_RECORD
  5
221
100
AcDbSymbolTableRecord
100
AcDbBlockTableRecord
  2
*Model_Space
  0
BLOCK_RECORD
  5
222
100
AcDbSymbolTableRecord
100
AcDbBlockTableRecord
  2
*Paper_Space
  0
BLOCK_RECORD
  5
223
100
AcDbSymbolTableRecord
100
AcDbBlockTableRecord
  2
_FILLED
  0
ENDTAB
  0
TABLE
  2
DIMSTYLE
  5
A
100
AcDbSymbolTable
 70
1
100
AcDbDimStyleTable
 71
0
  0
DIMSTYLE
105
224
100
AcDbSymbolTableRecord
100
AcDbDimStyleTableRecord
  2
STANDARD
 70
0
  3

  4

 40
1.0
 41
0.8667024429
 42
1.0
 43
0.38
 44
1.0
 45
0.0
 46
0.0
 47
0.01
 48
0.01
140
1.21338342
141
0.09
142
0.0
143
25.4
144
1.0
145
0.0
146
1.0
147
0.625
 71
1
 72
0
 73
0
 74
0
 75
0
 76
0
 77
1
 78
8
 79
2
170
0
171
1
172
0
173
0
174
0
175
0
176
0
177
0
178
0
270
2
179
2
271
2
272
2
273
2
274
2
275
0
280
0
281
0
282
0
283
1
284
8
285
0
286
0
287
3
288
0
340
11
278
46
341
223
342
223
343
223
344
223
  0
ENDTAB
  0
ENDSEC
  0
SECTION
  2
BLOCKS
  0
BLOCK
  5
20
100
AcDbEntity
  8
0
100
AcDbBlockBegin
  2
*Model_Space
 70
0
 10
0.0
 20
0.0
 30
0.0
  3
*Model_Space
  1

  0
ENDBLK
  5
21
100
AcDbEntity
  8
0
100
AcDbBlockEnd
  0
BLOCK
  5
1C
100
AcDbEntity
  8
0
100
AcDbBlockBegin
  2
*Paper_Space
 70
0
 10
0.0
 20
0.0
 30
0.0
  3
*Paper_Space
  1

  0
ENDBLK
  5
1D
100
AcDbEntity
  8
0
100
AcDbBlockEnd
  0
BLOCK
  5
225
100
AcDbEntity
  8
0
100
AcDbBlockBegin
  2
_FILLED
 70
64
 10
0.0
 20
0.0
  3
_FILLED
  1

  0
SOLID
  5
226
100
AcDbEntity
  8
0
  6
BYBLOCK
 62
0
100
AcDbTrace
 10
0.0
 20
0.0
 11
-1.0
 21
0.25
 12
-1.0
 22
-0.25
 13
-1.0
 23
-0.25
  0
ENDBLK
  5
227
100
AcDbEntity
  8
0
  6
BYBLOCK
 62
0
100
AcDbBlockEnd
  0
ENDSEC
  0
SECTION
  2
ENTITIES
  0
LINE
  5
228
100
AcDbEntity
  8
00_COMPONENTS_2
100
AcDbLine
 62
7
  6
BYLAYER
 10
40.6444946959
 20
6.8684842553
 11
33.1667283774
 21
6.8684842553
  0
LINE
  5
229
100
AcDbEntity
  8
00_COMPONENTS_2
100
AcDbLine
 62
7
  6
BYLAYER
 10
32.9114615366
 20
7.1224842553
 11
40.8997615366
 21
7.1224842553
  0
LINE
  5
22A
100
AcDbEntity
  8
00_COMPONENTS_2
100
AcDbLine
 62
7
  6
BYLAYER
 10
34.3491673604
 20
8.6464842553
 11
39.4076455304
 21
8.6464842553
  0
LINE
  5
22B
100
AcDbEntity
  8
0
100
AcDbLine
 62
7
  6
BYLAYER
 10
19.4904115366
 20
78.5760068005
 11
16.7763759362
 21
77.1790068005
  0
LINE
  5
22C
100
AcDbEntity
  8
00_COMPONENTS_2
100
AcDbLine
 62
7
  6
BYLAYER
 10
31.7124789653
 20
19.1123099688
 11
31.9654375961
 21
19.1353920689
  0
LINE
  5
22D
100
AcDbEntity
  8
00_COMPONENTS_2
100
AcDbLine
 62
7
  6
BYLAYER
 10
31.6764131839
 20
19.4729677823
 11
31.9293718147
 21
19.4960498824
  0
LINE
  5
22E
100
AcDbEntity
  8
00_COMPONENTS_2
100
AcDbLine
 62
7
  6
BYLAYER
 10
31.6403474026
 20
19.8336255959
 11
31.8933060334
 21
19.8567076959
  0
LINE
  5
22F
100
AcDbEntity
  8
00_COMPONENTS_2
100
AcDbLine
 62
7
  6
BYLAYER
 10
31.6042816212
 20
20.1942834094
 11
31.857240252
 21
20.2173655095
  0
LINE
  5
230
100
AcDbEntity
  8
00_COMPONENTS_2
100
AcDbLine
 62
7
  6
BYLAYER
 10
42.103360528
 20
19.1584741689
 11
41.8457854772
 21
19.1353920689
  0
LINE
  5
231
100
AcDbEntity
  8
00_COMPONENTS_2
100
AcDbLine
 62
7
  6
BYLAYER
 10
42.1394263094
 20
19.5191319825
 11
41.8818512586
 21
19.4960498824
  0
LINE
  5
232
100
AcDbEntity
  8
00_COMPONENTS_2
100
AcDbLine
 62
7
  6
BYLAYER
 10
42.1754920907
 20
19.879789796
 11
41.9179170399
 21
19.8567076959
  0
LINE
  5
233
100
AcDbEntity
  8
00_COMPONENTS_2
100
AcDbLine
 62
7
  6
BYLAYER
 10
42.2115578721
 20
20.2404476095
 11
41.9539828213
 21
20.2173655095
  0
LINE
  5
234
100
AcDbEntity
  8
00_COMPONENTS_2
100
AcDbLine
 62
7
  6
BYLAYER
 10
31.7462365366
 20
18.7747342553
 11
33.3184853233
 21
18.7747342553
  0
LINE
  5
235
100
AcDbEntity
  8
00_COMPONENTS_2
100
AcDbLine
 62
7
  6
BYLAYER
 10
40.4026197256
 20
18.7747342553
 11
42.0649865366
 21
18.7747342553
  0
LINE
  5
236
100
AcDbEntity
  8
00_COMPONENTS_2
100
AcDbLine
 62
7
  6
BYLAYER
 10
31.9654375961
 20
19.1353920689
 11
31.7078625453
 21
19.1584741689
  0
LINE
  5
237
100
AcDbEntity
  8
00_COMPONENTS_2
100
AcDbLine
 62
7
  6
BYLAYER
 10
31.9293718147
 20
19.4960498824
 11
31.6717967639
 21
19.5191319825
  0
LINE
  5
238
100
AcDbEntity
  8
00_COMPONENTS_2
100
AcDbLine
 62
7
  6
BYLAYER
 10
31.8933060334
 20
19.8567076959
 11
31.6357309826
 21
19.879789796
  0
LINE
  5
239
100
AcDbEntity
  8
00_COMPONENTS_2
100
AcDbLine
 62
7
  6
BYLAYER
 10
31.857240252
 20
20.2173655095
 11
31.5996652012
 21
20.2404476095
  0
LINE
  5
23A
100
AcDbEntity
  8
00_COMPONENTS_2
100
AcDbLine
 62
7
  6
BYLAYER
 10
41.8457854772
 20
19.1353920689
 11
42.098744108
 21
19.1123099688
  0
LINE
  5
23B
100
AcDbEntity
  8
00_COMPONENTS_2
100
AcDbLine
 62
7
  6
BYLAYER
 10
41.8818512586
 20
19.4960498824
 11
42.1348098893
 21
19.4729677823
  0
LINE
  5
23C
100
AcDbEntity
  8
00_COMPONENTS_2
100
AcDbLine
 62
7
  6
BYLAYER
 10
41.9179170399
 20
19.8567076959
 11
42.1708756707
 21
19.8336255959
  0
LINE
  5
23D
100
AcDbEntity
  8
00_COMPONENTS_2
100
AcDbLine
 62
7
  6
BYLAYER
 10
41.9539828213
 20
20.2173655095
 11
42.2069414521
 21
20.1942834094
  0
LINE
  5
23E
100
AcDbEntity
  8
00_COMPONENTS_3
100
AcDbLine
 62
7
  6
BYLAYER
 10
23.672270056
 20
22.7434842553
 11
50.1388975666
 21
22.7434842553
  0
LINE
  5
23F
100
AcDbEntity
  8
00_COMPONENTS_3
100
AcDbLine
 62
7
  6
BYLAYER
 10
22.8963438497
 20
23.5308842553
 11
22.9001007603
 21
23.5308842553
  0
LINE
  5
240
100
AcDbEntity
  8
00_COMPONENTS_3
100
AcDbLine
 62
7
  6
BYLAYER
 10
22.9992059252
 20
23.5308842553
 11
23.0104480647
 21
23.5308842553
  0
LINE
  5
241
100
AcDbEntity
  8
00_COMPONENTS_3
100
AcDbLine
 62
7
  6
BYLAYER
 10
23.2079041443
 20
23.5308842553
 11
23.2265459533
 21
23.5308842553
  0
LINE
  5
242
100
AcDbEntity
  8
00_COMPONENTS_3
100
AcDbLine
 62
7
  6
BYLAYER
 10
23.5208501875
 20
23.5308842553
 11
23.5467497906
 21
23.5308842553
  0
LINE
  5
243
100
AcDbEntity
  8
00_COMPONENTS_3
100
AcDbLine
 62
7
  6
BYLAYER
 10
23.9356623466
 20
23.5308842553
 11
23.968622632
 21
23.5308842553
  0
LINE
  5
244
100
AcDbEntity
  8
00_COMPONENTS_3
100
AcDbLine
 62
7
  6
BYLAYER
 10
24.4491836505
 20
23.5308842553
 11
24.4889537707
 21
23.5308842553
  0
LINE
  5
245
100
AcDbEntity
  8
00_COMPONENTS_3
100
AcDbLine
 62
7
  6
BYLAYER
 10
25.057505892
 20
23.5308842553
 11
25.1037831723
 21
23.5308842553
  0
LINE
  5
246
100
AcDbEntity
  8
00_COMPONENTS_3
100
AcDbLine
 62
7
  6
BYLAYER
 10
25.7559993715
 20
23.5308842553
 11
25.8084316138
 21
23.5308842553
  0
LINE
  5
247
100
AcDbEntity
  8
00_COMPONENTS_3
100
AcDbLine
 62
7
  6
BYLAYER
 10
26.5393481319
 20
23.5308842553
 11
26.5975362953
 21
23.5308842553
  0
LINE
  5
248
100
AcDbEntity
  8
00_COMPONENTS_3
100
AcDbLine
 62
7
  6
BYLAYER
 10
27.4015904161
 20
23.5308842553
 11
27.4650916535
 21
23.5308842553
  0
LINE
  5
249
100
AcDbEntity
  8
00_COMPONENTS_3
100
AcDbLine
 62
7
  6
BYLAYER
 10
28.3361640398
 20
23.5308842553
 11
28.4044950684
 21
23.5308842553
  0
LINE
  5
24A
100
AcDbEntity
  8
00_COMPONENTS_3
100
AcDbLine
 62
7
  6
BYLAYER
 10
29.3359563333
 20
23.5308842553
 11
29.4085971127
 21
23.5308842553
  0
LINE
  5
24B
100
AcDbEntity
  8
00_COMPONENTS_3
100
AcDbLine
 62
7
  6
BYLAYER
 10
30.3933582736
 20
23.5308842553
 11
30.4697559636
 21
23.5308842553
  0
LINE
  5
24C
100
AcDbEntity
  8
00_COMPONENTS_3
100
AcDbLine
 62
7
  6
BYLAYER
 10
31.5003223934
 20
23.5308842553
 11
31.5798955615
 21
23.5308842553
  0
LINE
  5
24D
100
AcDbEntity
  8
00_COMPONENTS_3
100
AcDbLine
 62
7
  6
BYLAYER
 10
32.6484240274
 20
23.5308842553
 11
32.7305670738
 21
23.5308842553
  0
LINE
  5
24E
100
AcDbEntity
  8
00_COMPONENTS_3
100
AcDbLine
 62
7
  6
BYLAYER
 10
33.8289254289
 20
23.5308842553
 11
33.9130131953
 21
23.5308842553
  0
LINE
  5
24F
100
AcDbEntity
  8
00_COMPONENTS_3
100
AcDbLine
 62
7
  6
BYLAYER
 10
35.0328422694
 20
23.5308842553
 11
35.1182347972
 21
23.5308842553
  0
LINE
  5
250
100
AcDbEntity
  8
00_COMPONENTS_3
100
AcDbLine
 62
7
  6
BYLAYER
 10
36.2510120149
 20
23.5308842553
 11
36.3370594154
 21
23.5308842553
  0
LINE
  5
251
100
AcDbEntity
  8
00_COMPONENTS_3
100
AcDbLine
 62
7
  6
BYLAYER
 10
37.4741636579
 20
23.5308842553
 11
37.5602110584
 21
23.5308842553
  0
LINE
  5
252
100
AcDbEntity
  8
00_COMPONENTS_3
100
AcDbLine
 62
7
  6
BYLAYER
 10
38.6929882761
 20
23.5308842553
 11
38.7783808039
 21
23.5308842553
  0
LINE
  5
253
100
AcDbEntity
  8
00_COMPONENTS_3
100
AcDbLine
 62
7
  6
BYLAYER
 10
39.898209878
 20
23.5308842553
 11
39.9822976444
 21
23.5308842553
  0
LINE
  5
254
100
AcDbEntity
  8
00_COMPONENTS_3
100
AcDbLine
 62
7
  6
BYLAYER
 10
41.0806559995
 20
23.5308842553
 11
41.1627990459
 21
23.5308842553
  0
LINE
  5
255
100
AcDbEntity
  8
00_COMPONENTS_3
100
AcDbLine
 62
7
  6
BYLAYER
 10
42.2313275117
 20
23.5308842553
 11
42.3109006799
 21
23.5308842553
  0
LINE
  5
256
100
AcDbEntity
  8
00_COMPONENTS_3
100
AcDbLine
 62
7
  6
BYLAYER
 10
43.3414671096
 20
23.5308842553
 11
43.4178647997
 21
23.5308842553
  0
LINE
  5
257
100
AcDbEntity
  8
00_COMPONENTS_3
100
AcDbLine
 62
7
  6
BYLAYER
 10
44.4026259605
 20
23.5308842553
 11
44.47526674
 21
23.5308842553
  0
LINE
  5
258
100
AcDbEntity
  8
00_COMPONENTS_3
100
AcDbLine
 62
7
  6
BYLAYER
 10
45.4067280049
 20
23.5308842553
 11
45.4750590335
 21
23.5308842553
  0
LINE
  5
259
100
AcDbEntity
  8
00_COMPONENTS_3
100
AcDbLine
 62
7
  6
BYLAYER
 10
46.3461314198
 20
23.5308842553
 11
46.4096326571
 21
23.5308842553
  0
LINE
  5
25A
100
AcDbEntity
  8
00_COMPONENTS_3
100
AcDbLine
 62
7
  6
BYLAYER
 10
47.213686778
 20
23.5308842553
 11
47.2718749414
 21
23.5308842553
  0
LINE
  5
25B
100
AcDbEntity
  8
00_COMPONENTS_3
100
AcDbLine
 62
7
  6
BYLAYER
 10
48.0027914594
 20
23.5308842553
 11
48.0552237018
 21
23.5308842553
  0
LINE
  5
25C
100
AcDbEntity
  8
00_COMPONENTS_3
100
AcDbLine
 62
7
  6
BYLAYER
 10
48.707439901
 20
23.5308842553
 11
48.7537171813
 21
23.5308842553
  0
LINE
  5
25D
100
AcDbEntity
  8
00_COMPONENTS_3
100
AcDbLine
 62
7
  6
BYLAYER
 10
49.3222693026
 20
23.5308842553
 11
49.3620394228
 21
23.5308842553
  0
LINE
  5
25E
100
AcDbEntity
  8
00_COMPONENTS_3
100
AcDbLine
 62
7
  6
BYLAYER
 10
49.8426004412
 20
23.5308842553
 11
49.8755607267
 21
23.5308842553
  0
LINE
  5
25F
100
AcDbEntity
  8
00_COMPONENTS_3
100
AcDbLine
 62
7
  6
BYLAYER
 10
50.2644732827
 20
23.5308842553
 11
50.2903728858
 21
23.5308842553
  0
LINE
  5
260
100
AcDbEntity
  8
00_COMPONENTS_3
100
AcDbLine
 62
7
  6
BYLAYER
 10
50.58467712
 20
23.5308842553
 11
50.603318929
 21
23.5308842553
  0
LINE
  5
261
100
AcDbEntity
  8
00_COMPONENTS_3
100
AcDbLine
 62
7
  6
BYLAYER
 10
50.8007750086
 20
23.5308842553
 11
50.8120171481
 21
23.5308842553
  0
LINE
  5
262
100
AcDbEntity
  8
00_COMPONENTS_3
100
AcDbLine
 62
7
  6
BYLAYER
 10
50.911122313
 20
23.5308842553
 11
50.9148792236
 21
23.5308842553
  0
LINE
  5
263
100
AcDbEntity
  8
00_COMPONENTS_3
100
AcDbLine
 62
7
  6
BYLAYER
 10
23.1903487964
 20
23.3850605352
 11
23.1164836258
 21
23.4503093764
  0
LINE
  5
264
100
AcDbEntity
  8
00_COMPONENTS_3
100
AcDbLine
 62
7
  6
BYLAYER
 10
23.0254361569
 20
23.4173616483
 11
22.9905557288
 21
23.4503093764
  0
LINE
  5
265
100
AcDbEntity
  8
00_COMPONENTS
100
AcDbLine
 62
7
  6
BYLAYER
 10
21.1596115326
 20
27.5186842553
 11
20.9056115326
 21
27.7726842553
  0
LINE
  5
266
100
AcDbEntity
  8
00_COMPONENTS_3
100
AcDbLine
 62
7
  6
BYLAYER
 10
23.6722115366
 20
22.7434842553
 11
23.2791309122
 21
23.1367447068
  0
LINE
  5
267
100
AcDbEntity
  8
00_COMPONENTS_3
100
AcDbLine
 62
7
  6
BYLAYER
 10
23.3012051896
 20
23.1145393639
 11
23.3081449549
 21
23.107550837
  0
LINE
  5
268
100
AcDbEntity
  8
00_COMPONENTS_3
100
AcDbLine
 62
7
  6
BYLAYER
 10
22.9705298085
 20
23.4503093764
 11
23.012552517
 21
23.4073065728
  0
LINE
  5
269
100
AcDbEntity
  8
00_COMPONENTS_2
100
AcDbLine
 62
7
  6
BYLAYER
 10
38.8502757819
 20
9.2612916491
 11
39.4076455304
 21
8.6464842553
  0
LINE
  5
26A
100
AcDbEntity
  8
0
100
AcDbLine
 62
7
  6
BYLAYER
 10
11.7180115366
 20
69.4021049997
 11
11.7180115366
 21
93.9142842553
  0
LINE
  5
26B
100
AcDbEntity
  8
0
100
AcDbLine
 62
7
  6
BYLAYER
 10
12.9880115366
 20
78.6177402065
 11
12.9880115366
 21
79.9859070115
  0
LINE
  5
26C
100
AcDbEntity
  8
0
100
AcDbLine
 62
7
  6
BYLAYER
 10
12.9880115366
 20
87.4722727419
 11
12.9880115366
 21
88.8404395469
  0
LINE
  5
26D
100
AcDbEntity
  8
0
100
AcDbLine
 62
7
  6
BYLAYER
 10
13.2420115366
 20
93.9142842553
 11
13.2420115366
 21
95.7176842553
  0
LINE
  5
26E
100
AcDbEntity
  8
00_COMPONENTS_3
100
AcDbLine
 62
7
  6
BYLAYER
 10
22.8848115366
 20
26.8074842553
 11
22.896134931
 21
26.8074842553
  0
LINE
  5
26F
100
AcDbEntity
  8
00_COMPONENTS_3
100
AcDbLine
 62
7
  6
BYLAYER
 10
22.9001007603
 20
26.8074842553
 11
22.9992059252
 21
26.8074842553
  0
LINE
  5
270
100
AcDbEntity
  8
00_COMPONENTS_3
100
AcDbLine
 62
7
  6
BYLAYER
 10
23.0104480647
 20
26.8074842553
 11
23.2079041443
 21
26.8074842553
  0
LINE
  5
271
100
AcDbEntity
  8
00_COMPONENTS_3
100
AcDbLine
 62
7
  6
BYLAYER
 10
23.2265459533
 20
26.8074842553
 11
23.5208501875
 21
26.8074842553
  0
LINE
  5
272
100
AcDbEntity
  8
00_COMPONENTS_3
100
AcDbLine
 62
7
  6
BYLAYER
 10
23.5467497906
 20
26.8074842553
 11
23.9356623466
 21
26.8074842553
  0
LINE
  5
273
100
AcDbEntity
  8
00_COMPONENTS_3
100
AcDbLine
 62
7
  6
BYLAYER
 10
23.968622632
 20
26.8074842553
 11
24.4491836505
 21
26.8074842553
  0
LINE
  5
274
100
AcDbEntity
  8
00_COMPONENTS_3
100
AcDbLine
 62
7
  6
BYLAYER
 10
24.4889537707
 20
26.8074842553
 11
25.057505892
 21
26.8074842553
  0
LINE
  5
275
100
AcDbEntity
  8
00_COMPONENTS_3
100
AcDbLine
 62
7
  6
BYLAYER
 10
25.1037831722
 20
26.8074842553
 11
25.7559993715
 21
26.8074842553
  0
LINE
  5
276
100
AcDbEntity
  8
00_COMPONENTS_3
100
AcDbLine
 62
7
  6
BYLAYER
 10
25.8084316138
 20
26.8074842553
 11
26.5393481319
 21
26.8074842553
  0
LINE
  5
277
100
AcDbEntity
  8
00_COMPONENTS_3
100
AcDbLine
 62
7
  6
BYLAYER
 10
26.5975362953
 20
26.8074842553
 11
27.4015904161
 21
26.8074842553
  0
LINE
  5
278
100
AcDbEntity
  8
00_COMPONENTS_3
100
AcDbLine
 62
7
  6
BYLAYER
 10
27.4650916535
 20
26.8074842553
 11
28.3361640398
 21
26.8074842553
  0
LINE
  5
279
100
AcDbEntity
  8
00_COMPONENTS_3
100
AcDbLine
 62
7
  6
BYLAYER
 10
28.4044950684
 20
26.8074842553
 11
29.3359563333
 21
26.8074842553
  0
LINE
  5
27A
100
AcDbEntity
  8
00_COMPONENTS_3
100
AcDbLine
 62
7
  6
BYLAYER
 10
29.4085971127
 20
26.8074842553
 11
30.3933582736
 21
26.8074842553
  0
LINE
  5
27B
100
AcDbEntity
  8
00_COMPONENTS_3
100
AcDbLine
 62
7
  6
BYLAYER
 10
30.4697559636
 20
26.8074842553
 11
31.5003223934
 21
26.8074842553
  0
LINE
  5
27C
100
AcDbEntity
  8
00_COMPONENTS_3
100
AcDbLine
 62
7
  6
BYLAYER
 10
31.5798955615
 20
26.8074842553
 11
32.6484240274
 21
26.8074842553
  0
LINE
  5
27D
100
AcDbEntity
  8
00_COMPONENTS_3
100
AcDbLine
 62
7
  6
BYLAYER
 10
32.7305670738
 20
26.8074842553
 11
33.8289254289
 21
26.8074842553
  0
LINE
  5
27E
100
AcDbEntity
  8
00_COMPONENTS_3
100
AcDbLine
 62
7
  6
BYLAYER
 10
33.9130131953
 20
26.8074842553
 11
35.0328422694
 21
26.8074842553
  0
LINE
  5
27F
100
AcDbEntity
  8
00_COMPONENTS_3
100
AcDbLine
 62
7
  6
BYLAYER
 10
35.1182347972
 20
26.8074842553
 11
36.2510120149
 21
26.8074842553
  0
LINE
  5
280
100
AcDbEntity
  8
00_COMPONENTS_3
100
AcDbLine
 62
7
  6
BYLAYER
 10
36.3370594154
 20
26.8074842553
 11
37.4741636579
 21
26.8074842553
  0
LINE
  5
281
100
AcDbEntity
  8
00_COMPONENTS_3
100
AcDbLine
 62
7
  6
BYLAYER
 10
37.5602110584
 20
26.8074842553
 11
38.6929882761
 21
26.8074842553
  0
LINE
  5
282
100
AcDbEntity
  8
00_COMPONENTS_3
100
AcDbLine
 62
7
  6
BYLAYER
 10
38.7783808039
 20
26.8074842553
 11
39.898209878
 21
26.8074842553
  0
LINE
  5
283
100
AcDbEntity
  8
00_COMPONENTS_3
100
AcDbLine
 62
7
  6
BYLAYER
 10
39.9822976444
 20
26.8074842553
 11
41.0806559995
 21
26.8074842553
  0
LINE
  5
284
100
AcDbEntity
  8
00_COMPONENTS_3
100
AcDbLine
 62
7
  6
BYLAYER
 10
41.1627990459
 20
26.8074842553
 11
42.2313275117
 21
26.8074842553
  0
LINE
  5
285
100
AcDbEntity
  8
00_COMPONENTS_3
100
AcDbLine
 62
7
  6
BYLAYER
 10
42.3109006799
 20
26.8074842553
 11
43.3414671096
 21
26.8074842553
  0
LINE
  5
286
100
AcDbEntity
  8
00_COMPONENTS_3
100
AcDbLine
 62
7
  6
BYLAYER
 10
43.4178647997
 20
26.8074842553
 11
44.4026259606
 21
26.8074842553
  0
LINE
  5
287
100
AcDbEntity
  8
00_COMPONENTS_3
100
AcDbLine
 62
7
  6
BYLAYER
 10
44.47526674
 20
26.8074842553
 11
45.4067280049
 21
26.8074842553
  0
LINE
  5
288
100
AcDbEntity
  8
00_COMPONENTS_3
100
AcDbLine
 62
7
  6
BYLAYER
 10
45.4750590335
 20
26.8074842553
 11
46.3461314197
 21
26.8074842553
  0
LINE
  5
289
100
AcDbEntity
  8
00_COMPONENTS_3
100
AcDbLine
 62
7
  6
BYLAYER
 10
46.4096326571
 20
26.8074842553
 11
47.213686778
 21
26.8074842553
  0
LINE
  5
28A
100
AcDbEntity
  8
00_COMPONENTS_3
100
AcDbLine
 62
7
  6
BYLAYER
 10
47.2718749414
 20
26.8074842553
 11
48.0027914594
 21
26.8074842553
  0
LINE
  5
28B
100
AcDbEntity
  8
00_COMPONENTS_3
100
AcDbLine
 62
7
  6
BYLAYER
 10
48.0552237018
 20
26.8074842553
 11
48.707439901
 21
26.8074842553
  0
LINE
  5
28C
100
AcDbEntity
  8
00_COMPONENTS_3
100
AcDbLine
 62
7
  6
BYLAYER
 10
48.7537171813
 20
26.8074842553
 11
49.3222693026
 21
26.8074842553
  0
LINE
  5
28D
100
AcDbEntity
  8
00_COMPONENTS_3
100
AcDbLine
 62
7
  6
BYLAYER
 10
49.3620394228
 20
26.8074842553
 11
49.8426004412
 21
26.8074842553
  0
LINE
  5
28E
100
AcDbEntity
  8
00_COMPONENTS_3
100
AcDbLine
 62
7
  6
BYLAYER
 10
49.8755607267
 20
26.8074842553
 11
50.2644732827
 21
26.8074842553
  0
LINE
  5
28F
100
AcDbEntity
  8
00_COMPONENTS_3
100
AcDbLine
 62
7
  6
BYLAYER
 10
50.2903728858
 20
26.8074842553
 11
50.58467712
 21
26.8074842553
  0
LINE
  5
290
100
AcDbEntity
  8
00_COMPONENTS_3
100
AcDbLine
 62
7
  6
BYLAYER
 10
50.603318929
 20
26.8074842553
 11
50.8007750086
 21
26.8074842553
  0
LINE
  5
291
100
AcDbEntity
  8
00_COMPONENTS_3
100
AcDbLine
 62
7
  6
BYLAYER
 10
50.8120171481
 20
26.8074842553
 11
50.911122313
 21
26.8074842553
  0
LINE
  5
292
100
AcDbEntity
  8
00_COMPONENTS_3
100
AcDbLine
 62
7
  6
BYLAYER
 10
50.9148792236
 20
26.8074842553
 11
50.9264115366
 21
26.8074842553
  0
LINE
  5
293
100
AcDbEntity
  8
00_COMPONENTS
100
AcDbLine
 62
7
  6
BYLAYER
 10
21.1596115326
 20
27.5186842553
 11
52.6516115406
 21
27.5186842553
  0
LINE
  5
294
100
AcDbEntity
  8
00_COMPONENTS
100
AcDbLine
 62
7
  6
BYLAYER
 10
20.9056115326
 20
27.7726842553
 11
52.9056115406
 21
27.7726842553
  0
LINE
  5
295
100
AcDbEntity
  8
0
100
AcDbLine
 62
7
  6
BYLAYER
 10
15.2777500676
 20
78.7252640981
 11
15.2777500676
 21
79.3718425388
  0
LINE
  5
296
100
AcDbEntity
  8
0
100
AcDbLine
 62
7
  6
BYLAYER
 10
15.2777500676
 20
87.5797966334
 11
15.2777500676
 21
88.2263750742
  0
LINE
  5
297
100
AcDbEntity
  8
0
100
AcDbLine
 62
7
  6
BYLAYER
 10
15.4680115366
 20
61.8340842553
 11
15.4680115366
 21
69.2762842553
  0
LINE
  5
298
100
AcDbEntity
  8
0
100
AcDbLine
 62
7
  6
BYLAYER
 10
16.6110115366
 20
59.4337842553
 11
16.6110115366
 21
61.8340842553
  0
LINE
  5
299
100
AcDbEntity
  8
0
100
AcDbLine
 62
7
  6
BYLAYER
 10
16.6964115366
 20
93.9142842553
 11
16.6964115366
 21
95.7176842553
  0
LINE
  5
29A
100
AcDbEntity
  8
00_COMPONENTS_3
100
AcDbLine
 62
7
  6
BYLAYER
 10
24.1248654582
 20
23.1367446175
 11
24.1341465771
 21
23.1135653574
  0
LINE
  5
29B
100
AcDbEntity
  8
0
100
AcDbLine
 62
7
  6
BYLAYER
 10
17.0618615366
 20
57.8462842553
 11
17.0618615366
 21
59.4337842553
  0
LINE
  5
29C
100
AcDbEntity
  8
00_COMPONENTS
100
AcDbLine
 62
7
  6
BYLAYER
 10
17.8556115366
 20
49.9722842553
 11
17.8556115366
 21
51.4962842553
  0
LINE
  5
29D
100
AcDbEntity
  8
00_COMPONENTS
100
AcDbLine
 62
7
  6
BYLAYER
 10
18.4906115366
 20
48.7022842553
 11
18.4906115366
 21
49.9722842553
  0
LINE
  5
29E
100
AcDbEntity
  8
00_COMPONENTS
100
AcDbLine
 62
7
  6
BYLAYER
 10
19.4431115366
 20
42.4092590217
 11
19.4431115366
 21
48.7022842553
  0
LINE
  5
29F
100
AcDbEntity
  8
0
100
AcDbLine
 62
7
  6
BYLAYER
 10
19.4904115366
 20
93.9142842553
 11
19.4904115366
 21
90.8579228778
  0
LINE
  5
2A0
100
AcDbEntity
  8
0
100
AcDbLine
 62
7
  6
BYLAYER
 10
19.4904115366
 20
89.9660458584
 11
19.4904115366
 21
87.8436311175
  0
LINE
  5
2A1
100
AcDbEntity
  8
0
100
AcDbLine
 62
7
  6
BYLAYER
 10
19.4904115366
 20
85.3650804281
 11
19.4904115366
 21
82.0033903424
  0
LINE
  5
2A2
100
AcDbEntity
  8
0
100
AcDbLine
 62
7
  6
BYLAYER
 10
19.4904115366
 20
81.1115133231
 11
19.4904115366
 21
78.5760068005
  0
LINE
  5
2A3
100
AcDbEntity
  8
00_COMPONENTS_3
100
AcDbLine
 62
7
  6
BYLAYER
 10
24.585428817
 20
23.1367445816
 11
24.59140284
 21
23.1168956054
  0
LINE
  5
2A4
100
AcDbEntity
  8
00_COMPONENTS_3
100
AcDbLine
 62
7
  6
BYLAYER
 10
25.139756205
 20
23.1367445482
 11
25.143131573
 21
23.120909381
  0
LINE
  5
2A5
100
AcDbEntity
  8
00_COMPONENTS_3
100
AcDbLine
 62
7
  6
BYLAYER
 10
25.0268003271
 20
23.4503093764
 11
25.018145487
 21
23.4921802489
  0
LINE
  5
2A6
100
AcDbEntity
  8
00_COMPONENTS
100
AcDbLine
 62
7
  6
BYLAYER
 10
20.9056115326
 20
27.7726842553
 11
20.9056115326
 21
41.1102786534
  0
LINE
  5
2A7
100
AcDbEntity
  8
0
100
AcDbLine
 62
7
  6
BYLAYER
 10
21.9196115366
 20
51.4962842553
 11
21.9196115366
 21
57.8462842553
  0
LINE
  5
2A8
100
AcDbEntity
  8
00_COMPONENTS_3
100
AcDbLine
 62
7
  6
BYLAYER
 10
22.8848115366
 20
27.5186842553
 11
22.8848115366
 21
26.8074842553
  0
LINE
  5
2A9
100
AcDbEntity
  8
00_COMPONENTS_3
100
AcDbLine
 62
7
  6
BYLAYER
 10
22.896134931
 20
26.8074842553
 11
22.896134931
 21
23.5306791199
  0
LINE
  5
2AA
100
AcDbEntity
  8
00_COMPONENTS_3
100
AcDbLine
 62
7
  6
BYLAYER
 10
22.9001007603
 20
26.8074842553
 11
22.9001007603
 21
23.5308842553
  0
LINE
  5
2AB
100
AcDbEntity
  8
00_COMPONENTS_3
100
AcDbLine
 62
7
  6
BYLAYER
 10
22.9905557288
 20
26.8074842553
 11
22.9905557288
 21
23.4503093764
  0
LINE
  5
2AC
100
AcDbEntity
  8
00_COMPONENTS_3
100
AcDbLine
 62
7
  6
BYLAYER
 10
22.997133563
 20
26.8074842553
 11
22.997133563
 21
23.5288492883
  0
LINE
  5
2AD
100
AcDbEntity
  8
00_COMPONENTS_3
100
AcDbLine
 62
7
  6
BYLAYER
 10
22.9992059252
 20
23.5308842553
 11
22.9992059252
 21
26.8074842553
  0
LINE
  5
2AE
100
AcDbEntity
  8
00_COMPONENTS_3
100
AcDbLine
 62
7
  6
BYLAYER
 10
23.0104480647
 20
26.8074842553
 11
23.0104480647
 21
23.5308842553
  0
LINE
  5
2AF
100
AcDbEntity
  8
00_COMPONENTS_3
100
AcDbLine
 62
7
  6
BYLAYER
 10
23.1164836258
 20
26.8074842553
 11
23.1164836258
 21
23.4503093764
  0
LINE
  5
2B0
100
AcDbEntity
  8
00_COMPONENTS_3
100
AcDbLine
 62
7
  6
BYLAYER
 10
23.2020510173
 20
26.8074842553
 11
23.2020510173
 21
23.5251359849
  0
LINE
  5
2B1
100
AcDbEntity
  8
00_COMPONENTS_3
100
AcDbLine
 62
7
  6
BYLAYER
 10
23.2079041443
 20
23.5308842553
 11
23.2079041443
 21
26.8074842553
  0
LINE
  5
2B2
100
AcDbEntity
  8
00_COMPONENTS_3
100
AcDbLine
 62
7
  6
BYLAYER
 10
23.2265459533
 20
26.8074842553
 11
23.2265459533
 21
23.5308842553
  0
LINE
  5
2B3
100
AcDbEntity
  8
00_COMPONENTS_3
100
AcDbLine
 62
7
  6
BYLAYER
 10
23.3248788382
 20
23.1502957105
 11
23.3248788379
 21
23.136744698
  0
LINE
  5
2B4
100
AcDbEntity
  8
00_COMPONENTS_3
100
AcDbLine
 62
7
  6
BYLAYER
 10
23.3473551124
 20
26.8074842553
 11
23.3473551124
 21
23.4503093764
  0
LINE
  5
2B5
100
AcDbEntity
  8
00_COMPONENTS_3
100
AcDbLine
 62
7
  6
BYLAYER
 10
23.4739843825
 20
23.167001193
 11
23.4739843819
 21
23.1367446549
  0
LINE
  5
2B6
100
AcDbEntity
  8
00_COMPONENTS_3
100
AcDbLine
 62
7
  6
BYLAYER
 10
23.5093277482
 20
26.8074842553
 11
23.5093277482
 21
23.5308842553
  0
LINE
  5
2B7
100
AcDbEntity
  8
00_COMPONENTS_3
100
AcDbLine
 62
7
  6
BYLAYER
 10
23.5208501875
 20
23.5308842553
 11
23.5208501875
 21
26.8074842553
  0
LINE
  5
2B8
100
AcDbEntity
  8
00_COMPONENTS_3
100
AcDbLine
 62
7
  6
BYLAYER
 10
23.5467497906
 20
26.8074842553
 11
23.5467497906
 21
23.5308842553
  0
LINE
  5
2B9
100
AcDbEntity
  8
00_COMPONENTS_3
100
AcDbLine
 62
7
  6
BYLAYER
 10
23.681413117
 20
26.8074842553
 11
23.681413117
 21
23.4503093764
  0
LINE
  5
2BA
100
AcDbEntity
  8
00_COMPONENTS_3
100
AcDbLine
 62
7
  6
BYLAYER
 10
23.7253127214
 20
23.1884773665
 11
23.7253127206
 21
23.1367446136
  0
LINE
  5
2BB
100
AcDbEntity
  8
00_COMPONENTS
100
AcDbLine
 62
7
  6
BYLAYER
 10
20.5119115326
 20
41.7921870563
 11
19.4431115366
 21
42.4092590217
  0
LINE
  5
2BC
100
AcDbEntity
  8
00_COMPONENTS_3
100
AcDbLine
 62
7
  6
BYLAYER
 10
25.7836288564
 20
23.1367445173
 11
25.7851337873
 21
23.1255867819
  0
LINE
  5
2BD
100
AcDbEntity
  8
00_COMPONENTS_3
100
AcDbLine
 62
7
  6
BYLAYER
 10
25.7078439298
 20
23.4503093764
 11
25.7039850991
 21
23.4797223361
  0
LINE
  5
2BE
100
AcDbEntity
  8
00_COMPONENTS_3
100
AcDbLine
 62
7
  6
BYLAYER
 10
26.5121465117
 20
23.1367444892
 11
26.5125234584
 21
23.1308795666
  0
LINE
  5
2BF
100
AcDbEntity
  8
00_COMPONENTS_3
100
AcDbLine
 62
7
  6
BYLAYER
 10
26.4741093055
 20
23.4503093764
 11
26.4731427589
 21
23.465715131
  0
LINE
  5
2C0
100
AcDbEntity
  8
00_COMPONENTS_3
100
AcDbLine
 62
7
  6
BYLAYER
 10
23.9166251942
 20
26.8074842553
 11
23.9166251942
 21
23.5308842553
  0
LINE
  5
2C1
100
AcDbEntity
  8
00_COMPONENTS_3
100
AcDbLine
 62
7
  6
BYLAYER
 10
23.9356623466
 20
23.5308842553
 11
23.9356623466
 21
26.8074842553
  0
LINE
  5
2C2
100
AcDbEntity
  8
00_COMPONENTS_3
100
AcDbLine
 62
7
  6
BYLAYER
 10
23.968622632
 20
26.8074842553
 11
23.968622632
 21
23.5308842553
  0
LINE
  5
2C3
100
AcDbEntity
  8
00_COMPONENTS_3
100
AcDbLine
 62
7
  6
BYLAYER
 10
24.0769510944
 20
23.2176247977
 11
24.0769510933
 21
23.1367445745
  0
LINE
  5
2C4
100
AcDbEntity
  8
00_COMPONENTS_3
100
AcDbLine
 62
7
  6
BYLAYER
 10
24.1161152567
 20
26.8074842553
 11
24.1161152567
 21
23.4503093764
  0
LINE
  5
2C5
100
AcDbEntity
  8
0
100
AcDbLine
 62
7
  6
BYLAYER
 10
24.4180115366
 20
69.2762842553
 11
24.4180115366
 21
76.8251807955
  0
LINE
  5
2C6
100
AcDbEntity
  8
0
100
AcDbLine
 62
7
  6
BYLAYER
 10
24.4180115366
 20
78.9298328055
 11
24.4180115366
 21
93.9142842553
  0
LINE
  5
2C7
100
AcDbEntity
  8
00_COMPONENTS_3
100
AcDbLine
 62
7
  6
BYLAYER
 10
24.4208435759
 20
26.8074842553
 11
24.4208435759
 21
23.5308842553
  0
LINE
  5
2C8
100
AcDbEntity
  8
00_COMPONENTS_3
100
AcDbLine
 62
7
  6
BYLAYER
 10
24.4491836505
 20
23.5308842553
 11
24.4491836505
 21
26.8074842553
  0
LINE
  5
2C9
100
AcDbEntity
  8
00_COMPONENTS_3
100
AcDbLine
 62
7
  6
BYLAYER
 10
24.4889537707
 20
26.8074842553
 11
24.4889537707
 21
23.5308842553
  0
LINE
  5
2CA
100
AcDbEntity
  8
00_COMPONENTS_3
100
AcDbLine
 62
7
  6
BYLAYER
 10
24.5262233195
 20
23.1367445379
 11
24.5262233208
 21
23.260374465
  0
LINE
  5
2CB
100
AcDbEntity
  8
00_COMPONENTS_3
100
AcDbLine
 62
7
  6
BYLAYER
 10
24.6481531855
 20
26.8074842553
 11
24.6481531855
 21
23.4503093764
  0
LINE
  5
2CC
100
AcDbEntity
  8
00_COMPONENTS_3
100
AcDbLine
 62
7
  6
BYLAYER
 10
25.018145487
 20
26.8074842553
 11
25.018145487
 21
23.4921834895
  0
LINE
  5
2CD
100
AcDbEntity
  8
00_COMPONENTS_3
100
AcDbLine
 62
7
  6
BYLAYER
 10
25.057505892
 20
23.5308842553
 11
25.057505892
 21
26.8074842553
  0
LINE
  5
2CE
100
AcDbEntity
  8
00_COMPONENTS_3
100
AcDbLine
 62
7
  6
BYLAYER
 10
25.069710166
 20
23.136744504
 11
25.0697101671
 21
23.3304491276
  0
LINE
  5
2CF
100
AcDbEntity
  8
00_COMPONENTS_3
100
AcDbLine
 62
7
  6
BYLAYER
 10
25.1037831723
 20
26.8074842553
 11
25.1037831723
 21
23.5308842553
  0
LINE
  5
2D0
100
AcDbEntity
  8
00_COMPONENTS_3
100
AcDbLine
 62
7
  6
BYLAYER
 10
25.2734777736
 20
26.8074842553
 11
25.2734777736
 21
23.4503093764
  0
LINE
  5
2D1
100
AcDbEntity
  8
00_COMPONENTS_3
100
AcDbLine
 62
7
  6
BYLAYER
 10
25.7032753692
 20
23.1367444732
 11
25.7032753698
 21
23.4503093764
  0
LINE
  5
2D2
100
AcDbEntity
  8
00_COMPONENTS_3
100
AcDbLine
 62
7
  6
BYLAYER
 10
25.7039850991
 20
26.8074842553
 11
25.7039850991
 21
23.479718913
  0
LINE
  5
2D3
100
AcDbEntity
  8
00_COMPONENTS_3
100
AcDbLine
 62
7
  6
BYLAYER
 10
25.7559993715
 20
23.5308842553
 11
25.7559993715
 21
26.8074842553
  0
LINE
  5
2D4
100
AcDbEntity
  8
00_COMPONENTS_3
100
AcDbLine
 62
7
  6
BYLAYER
 10
25.8084316138
 20
26.8074842553
 11
25.8084316138
 21
23.5308842553
  0
LINE
  5
2D5
100
AcDbEntity
  8
00_COMPONENTS_3
100
AcDbLine
 62
7
  6
BYLAYER
 10
25.9873299233
 20
26.8074842553
 11
25.9873299233
 21
23.4503093764
  0
LINE
  5
2D6
100
AcDbEntity
  8
00_COMPONENTS_3
100
AcDbLine
 62
7
  6
BYLAYER
 10
26.4220971151
 20
23.1367444456
 11
26.4220971063
 21
26.8074842553
  0
LINE
  5
2D7
100
AcDbEntity
  8
00_COMPONENTS_3
100
AcDbLine
 62
7
  6
BYLAYER
 10
26.4731427588
 20
26.8074842553
 11
26.4731427588
 21
23.4657268553
  0
LINE
  5
2D8
100
AcDbEntity
  8
00_COMPONENTS_3
100
AcDbLine
 62
7
  6
BYLAYER
 10
26.5393481319
 20
23.5308842553
 11
26.5393481319
 21
26.8074842553
  0
LINE
  5
2D9
100
AcDbEntity
  8
00_COMPONENTS_3
100
AcDbLine
 62
7
  6
BYLAYER
 10
26.5975362953
 20
26.8074842553
 11
26.5975362953
 21
23.5308842553
  0
LINE
  5
2DA
100
AcDbEntity
  8
00_COMPONENTS_3
100
AcDbLine
 62
7
  6
BYLAYER
 10
26.7842767888
 20
26.8074842553
 11
26.7842767888
 21
23.4503093764
  0
LINE
  5
2DB
100
AcDbEntity
  8
0
100
AcDbLine
 62
7
  6
BYLAYER
 10
26.9580115366
 20
69.2762842553
 11
26.9580115366
 21
93.9142842553
  0
LINE
  5
2DC
100
AcDbEntity
  8
0
100
AcDbLine
 62
7
  6
BYLAYER
 10
26.9834115366
 20
93.9142842553
 11
26.9834115366
 21
69.2762842553
  0
LINE
  5
2DD
100
AcDbEntity
  8
00_COMPONENTS
100
AcDbLine
 62
7
  6
BYLAYER
 10
52.9056115406
 20
41.1102786534
 11
20.9056115326
 21
41.1102786534
  0
LINE
  5
2DE
100
AcDbEntity
  8
00_COMPONENTS_3
100
AcDbLine
 62
7
  6
BYLAYER
 10
50.9148792236
 20
23.5308842553
 11
50.9150881423
 21
23.5306890831
  0
LINE
  5
2DF
100
AcDbEntity
  8
00_COMPONENTS_3
100
AcDbLine
 62
7
  6
BYLAYER
 10
50.603318929
 20
23.5308842553
 11
50.609172056
 21
23.525139968
  0
LINE
  5
2E0
100
AcDbEntity
  8
00_COMPONENTS_3
100
AcDbLine
 62
7
  6
BYLAYER
 10
50.8120171481
 20
23.5308842553
 11
50.8140895102
 21
23.5288490341
  0
LINE
  5
2E1
100
AcDbEntity
  8
00_COMPONENTS_2
100
AcDbLine
 62
7
  6
BYLAYER
 10
33.3184853233
 20
18.7747342553
 11
34.3491673604
 21
8.6464842553
  0
LINE
  5
2E2
100
AcDbEntity
  8
00_COMPONENTS_2
100
AcDbLine
 62
7
  6
BYLAYER
 10
32.9139889311
 20
7.0972103107
 11
31.3722341422
 21
22.5147581999
  0
LINE
  5
2E3
100
AcDbEntity
  8
00_COMPONENTS_2
100
AcDbLine
 62
7
  6
BYLAYER
 10
31.5092879834
 20
22.7434842553
 11
31.512331257
 21
22.6939435854
  0
LINE
  5
2E4
100
AcDbEntity
  8
00_COMPONENTS_3
100
AcDbLine
 62
7
  6
BYLAYER
 10
27.2207047359
 20
23.1367444214
 11
27.2207047118
 21
26.8074842553
  0
LINE
  5
2E5
100
AcDbEntity
  8
00_COMPONENTS_3
100
AcDbLine
 62
7
  6
BYLAYER
 10
27.3197647118
 20
23.1367444188
 11
27.3197647118
 21
26.8074842553
  0
LINE
  5
2E6
100
AcDbEntity
  8
00_COMPONENTS_3
100
AcDbLine
 62
7
  6
BYLAYER
 10
27.4015904161
 20
23.5308842553
 11
27.4015904161
 21
26.8074842553
  0
LINE
  5
2E7
100
AcDbEntity
  8
00_COMPONENTS_3
100
AcDbLine
 62
7
  6
BYLAYER
 10
27.4650916535
 20
26.8074842553
 11
27.4650916535
 21
23.5308842553
  0
LINE
  5
2E8
100
AcDbEntity
  8
00_COMPONENTS_3
100
AcDbLine
 62
7
  6
BYLAYER
 10
27.6582531231
 20
26.8074842553
 11
27.6582531231
 21
23.4503093764
  0
LINE
  5
2E9
100
AcDbEntity
  8
00_COMPONENTS_3
100
AcDbLine
 62
7
  6
BYLAYER
 10
28.0930203449
 20
23.1367444008
 11
28.0930203061
 21
26.8074842553
  0
LINE
  5
2EA
100
AcDbEntity
  8
00_COMPONENTS_3
100
AcDbLine
 62
7
  6
BYLAYER
 10
28.2003370008
 20
26.8074842553
 11
28.2003369887
 21
23.1367443987
  0
LINE
  5
2EB
100
AcDbEntity
  8
00_COMPONENTS_3
100
AcDbLine
 62
7
  6
BYLAYER
 10
28.2383742006
 20
23.4503093764
 11
28.2383742006
 21
26.8074842553
  0
LINE
  5
2EC
100
AcDbEntity
  8
00_COMPONENTS_3
100
AcDbLine
 62
7
  6
BYLAYER
 10
28.3361640398
 20
23.5308842553
 11
28.3361640398
 21
26.8074842553
  0
LINE
  5
2ED
100
AcDbEntity
  8
00_COMPONENTS_3
100
AcDbLine
 62
7
  6
BYLAYER
 10
28.4044950684
 20
26.8074842553
 11
28.4044950684
 21
23.5308842553
  0
LINE
  5
2EE
100
AcDbEntity
  8
00_COMPONENTS_3
100
AcDbLine
 62
7
  6
BYLAYER
 10
28.6026074387
 20
26.8074842553
 11
28.6026074387
 21
23.4503093764
  0
LINE
  5
2EF
100
AcDbEntity
  8
00_COMPONENTS_3
100
AcDbLine
 62
7
  6
BYLAYER
 10
29.0324050409
 20
26.8074842553
 11
29.0324050933
 21
23.1367443841
  0
LINE
  5
2F0
100
AcDbEntity
  8
00_COMPONENTS_3
100
AcDbLine
 62
7
  6
BYLAYER
 10
29.1471616854
 20
26.8074842553
 11
29.1471616624
 21
23.1367443824
  0
LINE
  5
2F1
100
AcDbEntity
  8
00_COMPONENTS_3
100
AcDbLine
 62
7
  6
BYLAYER
 10
29.2229465989
 20
23.4503093764
 11
29.2229465989
 21
26.8074842553
  0
LINE
  5
2F2
100
AcDbEntity
  8
00_COMPONENTS_3
100
AcDbLine
 62
7
  6
BYLAYER
 10
29.3359563333
 20
23.5308842553
 11
29.3359563333
 21
26.8074842553
  0
LINE
  5
2F3
100
AcDbEntity
  8
00_COMPONENTS_3
100
AcDbLine
 62
7
  6
BYLAYER
 10
29.4085971127
 20
26.8074842553
 11
29.4085971127
 21
23.5308842553
  0
LINE
  5
2F4
100
AcDbEntity
  8
00_COMPONENTS_3
100
AcDbLine
 62
7
  6
BYLAYER
 10
29.6101526289
 20
26.8074842553
 11
29.6101526289
 21
23.4503093764
  0
LINE
  5
2F5
100
AcDbEntity
  8
00_COMPONENTS
100
AcDbLine
 62
7
  6
BYLAYER
 10
29.6724072037
 20
48.7022842553
 11
29.6724072037
 21
43.239935461
  0
LINE
  5
2F6
100
AcDbEntity
  8
00_COMPONENTS_3
100
AcDbLine
 62
7
  6
BYLAYER
 10
30.031709631
 20
26.8074842553
 11
30.0317096957
 21
23.1367443712
  0
LINE
  5
2F7
100
AcDbEntity
  8
00_COMPONENTS_3
100
AcDbLine
 62
7
  6
BYLAYER
 10
30.153032858
 20
26.8074842553
 11
30.1530328258
 21
23.13674437
  0
LINE
  5
2F8
100
AcDbEntity
  8
00_COMPONENTS_3
100
AcDbLine
 62
7
  6
BYLAYER
 10
30.2659887163
 20
23.4503093764
 11
30.2659887163
 21
26.8074842553
  0
LINE
  5
2F9
100
AcDbEntity
  8
00_COMPONENTS_3
100
AcDbLine
 62
7
  6
BYLAYER
 10
30.3933582736
 20
23.5308842553
 11
30.3933582736
 21
26.8074842553
  0
LINE
  5
2FA
100
AcDbEntity
  8
00_COMPONENTS_3
100
AcDbLine
 62
7
  6
BYLAYER
 10
30.4697559636
 20
26.8074842553
 11
30.4697559636
 21
23.5308842553
  0
LINE
  5
2FB
100
AcDbEntity
  8
00_COMPONENTS
100
AcDbLine
 62
7
  6
BYLAYER
 10
20.5119115326
 20
41.7921870563
 11
53.2993115406
 21
41.7921870563
  0
LINE
  5
2FC
100
AcDbEntity
  8
0
100
AcDbLine
 62
7
  6
BYLAYER
 10
14.0228589324
 20
81.416506782
 11
14.7592339007
 21
79.9859070115
  0
LINE
  5
2FD
100
AcDbEntity
  8
00_COMPONENTS_2
100
AcDbLine
 62
7
  6
BYLAYER
 10
34.9045852423
 20
9.2612916491
 11
33.7509425682
 21
20.597844528
  0
LINE
  5
2FE
100
AcDbEntity
  8
00_COMPONENTS_2
100
AcDbLine
 62
7
  6
BYLAYER
 10
36.8721346384
 20
12.4928851986
 11
35.829001983
 21
22.7434842553
  0
LINE
  5
2FF
100
AcDbEntity
  8
00_COMPONENTS_2
100
AcDbLine
 62
7
  6
BYLAYER
 10
33.8832843574
 20
22.7434822055
 11
33.8976904018
 21
22.5742596724
  0
LINE
  5
300
100
AcDbEntity
  8
00_COMPONENTS_3
100
AcDbLine
 62
7
  6
BYLAYER
 10
30.6732206665
 20
26.8074842553
 11
30.6732206665
 21
23.4503093764
  0
LINE
  5
301
100
AcDbEntity
  8
0
100
AcDbLine
 62
7
  6
BYLAYER
 10
31.0421713144
 20
66.795550922
 11
31.0421713144
 21
61.8340842553
  0
LINE
  5
302
100
AcDbEntity
  8
00_COMPONENTS_3
100
AcDbLine
 62
7
  6
BYLAYER
 10
31.0833287653
 20
26.8074842553
 11
31.0833288404
 21
23.1367443624
  0
LINE
  5
303
100
AcDbEntity
  8
00_COMPONENTS_3
100
AcDbLine
 62
7
  6
BYLAYER
 10
31.2102952317
 20
26.8074842553
 11
31.2102951922
 21
23.1367443616
  0
LINE
  5
304
100
AcDbEntity
  8
00_COMPONENTS_3
100
AcDbLine
 62
7
  6
BYLAYER
 10
31.3595623725
 20
23.4503093764
 11
31.3595623725
 21
26.8074842553
  0
LINE
  5
305
100
AcDbEntity
  8
00_COMPONENTS_3
100
AcDbLine
 62
7
  6
BYLAYER
 10
31.5003223934
 20
23.5308842553
 11
31.5003223934
 21
26.8074842553
  0
LINE
  5
306
100
AcDbEntity
  8
00_COMPONENTS_3
100
AcDbLine
 62
7
  6
BYLAYER
 10
31.5798955615
 20
26.8074842553
 11
31.5798955615
 21
23.5308842553
  0
LINE
  5
307
100
AcDbEntity
  8
00_COMPONENTS_3
100
AcDbLine
 62
7
  6
BYLAYER
 10
31.7837209619
 20
26.8074842553
 11
31.7837209619
 21
23.4503093764
  0
LINE
  5
308
100
AcDbEntity
  8
00_COMPONENTS_3
100
AcDbLine
 62
7
  6
BYLAYER
 10
32.179258987
 20
26.8074842553
 11
32.1792590705
 21
23.1367443577
  0
LINE
  5
309
100
AcDbEntity
  8
00_COMPONENTS_3
100
AcDbLine
 62
7
  6
BYLAYER
 10
32.3109024014
 20
26.8074842553
 11
32.3109023569
 21
23.1367443574
  0
LINE
  5
30A
100
AcDbEntity
  8
00_COMPONENTS_3
100
AcDbLine
 62
7
  6
BYLAYER
 10
32.4953448116
 20
23.4503093764
 11
32.4953448116
 21
26.8074842553
  0
LINE
  5
30B
100
AcDbEntity
  8
00_COMPONENTS_3
100
AcDbLine
 62
7
  6
BYLAYER
 10
32.6484240274
 20
23.5308842553
 11
32.6484240274
 21
26.8074842553
  0
LINE
  5
30C
100
AcDbEntity
  8
00_COMPONENTS_3
100
AcDbLine
 62
7
  6
BYLAYER
 10
32.7305670738
 20
26.8074842553
 11
32.7305670738
 21
23.5308842553
  0
LINE
  5
30D
100
AcDbEntity
  8
00_COMPONENTS_3
100
AcDbLine
 62
7
  6
BYLAYER
 10
32.9332019372
 20
26.8074842553
 11
32.9332019372
 21
23.4503093764
  0
LINE
  5
30E
100
AcDbEntity
  8
00_COMPONENTS_3
100
AcDbLine
 62
7
  6
BYLAYER
 10
33.3111596055
 20
26.8074842553
 11
33.311159695
 21
23.136744357
  0
LINE
  5
30F
100
AcDbEntity
  8
00_COMPONENTS_3
100
AcDbLine
 62
7
  6
BYLAYER
 10
33.446478082
 20
26.8074842553
 11
33.4464780348
 21
23.1367443572
  0
LINE
  5
310
100
AcDbEntity
  8
0
100
AcDbLine
 62
7
  6
BYLAYER
 10
33.5944115366
 20
69.2762842553
 11
33.5944115366
 21
93.9142842553
  0
LINE
  5
311
100
AcDbEntity
  8
0
100
AcDbLine
 62
7
  6
BYLAYER
 10
33.6001115366
 20
69.2762842553
 11
33.6001115366
 21
93.9142842553
  0
LINE
  5
312
100
AcDbEntity
  8
00_COMPONENTS_3
100
AcDbLine
 62
7
  6
BYLAYER
 10
33.6646920435
 20
23.4503093764
 11
33.6646920435
 21
26.8074842553
  0
LINE
  5
313
100
AcDbEntity
  8
00_COMPONENTS_3
100
AcDbLine
 62
7
  6
BYLAYER
 10
33.8289254289
 20
23.5308842553
 11
33.8289254289
 21
26.8074842553
  0
LINE
  5
314
100
AcDbEntity
  8
00_COMPONENTS_3
100
AcDbLine
 62
7
  6
BYLAYER
 10
33.9130131953
 20
26.8074842553
 11
33.9130131953
 21
23.5308842553
  0
LINE
  5
315
100
AcDbEntity
  8
0
100
AcDbLine
 62
7
  6
BYLAYER
 10
19.4904115366
 20
82.0033903424
 11
19.3865533819
 21
82.2659492767
  0
LINE
  5
316
100
AcDbEntity
  8
00_COMPONENTS_2
100
AcDbLine
 62
7
  6
BYLAYER
 10
39.9686589773
 20
20.2821321273
 11
40.4026197256
 21
18.7747342553
  0
LINE
  5
317
100
AcDbEntity
  8
00_COMPONENTS_2
100
AcDbLine
 62
7
  6
BYLAYER
 10
36.8721346384
 20
12.4928851986
 11
36.8776416939
 21
9.33757805
  0
LINE
  5
318
100
AcDbEntity
  8
00_COMPONENTS_3
100
AcDbLine
 62
7
  6
BYLAYER
 10
34.1129153482
 20
26.8074842553
 11
34.1129153482
 21
23.4503093764
  0
LINE
  5
319
100
AcDbEntity
  8
00_COMPONENTS_3
100
AcDbLine
 62
7
  6
BYLAYER
 10
34.4704161735
 20
26.8074842553
 11
34.4704162666
 21
23.1367443605
  0
LINE
  5
31A
100
AcDbEntity
  8
00_COMPONENTS_3
100
AcDbLine
 62
7
  6
BYLAYER
 10
34.6083798568
 20
26.8074842553
 11
34.6083798096
 21
23.1367443612
  0
LINE
  5
31B
100
AcDbEntity
  8
00_COMPONENTS_3
100
AcDbLine
 62
7
  6
BYLAYER
 10
34.8587046296
 20
23.4503093764
 11
34.8587046296
 21
26.8074842553
  0
LINE
  5
31C
100
AcDbEntity
  8
00_COMPONENTS_3
100
AcDbLine
 62
7
  6
BYLAYER
 10
35.0328422694
 20
23.5308842553
 11
35.0328422694
 21
26.8074842553
  0
LINE
  5
31D
100
AcDbEntity
  8
00_COMPONENTS_3
100
AcDbLine
 62
7
  6
BYLAYER
 10
35.1182347972
 20
26.8074842553
 11
35.1182347972
 21
23.5308842553
  0
LINE
  5
31E
100
AcDbEntity
  8
00_COMPONENTS_3
100
AcDbLine
 62
7
  6
BYLAYER
 10
35.3138828635
 20
26.8074842553
 11
35.3138828635
 21
23.4503093764
  0
LINE
  5
31F
100
AcDbEntity
  8
00_COMPONENTS_3
100
AcDbLine
 62
7
  6
BYLAYER
 10
35.6482060487
 20
26.8074842553
 11
35.6482061427
 21
23.1367443681
  0
LINE
  5
320
100
AcDbEntity
  8
00_COMPONENTS_3
100
AcDbLine
 62
7
  6
BYLAYER
 10
35.7877649519
 20
26.8074842553
 11
35.7877649072
 21
23.1367443693
  0
LINE
  5
321
100
AcDbEntity
  8
00_COMPONENTS_3
100
AcDbLine
 62
7
  6
BYLAYER
 10
36.0682954133
 20
23.4503093764
 11
36.0682954133
 21
26.8074842553
  0
LINE
  5
322
100
AcDbEntity
  8
00_COMPONENTS_3
100
AcDbLine
 62
7
  6
BYLAYER
 10
36.2510120149
 20
23.5308842553
 11
36.2510120149
 21
26.8074842553
  0
LINE
  5
323
100
AcDbEntity
  8
00_COMPONENTS_3
100
AcDbLine
 62
7
  6
BYLAYER
 10
36.3370594154
 20
26.8074842553
 11
36.3370594154
 21
23.5308842553
  0
LINE
  5
324
100
AcDbEntity
  8
00_COMPONENTS_3
100
AcDbLine
 62
7
  6
BYLAYER
 10
36.526964395
 20
26.8074842553
 11
36.526964395
 21
23.4503093764
  0
LINE
  5
325
100
AcDbEntity
  8
00_COMPONENTS_3
100
AcDbLine
 62
7
  6
BYLAYER
 10
36.8355655389
 20
26.8074842553
 11
36.8355656313
 21
23.1367443798
  0
LINE
  5
326
100
AcDbEntity
  8
00_COMPONENTS
100
AcDbLine
 62
7
  6
BYLAYER
 10
36.9056115366
 20
6.8684842553
 11
36.9056115366
 21
-21.9213157447
  0
LINE
  5
327
100
AcDbEntity
  8
00_COMPONENTS_3
100
AcDbLine
 62
7
  6
BYLAYER
 10
36.9756575344
 20
26.8074842553
 11
36.9756574949
 21
23.1367443814
  0
LINE
  5
328
100
AcDbEntity
  8
00_COMPONENTS_3
100
AcDbLine
 62
7
  6
BYLAYER
 10
37.2842586782
 20
23.4503093764
 11
37.2842586782
 21
26.8074842553
  0
LINE
  5
329
100
AcDbEntity
  8
0
100
AcDbLine
 62
7
  6
BYLAYER
 10
54.3723063591
 20
90.7801748691
 11
54.2630037334
 21
90.5678261094
  0
LINE
  5
32A
100
AcDbEntity
  8
00_COMPONENTS
100
AcDbLine
 62
7
  6
BYLAYER
 10
18.4906115366
 20
48.7022842553
 11
55.3206115366
 21
48.7022842553
  0
LINE
  5
32B
100
AcDbEntity
  8
00_COMPONENTS
100
AcDbLine
 62
7
  6
BYLAYER
 10
17.8556115366
 20
49.9722842553
 11
55.9556115366
 21
49.9722842553
  0
LINE
  5
32C
100
AcDbEntity
  8
00_COMPONENTS
100
AcDbLine
 62
7
  6
BYLAYER
 10
55.9556115366
 20
51.4962842553
 11
17.8556115366
 21
51.4962842553
  0
LINE
  5
32D
100
AcDbEntity
  8
0
100
AcDbLine
 62
7
  6
BYLAYER
 10
14.0228589324
 20
90.2710393174
 11
14.7592339007
 21
88.8404395469
  0
LINE
  5
32E
100
AcDbEntity
  8
0
100
AcDbLine
 62
7
  6
BYLAYER
 10
19.5482193399
 20
81.713293574
 11
19.4389167142
 21
81.9256423337
  0
LINE
  5
32F
100
AcDbEntity
  8
0
100
AcDbLine
 62
7
  6
BYLAYER
 10
19.4904115366
 20
90.8579228778
 11
19.3865533819
 21
91.120481812
  0
LINE
  5
330
100
AcDbEntity
  8
00_COMPONENTS_3
100
AcDbLine
 62
7
  6
BYLAYER
 10
37.4741636579
 20
23.5308842553
 11
37.4741636579
 21
26.8074842553
  0
LINE
  5
331
100
AcDbEntity
  8
00_COMPONENTS_3
100
AcDbLine
 62
7
  6
BYLAYER
 10
37.5602110584
 20
26.8074842553
 11
37.5602110584
 21
23.5308842553
  0
LINE
  5
332
100
AcDbEntity
  8
00_COMPONENTS_3
100
AcDbLine
 62
7
  6
BYLAYER
 10
37.74292766
 20
26.8074842553
 11
37.74292766
 21
23.4503093764
  0
LINE
  5
333
100
AcDbEntity
  8
00_COMPONENTS_3
100
AcDbLine
 62
7
  6
BYLAYER
 10
38.0234581214
 20
26.8074842553
 11
38.0234582098
 21
23.1367443954
  0
LINE
  5
334
100
AcDbEntity
  8
00_COMPONENTS_3
100
AcDbLine
 62
7
  6
BYLAYER
 10
38.1630170246
 20
26.8074842553
 11
38.1630169927
 21
23.1367443974
  0
LINE
  5
335
100
AcDbEntity
  8
00_COMPONENTS_3
100
AcDbLine
 62
7
  6
BYLAYER
 10
38.4973402098
 20
23.4503093764
 11
38.4973402098
 21
26.8074842553
  0
LINE
  5
336
100
AcDbEntity
  8
00_COMPONENTS_3
100
AcDbLine
 62
7
  6
BYLAYER
 10
38.6929882761
 20
23.5308842553
 11
38.6929882761
 21
26.8074842553
  0
LINE
  5
337
100
AcDbEntity
  8
00_COMPONENTS_3
100
AcDbLine
 62
7
  6
BYLAYER
 10
38.7783808039
 20
26.8074842553
 11
38.7783808039
 21
23.5308842553
  0
LINE
  5
338
100
AcDbEntity
  8
00_COMPONENTS_3
100
AcDbLine
 62
7
  6
BYLAYER
 10
38.9525184437
 20
26.8074842553
 11
38.9525184437
 21
23.4503093764
  0
LINE
  5
339
100
AcDbEntity
  8
00_COMPONENTS_3
100
AcDbLine
 62
7
  6
BYLAYER
 10
39.2028432165
 20
26.8074842553
 11
39.2028432985
 21
23.1367444148
  0
LINE
  5
33A
100
AcDbEntity
  8
00_COMPONENTS_3
100
AcDbLine
 62
7
  6
BYLAYER
 10
39.3408068998
 20
26.8074842553
 11
39.3408068778
 21
23.1367444173
  0
LINE
  5
33B
100
AcDbEntity
  8
00_COMPONENTS_3
100
AcDbLine
 62
7
  6
BYLAYER
 10
39.6983077251
 20
23.4503093764
 11
39.6983077251
 21
26.8074842553
  0
LINE
  5
33C
100
AcDbEntity
  8
00_COMPONENTS_3
100
AcDbLine
 62
7
  6
BYLAYER
 10
39.898209878
 20
23.5308842553
 11
39.898209878
 21
26.8074842553
  0
LINE
  5
33D
100
AcDbEntity
  8
00_COMPONENTS_3
100
AcDbLine
 62
7
  6
BYLAYER
 10
39.9822976444
 20
26.8074842553
 11
39.9822976444
 21
23.5308842553
  0
LINE
  5
33E
100
AcDbEntity
  8
00_COMPONENTS_3
100
AcDbLine
 62
7
  6
BYLAYER
 10
40.1465310298
 20
26.8074842553
 11
40.1465310298
 21
23.4503093764
  0
LINE
  5
33F
100
AcDbEntity
  8
00_COMPONENTS_3
100
AcDbLine
 62
7
  6
BYLAYER
 10
40.3647449913
 20
26.8074842553
 11
40.3647450649
 21
23.1367444379
  0
LINE
  5
340
100
AcDbEntity
  8
00_COMPONENTS_3
100
AcDbLine
 62
7
  6
BYLAYER
 10
40.5000634678
 20
26.8074842553
 11
40.5000634577
 21
23.1367444408
  0
LINE
  5
341
100
AcDbEntity
  8
00_COMPONENTS_2
100
AcDbLine
 62
7
  6
BYLAYER
 10
37.8791281019
 20
22.7434842553
 11
36.8721346384
 21
12.4928851986
  0
LINE
  5
342
100
AcDbEntity
  8
0
100
AcDbLine
 62
7
  6
BYLAYER
 10
54.4246696913
 20
91.120481812
 11
54.3208115366
 21
90.8579228778
  0
LINE
  5
343
100
AcDbEntity
  8
0
100
AcDbLine
 62
7
  6
BYLAYER
 10
54.3723063591
 20
81.9256423337
 11
54.2630037334
 21
81.713293574
  0
LINE
  5
344
100
AcDbEntity
  8
0
100
AcDbLine
 62
7
  6
BYLAYER
 10
59.0519891726
 20
88.8404395469
 11
59.7883641409
 21
90.2710393174
  0
LINE
  5
345
100
AcDbEntity
  8
0
100
AcDbLine
 62
7
  6
BYLAYER
 10
19.5482193399
 20
90.5678261094
 11
19.4389167142
 21
90.7801748691
  0
LINE
  5
346
100
AcDbEntity
  8
00_COMPONENTS_3
100
AcDbLine
 62
7
  6
BYLAYER
 10
40.8780211361
 20
23.4503093764
 11
40.8780211361
 21
26.8074842553
  0
LINE
  5
347
100
AcDbEntity
  8
00_COMPONENTS_3
100
AcDbLine
 62
7
  6
BYLAYER
 10
41.0806559995
 20
23.5308842553
 11
41.0806559995
 21
26.8074842553
  0
LINE
  5
348
100
AcDbEntity
  8
00_COMPONENTS_3
100
AcDbLine
 62
7
  6
BYLAYER
 10
41.1627990459
 20
26.8074842553
 11
41.1627990459
 21
23.5308842553
  0
LINE
  5
349
100
AcDbEntity
  8
00_COMPONENTS_3
100
AcDbLine
 62
7
  6
BYLAYER
 10
41.3158782617
 20
26.8074842553
 11
41.3158782617
 21
23.4503093764
  0
LINE
  5
34A
100
AcDbEntity
  8
00_COMPONENTS_3
100
AcDbLine
 62
7
  6
BYLAYER
 10
41.5003206719
 20
26.8074842553
 11
41.5003207353
 21
23.1367444645
  0
LINE
  5
34B
100
AcDbEntity
  8
00_COMPONENTS_3
100
AcDbLine
 62
7
  6
BYLAYER
 10
41.6319640863
 20
26.8074842553
 11
41.6319640898
 21
23.1367444678
  0
LINE
  5
34C
100
AcDbEntity
  8
00_COMPONENTS_3
100
AcDbLine
 62
7
  6
BYLAYER
 10
42.0275021114
 20
23.4503093764
 11
42.0275021114
 21
26.8074842553
  0
LINE
  5
34D
100
AcDbEntity
  8
00_COMPONENTS_3
100
AcDbLine
 62
7
  6
BYLAYER
 10
42.2313275117
 20
23.5308842553
 11
42.2313275117
 21
26.8074842553
  0
LINE
  5
34E
100
AcDbEntity
  8
00_COMPONENTS_3
100
AcDbLine
 62
7
  6
BYLAYER
 10
42.3109006799
 20
26.8074842553
 11
42.3109006799
 21
23.5308842553
  0
LINE
  5
34F
100
AcDbEntity
  8
00_COMPONENTS_3
100
AcDbLine
 62
7
  6
BYLAYER
 10
42.4516607008
 20
26.8074842553
 11
42.4516607008
 21
23.4503093764
  0
LINE
  5
350
100
AcDbEntity
  8
00_COMPONENTS_3
100
AcDbLine
 62
7
  6
BYLAYER
 10
42.6009278416
 20
26.8074842553
 11
42.6009278934
 21
23.1367444944
  0
LINE
  5
351
100
AcDbEntity
  8
00_COMPONENTS_3
100
AcDbLine
 62
7
  6
BYLAYER
 10
42.727894308
 20
26.8074842553
 11
42.7278943263
 21
23.1367444981
  0
LINE
  5
352
100
AcDbEntity
  8
0
100
AcDbLine
 62
7
  6
BYLAYER
 10
42.7690517589
 20
61.8340842553
 11
42.7690517589
 21
66.795550922
  0
LINE
  5
353
100
AcDbEntity
  8
00_COMPONENTS_3
100
AcDbLine
 62
7
  6
BYLAYER
 10
43.1380024068
 20
23.4503093764
 11
43.1380024068
 21
26.8074842553
  0
LINE
  5
354
100
AcDbEntity
  8
00_COMPONENTS_3
100
AcDbLine
 62
7
  6
BYLAYER
 10
43.3414671096
 20
23.5308842553
 11
43.3414671096
 21
26.8074842553
  0
LINE
  5
355
100
AcDbEntity
  8
00_COMPONENTS_3
100
AcDbLine
 62
7
  6
BYLAYER
 10
43.4178647997
 20
26.8074842553
 11
43.4178647997
 21
23.5308842553
  0
LINE
  5
356
100
AcDbEntity
  8
00_COMPONENTS_3
100
AcDbLine
 62
7
  6
BYLAYER
 10
43.545234357
 20
26.8074842553
 11
43.545234357
 21
23.4503093764
  0
LINE
  5
357
100
AcDbEntity
  8
00_COMPONENTS_3
100
AcDbLine
 62
7
  6
BYLAYER
 10
43.6581902153
 20
26.8074842553
 11
43.6581902545
 21
23.1367445273
  0
LINE
  5
358
100
AcDbEntity
  8
00_COMPONENTS_3
100
AcDbLine
 62
7
  6
BYLAYER
 10
43.7795134423
 20
26.8074842553
 11
43.7795134763
 21
23.1367445314
  0
LINE
  5
359
100
AcDbEntity
  8
00_COMPONENTS
100
AcDbLine
 62
7
  6
BYLAYER
 10
44.1388158696
 20
48.7022842553
 11
44.1388158696
 21
43.239935461
  0
LINE
  5
35A
100
AcDbEntity
  8
00_COMPONENTS_2
100
AcDbLine
 62
7
  6
BYLAYER
 10
42.2562938895
 20
22.6910421648
 11
42.2595523463
 21
22.7434842553
  0
LINE
  5
35B
100
AcDbEntity
  8
00_COMPONENTS_2
100
AcDbLine
 62
7
  6
BYLAYER
 10
39.8263078595
 20
22.571345258
 11
39.8405734302
 21
22.7434842553
  0
LINE
  5
35C
100
AcDbEntity
  8
00_COMPONENTS_2
100
AcDbLine
 62
7
  6
BYLAYER
 10
39.9652291321
 20
20.6108586277
 11
38.8502757819
 21
9.2612916491
  0
LINE
  5
35D
100
AcDbEntity
  8
00_COMPONENTS_2
100
AcDbLine
 62
7
  6
BYLAYER
 10
39.4076455304
 20
8.6464842553
 11
40.4026197256
 21
18.7747342553
  0
LINE
  5
35E
100
AcDbEntity
  8
00_COMPONENTS_2
100
AcDbLine
 62
7
  6
BYLAYER
 10
33.74795933
 20
20.2843272144
 11
33.3184853233
 21
18.7747342553
  0
LINE
  5
35F
100
AcDbEntity
  8
0
100
AcDbLine
 62
7
  6
BYLAYER
 10
54.4246696913
 20
82.2659492767
 11
54.3208115366
 21
82.0033903424
  0
LINE
  5
360
100
AcDbEntity
  8
0
100
AcDbLine
 62
7
  6
BYLAYER
 10
59.0519891726
 20
79.9859070115
 11
59.7883641409
 21
81.416506782
  0
LINE
  5
361
100
AcDbEntity
  8
0
100
AcDbLine
 62
7
  6
BYLAYER
 10
17.0618615366
 20
57.8462842553
 11
56.7493615366
 21
57.8462842553
  0
LINE
  5
362
100
AcDbEntity
  8
00_COMPONENTS_3
100
AcDbLine
 62
7
  6
BYLAYER
 10
44.2010704444
 20
23.4503093764
 11
44.2010704444
 21
26.8074842553
  0
LINE
  5
363
100
AcDbEntity
  8
00_COMPONENTS_3
100
AcDbLine
 62
7
  6
BYLAYER
 10
44.4026259605
 20
23.5308842553
 11
44.4026259605
 21
26.8074842553
  0
LINE
  5
364
100
AcDbEntity
  8
00_COMPONENTS_3
100
AcDbLine
 62
7
  6
BYLAYER
 10
44.47526674
 20
26.8074842553
 11
44.47526674
 21
23.5308842553
  0
LINE
  5
365
100
AcDbEntity
  8
00_COMPONENTS_3
100
AcDbLine
 62
7
  6
BYLAYER
 10
44.5882764744
 20
26.8074842553
 11
44.5882764744
 21
23.4503093764
  0
LINE
  5
366
100
AcDbEntity
  8
00_COMPONENTS_3
100
AcDbLine
 62
7
  6
BYLAYER
 10
44.6640613879
 20
26.8074842553
 11
44.664061414
 21
23.1367445632
  0
LINE
  5
367
100
AcDbEntity
  8
00_COMPONENTS_3
100
AcDbLine
 62
7
  6
BYLAYER
 10
44.7788180324
 20
26.8074842553
 11
44.7788180826
 21
23.1367445675
  0
LINE
  5
368
100
AcDbEntity
  8
00_COMPONENTS_3
100
AcDbLine
 62
7
  6
BYLAYER
 10
45.2086156346
 20
23.4503093764
 11
45.2086156346
 21
26.8074842553
  0
LINE
  5
369
100
AcDbEntity
  8
00_COMPONENTS_3
100
AcDbLine
 62
7
  6
BYLAYER
 10
45.4067280049
 20
23.5308842553
 11
45.4067280049
 21
26.8074842553
  0
LINE
  5
36A
100
AcDbEntity
  8
00_COMPONENTS_3
100
AcDbLine
 62
7
  6
BYLAYER
 10
45.4750590335
 20
26.8074842553
 11
45.4750590335
 21
23.5308842553
  0
LINE
  5
36B
100
AcDbEntity
  8
00_COMPONENTS_3
100
AcDbLine
 62
7
  6
BYLAYER
 10
45.5728488727
 20
26.8074842553
 11
45.5728488727
 21
23.4503093764
  0
LINE
  5
36C
100
AcDbEntity
  8
00_COMPONENTS_3
100
AcDbLine
 62
7
  6
BYLAYER
 10
45.6108860725
 20
26.8074842553
 11
45.6108860854
 21
23.1367446015
  0
LINE
  5
36D
100
AcDbEntity
  8
00_COMPONENTS_3
100
AcDbLine
 62
7
  6
BYLAYER
 10
45.7182027672
 20
26.8074842553
 11
45.7182028334
 21
23.1367446062
  0
LINE
  5
36E
100
AcDbEntity
  8
00_COMPONENTS_3
100
AcDbLine
 62
7
  6
BYLAYER
 10
46.1529699502
 20
23.4503093764
 11
46.1529699502
 21
26.8074842553
  0
LINE
  5
36F
100
AcDbEntity
  8
00_COMPONENTS_3
100
AcDbLine
 62
7
  6
BYLAYER
 10
46.3461314198
 20
23.5308842553
 11
46.3461314198
 21
26.8074842553
  0
LINE
  5
370
100
AcDbEntity
  8
00_COMPONENTS_3
100
AcDbLine
 62
7
  6
BYLAYER
 10
46.4096326571
 20
26.8074842553
 11
46.4096326571
 21
23.5308842553
  0
LINE
  5
371
100
AcDbEntity
  8
00_COMPONENTS_3
100
AcDbLine
 62
7
  6
BYLAYER
 10
46.4914583615
 20
23.1367446421
 11
46.4914583615
 21
26.8074842553
  0
LINE
  5
372
100
AcDbEntity
  8
00_COMPONENTS_3
100
AcDbLine
 62
7
  6
BYLAYER
 10
46.5905183615
 20
26.8074842553
 11
46.5905184432
 21
23.1367446471
  0
LINE
  5
373
100
AcDbEntity
  8
0
100
AcDbLine
 62
7
  6
BYLAYER
 10
46.8278115366
 20
69.2762842553
 11
46.8278115366
 21
93.9142842553
  0
LINE
  5
374
100
AcDbEntity
  8
0
100
AcDbLine
 62
7
  6
BYLAYER
 10
46.8532115366
 20
69.2762842553
 11
46.8532115366
 21
93.9142842553
  0
LINE
  5
375
100
AcDbEntity
  8
00_COMPONENTS_3
100
AcDbLine
 62
7
  6
BYLAYER
 10
47.0269462845
 20
23.4503093764
 11
47.0269462845
 21
26.8074842553
  0
LINE
  5
376
100
AcDbEntity
  8
00_COMPONENTS_3
100
AcDbLine
 62
7
  6
BYLAYER
 10
47.213686778
 20
23.5308842553
 11
47.213686778
 21
26.8074842553
  0
LINE
  5
377
100
AcDbEntity
  8
00_COMPONENTS_3
100
AcDbLine
 62
7
  6
BYLAYER
 10
47.2718749414
 20
26.8074842553
 11
47.2718749414
 21
23.5308842553
  0
LINE
  5
378
100
AcDbEntity
  8
00_COMPONENTS_3
100
AcDbLine
 62
7
  6
BYLAYER
 10
47.3380803145
 20
23.4657268553
 11
47.3380803145
 21
26.8074842553
  0
LINE
  5
379
100
AcDbEntity
  8
00_COMPONENTS_3
100
AcDbLine
 62
7
  6
BYLAYER
 10
47.3891259669
 20
26.8074842553
 11
47.3891260632
 21
23.1367446899
  0
LINE
  5
37A
100
AcDbEntity
  8
00_COMPONENTS_2
100
AcDbLine
 62
7
  6
BYLAYER
 10
40.8972341422
 20
7.0972103107
 11
42.4389889311
 21
22.5147582
  0
LINE
  5
37B
100
AcDbEntity
  8
00_COMPONENTS_3
100
AcDbLine
 62
7
  6
BYLAYER
 10
22.997133563
 20
23.5288490221
 11
22.9992059252
 21
23.5308842553
  0
LINE
  5
37C
100
AcDbEntity
  8
00_COMPONENTS_3
100
AcDbLine
 62
7
  6
BYLAYER
 10
23.2020510173
 20
23.5251403458
 11
23.2079041443
 21
23.5308842553
  0
LINE
  5
37D
100
AcDbEntity
  8
0
100
AcDbLine
 62
7
  6
BYLAYER
 10
16.6110115366
 20
59.4337842553
 11
57.2002115366
 21
59.4337842553
  0
LINE
  5
37E
100
AcDbEntity
  8
0
100
AcDbLine
 62
7
  6
BYLAYER
 10
15.4680115366
 20
61.8340842553
 11
58.3432115366
 21
61.8340842553
  0
LINE
  5
37F
100
AcDbEntity
  8
00_COMPONENTS_3
100
AcDbLine
 62
7
  6
BYLAYER
 10
47.8238931499
 20
23.4503093764
 11
47.8238931499
 21
26.8074842553
  0
LINE
  5
380
100
AcDbEntity
  8
00_COMPONENTS_3
100
AcDbLine
 62
7
  6
BYLAYER
 10
48.0027914594
 20
23.5308842553
 11
48.0027914594
 21
26.8074842553
  0
LINE
  5
381
100
AcDbEntity
  8
00_COMPONENTS_3
100
AcDbLine
 62
7
  6
BYLAYER
 10
48.0552237018
 20
26.8074842553
 11
48.0552237018
 21
23.5308842553
  0
LINE
  5
382
100
AcDbEntity
  8
00_COMPONENTS_3
100
AcDbLine
 62
7
  6
BYLAYER
 10
48.1072379742
 20
23.479718913
 11
48.1072379742
 21
26.8074842553
  0
LINE
  5
383
100
AcDbEntity
  8
00_COMPONENTS_3
100
AcDbLine
 62
7
  6
BYLAYER
 10
48.1079477974
 20
23.4503093765
 11
48.1079478067
 21
23.1367447342
  0
LINE
  5
384
100
AcDbEntity
  8
00_COMPONENTS_3
100
AcDbLine
 62
7
  6
BYLAYER
 10
48.5377452997
 20
23.4503093764
 11
48.5377452997
 21
26.8074842553
  0
LINE
  5
385
100
AcDbEntity
  8
00_COMPONENTS_3
100
AcDbLine
 62
7
  6
BYLAYER
 10
48.707439901
 20
23.5308842553
 11
48.707439901
 21
26.8074842553
  0
LINE
  5
386
100
AcDbEntity
  8
00_COMPONENTS_3
100
AcDbLine
 62
7
  6
BYLAYER
 10
48.7415129997
 20
23.3304493706
 11
48.7415130061
 21
23.1367447799
  0
LINE
  5
387
100
AcDbEntity
  8
00_COMPONENTS_3
100
AcDbLine
 62
7
  6
BYLAYER
 10
48.7537171813
 20
26.8074842553
 11
48.7537171813
 21
23.5308842553
  0
LINE
  5
388
100
AcDbEntity
  8
00_COMPONENTS_3
100
AcDbLine
 62
7
  6
BYLAYER
 10
48.7930775863
 20
23.4921834894
 11
48.7930775863
 21
26.8074842553
  0
LINE
  5
389
100
AcDbEntity
  8
00_COMPONENTS_3
100
AcDbLine
 62
7
  6
BYLAYER
 10
49.1630698878
 20
23.4503093764
 11
49.1630698878
 21
26.8074842553
  0
LINE
  5
38A
100
AcDbEntity
  8
00_COMPONENTS_3
100
AcDbLine
 62
7
  6
BYLAYER
 10
49.2849998429
 20
23.2603746959
 11
49.2849998472
 21
23.1367448264
  0
LINE
  5
38B
100
AcDbEntity
  8
00_COMPONENTS_3
100
AcDbLine
 62
7
  6
BYLAYER
 10
49.3222693026
 20
23.5308842553
 11
49.3222693026
 21
26.8074842553
  0
LINE
  5
38C
100
AcDbEntity
  8
00_COMPONENTS_3
100
AcDbLine
 62
7
  6
BYLAYER
 10
49.3620394228
 20
26.8074842553
 11
49.3620394228
 21
23.5308842553
  0
LINE
  5
38D
100
AcDbEntity
  8
00_COMPONENTS_3
100
AcDbLine
 62
7
  6
BYLAYER
 10
49.3903794973
 20
23.5308842553
 11
49.3903794973
 21
26.8074842553
  0
LINE
  5
38E
100
AcDbEntity
  8
0
100
AcDbLine
 62
7
  6
BYLAYER
 10
49.3932115366
 20
93.9142842553
 11
49.3932115366
 21
78.9298328055
  0
LINE
  5
38F
100
AcDbEntity
  8
0
100
AcDbLine
 62
7
  6
BYLAYER
 10
49.3932115366
 20
76.8251807955
 11
49.3932115366
 21
69.2762842553
  0
LINE
  5
390
100
AcDbEntity
  8
00_COMPONENTS_3
100
AcDbLine
 62
7
  6
BYLAYER
 10
49.6951078166
 20
23.4503093764
 11
49.6951078166
 21
26.8074842553
  0
LINE
  5
391
100
AcDbEntity
  8
00_COMPONENTS_3
100
AcDbLine
 62
7
  6
BYLAYER
 10
49.7342720639
 20
23.2176250463
 11
49.7342720669
 21
23.1367448735
  0
LINE
  5
392
100
AcDbEntity
  8
00_COMPONENTS_3
100
AcDbLine
 62
7
  6
BYLAYER
 10
49.8426004412
 20
23.5308842553
 11
49.8426004412
 21
26.8074842553
  0
LINE
  5
393
100
AcDbEntity
  8
00_COMPONENTS_3
100
AcDbLine
 62
7
  6
BYLAYER
 10
49.8755607267
 20
26.8074842553
 11
49.8755607267
 21
23.5308842553
  0
LINE
  5
394
100
AcDbEntity
  8
00_COMPONENTS_3
100
AcDbLine
 62
7
  6
BYLAYER
 10
49.8945978791
 20
23.5308842553
 11
49.8945978791
 21
26.8074842553
  0
LINE
  5
395
100
AcDbEntity
  8
00_COMPONENTS_3
100
AcDbLine
 62
7
  6
BYLAYER
 10
50.0859104301
 20
23.1884776428
 11
50.0859104321
 21
23.1367449207
  0
LINE
  5
396
100
AcDbEntity
  8
00_COMPONENTS_3
100
AcDbLine
 62
7
  6
BYLAYER
 10
50.1298099562
 20
23.4503093764
 11
50.1298099562
 21
26.8074842553
  0
LINE
  5
397
100
AcDbEntity
  8
00_COMPONENTS_3
100
AcDbLine
 62
7
  6
BYLAYER
 10
50.2644732827
 20
23.5308842553
 11
50.2644732827
 21
26.8074842553
  0
LINE
  5
398
100
AcDbEntity
  8
00_COMPONENTS_3
100
AcDbLine
 62
7
  6
BYLAYER
 10
50.2903728858
 20
26.8074842553
 11
50.2903728858
 21
23.5308842553
  0
LINE
  5
399
100
AcDbEntity
  8
00_COMPONENTS_3
100
AcDbLine
 62
7
  6
BYLAYER
 10
50.3018953251
 20
23.5308842553
 11
50.3018953251
 21
26.8074842553
  0
LINE
  5
39A
100
AcDbEntity
  8
00_COMPONENTS_3
100
AcDbLine
 62
7
  6
BYLAYER
 10
50.3372387613
 20
23.1670014889
 11
50.3372387624
 21
23.1367449678
  0
LINE
  5
39B
100
AcDbEntity
  8
00_COMPONENTS_3
100
AcDbLine
 62
7
  6
BYLAYER
 10
50.4638679609
 20
23.4503093764
 11
50.4638679609
 21
26.8074842553
  0
LINE
  5
39C
100
AcDbEntity
  8
00_COMPONENTS_3
100
AcDbLine
 62
7
  6
BYLAYER
 10
50.486344297
 20
23.1502960197
 11
50.4863442975
 21
23.1367450144
  0
LINE
  5
39D
100
AcDbEntity
  8
00_COMPONENTS_3
100
AcDbLine
 62
7
  6
BYLAYER
 10
50.58467712
 20
23.5308842553
 11
50.58467712
 21
26.8074842553
  0
LINE
  5
39E
100
AcDbEntity
  8
00_COMPONENTS_3
100
AcDbLine
 62
7
  6
BYLAYER
 10
50.603318929
 20
26.8074842553
 11
50.603318929
 21
23.5308842553
  0
LINE
  5
39F
100
AcDbEntity
  8
00_COMPONENTS_3
100
AcDbLine
 62
7
  6
BYLAYER
 10
50.609172056
 20
23.5251359849
 11
50.609172056
 21
26.8074842553
  0
LINE
  5
3A0
100
AcDbEntity
  8
00_COMPONENTS_3
100
AcDbLine
 62
7
  6
BYLAYER
 10
50.6947394475
 20
23.4503093764
 11
50.6947394475
 21
26.8074842553
  0
LINE
  5
3A1
100
AcDbEntity
  8
00_COMPONENTS_3
100
AcDbLine
 62
7
  6
BYLAYER
 10
50.8007750086
 20
23.5308842553
 11
50.8007750086
 21
26.8074842553
  0
LINE
  5
3A2
100
AcDbEntity
  8
00_COMPONENTS_3
100
AcDbLine
 62
7
  6
BYLAYER
 10
50.8120171481
 20
26.8074842553
 11
50.8120171481
 21
23.5308842553
  0
LINE
  5
3A3
100
AcDbEntity
  8
00_COMPONENTS_3
100
AcDbLine
 62
7
  6
BYLAYER
 10
50.8140895102
 20
23.5288492883
 11
50.8140895102
 21
26.8074842553
  0
LINE
  5
3A4
100
AcDbEntity
  8
00_COMPONENTS_3
100
AcDbLine
 62
7
  6
BYLAYER
 10
50.8206673445
 20
23.4503093764
 11
50.8206673445
 21
26.8074842553
  0
LINE
  5
3A5
100
AcDbEntity
  8
00_COMPONENTS_3
100
AcDbLine
 62
7
  6
BYLAYER
 10
50.911122313
 20
23.5308842553
 11
50.911122313
 21
26.8074842553
  0
LINE
  5
3A6
100
AcDbEntity
  8
00_COMPONENTS_3
100
AcDbLine
 62
7
  6
BYLAYER
 10
50.9148792236
 20
26.8074842553
 11
50.9148792236
 21
23.5308842553
  0
LINE
  5
3A7
100
AcDbEntity
  8
00_COMPONENTS_3
100
AcDbLine
 62
7
  6
BYLAYER
 10
50.9264115366
 20
27.5186842553
 11
50.9264115366
 21
26.8074842553
  0
LINE
  5
3A8
100
AcDbEntity
  8
00_COMPONENTS_3
100
AcDbLine
 62
7
  6
BYLAYER
 10
47.3380803144
 20
23.4657148993
 11
47.3371137678
 21
23.4503093764
  0
LINE
  5
3A9
100
AcDbEntity
  8
00_COMPONENTS_3
100
AcDbLine
 62
7
  6
BYLAYER
 10
47.2986996149
 20
23.1308825254
 11
47.299076562
 21
23.1367447285
  0
LINE
  5
3AA
100
AcDbEntity
  8
00_COMPONENTS_3
100
AcDbLine
 62
7
  6
BYLAYER
 10
22.896134931
 20
23.5306891063
 11
22.8963438497
 21
23.5308842553
  0
LINE
  5
3AB
100
AcDbEntity
  8
0
100
AcDbLine
 62
7
  6
BYLAYER
 10
51.8916115366
 20
57.8462842553
 11
51.8916115366
 21
51.4962842553
  0
LINE
  5
3AC
100
AcDbEntity
  8
00_COMPONENTS
100
AcDbLine
 62
7
  6
BYLAYER
 10
52.9056115406
 20
41.1102786534
 11
52.9056115406
 21
27.7726842553
  0
LINE
  5
3AD
100
AcDbEntity
  8
0
100
AcDbLine
 62
7
  6
BYLAYER
 10
54.3208115366
 20
78.5760068005
 11
54.3208115366
 21
81.1115133231
  0
LINE
  5
3AE
100
AcDbEntity
  8
0
100
AcDbLine
 62
7
  6
BYLAYER
 10
54.3208115366
 20
82.0033903424
 11
54.3208115366
 21
85.3650804281
  0
LINE
  5
3AF
100
AcDbEntity
  8
0
100
AcDbLine
 62
7
  6
BYLAYER
 10
54.3208115366
 20
87.8436311175
 11
54.3208115366
 21
89.9660458584
  0
LINE
  5
3B0
100
AcDbEntity
  8
0
100
AcDbLine
 62
7
  6
BYLAYER
 10
54.3208115366
 20
90.8579228778
 11
54.3208115366
 21
93.9142842553
  0
LINE
  5
3B1
100
AcDbEntity
  8
00_COMPONENTS
100
AcDbLine
 62
7
  6
BYLAYER
 10
54.3681115366
 20
48.7022842553
 11
54.3681115366
 21
42.4092590217
  0
LINE
  5
3B2
100
AcDbEntity
  8
00_COMPONENTS_3
100
AcDbLine
 62
7
  6
BYLAYER
 10
48.1072379742
 20
23.4797224313
 11
48.1033791434
 21
23.4503093764
  0
LINE
  5
3B3
100
AcDbEntity
  8
00_COMPONENTS_3
100
AcDbLine
 62
7
  6
BYLAYER
 10
48.026089286
 20
23.1255882831
 11
48.0275942185
 21
23.1367447706
  0
LINE
  5
3B4
100
AcDbEntity
  8
00_COMPONENTS_3
100
AcDbLine
 62
7
  6
BYLAYER
 10
48.7930775863
 20
23.4921804273
 11
48.7844227462
 21
23.4503093764
  0
LINE
  5
3B5
100
AcDbEntity
  8
00_COMPONENTS_3
100
AcDbLine
 62
7
  6
BYLAYER
 10
48.6680915003
 20
23.1209075728
 11
48.6714668718
 21
23.1367448136
  0
LINE
  5
3B6
100
AcDbEntity
  8
00_COMPONENTS
100
AcDbLine
 62
7
  6
BYLAYER
 10
54.3681115366
 20
42.4092590217
 11
53.2993115406
 21
41.7921870563
  0
LINE
  5
3B7
100
AcDbEntity
  8
0
100
AcDbLine
 62
7
  6
BYLAYER
 10
15.4680115366
 20
66.795550922
 11
31.0421713144
 21
66.795550922
  0
LINE
  5
3B8
100
AcDbEntity
  8
0
100
AcDbLine
 62
7
  6
BYLAYER
 10
42.7690517589
 20
66.795550922
 11
58.3432115366
 21
66.795550922
  0
LINE
  5
3B9
100
AcDbEntity
  8
0
100
AcDbLine
 62
7
  6
BYLAYER
 10
15.5761104762
 20
78.4204768858
 11
14.7697500676
 21
78.7496721441
  0
LINE
  5
3BA
100
AcDbEntity
  8
0
100
AcDbLine
 62
7
  6
BYLAYER
 10
15.2777500676
 20
78.7252640981
 11
15.9305465432
 21
78.4587610529
  0
LINE
  5
3BB
100
AcDbEntity
  8
00_COMPONENTS
100
AcDbLine
 62
7
  6
BYLAYER
 10
55.3206115366
 20
49.9722842553
 11
55.3206115366
 21
48.7022842553
  0
LINE
  5
3BC
100
AcDbEntity
  8
00_COMPONENTS
100
AcDbLine
 62
7
  6
BYLAYER
 10
55.9556115366
 20
51.4962842553
 11
55.9556115366
 21
49.9722842553
  0
LINE
  5
3BD
100
AcDbEntity
  8
0
100
AcDbLine
 62
7
  6
BYLAYER
 10
56.7493615366
 20
59.4337842553
 11
56.7493615366
 21
57.8462842553
  0
LINE
  5
3BE
100
AcDbEntity
  8
0
100
AcDbLine
 62
7
  6
BYLAYER
 10
57.1148115366
 20
93.9142842553
 11
57.1148115366
 21
95.7176842553
  0
LINE
  5
3BF
100
AcDbEntity
  8
0
100
AcDbLine
 62
7
  6
BYLAYER
 10
57.2002115366
 20
61.8340842553
 11
57.2002115366
 21
59.4337842553
  0
LINE
  5
3C0
100
AcDbEntity
  8
00_COMPONENTS_3
100
AcDbLine
 62
7
  6
BYLAYER
 10
49.2198202333
 20
23.116893827
 11
49.2257942625
 21
23.1367448573
  0
LINE
  5
3C1
100
AcDbEntity
  8
0
100
AcDbLine
 62
7
  6
BYLAYER
 10
58.3432115366
 20
69.2762842553
 11
15.4680115366
 21
69.2762842553
  0
LINE
  5
3C2
100
AcDbEntity
  8
0
100
AcDbLine
 62
7
  6
BYLAYER
 10
26.9580115366
 20
69.3016842553
 11
26.9834115366
 21
69.3016842553
  0
LINE
  5
3C3
100
AcDbEntity
  8
0
100
AcDbLine
 62
7
  6
BYLAYER
 10
46.8278115366
 20
69.3016842553
 11
46.8532115366
 21
69.3016842553
  0
LINE
  5
3C4
100
AcDbEntity
  8
0
100
AcDbLine
 62
7
  6
BYLAYER
 10
24.4180115366
 20
69.4021049997
 11
11.7180115366
 21
69.4021049997
  0
LINE
  5
3C5
100
AcDbEntity
  8
0
100
AcDbLine
 62
7
  6
BYLAYER
 10
49.3932115366
 20
69.4021049997
 11
62.0932115366
 21
69.4021049997
  0
LINE
  5
3C6
100
AcDbEntity
  8
0
100
AcDbLine
 62
7
  6
BYLAYER
 10
15.2777500676
 20
79.3718425388
 11
16.9855228363
 21
78.6746472254
  0
LINE
  5
3C7
100
AcDbEntity
  8
0
100
AcDbLine
 62
7
  6
BYLAYER
 10
58.3432115366
 20
69.2762842553
 11
58.3432115366
 21
61.8340842553
  0
LINE
  5
3C8
100
AcDbEntity
  8
0
100
AcDbLine
 62
7
  6
BYLAYER
 10
60.5692115366
 20
93.9142842553
 11
60.5692115366
 21
95.7176842553
  0
LINE
  5
3C9
100
AcDbEntity
  8
0
100
AcDbLine
 62
7
  6
BYLAYER
 10
60.8232115366
 20
88.8404395469
 11
60.8232115366
 21
87.4722727419
  0
LINE
  5
3CA
100
AcDbEntity
  8
0
100
AcDbLine
 62
7
  6
BYLAYER
 10
60.8232115366
 20
79.9859070115
 11
60.8232115366
 21
78.6177402065
  0
LINE
  5
3CB
100
AcDbEntity
  8
00_COMPONENTS_3
100
AcDbLine
 62
7
  6
BYLAYER
 10
49.6770764961
 20
23.1135664363
 11
49.6863576245
 21
23.1367449011
  0
LINE
  5
3CC
100
AcDbEntity
  8
0
100
AcDbLine
 62
7
  6
BYLAYER
 10
62.0932115366
 20
69.4021049997
 11
62.0932115366
 21
93.9142842553
  0
LINE
  5
3CD
100
AcDbEntity
  8
00_COMPONENTS_2
100
AcDbLine
 62
7
  6
BYLAYER
 10
34.9045852423
 20
9.2612916491
 11
34.3491673604
 21
8.6464842553
  0
LINE
  5
3CE
100
AcDbEntity
  8
0
100
AcDbLine
 62
7
  6
BYLAYER
 10
49.3932115366
 20
76.8251807955
 11
46.8532115366
 21
76.8251807955
  0
LINE
  5
3CF
100
AcDbEntity
  8
0
100
AcDbLine
 62
7
  6
BYLAYER
 10
26.9580115366
 20
76.8251807955
 11
24.4180115366
 21
76.8251807955
  0
LINE
  5
3D0
100
AcDbEntity
  8
0
100
AcDbLine
 62
7
  6
BYLAYER
 10
26.9580115366
 20
77.1790068005
 11
16.7763759362
 21
77.1790068005
  0
LINE
  5
3D1
100
AcDbEntity
  8
0
100
AcDbLine
 62
7
  6
BYLAYER
 10
46.8532115366
 20
77.1790068005
 11
57.0348471371
 21
77.1790068005
  0
LINE
  5
3D2
100
AcDbEntity
  8
0
100
AcDbLine
 62
7
  6
BYLAYER
 10
26.9580115366
 20
78.5760068005
 11
19.4904115366
 21
78.5760068005
  0
LINE
  5
3D3
100
AcDbEntity
  8
0
100
AcDbLine
 62
7
  6
BYLAYER
 10
46.8532115366
 20
78.5760068005
 11
54.3208115366
 21
78.5760068005
  0
LINE
  5
3D4
100
AcDbEntity
  8
0
100
AcDbLine
 62
7
  6
BYLAYER
 10
24.4180115366
 20
78.9298328055
 11
26.9580115366
 21
78.9298328055
  0
LINE
  5
3D5
100
AcDbEntity
  8
0
100
AcDbLine
 62
7
  6
BYLAYER
 10
46.8532115366
 20
78.9298328055
 11
49.3932115366
 21
78.9298328055
  0
LINE
  5
3D6
100
AcDbEntity
  8
0
100
AcDbLine
 62
7
  6
BYLAYER
 10
15.5761104762
 20
87.2750094212
 11
14.7697500676
 21
87.6042046795
  0
LINE
  5
3D7
100
AcDbEntity
  8
0
100
AcDbLine
 62
7
  6
BYLAYER
 10
15.2777500676
 20
87.5797966334
 11
15.9305465433
 21
87.3132935882
  0
LINE
  5
3D8
100
AcDbEntity
  8
0
100
AcDbLine
 62
7
  6
BYLAYER
 10
15.2777500676
 20
88.2263750742
 11
16.9855228363
 21
87.5291797608
  0
LINE
  5
3D9
100
AcDbEntity
  8
00_COMPONENTS_3
100
AcDbLine
 62
7
  6
BYLAYER
 10
50.7986999086
 20
23.4072492679
 11
50.8406932648
 21
23.4503093764
  0
LINE
  5
3DA
100
AcDbEntity
  8
00_COMPONENTS
100
AcDbLine
 62
7
  6
BYLAYER
 10
52.9056115406
 20
27.7726842553
 11
52.6516115406
 21
27.5186842553
  0
LINE
  5
3DB
100
AcDbEntity
  8
00_COMPONENTS_3
100
AcDbLine
 62
7
  6
BYLAYER
 10
50.1390115367
 20
22.7434842553
 11
50.5320921011
 21
23.1367450724
  0
LINE
  5
3DC
100
AcDbEntity
  8
00_COMPONENTS_3
100
AcDbLine
 62
7
  6
BYLAYER
 10
50.8206673445
 20
23.4503093764
 11
50.7858151408
 21
23.4173108132
  0
LINE
  5
3DD
100
AcDbEntity
  8
00_COMPONENTS_3
100
AcDbLine
 62
7
  6
BYLAYER
 10
50.6947394475
 20
23.4503093764
 11
50.6209075932
 21
23.3850043107
  0
LINE
  5
3DE
100
AcDbEntity
  8
0
100
AcDbLine
 62
7
  6
BYLAYER
 10
16.7763759362
 20
77.1790068005
 11
11.7180115366
 21
75.877156695
  0
LINE
  5
3DF
100
AcDbEntity
  8
0
100
AcDbLine
 62
7
  6
BYLAYER
 10
12.9880115366
 20
79.9859070115
 11
14.7592339007
 21
79.9859070115
  0
LINE
  5
3E0
100
AcDbEntity
  8
0
100
AcDbLine
 62
7
  6
BYLAYER
 10
59.0519891726
 20
79.9859070115
 11
60.8232115366
 21
79.9859070115
  0
LINE
  5
3E1
100
AcDbEntity
  8
0
100
AcDbLine
 62
7
  6
BYLAYER
 10
62.0932115366
 20
75.8771566949
 11
57.0348471371
 21
77.1790068005
  0
LINE
  5
3E2
100
AcDbEntity
  8
0
100
AcDbLine
 62
7
  6
BYLAYER
 10
14.0228589324
 20
78.8840745559
 11
11.7180115366
 21
78.2908856141
  0
LINE
  5
3E3
100
AcDbEntity
  8
0
100
AcDbLine
 62
7
  6
BYLAYER
 10
24.4180115366
 20
85.3650804281
 11
19.4904115366
 21
85.3650804281
  0
LINE
  5
3E4
100
AcDbEntity
  8
0
100
AcDbLine
 62
7
  6
BYLAYER
 10
49.3932115366
 20
85.3650804281
 11
54.3208115366
 21
85.3650804281
  0
LINE
  5
3E5
100
AcDbEntity
  8
0
100
AcDbLine
 62
7
  6
BYLAYER
 10
62.0932115366
 20
78.2908856141
 11
59.7883641409
 21
78.8840745559
  0
LINE
  5
3E6
100
AcDbEntity
  8
0
100
AcDbLine
 62
7
  6
BYLAYER
 10
57.0348471371
 20
77.1790068005
 11
54.3208115366
 21
78.5760068005
  0
LINE
  5
3E7
100
AcDbEntity
  8
0
100
AcDbLine
 62
7
  6
BYLAYER
 10
11.7180115366
 20
80.8233178402
 11
14.0228589324
 21
81.416506782
  0
LINE
  5
3E8
100
AcDbEntity
  8
0
100
AcDbLine
 62
7
  6
BYLAYER
 10
11.7180115366
 20
83.3647303225
 11
19.4904115366
 21
85.3650804281
  0
LINE
  5
3E9
100
AcDbEntity
  8
0
100
AcDbLine
 62
7
  6
BYLAYER
 10
24.4180115366
 20
87.8436311175
 11
19.4904115366
 21
87.8436311175
  0
LINE
  5
3EA
100
AcDbEntity
  8
0
100
AcDbLine
 62
7
  6
BYLAYER
 10
49.3932115366
 20
87.8436311175
 11
54.3208115366
 21
87.8436311175
  0
LINE
  5
3EB
100
AcDbEntity
  8
0
100
AcDbLine
 62
7
  6
BYLAYER
 10
12.9880115366
 20
88.8404395469
 11
14.7592339007
 21
88.8404395469
  0
LINE
  5
3EC
100
AcDbEntity
  8
0
100
AcDbLine
 62
7
  6
BYLAYER
 10
59.0519891726
 20
88.8404395469
 11
60.8232115366
 21
88.8404395469
  0
LINE
  5
3ED
100
AcDbEntity
  8
0
100
AcDbLine
 62
7
  6
BYLAYER
 10
59.7883641409
 20
81.416506782
 11
62.0932115366
 21
80.8233178402
  0
LINE
  5
3EE
100
AcDbEntity
  8
0
100
AcDbLine
 62
7
  6
BYLAYER
 10
62.0932115366
 20
83.3647303225
 11
54.3208115366
 21
85.3650804281
  0
LINE
  5
3EF
100
AcDbEntity
  8
0
100
AcDbLine
 62
7
  6
BYLAYER
 10
19.4904115366
 20
87.8436311175
 11
11.7180115366
 21
85.8432810119
  0
LINE
  5
3F0
100
AcDbEntity
  8
0
100
AcDbLine
 62
7
  6
BYLAYER
 10
14.0228589324
 20
87.7386070913
 11
11.7180115366
 21
87.1454181494
  0
LINE
  5
3F1
100
AcDbEntity
  8
0
100
AcDbLine
 62
7
  6
BYLAYER
 10
62.0932115366
 20
85.8432810119
 11
54.3208115366
 21
87.8436311175
  0
LINE
  5
3F2
100
AcDbEntity
  8
0
100
AcDbLine
 62
7
  6
BYLAYER
 10
62.0932115366
 20
87.1454181494
 11
59.7883641409
 21
87.7386070913
  0
LINE
  5
3F3
100
AcDbEntity
  8
0
100
AcDbLine
 62
7
  6
BYLAYER
 10
11.7180115366
 20
89.6778503756
 11
14.0228589324
 21
90.2710393174
  0
LINE
  5
3F4
100
AcDbEntity
  8
0
100
AcDbLine
 62
7
  6
BYLAYER
 10
46.8532115366
 20
93.8888842553
 11
46.8278115366
 21
93.8888842553
  0
LINE
  5
3F5
100
AcDbEntity
  8
0
100
AcDbLine
 62
7
  6
BYLAYER
 10
26.9834115366
 20
93.8888842553
 11
26.9580115366
 21
93.8888842553
  0
LINE
  5
3F6
100
AcDbEntity
  8
0
100
AcDbLine
 62
7
  6
BYLAYER
 10
11.7180115366
 20
93.9142842553
 11
62.0932115366
 21
93.9142842553
  0
LINE
  5
3F7
100
AcDbEntity
  8
0
100
AcDbLine
 62
7
  6
BYLAYER
 10
60.5692115366
 20
95.7176842553
 11
57.1148115366
 21
95.7176842553
  0
LINE
  5
3F8
100
AcDbEntity
  8
0
100
AcDbLine
 62
7
  6
BYLAYER
 10
16.6964115366
 20
95.7176842553
 11
13.2420115366
 21
95.7176842553
  0
LINE
  5
3F9
100
AcDbEntity
  8
0
100
AcDbLine
 62
7
  6
BYLAYER
 10
59.7883641409
 20
90.2710393174
 11
62.0932115366
 21
89.6778503756
  0
ARC
  5
3FA
100
AcDbEntity
  8
00_COMPONENTS_3
100
AcDbCircle
 62
7
  6
BYLAYER
 10
-95.4811200337
 20
38.2990968112
 40
124.6073823731
100
AcDbArc
 50
353.0108714931
 51
353.1561089315
  0
ARC
  5
3FB
100
AcDbEntity
  8
00_COMPONENTS_3
100
AcDbCircle
 62
7
  6
BYLAYER
 10
-75.0239187699
 20
38.1343213783
 40
123.2389649915
100
AcDbArc
 50
353.0100589679
 51
353.1569089586
  0
ARC
  5
3FC
100
AcDbEntity
  8
00_COMPONENTS_3
100
AcDbCircle
 62
7
  6
BYLAYER
 10
-35.5619553005
 20
38.9421103875
 40
66.6114060254
100
AcDbArc
 50
346.2741076543
 51
346.5515863488
  0
ARC
  5
3FD
100
AcDbEntity
  8
00_COMPONENTS_3
100
AcDbCircle
 62
7
  6
BYLAYER
 10
27.330471845
 20
27.697941791
 40
6.0869923354
100
AcDbArc
 50
223.8712610527
 51
224.252460465
  0
ARC
  5
3FE
100
AcDbEntity
  8
00_COMPONENTS_3
100
AcDbCircle
 62
7
  6
BYLAYER
 10
20.2181890981
 20
20.5303103132
 40
4.026463866
100
AcDbArc
 50
46.4856423477
 51
47.2074737368
  0
ARC
  5
3FF
100
AcDbEntity
  8
00_COMPONENTS_3
100
AcDbCircle
 62
7
  6
BYLAYER
 10
24.0782113728
 20
23.9481188548
 40
1.1071756518
100
AcDbArc
 50
227.1243725354
 51
227.6573929492
  0
ARC
  5
400
100
AcDbEntity
  8
00_COMPONENTS_2
100
AcDbCircle
 62
7
  6
BYLAYER
 10
31.1194946959
 20
22.4894842553
 40
0.254
100
AcDbArc
 50
5.7105931374
 51
90.0
  0
ARC
  5
401
100
AcDbEntity
  8
00_COMPONENTS_2
100
AcDbCircle
 62
7
  6
BYLAYER
 10
33.1667283774
 20
7.1224842553
 40
0.254
100
AcDbArc
 50
185.7105931374
 51
270.0
  0
ARC
  5
402
100
AcDbEntity
  8
00_COMPONENTS_3
100
AcDbCircle
 62
7
  6
BYLAYER
 10
-15.9963334678
 20
38.7765255576
 40
65.9064948187
100
AcDbArc
 50
346.2726094326
 51
346.5530556484
  0
ARC
  5
403
100
AcDbEntity
  8
00_COMPONENTS_3
100
AcDbCircle
 62
7
  6
BYLAYER
 10
15.7786198727
 20
66.4820738767
 40
53.1807357936
100
AcDbArc
 50
305.4070049341
 51
305.9859839088
  0
ARC
  5
404
100
AcDbEntity
  8
00_COMPONENTS_3
100
AcDbCircle
 62
7
  6
BYLAYER
 10
14.9430098287
 20
66.2656795827
 40
52.9831816399
100
AcDbArc
 50
305.5102323685
 51
306.0899126236
  0
ARC
  5
405
100
AcDbEntity
  8
00_COMPONENTS_3
100
AcDbCircle
 62
7
  6
BYLAYER
 10
16.6139397747
 20
66.2656787923
 40
52.9831770273
100
AcDbArc
 50
305.5102270055
 51
306.0899072317
  0
ARC
  5
406
100
AcDbEntity
  8
00_COMPONENTS_3
100
AcDbCircle
 62
7
  6
BYLAYER
 10
14.1116068195
 20
65.6230707248
 40
52.3981465034
100
AcDbArc
 50
305.8222662311
 51
306.4040200614
  0
ARC
  5
407
100
AcDbEntity
  8
00_COMPONENTS_3
100
AcDbCircle
 62
7
  6
BYLAYER
 10
17.440749876
 20
65.6230691766
 40
52.3981373099
100
AcDbArc
 50
305.8222555078
 51
306.4040092805
  0
ARC
  5
408
100
AcDbEntity
  8
00_COMPONENTS_3
100
AcDbCircle
 62
7
  6
BYLAYER
 10
13.2849908532
 20
64.5737720011
 40
51.4484514396
100
AcDbArc
 50
306.350261314
 51
306.9353650401
  0
ARC
  5
409
100
AcDbEntity
  8
00_COMPONENTS_3
100
AcDbCircle
 62
7
  6
BYLAYER
 10
18.2470101413
 20
64.5737697537
 40
51.4484377182
100
AcDbArc
 50
306.3502452392
 51
306.9353488791
  0
ARC
  5
40A
100
AcDbEntity
  8
00_COMPONENTS_3
100
AcDbCircle
 62
7
  6
BYLAYER
 10
12.4593108302
 20
63.1496647195
 40
50.1719137716
100
AcDbArc
 50
307.1064210099
 51
307.6959727363
  0
ARC
  5
40B
100
AcDbEntity
  8
00_COMPONENTS_3
100
AcDbCircle
 62
7
  6
BYLAYER
 10
19.0164422636
 20
63.1496618602
 40
50.1718955965
100
AcDbArc
 50
307.1063996062
 51
307.6959512176
  0
ARC
  5
40C
100
AcDbEntity
  8
00_COMPONENTS_3
100
AcDbCircle
 62
7
  6
BYLAYER
 10
-16.1452352987
 20
39.9919514804
 40
49.2709614079
100
AcDbArc
 50
339.9956119711
 51
340.3831857254
  0
ARC
  5
40D
100
AcDbEntity
  8
00_COMPONENTS_3
100
AcDbCircle
 62
7
  6
BYLAYER
 10
2.8358746355
 20
39.8253027215
 40
48.7791910607
100
AcDbArc
 50
339.993634949
 51
340.3851156195
  0
ARC
  5
40E
100
AcDbEntity
  8
00_COMPONENTS_3
100
AcDbCircle
 62
7
  6
BYLAYER
 10
11.6253624083
 20
61.3940180841
 40
48.6211387055
100
AcDbArc
 50
308.108408503
 51
308.7032159465
  0
ARC
  5
40F
100
AcDbEntity
  8
00_COMPONENTS_3
100
AcDbCircle
 62
7
  6
BYLAYER
 10
19.7277021219
 20
61.3940147177
 40
48.6211161513
100
AcDbArc
 50
308.1083818194
 51
308.7031891196
  0
ARC
  5
410
100
AcDbEntity
  8
00_COMPONENTS_3
100
AcDbCircle
 62
7
  6
BYLAYER
 10
10.6869990127
 20
59.4566986745
 40
46.9889123851
100
AcDbArc
 50
309.3807009532
 51
309.9795196305
  0
ARC
  5
411
100
AcDbEntity
  8
00_COMPONENTS_3
100
AcDbCircle
 62
7
  6
BYLAYER
 10
20.2787208961
 20
59.4496584943
 40
46.9797428711
100
AcDbArc
 50
309.3806108184
 51
309.9795458602
  0
ARC
  5
412
100
AcDbEntity
  8
00_COMPONENTS_3
100
AcDbCircle
 62
7
  6
BYLAYER
 10
9.7749586746
 20
57.2058595838
 40
45.1092450414
100
AcDbArc
 50
310.9520875138
 51
311.5560890202
  0
ARC
  5
413
100
AcDbEntity
  8
00_COMPONENTS_3
100
AcDbCircle
 62
7
  6
BYLAYER
 10
20.9923436427
 20
56.9533270316
 40
44.7736986641
100
AcDbArc
 50
310.9503479476
 51
311.4327387984
  0
ARC
  5
414
100
AcDbEntity
  8
00_COMPONENTS_3
100
AcDbCircle
 62
7
  6
BYLAYER
 10
8.773526977
 20
54.8068511468
 40
43.2057610152
100
AcDbArc
 50
312.8609586914
 51
313.4688009336
  0
ARC
  5
415
100
AcDbEntity
  8
00_COMPONENTS_3
100
AcDbCircle
 62
7
  6
BYLAYER
 10
21.2918239394
 20
54.5985541486
 40
42.9204549479
100
AcDbArc
 50
312.8593227191
 51
313.4071339775
  0
ARC
  5
416
100
AcDbEntity
  8
00_COMPONENTS_3
100
AcDbCircle
 62
7
  6
BYLAYER
 10
-6.786418887
 20
41.4167308189
 40
42.1652485549
100
AcDbArc
 50
334.3080776154
 51
334.7799771274
  0
ARC
  5
417
100
AcDbEntity
  8
00_COMPONENTS_3
100
AcDbCircle
 62
7
  6
BYLAYER
 10
11.5819965621
 20
41.248757622
 40
41.7744001936
100
AcDbArc
 50
334.3058377353
 51
334.7821518757
  0
ARC
  5
418
100
AcDbEntity
  8
00_COMPONENTS_3
100
AcDbCircle
 62
7
  6
BYLAYER
 10
7.6238142329
 20
52.3325811563
 40
41.3996085472
100
AcDbArc
 50
315.1526703043
 51
315.761553045
  0
ARC
  5
419
100
AcDbEntity
  8
00_COMPONENTS_3
100
AcDbCircle
 62
7
  6
BYLAYER
 10
21.476548736
 20
52.0404035967
 40
40.9834854082
100
AcDbArc
 50
315.1501459304
 51
315.6811240363
  0
ARC
  5
41A
100
AcDbEntity
  8
00_COMPONENTS_3
100
AcDbCircle
 62
7
  6
BYLAYER
 10
6.2351240811
 20
49.8582448107
 40
39.842153125
100
AcDbArc
 50
317.8801105055
 51
318.4851635947
  0
ARC
  5
41B
100
AcDbEntity
  8
00_COMPONENTS_3
100
AcDbCircle
 62
7
  6
BYLAYER
 10
21.1176733648
 20
49.6827868878
 40
39.5789607955
100
AcDbArc
 50
317.8780410063
 51
318.4871169276
  0
ARC
  5
41C
100
AcDbEntity
  8
00_COMPONENTS_3
100
AcDbCircle
 62
7
  6
BYLAYER
 10
-1.3936397622
 20
43.1731614387
 40
39.2103834324
100
AcDbArc
 50
329.2696888233
 51
329.8012729615
  0
ARC
  5
41D
100
AcDbEntity
  8
00_COMPONENTS_3
100
AcDbCircle
 62
7
  6
BYLAYER
 10
16.2701155533
 20
43.003612456
 40
38.8759264898
100
AcDbArc
 50
329.2673617045
 51
329.8035185462
  0
ARC
  5
41E
100
AcDbEntity
  8
00_COMPONENTS_3
100
AcDbCircle
 62
7
  6
BYLAYER
 10
4.4630360026
 20
47.459038495
 40
38.7339095003
100
AcDbArc
 50
321.102224007
 51
321.6957321299
  0
ARC
  5
41F
100
AcDbEntity
  8
00_COMPONENTS_3
100
AcDbCircle
 62
7
  6
BYLAYER
 10
20.3847556034
 20
47.2856998986
 40
38.4560341318
100
AcDbArc
 50
321.1000265002
 51
321.6978225292
  0
ARC
  5
420
100
AcDbEntity
  8
00_COMPONENTS_3
100
AcDbCircle
 62
7
  6
BYLAYER
 10
2.0655230988
 20
45.2078739026
 40
38.3653371171
100
AcDbArc
 50
324.8801755229
 51
325.4506984957
  0
ARC
  5
421
100
AcDbEntity
  8
00_COMPONENTS_3
100
AcDbCircle
 62
7
  6
BYLAYER
 10
18.9149773977
 20
45.0365229954
 40
38.0653152905
100
AcDbArc
 50
324.8778796861
 51
325.4528987346
  0
ARC
  5
422
100
AcDbEntity
  8
00_COMPONENTS
100
AcDbCircle
 62
7
  6
BYLAYER
 10
20.1182115326
 20
41.1102786534
 40
0.7874
100
AcDbArc
 50
0.0
 51
60.0
  0
ARC
  5
423
100
AcDbEntity
  8
00_COMPONENTS_2
100
AcDbCircle
 62
7
  6
BYLAYER
 10
36.218467077
 20
92.6587099145
 40
70.1228630757
100
AcDbArc
 50
266.1518458435
 51
268.1034005471
  0
ARC
  5
424
100
AcDbEntity
  8
0
100
AcDbCircle
 62
7
  6
BYLAYER
 10
16.5735179159
 20
85.9531470804
 40
2.079664176
100
AcDbArc
 50
128.5403706278
 51
133.7507702358
  0
ARC
  5
425
100
AcDbEntity
  8
0
100
AcDbCircle
 62
7
  6
BYLAYER
 10
16.5735179159
 20
77.0986145451
 40
2.079664176
100
AcDbArc
 50
128.5403706277
 51
133.7507702358
  0
ARC
  5
426
100
AcDbEntity
  8
00_COMPONENTS_3
100
AcDbCircle
 62
7
  6
BYLAYER
 10
46.9491015286
 20
27.2446829661
 40
5.4352329461
100
AcDbArc
 50
315.7246835257
 51
316.1515830521
  0
ARC
  5
427
100
AcDbEntity
  8
00_COMPONENTS_3
100
AcDbCircle
 62
7
  6
BYLAYER
 10
53.8904132244
 20
20.2131173147
 40
4.4612500728
100
AcDbArc
 50
132.8276865741
 51
133.4791817568
  0
ARC
  5
428
100
AcDbEntity
  8
00_COMPONENTS_2
100
AcDbCircle
 62
7
  6
BYLAYER
 10
42.6917283774
 20
22.4894842553
 40
0.254
100
AcDbArc
 50
90.0
 51
174.2894068626
  0
ARC
  5
429
100
AcDbEntity
  8
00_COMPONENTS_2
100
AcDbCircle
 62
7
  6
BYLAYER
 10
40.6444946959
 20
7.1224842553
 40
0.254
100
AcDbArc
 50
270.0
 51
354.2894068626
  0
ARC
  5
42A
100
AcDbEntity
  8
00_COMPONENTS_3
100
AcDbCircle
 62
7
  6
BYLAYER
 10
36.9057489619
 20
23.2064570665
 40
0.0989219861
100
AcDbArc
 50
224.8072081583
 51
315.1927157276
  0
ARC
  5
42B
100
AcDbEntity
  8
00_COMPONENTS_3
100
AcDbCircle
 62
7
  6
BYLAYER
 10
90.4891667312
 20
38.9412504254
 40
66.6077250661
100
AcDbArc
 50
193.4484102176
 51
193.7259041741
  0
ARC
  5
42C
100
AcDbEntity
  8
00_COMPONENTS_3
100
AcDbCircle
 62
7
  6
BYLAYER
 10
58.0326177468
 20
66.4820733238
 40
53.1807438933
100
AcDbArc
 50
234.0140030602
 51
234.5929821812
  0
ARC
  5
42D
100
AcDbEntity
  8
00_COMPONENTS_3
100
AcDbCircle
 62
7
  6
BYLAYER
 10
58.8682251029
 20
66.2656780874
 40
52.9831874167
100
AcDbArc
 50
233.9100760612
 51
234.4897564751
  0
ARC
  5
42E
100
AcDbEntity
  8
00_COMPONENTS_3
100
AcDbCircle
 62
7
  6
BYLAYER
 10
57.1973003857
 20
66.2656791908
 40
52.9831874145
100
AcDbArc
 50
233.9100780902
 51
234.4897584495
  0
ARC
  5
42F
100
AcDbEntity
  8
00_COMPONENTS_3
100
AcDbCircle
 62
7
  6
BYLAYER
 10
59.6996253194
 20
65.6230683305
 40
52.3981499566
100
AcDbArc
 50
233.5959704063
 51
234.1777244072
  0
ARC
  5
430
100
AcDbEntity
  8
00_COMPONENTS_3
100
AcDbCircle
 62
7
  6
BYLAYER
 10
56.3704926424
 20
65.6230704979
 40
52.3981499135
100
AcDbArc
 50
233.5959744636
 51
234.1777283554
  0
ARC
  5
431
100
AcDbEntity
  8
00_COMPONENTS_3
100
AcDbCircle
 62
7
  6
BYLAYER
 10
60.5262384278
 20
64.5737687821
 40
51.4484525969
100
AcDbArc
 50
233.0646272799
 51
233.6497311876
  0
ARC
  5
432
100
AcDbEntity
  8
00_COMPONENTS_3
100
AcDbCircle
 62
7
  6
BYLAYER
 10
55.5642345234
 20
64.5737719358
 40
51.448452437
100
AcDbArc
 50
233.0646333614
 51
233.6497371055
  0
ARC
  5
433
100
AcDbEntity
  8
00_COMPONENTS_3
100
AcDbCircle
 62
7
  6
BYLAYER
 10
61.3519155717
 20
63.1496607815
 40
50.171912691
100
AcDbArc
 50
232.304021506
 51
232.8935734239
  0
ARC
  5
434
100
AcDbEntity
  8
00_COMPONENTS_3
100
AcDbCircle
 62
7
  6
BYLAYER
 10
54.7948043154
 20
63.1496648123
 40
50.1719123054
100
AcDbArc
 50
232.3040296037
 51
232.8935813037
  0
ARC
  5
435
100
AcDbEntity
  8
00_COMPONENTS_3
100
AcDbCircle
 62
7
  6
BYLAYER
 10
71.4342068178
 20
39.9905843369
 40
49.2669064683
100
AcDbArc
 50
199.6168071302
 51
200.0044126444
  0
ARC
  5
436
100
AcDbEntity
  8
00_COMPONENTS_3
100
AcDbCircle
 62
7
  6
BYLAYER
 10
89.4987060423
 20
39.8270642338
 40
48.7844202547
100
AcDbArc
 50
199.6148919751
 51
200.0063309587
  0
ARC
  5
437
100
AcDbEntity
  8
00_COMPONENTS_3
100
AcDbCircle
 62
7
  6
BYLAYER
 10
62.18586113
 20
61.3940135528
 40
48.6211354601
100
AcDbArc
 50
231.296780287
 51
231.8915879311
  0
ARC
  5
438
100
AcDbEntity
  8
00_COMPONENTS_3
100
AcDbCircle
 62
7
  6
BYLAYER
 10
54.0835461315
 20
61.394018325
 40
48.6211347112
100
AcDbArc
 50
231.296790382
 51
231.8915977544
  0
ARC
  5
439
100
AcDbEntity
  8
00_COMPONENTS_3
100
AcDbCircle
 62
7
  6
BYLAYER
 10
62.982257934
 20
59.2855766709
 40
46.7665708425
100
AcDbArc
 50
230.0190552019
 51
230.6207209996
  0
ARC
  5
43A
100
AcDbEntity
  8
00_COMPONENTS_3
100
AcDbCircle
 62
7
  6
BYLAYER
 10
53.3945475341
 20
59.2833458196
 40
46.7636640263
100
AcDbArc
 50
230.0190485668
 51
230.6207514224
  0
ARC
  5
43B
100
AcDbEntity
  8
00_COMPONENTS_3
100
AcDbCircle
 62
7
  6
BYLAYER
 10
63.886602639
 20
57.0352281445
 40
44.8822818442
100
AcDbArc
 50
228.442384236
 51
229.0494402351
  0
ARC
  5
43C
100
AcDbEntity
  8
00_COMPONENTS_3
100
AcDbCircle
 62
7
  6
BYLAYER
 10
52.7356173521
 20
56.8581525904
 40
44.6472453488
100
AcDbArc
 50
228.5665471434
 51
229.0503045836
  0
ARC
  5
43D
100
AcDbEntity
  8
00_COMPONENTS_3
100
AcDbCircle
 62
7
  6
BYLAYER
 10
64.8782340182
 20
54.6368354053
 40
42.9726688134
100
AcDbArc
 50
226.5295531192
 51
227.1406925355
  0
ARC
  5
43E
100
AcDbEntity
  8
00_COMPONENTS_3
100
AcDbCircle
 62
7
  6
BYLAYER
 10
52.4619386411
 20
54.5371921978
 40
42.8363905712
100
AcDbArc
 50
226.5923013747
 51
227.1411880351
  0
ARC
  5
43F
100
AcDbEntity
  8
00_COMPONENTS_3
100
AcDbCircle
 62
7
  6
BYLAYER
 10
62.5780015051
 20
41.4147709087
 40
42.1606668075
100
AcDbArc
 50
205.2200113833
 51
205.6919619746
  0
ARC
  5
440
100
AcDbEntity
  8
00_COMPONENTS_3
100
AcDbCircle
 62
7
  6
BYLAYER
 10
80.2500660535
 20
41.2512824984
 40
41.7803074581
100
AcDbArc
 50
205.2178602821
 51
205.6941074882
  0
ARC
  5
441
100
AcDbEntity
  8
00_COMPONENTS_3
100
AcDbCircle
 62
7
  6
BYLAYER
 10
66.0153801505
 20
52.1632804974
 40
41.1582479506
100
AcDbArc
 50
224.2366663668
 51
224.8491198107
  0
ARC
  5
442
100
AcDbEntity
  8
00_COMPONENTS_3
100
AcDbCircle
 62
7
  6
BYLAYER
 10
52.404524608
 20
52.1092183828
 40
41.0815381814
100
AcDbArc
 50
224.3194804921
 51
224.8491916127
  0
ARC
  5
443
100
AcDbEntity
  8
00_COMPONENTS_3
100
AcDbCircle
 62
7
  6
BYLAYER
 10
52.8836698102
 20
49.8528551044
 40
39.8340432731
100
AcDbArc
 50
221.5148087761
 51
222.119984745
  0
ARC
  5
444
100
AcDbEntity
  8
00_COMPONENTS_3
100
AcDbCircle
 62
7
  6
BYLAYER
 10
67.3877300897
 20
49.6897271305
 40
39.589409634
100
AcDbArc
 50
221.5129118187
 51
222.121827689
  0
ARC
  5
445
100
AcDbEntity
  8
00_COMPONENTS_3
100
AcDbCircle
 62
7
  6
BYLAYER
 10
57.8248670271
 20
43.1705062492
 40
39.2051235251
100
AcDbArc
 50
210.1987110555
 51
210.7303662596
  0
ARC
  5
446
100
AcDbEntity
  8
00_COMPONENTS_3
100
AcDbCircle
 62
7
  6
BYLAYER
 10
74.9224173502
 20
43.0070326427
 40
38.8827068813
100
AcDbArc
 50
210.1964982885
 51
210.7325621607
  0
ARC
  5
447
100
AcDbEntity
  8
00_COMPONENTS_3
100
AcDbCircle
 62
7
  6
BYLAYER
 10
53.6381404608
 20
47.4546618486
 40
38.7268692456
100
AcDbArc
 50
218.3042436762
 51
218.8978593938
  0
ARC
  5
448
100
AcDbEntity
  8
00_COMPONENTS_3
100
AcDbCircle
 62
7
  6
BYLAYER
 10
69.1381083378
 20
47.2913361596
 40
38.4651062046
100
AcDbArc
 50
218.3022027346
 51
218.8998584407
  0
ARC
  5
449
100
AcDbEntity
  8
00_COMPONENTS_3
100
AcDbCircle
 62
7
  6
BYLAYER
 10
55.1375232417
 20
45.2044126069
 40
38.3592535015
100
AcDbArc
 50
214.5492812204
 51
215.1198943906
  0
ARC
  5
44A
100
AcDbEntity
  8
00_COMPONENTS_3
100
AcDbCircle
 62
7
  6
BYLAYER
 10
71.5058693754
 20
45.0409809031
 40
38.0731558771
100
AcDbArc
 50
214.5471225328
 51
215.1220237763
  0
ARC
  5
44B
100
AcDbEntity
  8
00_COMPONENTS
100
AcDbCircle
 62
7
  6
BYLAYER
 10
53.6930115406
 20
41.1102786534
 40
0.7874
100
AcDbArc
 50
120.0
 51
180.0
  0
ARC
  5
44C
100
AcDbEntity
  8
00_COMPONENTS_3
100
AcDbCircle
 62
7
  6
BYLAYER
 10
150.1901706572
 20
38.298682821
 40
124.6039246185
100
AcDbArc
 50
186.8438901662
 51
186.989131615
  0
ARC
  5
44D
100
AcDbEntity
  8
00_COMPONENTS_3
100
AcDbCircle
 62
7
  6
BYLAYER
 10
167.9383093925
 20
38.134854852
 40
123.2434249931
100
AcDbArc
 50
186.8430920066
 51
186.9899367214
  0
ARC
  5
44E
100
AcDbEntity
  8
00_COMPONENTS_3
100
AcDbCircle
 62
7
  6
BYLAYER
 10
108.6926053863
 20
38.7776336467
 40
65.9112422469
100
AcDbArc
 50
193.4469480153
 51
193.7273741719
  0
ARC
  5
44F
100
AcDbEntity
  8
00_COMPONENTS_2
100
AcDbCircle
 62
7
  6
BYLAYER
 10
36.4909060118
 20
137.2786117418
 40
117.0264344863
100
AcDbArc
 50
267.5989565026
 51
268.6569388158
  0
ARC
  5
450
100
AcDbEntity
  8
00_COMPONENTS_2
100
AcDbCircle
 62
7
  6
BYLAYER
 10
37.4284812096
 20
133.9040102915
 40
113.6502695727
100
AcDbArc
 50
271.2807148765
 51
272.4178343204
  0
ARC
  5
451
100
AcDbEntity
  8
00_COMPONENTS_2
100
AcDbCircle
 62
7
  6
BYLAYER
 10
37.5604978496
 20
93.2920925265
 40
70.7570358776
100
AcDbArc
 50
271.8350616455
 51
273.8052393554
  0
SPLINE
  5
452
100
AcDbEntity
  8
00_COMPONENTS_3
100
AcDbSpline
 62
7
  6
BYLAYER
 70
0
 71
3
 72
15
 73
11
 74
0
 42
0.0000001
 43
0.0000001
 44
0.0000000001
 40
0.0
 40
0.0
 40
0.0
 40
0.0
 40
0.0094446164
 40
0.0268257063
 40
0.0858443048
 40
0.1758786576
 40
0.2946053249
 40
0.4392194897
 40
0.6068413246
 40
1.0
 40
1.0
 40
1.0
 40
1.0
 10
50.9150872192
 20
23.5306782226
 30
0.0
 10
50.9150866714
 20
23.5304605685
 30
0.0
 10
50.9147939967
 20
23.5298805957
 30
0.0
 10
50.9137559775
 20
23.5282300785
 30
0.0
 10
50.9113244668
 20
23.525218815
 30
0.0
 10
50.9073309641
 20
23.5205370167
 30
0.0
 10
50.9018848534
 20
23.5144716916
 30
0.0
 10
50.8951647889
 20
23.5071622334
 30
0.0
 10
50.8840529141
 20
23.4952950263
 30
0.0
 10
50.8751312652
 20
23.4859455771
 30
0.0
 10
50.8688561114
 20
23.4794099096
 30
0.0
  0
SPLINE
  5
453
100
AcDbEntity
  8
00_COMPONENTS_3
100
AcDbSpline
 62
7
  6
BYLAYER
 70
0
 71
3
 72
13
 73
9
 74
0
 42
0.0000001
 43
0.0000001
 44
0.0000000001
 40
0.0
 40
0.0
 40
0.0
 40
0.0
 40
0.0362205857
 40
0.1030758611
 40
0.1987442034
 40
0.320155987
 40
0.6272883368
 40
1.0
 40
1.0
 40
1.0
 40
1.0
 10
50.4509604004
 20
23.1079322307
 30
0.0
 10
50.4509607561
 20
23.1083801175
 30
0.0
 10
50.4515839322
 20
23.1095702887
 30
0.0
 10
50.452865568
 20
23.1116159363
 30
0.0
 10
50.4549793536
 20
23.1144485277
 30
0.0
 10
50.4590053762
 20
23.1195151705
 30
0.0
 10
50.4654507829
 20
23.1270530769
 30
0.0
 10
50.4710429005
 20
23.1333268442
 30
0.0
 10
50.4741343151
 20
23.1367450309
 30
0.0
  0
SPLINE
  5
454
100
AcDbEntity
  8
00_COMPONENTS_3
100
AcDbSpline
 62
7
  6
BYLAYER
 70
0
 71
3
 72
14
 73
10
 74
0
 42
0.0000001
 43
0.0000001
 44
0.0000000001
 40
0.0
 40
0.0
 40
0.0
 40
0.0
 40
0.0433692892
 40
0.1145408624
 40
0.2122364542
 40
0.3337368192
 40
0.4759964381
 40
0.6361742241
 40
1.0
 40
1.0
 40
1.0
 40
1.0
 10
50.814089528
 20
23.5288493053
 30
0.0
 10
50.8140900693
 20
23.5274183349
 30
0.0
 10
50.8126486585
 20
23.5237732886
 30
0.0
 10
50.8092491119
 20
23.5177239474
 30
0.0
 10
50.8038370931
 20
23.5097711978
 30
0.0
 10
50.7967083211
 20
23.5002229157
 30
0.0
 10
50.7880034289
 20
23.4892663628
 30
0.0
 10
50.7739730896
 20
23.4723434964
 30
0.0
 10
50.7626221706
 20
23.4592975231
 30
0.0
 10
50.7546647988
 20
23.4503093764
 30
0.0
  0
SPLINE
  5
455
100
AcDbEntity
  8
00_COMPONENTS_3
100
AcDbSpline
 62
7
  6
BYLAYER
 70
0
 71
3
 72
11
 73
7
 74
0
 42
0.0000001
 43
0.0000001
 44
0.0000000001
 40
0.0
 40
0.0
 40
0.0
 40
0.0
 40
0.1312333663
 40
0.3522728543
 40
0.647622533
 40
1.0
 40
1.0
 40
1.0
 40
1.0
 10
50.2949972776
 20
23.1090668288
 30
0.0
 10
50.2949955571
 20
23.1105183502
 30
0.0
 10
50.2967380491
 20
23.1142103282
 30
0.0
 10
50.3003801956
 20
23.1202598775
 30
0.0
 10
50.3060524628
 20
23.1280834084
 30
0.0
 10
50.3104641576
 20
23.1337119581
 30
0.0
 10
50.3129118788
 20
23.1367449883
 30
0.0
  0
SPLINE
  5
456
100
AcDbEntity
  8
00_COMPONENTS_3
100
AcDbSpline
 62
7
  6
BYLAYER
 70
0
 71
3
 72
12
 73
8
 74
0
 42
0.0000001
 43
0.0000001
 44
0.0000000001
 40
0.0
 40
0.0
 40
0.0
 40
0.0
 40
0.0600602998
 40
0.1413112664
 40
0.3641210272
 40
0.6553848153
 40
1.0
 40
1.0
 40
1.0
 40
1.0
 10
50.6091716811
 20
23.5251356459
 30
0.0
 10
50.6091719607
 20
23.5233634188
 30
0.0
 10
50.6082872969
 20
23.519221007
 30
0.0
 10
50.6042991472
 20
23.5092416052
 30
0.0
 10
50.5953705166
 20
23.4940191458
 30
0.0
 10
50.5809641895
 20
23.4731888447
 30
0.0
 10
50.5695402177
 20
23.4582886138
 30
0.0
 10
50.5632366752
 20
23.4503093764
 30
0.0
  0
SPLINE
  5
457
100
AcDbEntity
  8
00_COMPONENTS_3
100
AcDbSpline
 62
7
  6
BYLAYER
 70
0
 71
3
 72
10
 73
6
 74
0
 42
0.0000001
 43
0.0000001
 44
0.0000000001
 40
0.0
 40
0.0
 40
0.0
 40
0.0
 40
0.1583854846
 40
0.3841336271
 40
1.0
 40
1.0
 40
1.0
 40
1.0
 10
50.0363813398
 20
23.110951348
 30
0.0
 10
50.0363823091
 20
23.1124953637
 30
0.0
 10
50.0374353572
 20
23.1161820224
 30
0.0
 10
50.0416151802
 20
23.124961726
 30
0.0
 10
50.0461973418
 20
23.1318345643
 30
0.0
 10
50.0496517926
 20
23.1367449449
 30
0.0
  0
SPLINE
  5
458
100
AcDbEntity
  8
00_COMPONENTS_3
100
AcDbSpline
 62
7
  6
BYLAYER
 70
0
 71
3
 72
11
 73
7
 74
0
 42
0.0000001
 43
0.0000001
 44
0.0000000001
 40
0.0
 40
0.0
 40
0.0
 40
0.0
 40
0.1657570939
 40
0.3930165368
 40
0.6742723501
 40
1.0
 40
1.0
 40
1.0
 40
1.0
 10
50.3018948053
 20
23.5195655403
 30
0.0
 10
50.3018941457
 20
23.5152636945
 30
0.0
 10
50.2993000851
 20
23.505178835
 30
0.0
 10
50.2921271432
 20
23.4892444413
 30
0.0
 10
50.2813291882
 20
23.4704257609
 30
0.0
 10
50.272660399
 20
23.4572716696
 30
0.0
 10
50.2678657777
 20
23.4503093764
 30
0.0
  0
SPLINE
  5
459
100
AcDbEntity
  8
00_COMPONENTS_3
100
AcDbSpline
 62
7
  6
BYLAYER
 70
0
 71
3
 72
10
 73
6
 74
0
 42
0.0000001
 43
0.0000001
 44
0.0000000001
 40
0.0
 40
0.0
 40
0.0
 40
0.0
 40
0.188028039
 40
0.4200626538
 40
1.0
 40
1.0
 40
1.0
 40
1.0
 10
49.8945978952
 20
23.5121795152
 30
0.0
 10
49.8945982023
 20
23.5079909776
 30
0.0
 10
49.89304442
 20
23.4986554387
 30
0.0
 10
49.8858306231
 20
23.4775499139
 30
0.0
 10
49.8772989759
 20
23.4614744312
 30
0.0
 10
49.870800057
 20
23.4503093764
 30
0.0
  0
SPLINE
  5
45A
100
AcDbEntity
  8
00_COMPONENTS_3
100
AcDbSpline
 62
7
  6
BYLAYER
 70
0
 71
3
 72
15
 73
11
 74
0
 42
0.0000001
 43
0.0000001
 44
0.0000000001
 40
0.0
 40
0.0
 40
0.0
 40
0.0
 40
0.3931592308
 40
0.5607810297
 40
0.7053951383
 40
0.8241217858
 40
0.9141560053
 40
0.9731743351
 40
0.9905553999
 40
1.0
 40
1.0
 40
1.0
 40
1.0
 10
22.9423662292
 20
23.4794106728
 30
0.0
 10
22.9360911641
 20
23.4859462514
 30
0.0
 10
22.9271696459
 20
23.4952955689
 30
0.0
 10
22.916057938
 20
23.5071626068
 30
0.0
 10
22.9093379811
 20
23.5144719544
 30
0.0
 10
22.9038919614
 20
23.5205371873
 30
0.0
 10
22.8998985276
 20
23.5252189083
 30
0.0
 10
22.8974670658
 20
23.5282301224
 30
0.0
 10
22.8964290675
 20
23.5298806091
 30
0.0
 10
22.8961363997
 20
23.5304605734
 30
0.0
 10
22.896135853
 20
23.5306782237
 30
0.0
  0
SPLINE
  5
45B
100
AcDbEntity
  8
00_COMPONENTS_3
100
AcDbSpline
 62
7
  6
BYLAYER
 70
0
 71
3
 72
14
 73
10
 74
0
 42
0.0000001
 43
0.0000001
 44
0.0000000001
 40
0.0
 40
0.0
 40
0.0
 40
0.0
 40
0.3638256921
 40
0.5240036085
 40
0.6662632471
 40
0.787763585
 40
0.8854592054
 40
0.9566308451
 40
1.0
 40
1.0
 40
1.0
 40
1.0
 10
23.0565582745
 20
23.4503093764
 30
0.0
 10
23.0486009045
 20
23.4592975212
 30
0.0
 10
23.0372499841
 20
23.4723434957
 30
0.0
 10
23.0232196434
 20
23.4892663643
 30
0.0
 10
23.014514749
 20
23.5002229204
 30
0.0
 10
23.0073859739
 20
23.5097712023
 30
0.0
 10
23.001973962
 20
23.5177239572
 30
0.0
 10
22.9985744039
 20
23.5237732944
 30
0.0
 10
22.997133008
 20
23.52741834
 30
0.0
 10
22.9971335445
 20
23.5288493061
 30
0.0
  0
SPLINE
  5
45C
100
AcDbEntity
  8
00_COMPONENTS_3
100
AcDbSpline
 62
7
  6
BYLAYER
 70
0
 71
3
 72
12
 73
8
 74
0
 42
0.0000001
 43
0.0000001
 44
0.0000000001
 40
0.0
 40
0.0
 40
0.0
 40
0.0
 40
0.3446149955
 40
0.635878917
 40
0.8586886226
 40
0.9399396397
 40
1.0
 40
1.0
 40
1.0
 40
1.0
 10
23.2479863981
 20
23.4503093764
 30
0.0
 10
23.2416828588
 20
23.4582886097
 30
0.0
 10
23.2302588862
 20
23.4731888392
 30
0.0
 10
23.2158525649
 20
23.4940191392
 30
0.0
 10
23.2069239211
 20
23.5092415993
 30
0.0
 10
23.2029357849
 20
23.5192210065
 30
0.0
 10
23.2020511088
 20
23.5233634197
 30
0.0
 10
23.2020513891
 20
23.5251356488
 30
0.0
  0
SPLINE
  5
45D
100
AcDbEntity
  8
00_COMPONENTS_3
100
AcDbSpline
 62
7
  6
BYLAYER
 70
0
 71
3
 72
11
 73
7
 74
0
 42
0.0000001
 43
0.0000001
 44
0.0000000001
 40
0.0
 40
0.0
 40
0.0
 40
0.0
 40
0.3257274698
 40
0.606983413
 40
0.8342428396
 40
1.0
 40
1.0
 40
1.0
 40
1.0
 10
23.5433572956
 20
23.4503093764
 30
0.0
 10
23.5385626773
 20
23.4572716654
 30
0.0
 10
23.5298938878
 20
23.470425754
 30
0.0
 10
23.5190959376
 20
23.4892444328
 30
0.0
 10
23.5119229859
 20
23.5051788271
 30
0.0
 10
23.5093289329
 20
23.5152636889
 30
0.0
 10
23.5093282728
 20
23.5195655361
 30
0.0
  0
SPLINE
  5
45E
100
AcDbEntity
  8
00_COMPONENTS_3
100
AcDbSpline
 62
7
  6
BYLAYER
 70
0
 71
3
 72
10
 73
6
 74
0
 42
0.0000001
 43
0.0000001
 44
0.0000000001
 40
0.0
 40
0.0
 40
0.0
 40
0.0
 40
0.579937294
 40
0.8119719988
 40
1.0
 40
1.0
 40
1.0
 40
1.0
 10
23.9404230163
 20
23.4503093764
 30
0.0
 10
23.9339240979
 20
23.4614744304
 30
0.0
 10
23.9253924525
 20
23.4775499149
 30
0.0
 10
23.9181786521
 20
23.4986554385
 30
0.0
 10
23.9166248692
 20
23.5079909789
 30
0.0
 10
23.9166251775
 20
23.5121795157
 30
0.0
  0
SPLINE
  5
45F
100
AcDbEntity
  8
00_COMPONENTS_3
100
AcDbSpline
 62
7
  6
BYLAYER
 70
0
 71
3
 72
9
 73
5
 74
0
 42
0.0000001
 43
0.0000001
 44
0.0000000001
 40
0.0
 40
0.0
 40
0.0
 40
0.0
 40
0.5568893803
 40
1.0
 40
1.0
 40
1.0
 40
1.0
 10
24.4361616503
 20
23.4503093764
 30
0.0
 10
24.4317958909
 20
23.4595771648
 30
0.0
 10
24.4247805965
 20
23.4765878452
 30
0.0
 10
24.4208438687
 20
23.4948781694
 30
0.0
 10
24.420843904
 20
23.5030296797
 30
0.0
  0
SPLINE
  5
460
100
AcDbEntity
  8
00_COMPONENTS_3
100
AcDbSpline
 62
7
  6
BYLAYER
 70
0
 71
3
 72
9
 73
5
 74
0
 42
0.0000001
 43
0.0000001
 44
0.0000000001
 40
0.0
 40
0.0
 40
0.0
 40
0.0
 40
0.4431104617
 40
1.0
 40
1.0
 40
1.0
 40
1.0
 10
49.3903791675
 20
23.5030296784
 30
0.0
 10
49.3903792035
 20
23.4948781713
 30
0.0
 10
49.3864424787
 20
23.4765878469
 30
0.0
 10
49.3794271835
 20
23.4595771672
 30
0.0
 10
49.375061423
 20
23.4503093764
 30
0.0
  0
SPLINE
  5
461
100
AcDbEntity
  8
00_COMPONENTS_3
100
AcDbSpline
 62
7
  6
BYLAYER
 70
0
 71
3
 72
10
 73
6
 74
0
 42
0.0000001
 43
0.0000001
 44
0.0000000001
 40
0.0
 40
0.0
 40
0.0
 40
0.0
 40
0.6158589206
 40
0.841608286
 40
1.0
 40
1.0
 40
1.0
 40
1.0
 10
23.7615712939
 20
23.1367446554
 30
0.0
 10
23.7650256914
 20
23.1318343496
 30
0.0
 10
23.769608049
 20
23.1249617057
 30
0.0
 10
23.7737876302
 20
23.1161819541
 30
0.0
 10
23.7748408933
 20
23.1124952839
 30
0.0
 10
23.774841876
 20
23.1109512123
 30
0.0
  0
SPLINE
  5
462
100
AcDbEntity
  8
00_COMPONENTS_3
100
AcDbSpline
 62
7
  6
BYLAYER
 70
0
 71
3
 72
11
 73
7
 74
0
 42
0.0000001
 43
0.0000001
 44
0.0000000001
 40
0.0
 40
0.0
 40
0.0
 40
0.0
 40
0.3523748904
 40
0.6477237443
 40
0.8687692795
 40
1.0
 40
1.0
 40
1.0
 40
1.0
 10
23.4983112119
 20
23.1367446951
 30
0.0
 10
23.5007588903
 20
23.1337117175
 30
0.0
 10
23.5051705809
 20
23.1280833355
 30
0.0
 10
23.5108429817
 20
23.1202598795
 30
0.0
 10
23.5144848017
 20
23.1142103893
 30
0.0
 10
23.5162277649
 20
23.1105183791
 30
0.0
 10
23.51622572
 20
23.109066902
 30
0.0
  0
SPLINE
  5
463
100
AcDbEntity
  8
00_COMPONENTS_3
100
AcDbSpline
 62
7
  6
BYLAYER
 70
0
 71
3
 72
13
 73
9
 74
0
 42
0.0000001
 43
0.0000001
 44
0.0000000001
 40
0.0
 40
0.0
 40
0.0
 40
0.0
 40
0.3727066958
 40
0.6798387436
 40
0.8012539982
 40
0.896927862
 40
0.9637797154
 40
1.0
 40
1.0
 40
1.0
 40
1.0
 10
23.3370887801
 20
23.1367447362
 30
0.0
 10
23.3401801162
 20
23.133326636
 30
0.0
 10
23.3457722408
 20
23.1270530952
 30
0.0
 10
23.3522175977
 20
23.1195153403
 30
0.0
 10
23.356243612
 20
23.1144486366
 30
0.0
 10
23.3583574362
 20
23.111616074
 30
0.0
 10
23.3596391518
 20
23.109570415
 30
0.0
 10
23.3602620941
 20
23.1083802712
 30
0.0
 10
23.3602625111
 20
23.1079323936
 30
0.0
  0
SPLINE
  5
464
100
AcDbEntity
  8
00_COMPONENTS_3
100
AcDbSpline
 62
7
  6
BYLAYER
 70
0
 71
3
 72
11
 73
7
 74
0
 42
0.0000001
 43
0.0000001
 44
0.0000000001
 40
0.0
 40
0.0
 40
0.0
 40
0.0
 40
0.2876550564
 40
0.5468250641
 40
0.7812007933
 40
1.0
 40
1.0
 40
1.0
 40
1.0
 10
41.1627990459
 20
23.5308842553
 30
0.0
 10
41.1801452381
 20
23.5308842553
 30
0.0
 10
41.2133108748
 20
23.527215281
 30
0.0
 10
41.2577461611
 20
23.5099374271
 30
0.0
 10
41.2924385628
 20
23.483711669
 30
0.0
 10
41.3092408596
 20
23.4617123434
 30
0.0
 10
41.3158782617
 20
23.4503093764
 30
0.0
  0
SPLINE
  5
465
100
AcDbEntity
  8
00_COMPONENTS_3
100
AcDbSpline
 62
7
  6
BYLAYER
 70
0
 71
3
 72
9
 73
5
 74
0
 42
0.0000001
 43
0.0000001
 44
0.0000000001
 40
0.0
 40
0.0
 40
0.0
 40
0.0
 40
0.4997903927
 40
1.0
 40
1.0
 40
1.0
 40
1.0
 10
42.0275021114
 20
23.4503093764
 30
0.0
 10
42.0563840447
 20
23.4734469893
 30
0.0
 10
42.120173143
 20
23.5126356524
 30
0.0
 10
42.1942895095
 20
23.5308842553
 30
0.0
 10
42.2313275117
 20
23.5308842553
 30
0.0
  0
SPLINE
  5
466
100
AcDbEntity
  8
00_COMPONENTS_3
100
AcDbSpline
 62
7
  6
BYLAYER
 70
0
 71
3
 72
11
 73
7
 74
0
 42
0.0000001
 43
0.0000001
 44
0.0000000001
 40
0.0
 40
0.0
 40
0.0
 40
0.0
 40
0.2912641486
 40
0.5490876818
 40
0.7811124008
 40
1.0
 40
1.0
 40
1.0
 40
1.0
 10
42.3109006799
 20
23.5308842553
 30
0.0
 10
42.3275162002
 20
23.5308842553
 30
0.0
 10
42.3590547274
 20
23.5273363748
 30
0.0
 10
42.4008146974
 20
23.5100160982
 30
0.0
 10
42.4322088606
 20
23.4835655241
 30
0.0
 10
42.4463394588
 20
23.4616054971
 30
0.0
 10
42.4516607008
 20
23.4503093764
 30
0.0
  0
SPLINE
  5
467
100
AcDbEntity
  8
00_COMPONENTS_3
100
AcDbSpline
 62
7
  6
BYLAYER
 70
0
 71
3
 72
9
 73
5
 74
0
 42
0.0000001
 43
0.0000001
 44
0.0000000001
 40
0.0
 40
0.0
 40
0.0
 40
0.0
 40
0.5075746382
 40
1.0
 40
1.0
 40
1.0
 40
1.0
 10
43.1380024068
 20
23.4503093764
 30
0.0
 10
43.1676690126
 20
23.4732312465
 30
0.0
 10
43.2313602794
 20
23.5118482889
 30
0.0
 10
43.3050957985
 20
23.5308842553
 30
0.0
 10
43.3414671096
 20
23.5308842553
 30
0.0
  0
SPLINE
  5
468
100
AcDbEntity
  8
00_COMPONENTS_3
100
AcDbSpline
 62
7
  6
BYLAYER
 70
0
 71
3
 72
11
 73
7
 74
0
 42
0.0000001
 43
0.0000001
 44
0.0000000001
 40
0.0
 40
0.0
 40
0.0
 40
0.0
 40
0.2938822474
 40
0.5494131926
 40
0.7792362652
 40
1.0
 40
1.0
 40
1.0
 40
1.0
 10
43.4178647997
 20
23.5308842553
 30
0.0
 10
43.4336257493
 20
23.5308842553
 30
0.0
 10
43.4633358305
 20
23.5274655778
 30
0.0
 10
43.5021565684
 20
23.5100545724
 30
0.0
 10
43.5299691308
 20
23.4832993059
 30
0.0
 10
43.5412588842
 20
23.4614615766
 30
0.0
 10
43.545234357
 20
23.4503093764
 30
0.0
  0
SPLINE
  5
469
100
AcDbEntity
  8
00_COMPONENTS_3
100
AcDbSpline
 62
7
  6
BYLAYER
 70
0
 71
3
 72
10
 73
6
 74
0
 42
0.0000001
 43
0.0000001
 44
0.0000000001
 40
0.0
 40
0.0
 40
0.0
 40
0.0
 40
0.5146623063
 40
0.7670876408
 40
1.0
 40
1.0
 40
1.0
 40
1.0
 10
44.2010704444
 20
23.4503093764
 30
0.0
 10
44.2312568366
 20
23.4729994254
 30
0.0
 10
44.2801421783
 20
23.5024370232
 30
0.0
 10
44.3498820653
 20
23.5260084707
 30
0.0
 10
44.3855360986
 20
23.5308842553
 30
0.0
 10
44.4026259605
 20
23.5308842553
 30
0.0
  0
SPLINE
  5
46A
100
AcDbEntity
  8
00_COMPONENTS_3
100
AcDbSpline
 62
7
  6
BYLAYER
 70
0
 71
3
 72
11
 73
7
 74
0
 42
0.0000001
 43
0.0000001
 44
0.0000000001
 40
0.0
 40
0.0
 40
0.0
 40
0.0
 40
0.2949941598
 40
0.5469537072
 40
0.7749204173
 40
1.0
 40
1.0
 40
1.0
 40
1.0
 10
44.47526674
 20
23.5308842553
 30
0.0
 10
44.4900561657
 20
23.5308842553
 30
0.0
 10
44.5177614583
 20
23.527607041
 30
0.0
 10
44.5534077384
 20
23.5100252929
 30
0.0
 10
44.5773303057
 20
23.4828781386
 30
0.0
 10
44.5856516672
 20
23.4612841404
 30
0.0
 10
44.5882764744
 20
23.4503093764
 30
0.0
  0
SPLINE
  5
46B
100
AcDbEntity
  8
00_COMPONENTS_3
100
AcDbSpline
 62
7
  6
BYLAYER
 70
0
 71
3
 72
10
 73
6
 74
0
 42
0.0000001
 43
0.0000001
 44
0.0000000001
 40
0.0
 40
0.0
 40
0.0
 40
0.0
 40
0.5235188636
 40
0.7742084075
 40
1.0
 40
1.0
 40
1.0
 40
1.0
 10
45.2086156346
 20
23.4503093764
 30
0.0
 10
45.2390584651
 20
23.4727534442
 30
0.0
 10
45.2875349629
 20
23.5020238399
 30
0.0
 10
45.3559721346
 20
23.5258475876
 30
0.0
 10
45.3904155365
 20
23.5308842553
 30
0.0
 10
45.4067280049
 20
23.5308842553
 30
0.0
  0
SPLINE
  5
46C
100
AcDbEntity
  8
00_COMPONENTS_3
100
AcDbSpline
 62
7
  6
BYLAYER
 70
0
 71
3
 72
11
 73
7
 74
0
 42
0.0000001
 43
0.0000001
 44
0.0000000001
 40
0.0
 40
0.0
 40
0.0
 40
0.0
 40
0.2938548269
 40
0.5405569069
 40
0.767365814
 40
1.0
 40
1.0
 40
1.0
 40
1.0
 10
45.4750590335
 20
23.5308842553
 30
0.0
 10
45.4887680118
 20
23.5308842553
 30
0.0
 10
45.514326287
 20
23.5277665537
 30
0.0
 10
45.5465804897
 20
23.5098812007
 30
0.0
 10
45.5662573612
 20
23.4822759193
 30
0.0
 10
45.5715553707
 20
23.4610849176
 30
0.0
 10
45.5728488727
 20
23.4503093764
 30
0.0
  0
SPLINE
  5
46D
100
AcDbEntity
  8
00_COMPONENTS_3
100
AcDbSpline
 62
7
  6
BYLAYER
 70
0
 71
3
 72
10
 73
6
 74
0
 42
0.0000001
 43
0.0000001
 44
0.0000000001
 40
0.0
 40
0.0
 40
0.0
 40
0.0
 40
0.5330738309
 40
0.7818557648
 40
1.0
 40
1.0
 40
1.0
 40
1.0
 10
46.1529699502
 20
23.4503093764
 30
0.0
 10
46.18340923
 20
23.4724943108
 30
0.0
 10
46.2311032304
 20
23.5015784843
 30
0.0
 10
46.2977340631
 20
23.5256663768
 30
0.0
 10
46.3307177913
 20
23.5308842553
 30
0.0
 10
46.3461314198
 20
23.5308842553
 30
0.0
  0
SPLINE
  5
46E
100
AcDbEntity
  8
00_COMPONENTS_3
100
AcDbSpline
 62
7
  6
BYLAYER
 70
0
 71
3
 72
12
 73
8
 74
0
 42
0.0000001
 43
0.0000001
 44
0.0000000001
 40
0.0
 40
0.0
 40
0.0
 40
0.0
 40
0.288960713
 40
0.4133118692
 40
0.5295529912
 40
0.7561151377
 40
1.0
 40
1.0
 40
1.0
 40
1.0
 10
46.4096326571
 20
23.5308842553
 30
0.0
 10
46.4221614248
 20
23.5308842553
 30
0.0
 10
46.4404919946
 20
23.5284744612
 30
0.0
 10
46.4611285669
 20
23.5179897209
 30
0.0
 10
46.4766602167
 20
23.5046790169
 30
0.0
 10
46.4891466933
 20
23.4815051507
 30
0.0
 10
46.4914583615
 20
23.4608837439
 30
0.0
 10
46.4914583615
 20
23.4503093764
 30
0.0
  0
SPLINE
  5
46F
100
AcDbEntity
  8
00_COMPONENTS_3
100
AcDbSpline
 62
7
  6
BYLAYER
 70
0
 71
3
 72
11
 73
7
 74
0
 42
0.0000001
 43
0.0000001
 44
0.0000000001
 40
0.0
 40
0.0
 40
0.0
 40
0.0
 40
0.2760926988
 40
0.5437945324
 40
0.7903031307
 40
1.0
 40
1.0
 40
1.0
 40
1.0
 10
47.0269462845
 20
23.4503093764
 30
0.0
 10
47.0422890994
 20
23.4614490649
 30
0.0
 10
47.0733986326
 20
23.4821998217
 30
0.0
 10
47.1213827759
 20
23.5078269623
 30
0.0
 10
47.1680053192
 20
23.5254544741
 30
0.0
 10
47.1992860904
 20
23.5308842553
 30
0.0
 10
47.213686778
 20
23.5308842553
 30
0.0
  0
SPLINE
  5
470
100
AcDbEntity
  8
00_COMPONENTS_3
100
AcDbSpline
 62
7
  6
BYLAYER
 70
0
 71
3
 72
11
 73
7
 74
0
 42
0.0000001
 43
0.0000001
 44
0.0000000001
 40
0.0
 40
0.0
 40
0.0
 40
0.0
 40
0.2875715938
 40
0.5248478755
 40
0.7516765581
 40
1.0
 40
1.0
 40
1.0
 40
1.0
 10
47.2718749414
 20
23.5308842553
 30
0.0
 10
47.2819610747
 20
23.5308842553
 30
0.0
 10
47.3007008418
 20
23.528645752
 30
0.0
 10
47.3239512271
 20
23.5140738425
 30
0.0
 10
47.3362255462
 20
23.4912853183
 30
0.0
 10
47.338080363
 20
23.4744364433
 30
0.0
 10
47.338080384
 20
23.4657268788
 30
0.0
  0
SPLINE
  5
471
100
AcDbEntity
  8
00_COMPONENTS_3
100
AcDbSpline
 62
7
  6
BYLAYER
 70
0
 71
3
 72
11
 73
7
 74
0
 42
0.0000001
 43
0.0000001
 44
0.0000000001
 40
0.0
 40
0.0
 40
0.0
 40
0.0
 40
0.2839711329
 40
0.5552001873
 40
0.7994006395
 40
1.0
 40
1.0
 40
1.0
 40
1.0
 10
47.8238931499
 20
23.4503093764
 30
0.0
 10
47.8390880138
 20
23.4613837861
 30
0.0
 10
47.8695836436
 20
23.4819813962
 30
0.0
 10
47.9160462097
 20
23.5075789042
 30
0.0
 10
47.9601538673
 20
23.5252100976
 30
0.0
 10
47.9895093731
 20
23.5308842553
 30
0.0
 10
48.0027914594
 20
23.5308842553
 30
0.0
  0
SPLINE
  5
472
100
AcDbEntity
  8
00_COMPONENTS_3
100
AcDbSpline
 62
7
  6
BYLAYER
 70
0
 71
3
 72
11
 73
7
 74
0
 42
0.0000001
 43
0.0000001
 44
0.0000000001
 40
0.0
 40
0.0
 40
0.0
 40
0.0
 40
0.2856554169
 40
0.5209636125
 40
0.7476609822
 40
1.0
 40
1.0
 40
1.0
 40
1.0
 10
48.0552237018
 20
23.5308842553
 30
0.0
 10
48.0631050087
 20
23.5308842553
 30
0.0
 10
48.077725335
 20
23.5292187855
 30
0.0
 10
48.096045536
 20
23.5180136976
 30
0.0
 10
48.1057983082
 20
23.500049667
 30
0.0
 10
48.1072382495
 20
23.4866810472
 30
0.0
 10
48.1072380372
 20
23.4797189484
 30
0.0
  0
SPLINE
  5
473
100
AcDbEntity
  8
00_COMPONENTS_3
100
AcDbSpline
 62
7
  6
BYLAYER
 70
0
 71
3
 72
11
 73
7
 74
0
 42
0.0000001
 43
0.0000001
 44
0.0000000001
 40
0.0
 40
0.0
 40
0.0
 40
0.0
 40
0.2927490443
 40
0.5678932545
 40
0.8095216138
 40
1.0
 40
1.0
 40
1.0
 40
1.0
 10
48.5377452997
 20
23.4503093764
 30
0.0
 10
48.5526734281
 20
23.4613151837
 30
0.0
 10
48.5823194181
 20
23.4817477674
 30
0.0
 10
48.6269120501
 20
23.5073085072
 30
0.0
 10
48.6681581054
 20
23.5249175637
 30
0.0
 10
48.6953724707
 20
23.5308842553
 30
0.0
 10
48.707439901
 20
23.5308842553
 30
0.0
  0
SPLINE
  5
474
100
AcDbEntity
  8
00_COMPONENTS_3
100
AcDbSpline
 62
7
  6
BYLAYER
 70
0
 71
3
 72
11
 73
7
 74
0
 42
0.0000001
 43
0.0000001
 44
0.0000000001
 40
0.0
 40
0.0
 40
0.0
 40
0.0
 40
0.2837394035
 40
0.5171961992
 40
0.7436798395
 40
1.0
 40
1.0
 40
1.0
 40
1.0
 10
48.7537171813
 20
23.5308842553
 30
0.0
 10
48.7596476442
 20
23.5308842553
 30
0.0
 10
48.7706340835
 20
23.5296841629
 30
0.0
 10
48.7845271576
 20
23.5213838593
 30
0.0
 10
48.7919984818
 20
23.5077537072
 30
0.0
 10
48.7930777161
 20
23.4975410473
 30
0.0
 10
48.79307788
 20
23.4921836765
 30
0.0
  0
SPLINE
  5
475
100
AcDbEntity
  8
00_COMPONENTS_3
100
AcDbSpline
 62
7
  6
BYLAYER
 70
0
 71
3
 72
12
 73
8
 74
0
 42
0.0000001
 43
0.0000001
 44
0.0000000001
 40
0.0
 40
0.0
 40
0.0
 40
0.0
 40
0.3024622202
 40
0.5818581966
 40
0.8204748465
 40
0.9184504796
 40
1.0
 40
1.0
 40
1.0
 40
1.0
 10
49.1630698878
 20
23.4503093764
 30
0.0
 10
49.1776159678
 20
23.461243153
 30
0.0
 10
49.2062016377
 20
23.481512707
 30
0.0
 10
49.2485307956
 20
23.5069649269
 30
0.0
 10
49.2823208123
 20
23.5226345311
 30
0.0
 10
49.3065669856
 20
23.5295153912
 30
0.0
 10
49.3173630103
 20
23.5308842553
 30
0.0
 10
49.3222693026
 20
23.5308842553
 30
0.0
  0
SPLINE
  5
476
100
AcDbEntity
  8
00_COMPONENTS_3
100
AcDbSpline
 62
7
  6
BYLAYER
 70
0
 71
3
 72
11
 73
7
 74
0
 42
0.0000001
 43
0.0000001
 44
0.0000000001
 40
0.0
 40
0.0
 40
0.0
 40
0.0
 40
0.281893533
 40
0.5136684611
 40
0.7398762031
 40
1.0
 40
1.0
 40
1.0
 40
1.0
 10
49.3620394228
 20
23.5308842553
 30
0.0
 10
49.3662856233
 20
23.5308842553
 30
0.0
 10
49.3741429389
 20
23.5300558563
 30
0.0
 10
49.3841612852
 20
23.5242007889
 30
0.0
 10
49.3896072921
 20
23.5143661706
 30
0.0
 10
49.3903791502
 20
23.5069479584
 30
0.0
 10
49.3903791675
 20
23.5030296784
 30
0.0
  0
SPLINE
  5
477
100
AcDbEntity
  8
00_COMPONENTS_3
100
AcDbSpline
 62
7
  6
BYLAYER
 70
0
 71
3
 72
12
 73
8
 74
0
 42
0.0000001
 43
0.0000001
 44
0.0000000001
 40
0.0
 40
0.0
 40
0.0
 40
0.0
 40
0.3136736668
 40
0.5980762802
 40
0.8334428371
 40
0.9261352449
 40
1.0
 40
1.0
 40
1.0
 40
1.0
 10
49.6951078166
 20
23.4503093764
 30
0.0
 10
49.7091610432
 20
23.4611675863
 30
0.0
 10
49.7364611108
 20
23.4812508828
 30
0.0
 10
49.7762630946
 20
23.5066169869
 30
0.0
 10
49.8073196292
 20
23.5224205291
 30
0.0
 10
49.8290050461
 20
23.5294372087
 30
0.0
 10
49.8384184237
 20
23.5308842553
 30
0.0
 10
49.8426004412
 20
23.5308842553
 30
0.0
  0
SPLINE
  5
478
100
AcDbEntity
  8
00_COMPONENTS_3
100
AcDbSpline
 62
7
  6
BYLAYER
 70
0
 71
3
 72
11
 73
7
 74
0
 42
0.0000001
 43
0.0000001
 44
0.0000000001
 40
0.0
 40
0.0
 40
0.0
 40
0.0
 40
0.2801864992
 40
0.5104957253
 40
0.7363923815
 40
1.0
 40
1.0
 40
1.0
 40
1.0
 10
49.8755607267
 20
23.5308842553
 30
0.0
 10
49.8783978819
 20
23.5308842553
 30
0.0
 10
49.883643208
 20
23.5303463575
 30
0.0
 10
49.8903788452
 20
23.5264868547
 30
0.0
 10
49.8940812906
 20
23.5198710912
 30
0.0
 10
49.8945976995
 20
23.5148487934
 30
0.0
 10
49.8945978952
 20
23.5121795152
 30
0.0
  0
SPLINE
  5
479
100
AcDbEntity
  8
00_COMPONENTS_3
100
AcDbSpline
 62
7
  6
BYLAYER
 70
0
 71
3
 72
12
 73
8
 74
0
 42
0.0000001
 43
0.0000001
 44
0.0000000001
 40
0.0
 40
0.0
 40
0.0
 40
0.0
 40
0.3265484998
 40
0.6167356387
 40
0.8484421515
 40
0.9350592736
 40
1.0
 40
1.0
 40
1.0
 40
1.0
 10
50.1298099562
 20
23.4503093764
 30
0.0
 10
50.1432651046
 20
23.4610884337
 30
0.0
 10
50.1690819373
 20
23.4809715084
 30
0.0
 10
50.2060661435
 20
23.5062279058
 30
0.0
 10
50.2341444864
 20
23.5221540698
 30
0.0
 10
50.2530824533
 20
23.5293247486
 30
0.0
 10
50.2610446962
 20
23.5308842553
 30
0.0
 10
50.2644732827
 20
23.5308842553
 30
0.0
  0
SPLINE
  5
47A
100
AcDbEntity
  8
00_COMPONENTS_3
100
AcDbSpline
 62
7
  6
BYLAYER
 70
0
 71
3
 72
9
 73
5
 74
0
 42
0.0000001
 43
0.0000001
 44
0.0000000001
 40
0.0
 40
0.0
 40
0.0
 40
0.0
 40
0.5077779917
 40
1.0
 40
1.0
 40
1.0
 40
1.0
 10
50.2903728858
 20
23.5308842553
 30
0.0
 10
50.2934259104
 20
23.5308842553
 30
0.0
 10
50.300326223
 20
23.5293839321
 30
0.0
 10
50.3018952592
 20
23.5225250343
 30
0.0
 10
50.3018948053
 20
23.5195655403
 30
0.0
  0
SPLINE
  5
47B
100
AcDbEntity
  8
00_COMPONENTS_3
100
AcDbSpline
 62
7
  6
BYLAYER
 70
0
 71
3
 72
13
 73
9
 74
0
 42
0.0000001
 43
0.0000001
 44
0.0000000001
 40
0.0
 40
0.0
 40
0.0
 40
0.0
 40
0.341411691
 40
0.6383167828
 40
0.7625571992
 40
0.8659968688
 40
0.9455762534
 40
1.0
 40
1.0
 40
1.0
 40
1.0
 10
50.4638679609
 20
23.4503093764
 30
0.0
 10
50.4766264946
 20
23.4610057887
 30
0.0
 10
50.5007822014
 20
23.480642717
 30
0.0
 10
50.5306366422
 20
23.5028681165
 30
0.0
 10
50.552042772
 20
23.5168744888
 30
0.0
 10
50.5650633725
 20
23.5243555244
 30
0.0
 10
50.5755768787
 20
23.5291467552
 30
0.0
 10
50.5820231164
 20
23.5308842553
 30
0.0
 10
50.58467712
 20
23.5308842553
 30
0.0
  0
SPLINE
  5
47C
100
AcDbEntity
  8
00_COMPONENTS_3
100
AcDbSpline
 62
7
  6
BYLAYER
 70
0
 71
3
 72
14
 73
10
 74
0
 42
0.0000001
 43
0.0000001
 44
0.0000000001
 40
0.0
 40
0.0
 40
0.0
 40
0.0
 40
0.3586959494
 40
0.5194144389
 40
0.6635161302
 40
0.7872264282
 40
0.8865811389
 40
0.9580621773
 40
1.0
 40
1.0
 40
1.0
 40
1.0
 10
50.6947394475
 20
23.4503093764
 30
0.0
 10
50.7067106603
 20
23.4609200177
 30
0.0
 10
50.7241937568
 20
23.4761234736
 30
0.0
 10
50.7469762719
 20
23.4950041354
 30
0.0
 10
50.7619410074
 20
23.506904963
 30
0.0
 10
50.7750332644
 20
23.516710213
 30
0.0
 10
50.785905737
 20
23.5241887017
 30
0.0
 10
50.7940570134
 20
23.5288409678
 30
0.0
 10
50.7989047104
 20
23.5308842553
 30
0.0
 10
50.8007750086
 20
23.5308842553
 30
0.0
  0
SPLINE
  5
47D
100
AcDbEntity
  8
00_COMPONENTS_3
100
AcDbSpline
 62
7
  6
BYLAYER
 70
0
 71
3
 72
15
 73
11
 74
0
 42
0.0000001
 43
0.0000001
 44
0.0000000001
 40
0.0
 40
0.0
 40
0.0
 40
0.0
 40
0.3921062849
 40
0.5593888236
 40
0.703746964
 40
0.8223148094
 40
0.912414155
 40
0.9718958752
 40
0.9897975112
 40
1.0
 40
1.0
 40
1.0
 40
1.0
 10
50.8576742548
 20
23.4850046223
 30
0.0
 10
50.8644446155
 20
23.4912677065
 30
0.0
 10
50.874141235
 20
23.5001617595
 30
0.0
 10
50.8864724106
 20
23.5112068852
 30
0.0
 10
50.8940812956
 20
23.5178749872
 30
0.0
 10
50.9004081222
 20
23.5232633293
 30
0.0
 10
50.9053107703
 20
23.5272094343
 30
0.0
 10
50.9084851743
 20
23.5295915063
 30
0.0
 10
50.9102508568
 20
23.5306105075
 30
0.0
 10
50.9108823329
 20
23.5308842553
 30
0.0
 10
50.911122313
 20
23.5308842553
 30
0.0
  0
SPLINE
  5
47E
100
AcDbEntity
  8
00_COMPONENTS_3
100
AcDbSpline
 62
7
  6
BYLAYER
 70
0
 71
3
 72
11
 73
7
 74
0
 42
0.0000001
 43
0.0000001
 44
0.0000000001
 40
0.0
 40
0.0
 40
0.0
 40
0.0
 40
0.2563202413
 40
0.4828041974
 40
0.7162608776
 40
1.0
 40
1.0
 40
1.0
 40
1.0
 10
25.0181451941
 20
23.492183676
 30
0.0
 10
25.0181453569
 20
23.4975410483
 30
0.0
 10
25.0192245864
 20
23.5077537191
 30
0.0
 10
25.0266959346
 20
23.5213838652
 30
0.0
 10
25.0405890031
 20
23.5296841673
 30
0.0
 10
25.0515754351
 20
23.5308842553
 30
0.0
 10
25.057505892
 20
23.5308842553
 30
0.0
  0
SPLINE
  5
47F
100
AcDbEntity
  8
00_COMPONENTS_3
100
AcDbSpline
 62
7
  6
BYLAYER
 70
0
 71
3
 72
12
 73
8
 74
0
 42
0.0000001
 43
0.0000001
 44
0.0000000001
 40
0.0
 40
0.0
 40
0.0
 40
0.0
 40
0.162403593
 40
0.3332693614
 40
0.4571118327
 40
0.6105758416
 40
1.0
 40
1.0
 40
1.0
 40
1.0
 10
24.1341459476
 20
23.1135676084
 30
0.0
 10
24.1341449214
 20
23.1119509195
 30
0.0
 10
24.1332116194
 20
23.108125217
 30
0.0
 10
24.1280168804
 20
23.1072829505
 30
0.0
 10
24.1237141503
 20
23.1081117922
 30
0.0
 10
24.117357797
 20
23.1101959281
 30
0.0
 10
24.1125400265
 20
23.1126713521
 30
0.0
 10
24.1091550107
 20
23.1145607671
 30
0.0
  0
SPLINE
  5
480
100
AcDbEntity
  8
00_COMPONENTS_3
100
AcDbSpline
 62
7
  6
BYLAYER
 70
0
 71
3
 72
9
 73
5
 74
0
 42
0.0000001
 43
0.0000001
 44
0.0000000001
 40
0.0
 40
0.0
 40
0.0
 40
0.0
 40
0.2230842248
 40
1.0
 40
1.0
 40
1.0
 40
1.0
 10
24.1091550107
 20
23.1145607671
 30
0.0
 10
24.1066143511
 20
23.1159788876
 30
0.0
 10
24.095444164
 20
23.1227261579
 30
0.0
 10
24.0849248404
 20
23.1304915135
 30
0.0
 10
24.0769511177
 20
23.1367445575
 30
0.0
  0
SPLINE
  5
481
100
AcDbEntity
  8
00_COMPONENTS_3
100
AcDbSpline
 62
7
  6
BYLAYER
 70
0
 71
3
 72
15
 73
11
 74
0
 42
0.0000001
 43
0.0000001
 44
0.0000000001
 40
0.0
 40
0.0
 40
0.0
 40
0.0
 40
0.0102024831
 40
0.0281041658
 40
0.0875860499
 40
0.1776857304
 40
0.2962535455
 40
0.4406116562
 40
0.6078941877
 40
1.0
 40
1.0
 40
1.0
 40
1.0
 10
22.9001007603
 20
23.5308842553
 30
0.0
 10
22.9003407438
 20
23.5308842553
 30
0.0
 10
22.900972229
 20
23.5306105001
 30
0.0
 10
22.9027379391
 20
23.5295914795
 30
0.0
 10
22.9059123974
 20
23.5272093619
 30
0.0
 10
22.9108151206
 20
23.523263188
 30
0.0
 10
22.9171420414
 20
23.5178747609
 30
0.0
 10
22.9247510309
 20
23.5112065586
 30
0.0
 10
22.9370823713
 20
23.5001612761
 30
0.0
 10
22.9467791196
 20
23.4912670987
 30
0.0
 10
22.9535495679
 20
23.4850039292
 30
0.0
  0
SPLINE
  5
482
100
AcDbEntity
  8
00_COMPONENTS_3
100
AcDbSpline
 62
7
  6
BYLAYER
 70
0
 71
3
 72
11
 73
7
 74
0
 42
0.0000001
 43
0.0000001
 44
0.0000000001
 40
0.0
 40
0.0
 40
0.0
 40
0.0
 40
0.2636079822
 40
0.4895046772
 40
0.7198135638
 40
1.0
 40
1.0
 40
1.0
 40
1.0
 10
23.9166251775
 20
23.5121795157
 30
0.0
 10
23.916625374
 20
23.5148487976
 30
0.0
 10
23.917141795
 20
23.519871097
 30
0.0
 10
23.9208442313
 20
23.5264868658
 30
0.0
 10
23.9275798706
 20
23.5303463617
 30
0.0
 10
23.932825192
 20
23.5308842553
 30
0.0
 10
23.9356623466
 20
23.5308842553
 30
0.0
  0
SPLINE
  5
483
100
AcDbEntity
  8
00_COMPONENTS_3
100
AcDbSpline
 62
7
  6
BYLAYER
 70
0
 71
3
 72
14
 73
10
 74
0
 42
0.0000001
 43
0.0000001
 44
0.0000000001
 40
0.0
 40
0.0
 40
0.0
 40
0.0
 40
0.0419378996
 40
0.1134191287
 40
0.2127737735
 40
0.3364840207
 40
0.480585734
 40
0.6413040822
 40
1.0
 40
1.0
 40
1.0
 40
1.0
 10
23.0104480647
 20
23.5308842553
 30
0.0
 10
23.0123183663
 20
23.5308842553
 30
0.0
 10
23.0171660737
 20
23.5288409592
 30
0.0
 10
23.0253173563
 20
23.5241886874
 30
0.0
 10
23.0361898327
 20
23.5167101981
 30
0.0
 10
23.0492820839
 20
23.5069049476
 30
0.0
 10
23.064246814
 20
23.4950041255
 30
0.0
 10
23.0870293235
 20
23.4761234676
 30
0.0
 10
23.1045124141
 20
23.4609200168
 30
0.0
 10
23.1164836258
 20
23.4503093764
 30
0.0
  0
SPLINE
  5
484
100
AcDbEntity
  8
00_COMPONENTS_3
100
AcDbSpline
 62
7
  6
BYLAYER
 70
0
 71
3
 72
11
 73
7
 74
0
 42
0.0000001
 43
0.0000001
 44
0.0000000001
 40
0.0
 40
0.0
 40
0.0
 40
0.0
 40
0.2483235862
 40
0.4751522878
 40
0.7124287646
 40
1.0
 40
1.0
 40
1.0
 40
1.0
 10
26.4731426883
 20
23.4657268792
 30
0.0
 10
26.4731427093
 20
23.4744364488
 30
0.0
 10
26.4749975314
 20
23.4912853297
 30
0.0
 10
26.4872718612
 20
23.5140738626
 30
0.0
 10
26.5105222509
 20
23.5286457601
 30
0.0
 10
26.5292620111
 20
23.5308842553
 30
0.0
 10
26.5393481319
 20
23.5308842553
 30
0.0
  0
SPLINE
  5
485
100
AcDbEntity
  8
00_COMPONENTS_3
100
AcDbSpline
 62
7
  6
BYLAYER
 70
0
 71
3
 72
13
 73
9
 74
0
 42
0.0000001
 43
0.0000001
 44
0.0000000001
 40
0.0
 40
0.0
 40
0.0
 40
0.0
 40
0.0544238312
 40
0.1340034113
 40
0.2374430115
 40
0.3616833651
 40
0.65858834
 40
1.0
 40
1.0
 40
1.0
 40
1.0
 10
23.2265459533
 20
23.5308842553
 30
0.0
 10
23.229199961
 20
23.5308842553
 30
0.0
 10
23.2356462115
 20
23.5291467475
 30
0.0
 10
23.246159725
 20
23.5243555095
 30
0.0
 10
23.2591803295
 20
23.5168744745
 30
0.0
 10
23.2805864449
 20
23.5028681025
 30
0.0
 10
23.3104408798
 20
23.4806427129
 30
0.0
 10
23.3345965799
 20
23.4610057877
 30
0.0
 10
23.3473551124
 20
23.4503093764
 30
0.0
  0
SPLINE
  5
486
100
AcDbEntity
  8
00_COMPONENTS_3
100
AcDbSpline
 62
7
  6
BYLAYER
 70
0
 71
3
 72
12
 73
8
 74
0
 42
0.0000001
 43
0.0000001
 44
0.0000000001
 40
0.0
 40
0.0
 40
0.0
 40
0.0
 40
0.0649408179
 40
0.1515581402
 40
0.3832645065
 40
0.6734515307
 40
1.0
 40
1.0
 40
1.0
 40
1.0
 10
23.5467497906
 20
23.5308842553
 30
0.0
 10
23.5501783819
 20
23.5308842553
 30
0.0
 10
23.5581406396
 20
23.5293247414
 30
0.0
 10
23.5770786113
 20
23.5221540551
 30
0.0
 10
23.6051569504
 20
23.5062278917
 30
0.0
 10
23.6421411439
 20
23.4809715032
 30
0.0
 10
23.66795797
 20
23.4610884327
 30
0.0
 10
23.681413117
 20
23.4503093764
 30
0.0
  0
SPLINE
  5
487
100
AcDbEntity
  8
00_COMPONENTS_3
100
AcDbSpline
 62
7
  6
BYLAYER
 70
0
 71
3
 72
12
 73
8
 74
0
 42
0.0000001
 43
0.0000001
 44
0.0000000001
 40
0.0
 40
0.0
 40
0.0
 40
0.0
 40
0.0738648526
 40
0.1665574649
 40
0.401923863
 40
0.6863263633
 40
1.0
 40
1.0
 40
1.0
 40
1.0
 10
23.968622632
 20
23.5308842553
 30
0.0
 10
23.9728046551
 20
23.5308842553
 30
0.0
 10
23.9822180493
 20
23.5294372019
 30
0.0
 10
24.0039034717
 20
23.5224205142
 30
0.0
 10
24.0349600015
 20
23.5066169722
 30
0.0
 10
24.074761971
 20
23.4812508775
 30
0.0
 10
24.1020620314
 20
23.4611675853
 30
0.0
 10
24.1161152567
 20
23.4503093764
 30
0.0
  0
SPLINE
  5
488
100
AcDbEntity
  8
00_COMPONENTS_3
100
AcDbSpline
 62
7
  6
BYLAYER
 70
0
 71
3
 72
13
 73
9
 74
0
 42
0.0000001
 43
0.0000001
 44
0.0000000001
 40
0.0
 40
0.0
 40
0.0
 40
0.0
 40
0.0665108787
 40
0.1232989045
 40
0.1946986948
 40
0.2951818334
 40
0.5917617222
 40
1.0
 40
1.0
 40
1.0
 40
1.0
 10
23.774841876
 20
23.1109512123
 30
0.0
 10
23.7748423013
 20
23.1102830393
 30
0.0
 10
23.774687444
 20
23.1089684926
 30
0.0
 10
23.7730891752
 20
23.1075738979
 30
0.0
 10
23.7706928935
 20
23.1074691817
 30
0.0
 10
23.766115892
 20
23.108563343
 30
0.0
 10
23.7588173864
 20
23.112259027
 30
0.0
 10
23.7528620968
 20
23.1160590282
 30
0.0
 10
23.7494742673
 20
23.1183703879
 30
0.0
  0
SPLINE
  5
489
100
AcDbEntity
  8
00_COMPONENTS_3
100
AcDbSpline
 62
7
  6
BYLAYER
 70
0
 71
3
 72
9
 73
5
 74
0
 42
0.0000001
 43
0.0000001
 44
0.0000000001
 40
0.0
 40
0.0
 40
0.0
 40
0.0
 40
0.2290683265
 40
1.0
 40
1.0
 40
1.0
 40
1.0
 10
23.7494742673
 20
23.1183703879
 30
0.0
 10
23.7475593018
 20
23.1196768804
 30
0.0
 10
23.7392974529
 20
23.1255238985
 30
0.0
 10
23.7313436873
 20
23.1317951044
 30
0.0
 10
23.7253127506
 20
23.1367445917
 30
0.0
  0
SPLINE
  5
48A
100
AcDbEntity
  8
00_COMPONENTS_3
100
AcDbSpline
 62
7
  6
BYLAYER
 70
0
 71
3
 72
12
 73
8
 74
0
 42
0.0000001
 43
0.0000001
 44
0.0000000001
 40
0.0
 40
0.0
 40
0.0
 40
0.0
 40
0.0815496233
 40
0.1795254645
 40
0.4181419448
 40
0.6975378096
 40
1.0
 40
1.0
 40
1.0
 40
1.0
 10
24.4889537707
 20
23.5308842553
 30
0.0
 10
24.4938600691
 20
23.5308842553
 30
0.0
 10
24.5046561122
 20
23.5295153847
 30
0.0
 10
24.5289022917
 20
23.5226345161
 30
0.0
 10
24.5626923027
 20
23.5069649116
 30
0.0
 10
24.6050214447
 20
23.4815127017
 30
0.0
 10
24.633607107
 20
23.4612431519
 30
0.0
 10
24.6481531855
 20
23.4503093764
 30
0.0
  0
SPLINE
  5
48B
100
AcDbEntity
  8
00_COMPONENTS_3
100
AcDbSpline
 62
7
  6
BYLAYER
 70
0
 71
3
 72
9
 73
5
 74
0
 42
0.0000001
 43
0.0000001
 44
0.0000000001
 40
0.0
 40
0.0
 40
0.0
 40
0.0
 40
0.4922222394
 40
1.0
 40
1.0
 40
1.0
 40
1.0
 10
23.5093282728
 20
23.5195655361
 30
0.0
 10
23.5093278186
 20
23.5225250318
 30
0.0
 10
23.5108968487
 20
23.5293839336
 30
0.0
 10
23.5177971639
 20
23.5308842553
 30
0.0
 10
23.5208501875
 20
23.5308842553
 30
0.0
  0
SPLINE
  5
48C
100
AcDbEntity
  8
00_COMPONENTS_3
100
AcDbSpline
 62
7
  6
BYLAYER
 70
0
 71
3
 72
11
 73
7
 74
0
 42
0.0000001
 43
0.0000001
 44
0.0000000001
 40
0.0
 40
0.0
 40
0.0
 40
0.0
 40
0.1904787043
 40
0.4321068847
 40
0.7072509849
 40
1.0
 40
1.0
 40
1.0
 40
1.0
 10
25.1037831723
 20
23.5308842553
 30
0.0
 10
25.1158506227
 20
23.5308842553
 30
0.0
 10
25.1430649953
 20
23.5249175498
 30
0.0
 10
25.1843110502
 20
23.5073084921
 30
0.0
 10
25.2289036648
 20
23.4817477619
 30
0.0
 10
25.2585496467
 20
23.4613151826
 30
0.0
 10
25.2734777736
 20
23.4503093764
 30
0.0
  0
SPLINE
  5
48D
100
AcDbEntity
  8
00_COMPONENTS_3
100
AcDbSpline
 62
7
  6
BYLAYER
 70
0
 71
3
 72
9
 73
5
 74
0
 42
0.0000001
 43
0.0000001
 44
0.0000000001
 40
0.0
 40
0.0
 40
0.0
 40
0.0
 40
0.492435359
 40
1.0
 40
1.0
 40
1.0
 40
1.0
 10
40.8780211361
 20
23.4503093764
 30
0.0
 10
40.9058537698
 20
23.4736435097
 30
0.0
 10
40.969207732
 20
23.513381868
 30
0.0
 10
41.0432201988
 20
23.5308842553
 30
0.0
 10
41.0806559995
 20
23.5308842553
 30
0.0
  0
SPLINE
  5
48E
100
AcDbEntity
  8
00_COMPONENTS_3
100
AcDbSpline
 62
7
  6
BYLAYER
 70
0
 71
3
 72
11
 73
7
 74
0
 42
0.0000001
 43
0.0000001
 44
0.0000000001
 40
0.0
 40
0.0
 40
0.0
 40
0.0
 40
0.2005996856
 40
0.4447999506
 40
0.7160288961
 40
1.0
 40
1.0
 40
1.0
 40
1.0
 10
25.8084316138
 20
23.5308842553
 30
0.0
 10
25.8217137217
 20
23.5308842553
 30
0.0
 10
25.8510692354
 20
23.525210084
 30
0.0
 10
25.8951768923
 20
23.5075788885
 30
0.0
 10
25.9416394397
 20
23.4819813907
 30
0.0
 10
25.9721350611
 20
23.461383785
 30
0.0
 10
25.9873299233
 20
23.4503093764
 30
0.0
  0
SPLINE
  5
48F
100
AcDbEntity
  8
00_COMPONENTS_3
100
AcDbSpline
 62
7
  6
BYLAYER
 70
0
 71
3
 72
13
 73
9
 74
0
 42
0.0000001
 43
0.0000001
 44
0.0000000001
 40
0.0
 40
0.0
 40
0.0
 40
0.0
 40
0.1998331901
 40
0.2918272491
 40
0.3914891862
 40
0.5093266554
 40
0.6507300977
 40
1.0
 40
1.0
 40
1.0
 40
1.0
 10
25.785133903
 20
23.1255840796
 30
0.0
 10
25.7851337133
 20
23.1218222244
 30
0.0
 10
25.784165513
 20
23.1159879499
 30
0.0
 10
25.7790522199
 20
23.1104051495
 30
0.0
 10
25.7736094434
 20
23.1079710772
 30
0.0
 10
25.7668093547
 20
23.1072813763
 30
0.0
 10
25.755379409
 20
23.10865916
 30
0.0
 10
25.7466034031
 20
23.1118932169
 30
0.0
 10
25.740593837
 20
23.1145607463
 30
0.0
  0
SPLINE
  5
490
100
AcDbEntity
  8
00_COMPONENTS_3
100
AcDbSpline
 62
7
  6
BYLAYER
 70
0
 71
3
 72
9
 73
5
 74
0
 42
0.0000001
 43
0.0000001
 44
0.0000000001
 40
0.0
 40
0.0
 40
0.0
 40
0.0
 40
0.2353825988
 40
1.0
 40
1.0
 40
1.0
 40
1.0
 10
25.740593837
 20
23.1145607463
 30
0.0
 10
25.7374771508
 20
23.1159441827
 30
0.0
 10
25.7244670809
 20
23.1223407573
 30
0.0
 10
25.7122573677
 20
23.1302621971
 30
0.0
 10
25.7032753725
 20
23.1367444711
 30
0.0
  0
SPLINE
  5
491
100
AcDbEntity
  8
00_COMPONENTS_3
100
AcDbSpline
 62
7
  6
BYLAYER
 70
0
 71
3
 72
11
 73
7
 74
0
 42
0.0000001
 43
0.0000001
 44
0.0000000001
 40
0.0
 40
0.0
 40
0.0
 40
0.0
 40
0.2096972008
 40
0.4562056043
 40
0.72390733
 40
1.0
 40
1.0
 40
1.0
 40
1.0
 10
26.5975362953
 20
23.5308842553
 30
0.0
 10
26.6119370056
 20
23.5308842553
 30
0.0
 10
26.6432177852
 20
23.5254544607
 30
0.0
 10
26.6898403277
 20
23.5078269461
 30
0.0
 10
26.7378244511
 20
23.4821998163
 30
0.0
 10
26.7689339756
 20
23.4614490637
 30
0.0
 10
26.7842767888
 20
23.4503093764
 30
0.0
  0
SPLINE
  5
492
100
AcDbEntity
  8
00_COMPONENTS_3
100
AcDbSpline
 62
7
  6
BYLAYER
 70
0
 71
3
 72
12
 73
8
 74
0
 42
0.0000001
 43
0.0000001
 44
0.0000000001
 40
0.0
 40
0.0
 40
0.0
 40
0.0
 40
0.2438848837
 40
0.4704471217
 40
0.5866883835
 40
0.7110396292
 40
1.0
 40
1.0
 40
1.0
 40
1.0
 10
27.3197647118
 20
23.4503093764
 30
0.0
 10
27.3197647118
 20
23.4608837449
 30
0.0
 10
27.3220763849
 20
23.481505154
 30
0.0
 10
27.3345628601
 20
23.5046790389
 30
0.0
 10
27.3500945381
 20
23.5179897316
 30
0.0
 10
27.3707311006
 20
23.5284744785
 30
0.0
 10
27.3890616633
 20
23.5308842553
 30
0.0
 10
27.4015904161
 20
23.5308842553
 30
0.0
  0
SPLINE
  5
493
100
AcDbEntity
  8
00_COMPONENTS_3
100
AcDbSpline
 62
7
  6
BYLAYER
 70
0
 71
3
 72
10
 73
6
 74
0
 42
0.0000001
 43
0.0000001
 44
0.0000000001
 40
0.0
 40
0.0
 40
0.0
 40
0.0
 40
0.2181445727
 40
0.4669263048
 40
1.0
 40
1.0
 40
1.0
 40
1.0
 10
27.4650916535
 20
23.5308842553
 30
0.0
 10
27.4805053058
 20
23.5308842553
 30
0.0
 10
27.5134890427
 20
23.5256663637
 30
0.0
 10
27.5801198719
 20
23.5015784676
 30
0.0
 10
27.6278138511
 20
23.4724943051
 30
0.0
 10
27.6582531231
 20
23.4503093764
 30
0.0
  0
SPLINE
  5
494
100
AcDbEntity
  8
00_COMPONENTS_3
100
AcDbSpline
 62
7
  6
BYLAYER
 70
0
 71
3
 72
11
 73
7
 74
0
 42
0.0000001
 43
0.0000001
 44
0.0000000001
 40
0.0
 40
0.0
 40
0.0
 40
0.0
 40
0.2326342065
 40
0.4594432046
 40
0.7061455313
 40
1.0
 40
1.0
 40
1.0
 40
1.0
 10
28.2383742006
 20
23.4503093764
 30
0.0
 10
28.2396677027
 20
23.4610849187
 30
0.0
 10
28.2449657162
 20
23.4822759249
 30
0.0
 10
28.2646425973
 20
23.5098812213
 30
0.0
 10
28.2968968089
 20
23.5277665637
 30
0.0
 10
28.3224550781
 20
23.5308842553
 30
0.0
 10
28.3361640398
 20
23.5308842553
 30
0.0
  0
SPLINE
  5
495
100
AcDbEntity
  8
00_COMPONENTS_3
100
AcDbSpline
 62
7
  6
BYLAYER
 70
0
 71
3
 72
10
 73
6
 74
0
 42
0.0000001
 43
0.0000001
 44
0.0000000001
 40
0.0
 40
0.0
 40
0.0
 40
0.0
 40
0.2257919352
 40
0.476481271
 40
1.0
 40
1.0
 40
1.0
 40
1.0
 10
28.4044950684
 20
23.5308842553
 30
0.0
 10
28.4208075615
 20
23.5308842553
 30
0.0
 10
28.4552509723
 20
23.5258475747
 30
0.0
 10
28.5236881404
 20
23.5020238227
 30
0.0
 10
28.5721646161
 20
23.4727534384
 30
0.0
 10
28.6026074387
 20
23.4503093764
 30
0.0
  0
SPLINE
  5
496
100
AcDbEntity
  8
00_COMPONENTS_3
100
AcDbSpline
 62
7
  6
BYLAYER
 70
0
 71
3
 72
11
 73
7
 74
0
 42
0.0000001
 43
0.0000001
 44
0.0000000001
 40
0.0
 40
0.0
 40
0.0
 40
0.0
 40
0.2250796044
 40
0.4530464072
 40
0.7050062065
 40
1.0
 40
1.0
 40
1.0
 40
1.0
 10
29.2229465989
 20
23.4503093764
 30
0.0
 10
29.2255714064
 20
23.4612841416
 30
0.0
 10
29.2338927726
 20
23.4828781443
 30
0.0
 10
29.257815352
 20
23.5100253135
 30
0.0
 10
29.2934616397
 20
23.5276070512
 30
0.0
 10
29.3211669258
 20
23.5308842553
 30
0.0
 10
29.3359563333
 20
23.5308842553
 30
0.0
  0
SPLINE
  5
497
100
AcDbEntity
  8
00_COMPONENTS_3
100
AcDbSpline
 62
7
  6
BYLAYER
 70
0
 71
3
 72
10
 73
6
 74
0
 42
0.0000001
 43
0.0000001
 44
0.0000000001
 40
0.0
 40
0.0
 40
0.0
 40
0.0
 40
0.2329127067
 40
0.4853378274
 40
1.0
 40
1.0
 40
1.0
 40
1.0
 10
29.4085971127
 20
23.5308842553
 30
0.0
 10
29.4256870001
 20
23.5308842553
 30
0.0
 10
29.4613410426
 20
23.5260084581
 30
0.0
 10
29.5310809258
 20
23.5024370055
 30
0.0
 10
29.5799662446
 20
23.4729994195
 30
0.0
 10
29.6101526289
 20
23.4503093764
 30
0.0
  0
SPLINE
  5
498
100
AcDbEntity
  8
00_COMPONENTS_3
100
AcDbSpline
 62
7
  6
BYLAYER
 70
0
 71
3
 72
11
 73
7
 74
0
 42
0.0000001
 43
0.0000001
 44
0.0000000001
 40
0.0
 40
0.0
 40
0.0
 40
0.0
 40
0.2207637577
 40
0.4505869244
 40
0.7061181238
 40
1.0
 40
1.0
 40
1.0
 40
1.0
 10
30.2659887163
 20
23.4503093764
 30
0.0
 10
30.2699641895
 20
23.4614615779
 30
0.0
 10
30.2812539485
 20
23.4832993116
 30
0.0
 10
30.309066525
 20
23.5100545928
 30
0.0
 10
30.3478872694
 20
23.5274655881
 30
0.0
 10
30.3775973438
 20
23.5308842553
 30
0.0
 10
30.3933582736
 20
23.5308842553
 30
0.0
  0
SPLINE
  5
499
100
AcDbEntity
  8
00_COMPONENTS_3
100
AcDbSpline
 62
7
  6
BYLAYER
 70
0
 71
3
 72
9
 73
5
 74
0
 42
0.0000001
 43
0.0000001
 44
0.0000000001
 40
0.0
 40
0.0
 40
0.0
 40
0.0
 40
0.4924254951
 40
1.0
 40
1.0
 40
1.0
 40
1.0
 10
30.4697559636
 20
23.5308842553
 30
0.0
 10
30.5061272845
 20
23.5308842553
 30
0.0
 10
30.5798628026
 20
23.5118482817
 30
0.0
 10
30.6435540685
 20
23.4732312404
 30
0.0
 10
30.6732206665
 20
23.4503093764
 30
0.0
  0
SPLINE
  5
49A
100
AcDbEntity
  8
00_COMPONENTS_3
100
AcDbSpline
 62
7
  6
BYLAYER
 70
0
 71
3
 72
11
 73
7
 74
0
 42
0.0000001
 43
0.0000001
 44
0.0000000001
 40
0.0
 40
0.0
 40
0.0
 40
0.0
 40
0.218887623
 40
0.4509124375
 40
0.7087362252
 40
1.0
 40
1.0
 40
1.0
 40
1.0
 10
31.3595623725
 20
23.4503093764
 30
0.0
 10
31.3648836151
 20
23.4616054984
 30
0.0
 10
31.3790142194
 20
23.4835655298
 30
0.0
 10
31.4104083988
 20
23.5100161185
 30
0.0
 10
31.4521683742
 20
23.5273363853
 30
0.0
 10
31.4837068943
 20
23.5308842553
 30
0.0
 10
31.5003223934
 20
23.5308842553
 30
0.0
  0
SPLINE
  5
49B
100
AcDbEntity
  8
00_COMPONENTS_3
100
AcDbSpline
 62
7
  6
BYLAYER
 70
0
 71
3
 72
9
 73
5
 74
0
 42
0.0000001
 43
0.0000001
 44
0.0000000001
 40
0.0
 40
0.0
 40
0.0
 40
0.0
 40
0.5002097396
 40
1.0
 40
1.0
 40
1.0
 40
1.0
 10
31.5798955615
 20
23.5308842553
 30
0.0
 10
31.6169335734
 20
23.5308842553
 30
0.0
 10
31.6910499391
 20
23.5126356452
 30
0.0
 10
31.7548390364
 20
23.4734469831
 30
0.0
 10
31.7837209619
 20
23.4503093764
 30
0.0
  0
SPLINE
  5
49C
100
AcDbEntity
  8
00_COMPONENTS_3
100
AcDbSpline
 62
7
  6
BYLAYER
 70
0
 71
3
 72
11
 73
7
 74
0
 42
0.0000001
 43
0.0000001
 44
0.0000000001
 40
0.0
 40
0.0
 40
0.0
 40
0.0
 40
0.2187992313
 40
0.4531750571
 40
0.7123453181
 40
1.0
 40
1.0
 40
1.0
 40
1.0
 10
32.4953448116
 20
23.4503093764
 30
0.0
 10
32.5019822144
 20
23.4617123448
 30
0.0
 10
32.5187845181
 20
23.4837116746
 30
0.0
 10
32.5534769376
 20
23.5099374471
 30
0.0
 10
32.5979122286
 20
23.5272152916
 30
0.0
 10
32.6310778577
 20
23.5308842553
 30
0.0
 10
32.6484240274
 20
23.5308842553
 30
0.0
  0
SPLINE
  5
49D
100
AcDbEntity
  8
00_COMPONENTS_3
100
AcDbSpline
 62
7
  6
BYLAYER
 70
0
 71
3
 72
9
 73
5
 74
0
 42
0.0000001
 43
0.0000001
 44
0.0000000001
 40
0.0
 40
0.0
 40
0.0
 40
0.0
 40
0.5075647723
 40
1.0
 40
1.0
 40
1.0
 40
1.0
 10
32.7305670738
 20
23.5308842553
 30
0.0
 10
32.7680028841
 20
23.5308842553
 30
0.0
 10
32.8420153501
 20
23.5133818609
 30
0.0
 10
32.905369311
 20
23.4736435034
 30
0.0
 10
32.9332019372
 20
23.4503093764
 30
0.0
  0
SPLINE
  5
49E
100
AcDbEntity
  8
00_COMPONENTS_3
100
AcDbSpline
 62
7
  6
BYLAYER
 70
0
 71
3
 72
11
 73
7
 74
0
 42
0.0000001
 43
0.0000001
 44
0.0000000001
 40
0.0
 40
0.0
 40
0.0
 40
0.0
 40
0.2200056739
 40
0.4567807686
 40
0.7166038234
 40
1.0
 40
1.0
 40
1.0
 40
1.0
 10
33.6646920435
 20
23.4503093764
 30
0.0
 10
33.672594287
 20
23.4617842632
 30
0.0
 10
33.6918765348
 20
23.4837696358
 30
0.0
 10
33.7295891346
 20
23.5098341763
 30
0.0
 10
33.7764064561
 20
23.5270994993
 30
0.0
 10
33.8109783593
 20
23.5308842553
 30
0.0
 10
33.8289254289
 20
23.5308842553
 30
0.0
  0
SPLINE
  5
49F
100
AcDbEntity
  8
00_COMPONENTS_3
100
AcDbSpline
 62
7
  6
BYLAYER
 70
0
 71
3
 72
9
 73
5
 74
0
 42
0.0000001
 43
0.0000001
 44
0.0000000001
 40
0.0
 40
0.0
 40
0.0
 40
0.0
 40
0.5145367667
 40
1.0
 40
1.0
 40
1.0
 40
1.0
 10
33.9130131953
 20
23.5308842553
 30
0.0
 10
33.9505744723
 20
23.5308842553
 30
0.0
 10
34.0240119433
 20
23.5140961395
 30
0.0
 10
34.086394526
 20
23.4738160115
 30
0.0
 10
34.1129153482
 20
23.4503093764
 30
0.0
  0
SPLINE
  5
4A0
100
AcDbEntity
  8
00_COMPONENTS_3
100
AcDbSpline
 62
7
  6
BYLAYER
 70
0
 71
3
 72
11
 73
7
 74
0
 42
0.0000001
 43
0.0000001
 44
0.0000000001
 40
0.0
 40
0.0
 40
0.0
 40
0.0
 40
0.2221525819
 40
0.4613283113
 40
0.7212940313
 40
1.0
 40
1.0
 40
1.0
 40
1.0
 10
34.8587046296
 20
23.4503093764
 30
0.0
 10
34.8678028742
 20
23.4618262422
 30
0.0
 10
34.8893601239
 20
23.4837644466
 30
0.0
 10
34.9298075202
 20
23.509715075
 30
0.0
 10
34.9786871475
 20
23.5269869596
 30
0.0
 10
35.014428863
 20
23.5308842553
 30
0.0
 10
35.0328422694
 20
23.5308842553
 30
0.0
  0
SPLINE
  5
4A1
100
AcDbEntity
  8
00_COMPONENTS_3
100
AcDbSpline
 62
7
  6
BYLAYER
 70
0
 71
3
 72
9
 73
5
 74
0
 42
0.0000001
 43
0.0000001
 44
0.0000000001
 40
0.0
 40
0.0
 40
0.0
 40
0.0
 40
0.5211477129
 40
1.0
 40
1.0
 40
1.0
 40
1.0
 10
35.1182347972
 20
23.5308842553
 30
0.0
 10
35.155648128
 20
23.5308842553
 30
0.0
 10
35.2280589155
 20
23.5147861395
 30
0.0
 10
35.2889321423
 20
23.4739575245
 30
0.0
 10
35.3138828635
 20
23.4503093764
 30
0.0
  0
SPLINE
  5
4A2
100
AcDbEntity
  8
00_COMPONENTS_3
100
AcDbSpline
 62
7
  6
BYLAYER
 70
0
 71
3
 72
9
 73
5
 74
0
 42
0.0000001
 43
0.0000001
 44
0.0000000001
 40
0.0
 40
0.0
 40
0.0
 40
0.0
 40
0.4667755204
 40
1.0
 40
1.0
 40
1.0
 40
1.0
 10
36.0682954133
 20
23.4503093764
 30
0.0
 10
36.0893617023
 20
23.4741045316
 30
0.0
 10
36.1455912639
 20
23.5161158996
 30
0.0
 10
36.214707365
 20
23.5308842553
 30
0.0
 10
36.2510120149
 20
23.5308842553
 30
0.0
  0
SPLINE
  5
4A3
100
AcDbEntity
  8
00_COMPONENTS_3
100
AcDbSpline
 62
7
  6
BYLAYER
 70
0
 71
3
 72
9
 73
5
 74
0
 42
0.0000001
 43
0.0000001
 44
0.0000000001
 40
0.0
 40
0.0
 40
0.0
 40
0.0
 40
0.527391241
 40
1.0
 40
1.0
 40
1.0
 40
1.0
 10
36.3370594154
 20
23.5308842553
 30
0.0
 10
36.3740526622
 20
23.5308842553
 30
0.0
 10
36.4450114078
 20
23.5154579942
 30
0.0
 10
36.5038352856
 20
23.4740581895
 30
0.0
 10
36.526964395
 20
23.4503093764
 30
0.0
  0
SPLINE
  5
4A4
100
AcDbEntity
  8
00_COMPONENTS_3
100
AcDbSpline
 62
7
  6
BYLAYER
 70
0
 71
3
 72
9
 73
5
 74
0
 42
0.0000001
 43
0.0000001
 44
0.0000000001
 40
0.0
 40
0.0
 40
0.0
 40
0.0
 40
0.4726088869
 40
1.0
 40
1.0
 40
1.0
 40
1.0
 10
37.2842586782
 20
23.4503093764
 30
0.0
 10
37.307387794
 20
23.474058196
 30
0.0
 10
37.3662116737
 20
23.5154580012
 30
0.0
 10
37.43717042
 20
23.5308842553
 30
0.0
 10
37.4741636579
 20
23.5308842553
 30
0.0
  0
SPLINE
  5
4A5
100
AcDbEntity
  8
00_COMPONENTS_3
100
AcDbSpline
 62
7
  6
BYLAYER
 70
0
 71
3
 72
9
 73
5
 74
0
 42
0.0000001
 43
0.0000001
 44
0.0000000001
 40
0.0
 40
0.0
 40
0.0
 40
0.0
 40
0.5332246062
 40
1.0
 40
1.0
 40
1.0
 40
1.0
 10
37.5602110584
 20
23.5308842553
 30
0.0
 10
37.5965157167
 20
23.5308842553
 30
0.0
 10
37.6656318174
 20
23.5161158927
 30
0.0
 10
37.7218613768
 20
23.4741045251
 30
0.0
 10
37.74292766
 20
23.4503093764
 30
0.0
  0
SPLINE
  5
4A6
100
AcDbEntity
  8
00_COMPONENTS_3
100
AcDbSpline
 62
7
  6
BYLAYER
 70
0
 71
3
 72
11
 73
7
 74
0
 42
0.0000001
 43
0.0000001
 44
0.0000000001
 40
0.0
 40
0.0
 40
0.0
 40
0.0
 40
0.2523391871
 40
0.4790366711
 40
0.7143449309
 40
1.0
 40
1.0
 40
1.0
 40
1.0
 10
25.7039850366
 20
23.4797189481
 30
0.0
 10
25.7039848257
 20
23.4866810516
 30
0.0
 10
25.7054247611
 20
23.5000496816
 30
0.0
 10
25.7151775587
 20
23.5180137103
 30
0.0
 10
25.7334977554
 20
23.5292187917
 30
0.0
 10
25.7481180743
 20
23.5308842553
 30
0.0
 10
25.7559993715
 20
23.5308842553
 30
0.0
  0
SPLINE
  5
4A7
100
AcDbEntity
  8
00_COMPONENTS_3
100
AcDbSpline
 62
7
  6
BYLAYER
 70
0
 71
3
 72
15
 73
11
 74
0
 42
0.0000001
 43
0.0000001
 44
0.0000000001
 40
0.0
 40
0.0
 40
0.0
 40
0.0
 40
0.0401955705
 40
0.0842158996
 40
0.1585564383
 40
0.2677641856
 40
0.4104183325
 40
0.5827420764
 40
0.7805944526
 40
1.0
 40
1.0
 40
1.0
 40
1.0
 10
23.51622572
 20
23.109066902
 30
0.0
 10
23.5162251115
 20
23.1086349794
 30
0.0
 10
23.5159159235
 20
23.1075805286
 30
0.0
 10
23.5139581012
 20
23.1074792426
 30
0.0
 10
23.5117220499
 20
23.1083167444
 30
0.0
 10
23.5085603203
 20
23.1099108362
 30
0.0
 10
23.5047101635
 20
23.1123363867
 30
0.0
 10
23.5001803079
 20
23.1154830652
 30
0.0
 10
23.4951096415
 20
23.1192807382
 30
0.0
 10
23.4915867722
 20
23.1220553514
 30
0.0
 10
23.4897481894
 20
23.1235311681
 30
0.0
  0
LINE
  5
4A8
100
AcDbEntity
  8
00_COMPONENTS_3
100
AcDbLine
 62
7
  6
BYLAYER
 10
23.4897481894
 20
23.1235311681
 11
23.4739844165
 21
23.1367446282
  0
SPLINE
  5
4A9
100
AcDbEntity
  8
00_COMPONENTS_3
100
AcDbSpline
 62
7
  6
BYLAYER
 70
0
 71
3
 72
13
 73
9
 74
0
 42
0.0000001
 43
0.0000001
 44
0.0000000001
 40
0.0
 40
0.0
 40
0.0
 40
0.0
 40
0.1795739401
 40
0.2626359619
 40
0.3592492189
 40
0.479668181
 40
0.6275153413
 40
1.0
 40
1.0
 40
1.0
 40
1.0
 10
24.5914032256
 20
23.1168961037
 30
0.0
 10
24.5914033299
 20
23.1146289139
 30
0.0
 10
24.5906967704
 20
23.1109647748
 30
0.0
 10
24.5869002472
 20
23.1081670699
 30
0.0
 10
24.5831122011
 20
23.1073899647
 30
0.0
 10
24.5784847935
 20
23.1077221503
 30
0.0
 10
24.5706129192
 20
23.1096924118
 30
0.0
 10
24.5645858257
 20
23.1124240515
 30
0.0
 10
24.5603965008
 20
23.1145607599
 30
0.0
  0
SPLINE
  5
4AA
100
AcDbEntity
  8
00_COMPONENTS_3
100
AcDbSpline
 62
7
  6
BYLAYER
 70
0
 71
3
 72
9
 73
5
 74
0
 42
0.0000001
 43
0.0000001
 44
0.0000000001
 40
0.0
 40
0.0
 40
0.0
 40
0.0
 40
0.2275194409
 40
1.0
 40
1.0
 40
1.0
 40
1.0
 10
24.5603965008
 20
23.1145607599
 30
0.0
 10
24.5576418733
 20
23.1159657203
 30
0.0
 10
24.5457613891
 20
23.1225842491
 30
0.0
 10
24.5345968269
 20
23.1304112745
 30
0.0
 10
24.5262233375
 20
23.1367445259
 30
0.0
  0
SPLINE
  5
4AB
100
AcDbEntity
  8
00_COMPONENTS_3
100
AcDbSpline
 62
7
  6
BYLAYER
 70
0
 71
3
 72
11
 73
7
 74
0
 42
0.0000001
 43
0.0000001
 44
0.0000000001
 40
0.0
 40
0.0
 40
0.0
 40
0.0
 40
0.2559804848
 40
0.5284761056
 40
0.7822931611
 40
1.0
 40
1.0
 40
1.0
 40
1.0
 10
39.3408068888
 20
23.1367444258
 30
0.0
 10
39.3309501474
 20
23.1281922868
 30
0.0
 10
39.3077502406
 20
23.113531664
 30
0.0
 10
39.2678331065
 20
23.1046544759
 30
0.0
 10
39.2293781131
 20
23.1126037065
 30
0.0
 10
39.2098133777
 20
23.1281076329
 30
0.0
 10
39.2028432575
 20
23.1367444599
 30
0.0
  0
SPLINE
  5
4AC
100
AcDbEntity
  8
00_COMPONENTS_3
100
AcDbSpline
 62
7
  6
BYLAYER
 70
0
 71
3
 72
17
 73
13
 74
0
 42
0.0000001
 43
0.0000001
 44
0.0000000001
 40
0.0
 40
0.0
 40
0.0
 40
0.0
 40
0.0094113982
 40
0.020164232
 40
0.038791557
 40
0.0665299118
 40
0.103486407
 40
0.1495168609
 40
0.2671352644
 40
0.4152405345
 40
0.5895017789
 40
1.0
 40
1.0
 40
1.0
 40
1.0
 10
23.3602625111
 20
23.1079323936
 30
0.0
 10
23.3602626163
 20
23.1078194019
 30
0.0
 10
23.3601711118
 20
23.1075359611
 30
0.0
 10
23.359630692
 20
23.1075480895
 30
0.0
 10
23.3590151563
 20
23.1077933818
 30
0.0
 10
23.358117838
 20
23.1082646559
 30
0.0
 10
23.3570010494
 20
23.1089787065
 30
0.0
 10
23.3550269567
 20
23.1103630283
 30
0.0
 10
23.3520704632
 20
23.1126586503
 30
0.0
 10
23.3479951957
 20
23.1160207876
 30
0.0
 10
23.3413257615
 20
23.1217601203
 30
0.0
 10
23.3361027141
 20
23.1264525791
 30
0.0
 10
23.3324595481
 20
23.1297716547
 30
0.0
  0
SPLINE
  5
4AD
100
AcDbEntity
  8
00_COMPONENTS_3
100
AcDbSpline
 62
7
  6
BYLAYER
 70
0
 71
3
 72
13
 73
9
 74
0
 42
0.0000001
 43
0.0000001
 44
0.0000000001
 40
0.0
 40
0.0
 40
0.0
 40
0.0
 40
0.2052007384
 40
0.3006056593
 40
0.4021429878
 40
0.5198243376
 40
0.6593242094
 40
1.0
 40
1.0
 40
1.0
 40
1.0
 10
26.5125235892
 20
23.1308750707
 30
0.0
 10
26.5125237505
 20
23.1262928603
 30
0.0
 10
26.5113852323
 20
23.1192421438
 30
0.0
 10
26.5055958639
 20
23.1121122465
 30
0.0
 10
26.4993009918
 20
23.1086484198
 30
0.0
 10
26.4913033088
 20
23.1072545705
 30
0.0
 10
26.4779021472
 20
23.1081387406
 30
0.0
 10
26.467578389
 20
23.1116073314
 30
0.0
 10
26.4605676678
 20
23.11456074
 30
0.0
  0
SPLINE
  5
4AE
100
AcDbEntity
  8
00_COMPONENTS_3
100
AcDbSpline
 62
7
  6
BYLAYER
 70
0
 71
3
 72
9
 73
5
 74
0
 42
0.0000001
 43
0.0000001
 44
0.0000000001
 40
0.0
 40
0.0
 40
0.0
 40
0.0
 40
0.2388856262
 40
1.0
 40
1.0
 40
1.0
 40
1.0
 10
26.4605676678
 20
23.11456074
 30
0.0
 10
26.4573049245
 20
23.1159352369
 30
0.0
 10
26.443877454
 20
23.1222356345
 30
0.0
 10
26.4312798427
 20
23.130193055
 30
0.0
 10
26.4220971107
 20
23.1367444483
 30
0.0
  0
SPLINE
  5
4AF
100
AcDbEntity
  8
00_COMPONENTS_3
100
AcDbSpline
 62
7
  6
BYLAYER
 70
0
 71
3
 72
11
 73
7
 74
0
 42
0.0000001
 43
0.0000001
 44
0.0000000001
 40
0.0
 40
0.0
 40
0.0
 40
0.0
 40
0.2601239223
 40
0.4863319961
 40
0.7181066701
 40
1.0
 40
1.0
 40
1.0
 40
1.0
 10
24.420843904
 20
23.5030296797
 30
0.0
 10
24.420843921
 20
23.5069479616
 30
0.0
 10
24.4216157865
 20
23.5143661796
 30
0.0
 10
24.4270617946
 20
23.5242008023
 30
0.0
 10
24.4370801453
 20
23.5300558589
 30
0.0
 10
24.444937453
 20
23.5308842553
 30
0.0
 10
24.4491836505
 20
23.5308842553
 30
0.0
  0
SPLINE
  5
4B0
100
AcDbEntity
  8
00_COMPONENTS_3
100
AcDbSpline
 62
7
  6
BYLAYER
 70
0
 71
3
 72
11
 73
7
 74
0
 42
0.0000001
 43
0.0000001
 44
0.0000000001
 40
0.0
 40
0.0
 40
0.0
 40
0.0
 40
0.2665052822
 40
0.5428140924
 40
0.7908955907
 40
1.0
 40
1.0
 40
1.0
 40
1.0
 10
40.5000634628
 20
23.1367444445
 30
0.0
 10
40.4897153146
 20
23.1282518972
 30
0.0
 10
40.4661010091
 20
23.1137808404
 30
0.0
 10
40.4264621852
 20
23.1046658634
 30
0.0
 10
40.3889319841
 20
23.1123860153
 30
0.0
 10
40.3707885802
 20
23.1281538073
 30
0.0
 10
40.3647450281
 20
23.1367444843
 30
0.0
  0
SPLINE
  5
4B1
100
AcDbEntity
  8
00_COMPONENTS_3
100
AcDbSpline
 62
7
  6
BYLAYER
 70
0
 71
3
 72
13
 73
9
 74
0
 42
0.0000001
 43
0.0000001
 44
0.0000000001
 40
0.0
 40
0.0
 40
0.0
 40
0.0
 40
0.2764235188
 40
0.5551543948
 40
0.6829548874
 40
0.7979977324
 40
0.9023065998
 40
1.0
 40
1.0
 40
1.0
 40
1.0
 10
41.631964088
 20
23.1367444666
 30
0.0
 10
41.6212215961
 20
23.1283201371
 30
0.0
 10
41.5974418251
 20
23.1140265161
 30
0.0
 10
41.5637087263
 20
23.1060515779
 30
0.0
 10
41.5378519326
 20
23.1088629978
 30
0.0
 10
41.5216539694
 20
23.1151046309
 30
0.0
 10
41.5089743336
 20
23.1246120273
 30
0.0
 10
41.5027866308
 20
23.1325974839
 30
0.0
 10
41.5003207036
 20
23.1367445118
 30
0.0
  0
SPLINE
  5
4B2
100
AcDbEntity
  8
00_COMPONENTS_3
100
AcDbSpline
 62
7
  6
BYLAYER
 70
0
 71
3
 72
14
 73
10
 74
0
 42
0.0000001
 43
0.0000001
 44
0.0000000001
 40
0.0
 40
0.0
 40
0.0
 40
0.0
 40
0.287271608
 40
0.4319799233
 40
0.5698361704
 40
0.6948417145
 40
0.8054748041
 40
0.9053838137
 40
1.0
 40
1.0
 40
1.0
 40
1.0
 10
42.7278943172
 20
23.1367444919
 30
0.0
 10
42.7168554533
 20
23.1283952964
 30
0.0
 10
42.6986724724
 20
23.1176335077
 30
0.0
 10
42.6724224471
 20
23.1092258656
 30
0.0
 10
42.6527856616
 20
23.1068085715
 30
0.0
 10
42.6347019368
 20
23.1088217068
 30
0.0
 10
42.6195326194
 20
23.1150795313
 30
0.0
 10
42.6080968381
 20
23.1246687255
 30
0.0
 10
42.6029045994
 20
23.1326368221
 30
0.0
 10
42.6009278675
 20
23.1367445422
 30
0.0
  0
SPLINE
  5
4B3
100
AcDbEntity
  8
00_COMPONENTS_3
100
AcDbSpline
 62
7
  6
BYLAYER
 70
0
 71
3
 72
11
 73
7
 74
0
 42
0.0000001
 43
0.0000001
 44
0.0000000001
 40
0.0
 40
0.0
 40
0.0
 40
0.0
 40
0.2458566082
 40
0.5142157124
 40
0.7732762175
 40
1.0
 40
1.0
 40
1.0
 40
1.0
 10
38.1630170086
 20
23.1367444106
 30
0.0
 10
38.1537470727
 20
23.1281438134
 30
0.0
 10
38.1311576747
 20
23.1132912647
 30
0.0
 10
38.0912326004
 20
23.1046471898
 30
0.0
 10
38.0520548563
 20
23.1128280155
 30
0.0
 10
38.0312800943
 20
23.1280957214
 30
0.0
 10
38.0234581656
 20
23.1367444387
 30
0.0
  0
SPLINE
  5
4B4
100
AcDbEntity
  8
00_COMPONENTS_3
100
AcDbSpline
 62
7
  6
BYLAYER
 70
0
 71
3
 72
14
 73
10
 74
0
 42
0.0000001
 43
0.0000001
 44
0.0000000001
 40
0.0
 40
0.0
 40
0.0
 40
0.0
 40
0.2988898081
 40
0.4462771175
 40
0.5838382793
 40
0.7057179304
 40
0.8117491891
 40
0.9075491203
 40
1.0
 40
1.0
 40
1.0
 40
1.0
 10
43.7795134593
 20
23.1367445203
 30
0.0
 10
43.7682764246
 20
23.1284762617
 30
0.0
 10
43.7500816233
 20
23.1177658491
 30
0.0
 10
43.7240764082
 20
23.1092740298
 30
0.0
 10
43.7050996526
 20
23.1068124794
 30
0.0
 10
43.687935544
 20
23.1087762964
 30
0.0
 10
43.6738895461
 20
23.1150702424
 30
0.0
 10
43.6638022224
 20
23.1247699867
 30
0.0
 10
43.6596668308
 20
23.1326897715
 30
0.0
 10
43.6581902349
 20
23.1367445752
 30
0.0
  0
SPLINE
  5
4B5
100
AcDbEntity
  8
00_COMPONENTS_3
100
AcDbSpline
 62
7
  6
BYLAYER
 70
0
 71
3
 72
14
 73
10
 74
0
 42
0.0000001
 43
0.0000001
 44
0.0000000001
 40
0.0
 40
0.0
 40
0.0
 40
0.0
 40
0.3108884053
 40
0.4607489096
 40
0.5975372199
 40
0.7156730884
 40
0.8167091984
 40
0.9086798381
 40
1.0
 40
1.0
 40
1.0
 40
1.0
 10
44.7788180575
 20
23.1367445514
 30
0.0
 10
44.7674806239
 20
23.1285623637
 30
0.0
 10
44.7494158762
 20
23.1179076924
 30
0.0
 10
44.7238429431
 20
23.1093269055
 30
0.0
 10
44.7056668435
 20
23.1068180079
 30
0.0
 10
44.6895317113
 20
23.1087264004
 30
0.0
 10
44.6766941142
 20
23.1150873733
 30
0.0
 10
44.6680692551
 20
23.1249289065
 30
0.0
 10
44.6650361564
 20
23.1327550118
 30
0.0
 10
44.664061401
 20
23.1367446106
 30
0.0
  0
SPLINE
  5
4B6
100
AcDbEntity
  8
00_COMPONENTS_3
100
AcDbSpline
 62
7
  6
BYLAYER
 70
0
 71
3
 72
14
 73
10
 74
0
 42
0.0000001
 43
0.0000001
 44
0.0000000001
 40
0.0
 40
0.0
 40
0.0
 40
0.0
 40
0.3231788801
 40
0.4752117798
 40
0.6106098748
 40
0.7242284674
 40
0.8198374167
 40
0.9084656855
 40
1.0
 40
1.0
 40
1.0
 40
1.0
 10
45.7182028003
 20
23.1367445852
 30
0.0
 10
45.7068616401
 20
23.1286532642
 30
0.0
 10
45.6890676678
 20
23.118060886
 30
0.0
 10
45.6641127238
 20
23.1093857834
 30
0.0
 10
45.6468735468
 20
23.1068260143
 30
0.0
 10
45.6318600225
 20
23.1086701032
 30
0.0
 10
45.6203100754
 20
23.1151494706
 30
0.0
 10
45.6132796432
 20
23.1251548761
 30
0.0
 10
45.6113663617
 20
23.1328281046
 30
0.0
 10
45.6108860789
 20
23.1367446482
 30
0.0
  0
SPLINE
  5
4B7
100
AcDbEntity
  8
00_COMPONENTS_3
100
AcDbSpline
 62
7
  6
BYLAYER
 70
0
 71
3
 72
11
 73
7
 74
0
 42
0.0000001
 43
0.0000001
 44
0.0000000001
 40
0.0
 40
0.0
 40
0.0
 40
0.0
 40
0.2267193309
 40
0.4857827342
 40
0.7541386293
 40
1.0
 40
1.0
 40
1.0
 40
1.0
 10
35.7877649295
 20
23.1367443912
 30
0.0
 10
35.7799431597
 20
23.128095843
 30
0.0
 10
35.7591684668
 20
23.1128282538
 30
0.0
 10
35.7199910434
 20
23.1046471808
 30
0.0
 10
35.6800656943
 20
23.1132910429
 30
0.0
 10
35.657476212
 20
23.1281436488
 30
0.0
 10
35.6482060957
 20
23.1367444069
 30
0.0
  0
SPLINE
  5
4B8
100
AcDbEntity
  8
00_COMPONENTS_3
100
AcDbSpline
 62
7
  6
BYLAYER
 70
0
 71
3
 72
15
 73
11
 74
0
 42
0.0000001
 43
0.0000001
 44
0.0000000001
 40
0.0
 40
0.0
 40
0.0
 40
0.0
 40
0.1702791528
 40
0.3358837322
 40
0.4895830222
 40
0.6227310349
 40
0.7308208955
 40
0.8205344039
 40
0.9065943184
 40
1.0
 40
1.0
 40
1.0
 40
1.0
 10
46.5905184024
 20
23.1367446212
 30
0.0
 10
46.5848076967
 20
23.132685837
 30
0.0
 10
46.5732128771
 20
23.1251272545
 30
0.0
 10
46.5552998182
 20
23.1158268775
 30
0.0
 10
46.5377266837
 20
23.1094537458
 30
0.0
 10
46.5215597298
 20
23.1068371464
 30
0.0
 10
46.5077351034
 20
23.1086061586
 30
0.0
 10
46.4975604774
 20
23.1152854889
 30
0.0
 10
46.4922763781
 20
23.1254445071
 30
0.0
 10
46.4914583654
 20
23.1329015127
 30
0.0
 10
46.4914583615
 20
23.1367446875
 30
0.0
  0
SPLINE
  5
4B9
100
AcDbEntity
  8
00_COMPONENTS_3
100
AcDbSpline
 62
7
  6
BYLAYER
 70
0
 71
3
 72
11
 73
7
 74
0
 42
0.0000001
 43
0.0000001
 44
0.0000000001
 40
0.0
 40
0.0
 40
0.0
 40
0.0
 40
0.2177025189
 40
0.4715223213
 40
0.744014575
 40
1.0
 40
1.0
 40
1.0
 40
1.0
 10
34.6083798332
 20
23.1367443872
 30
0.0
 10
34.6014098582
 20
23.1281077337
 30
0.0
 10
34.5818451828
 20
23.1126039517
 30
0.0
 10
34.5433905334
 20
23.104654458
 30
0.0
 10
34.5034731465
 20
23.113531451
 30
0.0
 10
34.4802731495
 20
23.1281921006
 30
0.0
 10
34.47041622
 20
23.1367443964
 30
0.0
  0
SPLINE
  5
4BA
100
AcDbEntity
  8
00_COMPONENTS_3
100
AcDbSpline
 62
7
  6
BYLAYER
 70
0
 71
3
 72
15
 73
11
 74
0
 42
0.0000001
 43
0.0000001
 44
0.0000000001
 40
0.0
 40
0.0
 40
0.0
 40
0.0
 40
0.1756029925
 40
0.3448232686
 40
0.5006926559
 40
0.6349836572
 40
0.7426134587
 40
0.8290424084
 40
0.9102418106
 40
1.0
 40
1.0
 40
1.0
 40
1.0
 10
47.3891260151
 20
23.1367446593
 30
0.0
 10
47.3838148651
 20
23.1329554331
 30
0.0
 10
47.3731249724
 20
23.125867886
 30
0.0
 10
47.3567777668
 20
23.1169337296
 30
0.0
 10
47.3409197402
 20
23.1104751757
 30
0.0
 10
47.3264181512
 20
23.1072053945
 30
0.0
 10
47.313989676
 20
23.1076109897
 30
0.0
 10
47.3044687174
 20
23.1125010171
 30
0.0
 10
47.2994187118
 20
23.1211041697
 30
0.0
 10
47.2986993924
 20
23.1275403429
 30
0.0
 10
47.298699499
 20
23.1308751936
 30
0.0
  0
SPLINE
  5
4BB
100
AcDbEntity
  8
00_COMPONENTS_3
100
AcDbSpline
 62
7
  6
BYLAYER
 70
0
 71
3
 72
14
 73
10
 74
0
 42
0.0000001
 43
0.0000001
 44
0.0000000001
 40
0.0
 40
0.0
 40
0.0
 40
0.0
 40
0.1818722755
 40
0.3556882169
 40
0.5147281688
 40
0.6511608498
 40
0.8390172968
 40
0.9148175149
 40
1.0
 40
1.0
 40
1.0
 40
1.0
 10
48.1079477521
 20
23.1367446992
 30
0.0
 10
48.1030548042
 20
23.1332134746
 30
0.0
 10
48.0932728055
 20
23.126581548
 30
0.0
 10
48.0785076834
 20
23.1180320084
 30
0.0
 10
48.0641710166
 20
23.1115833885
 30
0.0
 10
48.0491648635
 20
23.1070359195
 30
0.0
 10
48.0337453722
 20
23.1072471727
 30
0.0
 10
48.0266865204
 20
23.117310855
 30
0.0
 10
48.0260893066
 20
23.1227579488
 30
0.0
 10
48.0260891772
 20
23.1255841107
 30
0.0
  0
SPLINE
  5
4BC
100
AcDbEntity
  8
00_COMPONENTS_3
100
AcDbSpline
 62
7
  6
BYLAYER
 70
0
 71
3
 72
11
 73
7
 74
0
 42
0.0000001
 43
0.0000001
 44
0.0000000001
 40
0.0
 40
0.0
 40
0.0
 40
0.0
 40
0.209100203
 40
0.4571843003
 40
0.7334895846
 40
1.0
 40
1.0
 40
1.0
 40
1.0
 10
33.4464780584
 20
23.136744387
 30
0.0
 10
33.4404346358
 20
23.1281538878
 30
0.0
 10
33.4222912821
 20
23.1123862662
 30
0.0
 10
33.3847614484
 20
23.1046658368
 30
0.0
 10
33.3451223927
 20
23.1137806365
 30
0.0
 10
33.3215079922
 20
23.1282516895
 30
0.0
 10
33.3111596502
 20
23.1367443897
 30
0.0
  0
SPLINE
  5
4BD
100
AcDbEntity
  8
00_COMPONENTS_3
100
AcDbSpline
 62
7
  6
BYLAYER
 70
0
 71
3
 72
14
 73
10
 74
0
 42
0.0000001
 43
0.0000001
 44
0.0000000001
 40
0.0
 40
0.0
 40
0.0
 40
0.0
 40
0.3640578685
 40
0.525387001
 40
0.6633728055
 40
0.771929118
 40
0.8526854451
 40
0.921637565
 40
1.0
 40
1.0
 40
1.0
 40
1.0
 10
48.7415129459
 20
23.1367447405
 30
0.0
 10
48.7328198237
 20
23.1303483022
 30
0.0
 10
48.7198390654
 20
23.1216317278
 30
0.0
 10
48.7022720033
 20
23.11274059
 30
0.0
 10
48.6908513406
 20
23.1086023879
 30
0.0
 10
48.681220854
 20
23.1070370486
 30
0.0
 10
48.6733221653
 20
23.1085796
 30
0.0
 10
48.6686187173
 20
23.1140757161
 30
0.0
 10
48.6680913634
 20
23.1185893645
 30
0.0
 10
48.6680915058
 20
23.1209124871
 30
0.0
  0
SPLINE
  5
4BE
100
AcDbEntity
  8
00_COMPONENTS_3
100
AcDbSpline
 62
7
  6
BYLAYER
 70
0
 71
3
 72
13
 73
9
 74
0
 42
0.0000001
 43
0.0000001
 44
0.0000000001
 40
0.0
 40
0.0
 40
0.0
 40
0.0
 40
0.0976905332
 40
0.201998034
 40
0.3170378646
 40
0.4448440444
 40
0.7235712046
 40
1.0
 40
1.0
 40
1.0
 40
1.0
 10
32.3109023791
 20
23.1367443907
 30
0.0
 10
32.308436528
 20
23.1325974877
 30
0.0
 10
32.30224893
 20
23.1246122224
 30
0.0
 10
32.289569617
 20
23.1151050788
 30
0.0
 10
32.2733717978
 20
23.1088629583
 30
0.0
 10
32.2475150135
 20
23.1060516214
 30
0.0
 10
32.213781603
 20
23.1140262668
 30
0.0
 10
32.1900017183
 20
23.1283199082
 30
0.0
 10
32.1792590287
 20
23.1367443867
 30
0.0
  0
SPLINE
  5
4BF
100
AcDbEntity
  8
00_COMPONENTS_3
100
AcDbSpline
 62
7
  6
BYLAYER
 70
0
 71
3
 72
15
 73
11
 74
0
 42
0.0000001
 43
0.0000001
 44
0.0000000001
 40
0.0
 40
0.0
 40
0.0
 40
0.0
 40
0.3738981526
 40
0.5382545182
 40
0.678603754
 40
0.7885335085
 40
0.8674474922
 40
0.8993266352
 40
0.9301103636
 40
1.0
 40
1.0
 40
1.0
 40
1.0
 10
49.2849997825
 20
23.1367447829
 30
0.0
 10
49.2771767388
 20
23.1308278568
 30
0.0
 10
49.2655948422
 20
23.1226847491
 30
0.0
 10
49.250067816
 20
23.1139545632
 30
0.0
 10
49.2400685155
 20
23.1095722779
 30
0.0
 10
49.2317119761
 20
23.1073391355
 30
0.0
 10
49.2256775594
 20
23.1075612621
 30
0.0
 10
49.2223997305
 20
23.1094786429
 30
0.0
 10
49.2202264394
 20
23.1122902144
 30
0.0
 10
49.2198197208
 20
23.1150626069
 30
0.0
 10
49.2198198094
 20
23.1168960592
 30
0.0
  0
SPLINE
  5
4C0
100
AcDbEntity
  8
00_COMPONENTS_3
100
AcDbSpline
 62
7
  6
BYLAYER
 70
0
 71
3
 72
14
 73
10
 74
0
 42
0.0000001
 43
0.0000001
 44
0.0000000001
 40
0.0
 40
0.0
 40
0.0
 40
0.0
 40
0.0946133286
 40
0.1945210482
 40
0.3051511802
 40
0.430162281
 40
0.5680120949
 40
0.7127228669
 40
1.0
 40
1.0
 40
1.0
 40
1.0
 10
31.210295212
 20
23.1367443981
 30
0.0
 10
31.2083185437
 20
23.1326368074
 30
0.0
 10
31.2031263884
 20
23.1246689068
 30
0.0
 10
31.1916909092
 20
23.115079981
 30
0.0
 10
31.1765217662
 20
23.1088216644
 30
0.0
 10
31.1584381834
 20
23.1068085932
 30
0.0
 10
31.1388013892
 20
23.1092258231
 30
0.0
 10
31.1125511821
 20
23.1176330575
 30
0.0
 10
31.0943678662
 20
23.128395047
 30
0.0
 10
31.0833288028
 20
23.1367443877
 30
0.0
  0
SPLINE
  5
4C1
100
AcDbEntity
  8
00_COMPONENTS_3
100
AcDbSpline
 62
7
  6
BYLAYER
 70
0
 71
3
 72
16
 73
12
 74
0
 42
0.0000001
 43
0.0000001
 44
0.0000000001
 40
0.0
 40
0.0
 40
0.0
 40
0.0
 40
0.198306984
 40
0.384185451
 40
0.5519628378
 40
0.6951895302
 40
0.8073681298
 40
0.8508258324
 40
0.8862574444
 40
0.9407392974
 40
1.0
 40
1.0
 40
1.0
 40
1.0
 10
49.734271999
 20
23.1367448262
 30
0.0
 10
49.7306771952
 20
23.1339257574
 30
0.0
 10
49.7236290171
 20
23.1285690803
 30
0.0
 10
49.7132083383
 20
23.1212777391
 30
0.0
 10
49.703491943
 20
23.1152061152
 30
0.0
 10
49.6948444646
 20
23.1106962006
 30
0.0
 10
49.6883673858
 20
23.1082276386
 30
0.0
 10
49.6840029905
 20
23.1075109946
 30
0.0
 10
49.6809246224
 20
23.1075350912
 30
0.0
 10
49.6775231243
 20
23.1093138448
 30
0.0
 10
49.6770780706
 20
23.1122024458
 30
0.0
 10
49.6770771325
 20
23.113567618
 30
0.0
  0
SPLINE
  5
4C2
100
AcDbEntity
  8
00_COMPONENTS_3
100
AcDbSpline
 62
7
  6
BYLAYER
 70
0
 71
3
 72
14
 73
10
 74
0
 42
0.0000001
 43
0.0000001
 44
0.0000000001
 40
0.0
 40
0.0
 40
0.0
 40
0.0
 40
0.0924479816
 40
0.1882466863
 40
0.2942750577
 40
0.4161601035
 40
0.5537148135
 40
0.7011044406
 40
1.0
 40
1.0
 40
1.0
 40
1.0
 10
30.1530328419
 20
23.1367444092
 30
0.0
 10
30.1515562958
 20
23.1326897394
 30
0.0
 10
30.1474209687
 20
23.1247701508
 30
0.0
 10
30.1373339194
 20
23.1150706948
 30
0.0
 10
30.123288128
 20
23.1087762468
 30
0.0
 10
30.106124156
 20
23.1068125054
 30
0.0
 10
30.0871474154
 20
23.1092739781
 30
0.0
 10
30.0611420289
 20
23.117765409
 30
0.0
 10
30.0429468972
 20
23.1284759927
 30
0.0
 10
30.0317096634
 20
23.1367443924
 30
0.0
  0
SPLINE
  5
4C3
100
AcDbEntity
  8
00_COMPONENTS_3
100
AcDbSpline
 62
7
  6
BYLAYER
 70
0
 71
3
 72
15
 73
11
 74
0
 42
0.0000001
 43
0.0000001
 44
0.0000000001
 40
0.0
 40
0.0
 40
0.0
 40
0.0
 40
0.2034668157
 40
0.3933247851
 40
0.56434988
 40
0.7105368126
 40
0.8256323377
 40
0.9053566505
 40
0.9539171584
 40
1.0
 40
1.0
 40
1.0
 40
1.0
 10
50.0859103624
 20
23.1367448699
 30
0.0
 10
50.0827431138
 20
23.1341455623
 30
0.0
 10
50.0765632672
 20
23.1291894171
 30
0.0
 10
50.0674972772
 20
23.1223347423
 30
0.0
 10
50.0591071996
 20
23.1165031322
 30
0.0
 10
50.0517174972
 20
23.1119089477
 30
0.0
 10
50.0454962352
 20
23.1088852018
 30
0.0
 10
50.0409294983
 20
23.107294942
 30
0.0
 10
50.0369481084
 20
23.1078113251
 30
0.0
 10
50.0363807573
 20
23.110023358
 30
0.0
 10
50.0363813398
 20
23.110951348
 30
0.0
  0
SPLINE
  5
4C4
100
AcDbEntity
  8
00_COMPONENTS_3
100
AcDbSpline
 62
7
  6
BYLAYER
 70
0
 71
3
 72
13
 73
9
 74
0
 42
0.0000001
 43
0.0000001
 44
0.0000000001
 40
0.0
 40
0.0
 40
0.0
 40
0.0
 40
0.1916775006
 40
0.2795418857
 40
0.3775189748
 40
0.4961769121
 40
0.6402863
 40
1.0
 40
1.0
 40
1.0
 40
1.0
 10
25.1431315483
 20
23.1209125208
 30
0.0
 10
25.1431317134
 20
23.1179262091
 30
0.0
 10
25.1423069194
 20
23.1132281929
 30
0.0
 10
25.1378602753
 20
23.1090896326
 30
0.0
 10
25.1332539033
 20
23.107559006
 30
0.0
 10
25.1275825455
 20
23.1074427707
 30
0.0
 10
25.118000412
 20
23.1091776503
 30
0.0
 10
25.1106589645
 20
23.1121650492
 30
0.0
 10
25.1055925334
 20
23.114560753
 30
0.0
  0
SPLINE
  5
4C5
100
AcDbEntity
  8
00_COMPONENTS_3
100
AcDbSpline
 62
7
  6
BYLAYER
 70
0
 71
3
 72
9
 73
5
 74
0
 42
0.0000001
 43
0.0000001
 44
0.0000000001
 40
0.0
 40
0.0
 40
0.0
 40
0.0
 40
0.2316065476
 40
1.0
 40
1.0
 40
1.0
 40
1.0
 10
25.1055925334
 20
23.114560753
 30
0.0
 10
25.1026455539
 20
23.1159542565
 30
0.0
 10
25.0901514941
 20
23.1224563887
 30
0.0
 10
25.0784212162
 20
23.1303348775
 30
0.0
 10
25.0697101768
 20
23.136744497
 30
0.0
  0
SPLINE
  5
4C6
100
AcDbEntity
  8
00_COMPONENTS_3
100
AcDbSpline
 62
7
  6
BYLAYER
 70
0
 71
3
 72
14
 73
10
 74
0
 42
0.0000001
 43
0.0000001
 44
0.0000000001
 40
0.0
 40
0.0
 40
0.0
 40
0.0
 40
0.0913171904
 40
0.183286671
 40
0.2843200089
 40
0.4024610847
 40
0.5392429461
 40
0.6891056076
 40
1.0
 40
1.0
 40
1.0
 40
1.0
 10
29.1471616739
 20
23.1367444241
 30
0.0
 10
29.1461869528
 20
23.1327549633
 30
0.0
 10
29.1431539043
 20
23.1249290504
 30
0.0
 10
29.1345292818
 20
23.1150878279
 30
0.0
 10
29.1216919296
 20
23.1087263445
 30
0.0
 10
29.1055569223
 20
23.106818038
 30
0.0
 10
29.0873808628
 20
23.1093268442
 30
0.0
 10
29.0618077676
 20
23.117907263
 30
0.0
 10
29.0437426976
 20
23.1285620761
 30
0.0
 10
29.0324050671
 20
23.1367444009
 30
0.0
  0
SPLINE
  5
4C7
100
AcDbEntity
  8
00_COMPONENTS_3
100
AcDbSpline
 62
7
  6
BYLAYER
 70
0
 71
3
 72
17
 73
13
 74
0
 42
0.0000001
 43
0.0000001
 44
0.0000000001
 40
0.0
 40
0.0
 40
0.0
 40
0.0
 40
0.2066768335
 40
0.3988907219
 40
0.5719469238
 40
0.7203831426
 40
0.838469881
 40
0.9209446398
 40
0.9483752062
 40
0.9676122193
 40
0.982522366
 40
1.0
 40
1.0
 40
1.0
 40
1.0
 10
50.3372386923
 20
23.1367449138
 30
0.0
 10
50.334488478
 20
23.1343587066
 30
0.0
 10
50.329146809
 20
23.1297920863
 30
0.0
 10
50.3213640792
 20
23.123389835
 30
0.0
 10
50.3142318267
 20
23.1178202237
 30
0.0
 10
50.3079559573
 20
23.1132680673
 30
0.0
 10
50.3027835222
 20
23.1099640113
 30
0.0
 10
50.2991767817
 20
23.1081035136
 30
0.0
 10
50.2969780138
 20
23.1075308663
 30
0.0
 10
50.2958476255
 20
23.1075315981
 30
0.0
 10
50.2950741592
 20
23.1081489702
 30
0.0
 10
50.2949976426
 20
23.1087589186
 30
0.0
 10
50.2949972776
 20
23.1090668288
 30
0.0
  0
SPLINE
  5
4C8
100
AcDbEntity
  8
00_COMPONENTS_3
100
AcDbSpline
 62
7
  6
BYLAYER
 70
0
 71
3
 72
14
 73
10
 74
0
 42
0.0000001
 43
0.0000001
 44
0.0000000001
 40
0.0
 40
0.0
 40
0.0
 40
0.0
 40
0.0915312366
 40
0.1801584174
 40
0.2757647697
 40
0.3893883484
 40
0.5247800239
 40
0.6768148931
 40
1.0
 40
1.0
 40
1.0
 40
1.0
 10
28.2003369947
 20
23.1367444424
 30
0.0
 10
28.1998567296
 20
23.1328280402
 30
0.0
 10
28.1979434899
 20
23.1251549975
 30
0.0
 10
28.1909132445
 20
23.1151499255
 30
0.0
 10
28.1793635886
 20
23.1086700427
 30
0.0
 10
28.1643501702
 20
23.1068260479
 30
0.0
 10
28.1471110594
 20
23.1093857121
 30
0.0
 10
28.1221559613
 20
23.1180604679
 30
0.0
 10
28.1043616784
 20
23.1286529594
 30
0.0
 10
28.0930203255
 20
23.1367444131
 30
0.0
  0
SPLINE
  5
4C9
100
AcDbEntity
  8
00_COMPONENTS_3
100
AcDbSpline
 62
7
  6
BYLAYER
 70
0
 71
3
 72
13
 73
9
 74
0
 42
0.0000001
 43
0.0000001
 44
0.0000000001
 40
0.0
 40
0.0
 40
0.0
 40
0.0
 40
0.4033554558
 40
0.5783746634
 40
0.7294242551
 40
0.8514056344
 40
0.9390590317
 40
1.0
 40
1.0
 40
1.0
 40
1.0
 10
50.4863442284
 20
23.1367449574
 30
0.0
 10
50.4818169976
 20
23.1325446146
 30
0.0
 10
50.475318212
 20
23.1265804781
 30
0.0
 10
50.4668703456
 20
23.1191480796
 30
0.0
 10
50.4618158257
 20
23.1147980374
 30
0.0
 10
50.4570633351
 20
23.111062055
 30
0.0
 10
50.4547965472
 20
23.1092449473
 30
0.0
 10
50.4509596595
 20
23.1069991822
 30
0.0
 10
50.4509604004
 20
23.1079322307
 30
0.0
  0
SPLINE
  5
4CA
100
AcDbEntity
  8
00_COMPONENTS_3
100
AcDbSpline
 62
7
  6
BYLAYER
 70
0
 71
3
 72
15
 73
11
 74
0
 42
0.0000001
 43
0.0000001
 44
0.0000000001
 40
0.0
 40
0.0
 40
0.0
 40
0.0
 40
0.0934024699
 40
0.1794613716
 40
0.2691725429
 40
0.3772671248
 40
0.5104087843
 40
0.6641098236
 40
0.8297163677
 40
1.0
 40
1.0
 40
1.0
 40
1.0
 10
27.3197647118
 20
23.1367444642
 30
0.0
 10
27.3197647079
 20
23.1329014325
 30
0.0
 10
27.318946736
 20
23.125444605
 30
0.0
 10
27.3136627594
 20
23.1152859403
 30
0.0
 10
27.3034884804
 20
23.1086060974
 30
0.0
 10
27.2896639317
 20
23.106837181
 30
0.0
 10
27.2734970765
 20
23.109453672
 30
0.0
 10
27.2559239644
 20
23.1158264682
 30
0.0
 10
27.2380106822
 20
23.1251270138
 30
0.0
 10
27.2264155644
 20
23.132685551
 30
0.0
 10
27.2207047239
 20
23.136744429
 30
0.0
  0
SPLINE
  5
4CB
100
AcDbEntity
  8
00_COMPONENTS_3
100
AcDbSpline
 62
7
  6
BYLAYER
 70
0
 71
3
 72
9
 73
5
 74
0
 42
0.0000001
 43
0.0000001
 44
0.0000000001
 40
0.0
 40
0.0
 40
0.0
 40
0.0
 40
0.4788524161
 40
1.0
 40
1.0
 40
1.0
 40
1.0
 10
38.4973402098
 20
23.4503093764
 30
0.0
 10
38.5222909377
 20
23.473957531
 30
0.0
 10
38.5831641663
 20
23.5147861465
 30
0.0
 10
38.6555749544
 20
23.5308842553
 30
0.0
 10
38.6929882761
 20
23.5308842553
 30
0.0
  0
SPLINE
  5
4CC
100
AcDbEntity
  8
00_COMPONENTS_3
100
AcDbSpline
 62
7
  6
BYLAYER
 70
0
 71
3
 72
11
 73
7
 74
0
 42
0.0000001
 43
0.0000001
 44
0.0000000001
 40
0.0
 40
0.0
 40
0.0
 40
0.0
 40
0.2787063417
 40
0.5386718132
 40
0.7778474438
 40
1.0
 40
1.0
 40
1.0
 40
1.0
 10
38.7783808039
 20
23.5308842553
 30
0.0
 10
38.7967942348
 20
23.5308842553
 30
0.0
 10
38.8325359586
 20
23.5269869486
 30
0.0
 10
38.8814155824
 20
23.5097150554
 30
0.0
 10
38.9218629582
 20
23.483764441
 30
0.0
 10
38.9434202002
 20
23.4618262408
 30
0.0
 10
38.9525184437
 20
23.4503093764
 30
0.0
  0
SPLINE
  5
4CD
100
AcDbEntity
  8
00_COMPONENTS_3
100
AcDbSpline
 62
7
  6
BYLAYER
 70
0
 71
3
 72
9
 73
5
 74
0
 42
0.0000001
 43
0.0000001
 44
0.0000000001
 40
0.0
 40
0.0
 40
0.0
 40
0.0
 40
0.4854633634
 40
1.0
 40
1.0
 40
1.0
 40
1.0
 10
39.6983077251
 20
23.4503093764
 30
0.0
 10
39.7248285544
 20
23.4738160179
 30
0.0
 10
39.7872111387
 20
23.5140961465
 30
0.0
 10
39.8606486104
 20
23.5308842553
 30
0.0
 10
39.898209878
 20
23.5308842553
 30
0.0
  0
SPLINE
  5
4CE
100
AcDbEntity
  8
00_COMPONENTS_3
100
AcDbSpline
 62
7
  6
BYLAYER
 70
0
 71
3
 72
11
 73
7
 74
0
 42
0.0000001
 43
0.0000001
 44
0.0000000001
 40
0.0
 40
0.0
 40
0.0
 40
0.0
 40
0.2833965508
 40
0.5432193544
 40
0.7799943513
 40
1.0
 40
1.0
 40
1.0
 40
1.0
 10
39.9822976444
 20
23.5308842553
 30
0.0
 10
40.0002447376
 20
23.5308842553
 30
0.0
 10
40.0348166487
 20
23.5270994885
 30
0.0
 10
40.0816339663
 20
23.5098341565
 30
0.0
 10
40.1193465467
 20
23.4837696302
 30
0.0
 10
40.1386287872
 20
23.4617842618
 30
0.0
 10
40.1465310298
 20
23.4503093764
 30
0.0
  0
SPLINE
  5
4CF
100
AcDbEntity
  8
00_COMPONENTS_2
100
AcDbSpline
 62
7
  6
BYLAYER
 70
0
 71
3
 72
9
 73
5
 74
0
 42
0.0000001
 43
0.0000001
 44
0.0000000001
 40
0.0
 40
0.0
 40
0.0
 40
0.0
 40
0.2450215037
 40
1.0
 40
1.0
 40
1.0
 40
1.0
 10
31.441342848
 20
21.8236711419
 30
0.0
 10
31.4578574743
 20
21.893198163
 30
0.0
 10
31.513910608
 20
22.1795851781
 30
0.0
 10
31.5259080434
 20
22.4741701934
 30
0.0
 10
31.512331257
 20
22.6939435854
 30
0.0
  0
SPLINE
  5
4D0
100
AcDbEntity
  8
00_COMPONENTS_2
100
AcDbSpline
 62
7
  6
BYLAYER
 70
0
 71
3
 72
9
 73
5
 74
0
 42
0.0000001
 43
0.0000001
 44
0.0000000001
 40
0.0
 40
0.0
 40
0.0
 40
0.0
 40
0.2556332305
 40
1.0
 40
1.0
 40
1.0
 40
1.0
 10
42.2562938895
 20
22.6910421648
 30
0.0
 10
42.2510433298
 20
22.6063996941
 30
0.0
 10
42.243693216
 20
22.2747108038
 30
0.0
 10
42.2897517203
 20
21.9410054806
 30
0.0
 10
42.3578779627
 20
21.7036485156
 30
0.0
  0
SPLINE
  5
4D1
100
AcDbEntity
  8
00_COMPONENTS_2
100
AcDbSpline
 62
7
  6
BYLAYER
 70
0
 71
3
 72
15
 73
11
 74
0
 42
0.0000001
 43
0.0000001
 44
0.0000000001
 40
0.0
 40
0.0
 40
0.0
 40
0.0
 40
0.2971599055
 40
0.4400251969
 40
0.5760130493
 40
0.7026162983
 40
0.8171243272
 40
0.9169135582
 40
0.9606236212
 40
1.0
 40
1.0
 40
1.0
 40
1.0
 10
33.8976903693
 20
22.5742609185
 30
0.0
 10
33.9144267738
 20
22.3782055312
 30
0.0
 10
33.918429993
 20
22.0857142982
 30
0.0
 10
33.8886828359
 20
21.7053762169
 30
0.0
 10
33.8553461019
 20
21.4388942836
 30
0.0
 10
33.817144631
 20
21.192118838
 30
0.0
 10
33.7812967515
 20
20.9692771125
 30
0.0
 10
33.7586947727
 20
20.7998231577
 30
0.0
 10
33.7503015842
 20
20.6789779317
 30
0.0
 10
33.7498958917
 20
20.6238971126
 30
0.0
 10
33.7509425682
 20
20.597844528
 30
0.0
  0
SPLINE
  5
4D2
100
AcDbEntity
  8
00_COMPONENTS_2
100
AcDbSpline
 62
7
  6
BYLAYER
 70
0
 71
3
 72
13
 73
9
 74
0
 42
0.0000001
 43
0.0000001
 44
0.0000000001
 40
0.0
 40
0.0
 40
0.0
 40
0.0
 40
0.3750654389
 40
0.6690338434
 40
0.7843477189
 40
0.8780698076
 40
0.9499621594
 40
1.0
 40
1.0
 40
1.0
 40
1.0
 10
33.7509425682
 20
20.597844528
 30
0.0
 10
33.7525186047
 20
20.5586157598
 30
0.0
 10
33.7548643726
 20
20.4886222064
 30
0.0
 10
33.7559073413
 20
20.4065087754
 30
0.0
 10
33.7549467851
 20
20.353864166
 30
0.0
 10
33.7535757915
 20
20.3244759837
 30
0.0
 10
33.7514954307
 20
20.3020058313
 30
0.0
 10
33.7493925637
 20
20.2893651039
 30
0.0
 10
33.7479593071
 20
20.2843272467
 30
0.0
  0
SPLINE
  5
4D3
100
AcDbEntity
  8
00_COMPONENTS_2
100
AcDbSpline
 62
7
  6
BYLAYER
 70
0
 71
3
 72
13
 73
9
 74
0
 42
0.0000001
 43
0.0000001
 44
0.0000000001
 40
0.0
 40
0.0
 40
0.0
 40
0.0
 40
0.0493725651
 40
0.1208191747
 40
0.2143057543
 40
0.3295804562
 40
0.623986939
 40
1.0
 40
1.0
 40
1.0
 40
1.0
 10
39.9686589773
 20
20.2821321273
 30
0.0
 10
39.9671598384
 20
20.2873393939
 30
0.0
 10
39.9649721847
 20
20.300474018
 30
0.0
 10
39.9627941657
 20
20.3238844397
 30
0.0
 10
39.9613440535
 20
20.3546185455
 30
0.0
 10
39.9602909141
 20
20.4098329123
 30
0.0
 10
39.9612847351
 20
20.4960774064
 30
0.0
 10
39.9636385512
 20
20.5696208788
 30
0.0
 10
39.9652291321
 20
20.6108586277
 30
0.0
  0
SPLINE
  5
4D4
100
AcDbEntity
  8
00_COMPONENTS_2
100
AcDbSpline
 62
7
  6
BYLAYER
 70
0
 71
3
 72
15
 73
11
 74
0
 42
0.0000001
 43
0.0000001
 44
0.0000000001
 40
0.0
 40
0.0
 40
0.0
 40
0.0
 40
0.0400301079
 40
0.0842830406
 40
0.184800568
 40
0.2995921706
 40
0.4261241669
 40
0.5617825185
 40
0.7041411166
 40
1.0
 40
1.0
 40
1.0
 40
1.0
 10
39.9652291321
 20
20.6108586277
 30
0.0
 10
39.9662421018
 20
20.6371211008
 30
0.0
 10
39.9658839303
 20
20.6925161312
 30
0.0
 10
39.9579115527
 20
20.8136256517
 30
0.0
 10
39.9363878539
 20
20.9827822799
 30
0.0
 10
39.902210506
 20
21.2045796269
 30
0.0
 10
39.8658566307
 20
21.4494170882
 30
0.0
 10
39.8342174332
 20
21.7132097846
 30
0.0
 10
39.80614988
 20
22.0890227689
 30
0.0
 10
39.8101977074
 20
22.3777668707
 30
0.0
 10
39.8263076472
 20
22.5713455599
 30
0.0
  0
SPLINE
  5
4D5
100
AcDbEntity
  8
0
100
AcDbSpline
 62
7
  6
BYLAYER
 70
0
 71
3
 72
11
 73
7
 74
0
 42
0.0000001
 43
0.0000001
 44
0.0000000001
 40
0.0
 40
0.0
 40
0.0
 40
0.0
 40
0.2321786272
 40
0.4789529933
 40
0.7365927127
 40
1.0
 40
1.0
 40
1.0
 40
1.0
 10
15.2777500676
 20
88.2263750742
 30
0.0
 10
15.4005141877
 20
88.3243654844
 30
0.0
 10
15.6758834511
 20
88.4996916753
 30
0.0
 10
16.1394246656
 20
88.6886248095
 30
0.0
 10
16.6477237378
 20
88.8052833992
 30
0.0
 10
17.0008073743
 20
88.8314592908
 30
0.0
 10
17.1790115366
 20
88.8314592908
 30
0.0
  0
SPLINE
  5
4D6
100
AcDbEntity
  8
0
100
AcDbSpline
 62
7
  6
BYLAYER
 70
0
 71
3
 72
9
 73
5
 74
0
 42
0.0000001
 43
0.0000001
 44
0.0000000001
 40
0.0
 40
0.0
 40
0.0
 40
0.0
 40
0.2573487613
 40
1.0
 40
1.0
 40
1.0
 40
1.0
 10
17.1790115366
 20
88.8314592908
 30
0.0
 10
17.3030673028
 20
88.8314592908
 30
0.0
 10
17.7845041172
 20
88.8066049831
 30
0.0
 10
18.2631303689
 20
88.6827465466
 30
0.0
 10
18.5870192934
 20
88.5302406455
 30
0.0
  0
SPLINE
  5
4D7
100
AcDbEntity
  8
0
100
AcDbSpline
 62
7
  6
BYLAYER
 70
0
 71
3
 72
9
 73
5
 74
0
 42
0.0000001
 43
0.0000001
 44
0.0000000001
 40
0.0
 40
0.0
 40
0.0
 40
0.0
 40
0.2477717144
 40
1.0
 40
1.0
 40
1.0
 40
1.0
 10
14.6915760332
 20
78.5442704597
 30
0.0
 10
14.6966701815
 20
78.5617032804
 30
0.0
 10
14.7186425293
 20
78.6316428912
 30
0.0
 10
14.7462073077
 20
78.6998119102
 30
0.0
 10
14.7697500676
 20
78.7496721441
 30
0.0
  0
SPLINE
  5
4D8
100
AcDbEntity
  8
0
100
AcDbSpline
 62
7
  6
BYLAYER
 70
0
 71
3
 72
9
 73
5
 74
0
 42
0.0000001
 43
0.0000001
 44
0.0000000001
 40
0.0
 40
0.0
 40
0.0
 40
0.0
 40
0.2477717144
 40
1.0
 40
1.0
 40
1.0
 40
1.0
 10
14.6915760332
 20
87.3988029951
 30
0.0
 10
14.6966701815
 20
87.4162358158
 30
0.0
 10
14.7186425293
 20
87.4861754265
 30
0.0
 10
14.7462073077
 20
87.5543444456
 30
0.0
 10
14.7697500676
 20
87.6042046795
 30
0.0
  0
SPLINE
  5
4D9
100
AcDbEntity
  8
0
100
AcDbSpline
 62
7
  6
BYLAYER
 70
0
 71
3
 72
14
 73
10
 74
0
 42
0.0000001
 43
0.0000001
 44
0.0000000001
 40
0.0
 40
0.0
 40
0.0
 40
0.0
 40
0.132142359
 40
0.2663158809
 40
0.4002889432
 40
0.5319213427
 40
0.6591968977
 40
0.7804309731
 40
1.0
 40
1.0
 40
1.0
 40
1.0
 10
16.5298146322
 20
87.3780231171
 30
0.0
 10
16.7047159546
 20
87.4230367395
 30
0.0
 10
17.0519621105
 20
87.5354151717
 30
0.0
 10
17.5507485015
 20
87.7628415238
 30
0.0
 10
18.0201027181
 20
88.0449433112
 30
0.0
 10
18.446372585
 20
88.3733605285
 30
0.0
 10
18.8175632235
 20
88.7393125905
 30
0.0
 10
19.2107773457
 20
89.244621255
 30
0.0
 10
19.4179131311
 20
89.6748466958
 30
0.0
 10
19.4904115366
 20
89.9660458584
 30
0.0
  0
SPLINE
  5
4DA
100
AcDbEntity
  8
0
100
AcDbSpline
 62
7
  6
BYLAYER
 70
0
 71
3
 72
13
 73
9
 74
0
 42
0.0000001
 43
0.0000001
 44
0.0000000001
 40
0.0
 40
0.0
 40
0.0
 40
0.0
 40
0.1056420789
 40
0.2162752006
 40
0.3325821657
 40
0.4549973815
 40
0.7173494177
 40
1.0
 40
1.0
 40
1.0
 40
1.0
 10
14.0228589324
 20
87.7386070913
 30
0.0
 10
14.0928189996
 20
87.6781814826
 30
0.0
 10
14.2470615557
 20
87.5667880573
 30
0.0
 10
14.5075586351
 20
87.4347791285
 30
0.0
 10
14.7979703402
 20
87.3362721926
 30
0.0
 10
15.228763997
 20
87.2493882881
 30
0.0
 10
15.8173735643
 20
87.2357015571
 30
0.0
 10
16.290285151
 20
87.3163764156
 30
0.0
 10
16.5298146322
 20
87.3780231171
 30
0.0
  0
SPLINE
  5
4DB
100
AcDbEntity
  8
0
100
AcDbSpline
 62
7
  6
BYLAYER
 70
0
 71
3
 72
9
 73
5
 74
0
 42
0.0000001
 43
0.0000001
 44
0.0000000001
 40
0.0
 40
0.0
 40
0.0
 40
0.0
 40
0.2573487613
 40
1.0
 40
1.0
 40
1.0
 40
1.0
 10
17.1790115366
 20
79.9769267554
 30
0.0
 10
17.3030673028
 20
79.9769267554
 30
0.0
 10
17.7845041172
 20
79.9520724477
 30
0.0
 10
18.2631303689
 20
79.8282140113
 30
0.0
 10
18.5870192934
 20
79.6757081101
 30
0.0
  0
SPLINE
  5
4DC
100
AcDbEntity
  8
0
100
AcDbSpline
 62
7
  6
BYLAYER
 70
0
 71
3
 72
11
 73
7
 74
0
 42
0.0000001
 43
0.0000001
 44
0.0000000001
 40
0.0
 40
0.0
 40
0.0
 40
0.0
 40
0.2321786272
 40
0.4789529933
 40
0.7365927127
 40
1.0
 40
1.0
 40
1.0
 40
1.0
 10
15.2777500676
 20
79.3718425388
 30
0.0
 10
15.4005141877
 20
79.4698329491
 30
0.0
 10
15.6758834511
 20
79.64515914
 30
0.0
 10
16.1394246656
 20
79.8340922742
 30
0.0
 10
16.6477237378
 20
79.9507508638
 30
0.0
 10
17.0008073743
 20
79.9769267554
 30
0.0
 10
17.1790115366
 20
79.9769267554
 30
0.0
  0
SPLINE
  5
4DD
100
AcDbEntity
  8
0
100
AcDbSpline
 62
7
  6
BYLAYER
 70
0
 71
3
 72
14
 73
10
 74
0
 42
0.0000001
 43
0.0000001
 44
0.0000000001
 40
0.0
 40
0.0
 40
0.0
 40
0.0
 40
0.132142359
 40
0.2663158809
 40
0.4002889432
 40
0.5319213427
 40
0.6591968977
 40
0.7804309731
 40
1.0
 40
1.0
 40
1.0
 40
1.0
 10
16.5298146322
 20
78.5234905817
 30
0.0
 10
16.7047159546
 20
78.5685042041
 30
0.0
 10
17.0519621105
 20
78.6808826363
 30
0.0
 10
17.5507485015
 20
78.9083089884
 30
0.0
 10
18.0201027181
 20
79.1904107758
 30
0.0
 10
18.446372585
 20
79.5188279931
 30
0.0
 10
18.8175632235
 20
79.8847800552
 30
0.0
 10
19.2107773457
 20
80.3900887197
 30
0.0
 10
19.4179131311
 20
80.8203141604
 30
0.0
 10
19.4904115366
 20
81.1115133231
 30
0.0
  0
SPLINE
  5
4DE
100
AcDbEntity
  8
0
100
AcDbSpline
 62
7
  6
BYLAYER
 70
0
 71
3
 72
13
 73
9
 74
0
 42
0.0000001
 43
0.0000001
 44
0.0000000001
 40
0.0
 40
0.0
 40
0.0
 40
0.0
 40
0.1056420789
 40
0.2162752006
 40
0.3325821657
 40
0.4549973815
 40
0.7173494177
 40
1.0
 40
1.0
 40
1.0
 40
1.0
 10
14.0228589324
 20
78.8840745559
 30
0.0
 10
14.0928189996
 20
78.8236489473
 30
0.0
 10
14.2470615557
 20
78.7122555219
 30
0.0
 10
14.5075586351
 20
78.5802465931
 30
0.0
 10
14.7979703402
 20
78.4817396573
 30
0.0
 10
15.228763997
 20
78.3948557528
 30
0.0
 10
15.8173735643
 20
78.3811690217
 30
0.0
 10
16.290285151
 20
78.4618438802
 30
0.0
 10
16.5298146322
 20
78.5234905817
 30
0.0
  0
SPLINE
  5
4DF
100
AcDbEntity
  8
0
100
AcDbSpline
 62
7
  6
BYLAYER
 70
0
 71
3
 72
15
 73
11
 74
0
 42
0.0000001
 43
0.0000001
 44
0.0000000001
 40
0.0
 40
0.0
 40
0.0
 40
0.0
 40
0.104125605
 40
0.2112476426
 40
0.3239422654
 40
0.4438838908
 40
0.5718527346
 40
0.707766468
 40
0.8509438515
 40
1.0
 40
1.0
 40
1.0
 40
1.0
 10
19.386643962
 20
82.2659958949
 30
0.0
 10
19.3359665769
 20
82.3644794752
 30
0.0
 10
19.2089659826
 20
82.5527701579
 30
0.0
 10
18.9543856369
 20
82.7889005842
 30
0.0
 10
18.6420473169
 20
82.9754186046
 30
0.0
 10
18.2802140113
 20
83.1084105535
 30
0.0
 10
17.8776941184
 20
83.1855644307
 30
0.0
 10
17.4438485736
 20
83.2056547183
 30
0.0
 10
16.988874895
 20
83.1683785104
 30
0.0
 10
16.6833605948
 20
83.1070176617
 30
0.0
 10
16.5298146322
 20
83.067500179
 30
0.0
  0
SPLINE
  5
4E0
100
AcDbEntity
  8
0
100
AcDbSpline
 62
7
  6
BYLAYER
 70
0
 71
3
 72
11
 73
7
 74
0
 42
0.0000001
 43
0.0000001
 44
0.0000000001
 40
0.0
 40
0.0
 40
0.0
 40
0.0
 40
0.2538815877
 40
0.510686144
 40
0.7619495882
 40
1.0
 40
1.0
 40
1.0
 40
1.0
 10
16.5298146322
 20
91.9220327144
 30
0.0
 10
16.2794149322
 20
91.85758839
 30
0.0
 10
15.7862238884
 20
91.6837521141
 30
0.0
 10
15.1024892336
 20
91.3100062208
 30
0.0
 10
14.5007975363
 20
90.8404801605
 30
0.0
 10
14.1652198171
 20
90.467276301
 30
0.0
 10
14.0228589324
 20
90.2710393174
 30
0.0
  0
SPLINE
  5
4E1
100
AcDbEntity
  8
0
100
AcDbSpline
 62
7
  6
BYLAYER
 70
0
 71
3
 72
15
 73
11
 74
0
 42
0.0000001
 43
0.0000001
 44
0.0000000001
 40
0.0
 40
0.0
 40
0.0
 40
0.0
 40
0.104125605
 40
0.2112476426
 40
0.3239422654
 40
0.4438838908
 40
0.5718527346
 40
0.707766468
 40
0.8509438515
 40
1.0
 40
1.0
 40
1.0
 40
1.0
 10
19.386643962
 20
91.1205284303
 30
0.0
 10
19.3359665769
 20
91.2190120106
 30
0.0
 10
19.2089659826
 20
91.4073026932
 30
0.0
 10
18.9543856369
 20
91.6434331195
 30
0.0
 10
18.6420473169
 20
91.82995114
 30
0.0
 10
18.2802140113
 20
91.9629430889
 30
0.0
 10
17.8776941184
 20
92.0400969661
 30
0.0
 10
17.4438485736
 20
92.0601872536
 30
0.0
 10
16.988874895
 20
92.0229110458
 30
0.0
 10
16.6833605948
 20
91.961550197
 30
0.0
 10
16.5298146322
 20
91.9220327144
 30
0.0
  0
SPLINE
  5
4E2
100
AcDbEntity
  8
0
100
AcDbSpline
 62
7
  6
BYLAYER
 70
0
 71
3
 72
11
 73
7
 74
0
 42
0.0000001
 43
0.0000001
 44
0.0000000001
 40
0.0
 40
0.0
 40
0.0
 40
0.0
 40
0.2538815877
 40
0.510686144
 40
0.7619495882
 40
1.0
 40
1.0
 40
1.0
 40
1.0
 10
16.5298146322
 20
83.067500179
 30
0.0
 10
16.2794149322
 20
83.0030558547
 30
0.0
 10
15.7862238884
 20
82.8292195787
 30
0.0
 10
15.1024892336
 20
82.4554736854
 30
0.0
 10
14.5007975363
 20
81.9859476251
 30
0.0
 10
14.1652198171
 20
81.6127437656
 30
0.0
 10
14.0228589324
 20
81.416506782
 30
0.0
  0
SPLINE
  5
4E3
100
AcDbEntity
  8
0
100
AcDbSpline
 62
7
  6
BYLAYER
 70
0
 71
3
 72
14
 73
10
 74
0
 42
0.0000001
 43
0.0000001
 44
0.0000000001
 40
0.0
 40
0.0
 40
0.0
 40
0.0
 40
0.2805815934
 40
0.4161582185
 40
0.5462378553
 40
0.6696948191
 40
0.78608161
 40
0.8957563072
 40
1.0
 40
1.0
 40
1.0
 40
1.0
 10
56.6322115366
 20
88.8314592908
 30
0.0
 10
56.9184671059
 20
88.8314592908
 30
0.0
 10
57.3457827672
 20
88.7808648153
 30
0.0
 10
57.8776809402
 20
88.6106746843
 30
0.0
 10
58.2370960592
 20
88.4387608881
 30
0.0
 10
58.5506102308
 20
88.2258729082
 30
0.0
 10
58.8092485034
 20
87.9775800645
 30
0.0
 10
59.0050638739
 20
87.7006686396
 30
0.0
 10
59.0910362206
 20
87.4976920312
 30
0.0
 10
59.1206054645
 20
87.3955335753
 30
0.0
  0
SPLINE
  5
4E4
100
AcDbEntity
  8
0
100
AcDbSpline
 62
7
  6
BYLAYER
 70
0
 71
3
 72
9
 73
5
 74
0
 42
0.0000001
 43
0.0000001
 44
0.0000000001
 40
0.0
 40
0.0
 40
0.0
 40
0.0
 40
0.24161918
 40
1.0
 40
1.0
 40
1.0
 40
1.0
 10
55.2242257723
 20
88.5302596375
 30
0.0
 10
55.3296189524
 20
88.579888735
 30
0.0
 10
55.7783925505
 20
88.758057869
 30
0.0
 10
56.266567769
 20
88.8314592908
 30
0.0
 10
56.6322115366
 20
88.8314592908
 30
0.0
  0
SPLINE
  5
4E5
100
AcDbEntity
  8
0
100
AcDbSpline
 62
7
  6
BYLAYER
 70
0
 71
3
 72
14
 73
10
 74
0
 42
0.0000001
 43
0.0000001
 44
0.0000000001
 40
0.0
 40
0.0
 40
0.0
 40
0.0
 40
0.2805815934
 40
0.4161582185
 40
0.5462378553
 40
0.6696948191
 40
0.78608161
 40
0.8957563072
 40
1.0
 40
1.0
 40
1.0
 40
1.0
 10
56.6322115366
 20
79.9769267554
 30
0.0
 10
56.9184671059
 20
79.9769267554
 30
0.0
 10
57.3457827672
 20
79.9263322799
 30
0.0
 10
57.8776809402
 20
79.7561421489
 30
0.0
 10
58.2370960592
 20
79.5842283527
 30
0.0
 10
58.5506102308
 20
79.3713403728
 30
0.0
 10
58.8092485034
 20
79.1230475291
 30
0.0
 10
59.0050638739
 20
78.8461361042
 30
0.0
 10
59.0910362206
 20
78.6431594958
 30
0.0
 10
59.1206054645
 20
78.5410010399
 30
0.0
  0
SPLINE
  5
4E6
100
AcDbEntity
  8
0
100
AcDbSpline
 62
7
  6
BYLAYER
 70
0
 71
3
 72
9
 73
5
 74
0
 42
0.0000001
 43
0.0000001
 44
0.0000000001
 40
0.0
 40
0.0
 40
0.0
 40
0.0
 40
0.24161918
 40
1.0
 40
1.0
 40
1.0
 40
1.0
 10
55.2242257723
 20
79.6757271021
 30
0.0
 10
55.3296189524
 20
79.7253561996
 30
0.0
 10
55.7783925505
 20
79.9035253336
 30
0.0
 10
56.266567769
 20
79.9769267554
 30
0.0
 10
56.6322115366
 20
79.9769267554
 30
0.0
  0
SPLINE
  5
4E7
100
AcDbEntity
  8
0
100
AcDbSpline
 62
7
  6
BYLAYER
 70
0
 71
3
 72
13
 73
9
 74
0
 42
0.0000001
 43
0.0000001
 44
0.0000000001
 40
0.0
 40
0.0
 40
0.0
 40
0.0
 40
0.2826505823
 40
0.5450026185
 40
0.6674178343
 40
0.7837247994
 40
0.8943579211
 40
1.0
 40
1.0
 40
1.0
 40
1.0
 10
57.2814084411
 20
87.3780231171
 30
0.0
 10
57.5209379223
 20
87.3163764156
 30
0.0
 10
57.993849509
 20
87.2357015571
 30
0.0
 10
58.5824590763
 20
87.2493882881
 30
0.0
 10
59.0132527331
 20
87.3362721926
 30
0.0
 10
59.3036644382
 20
87.4347791285
 30
0.0
 10
59.5641615176
 20
87.5667880573
 30
0.0
 10
59.7184040737
 20
87.6781814826
 30
0.0
 10
59.7883641409
 20
87.7386070913
 30
0.0
  0
SPLINE
  5
4E8
100
AcDbEntity
  8
0
100
AcDbSpline
 62
7
  6
BYLAYER
 70
0
 71
3
 72
14
 73
10
 74
0
 42
0.0000001
 43
0.0000001
 44
0.0000000001
 40
0.0
 40
0.0
 40
0.0
 40
0.0
 40
0.2195690269
 40
0.3408031023
 40
0.4680786573
 40
0.5997110568
 40
0.7336841191
 40
0.867857641
 40
1.0
 40
1.0
 40
1.0
 40
1.0
 10
54.3208115366
 20
89.9660458584
 30
0.0
 10
54.3933099422
 20
89.6748466958
 30
0.0
 10
54.6004457276
 20
89.244621255
 30
0.0
 10
54.9936598498
 20
88.7393125905
 30
0.0
 10
55.3648504883
 20
88.3733605285
 30
0.0
 10
55.7911203552
 20
88.0449433112
 30
0.0
 10
56.2604745718
 20
87.7628415238
 30
0.0
 10
56.7592609628
 20
87.5354151717
 30
0.0
 10
57.1065071187
 20
87.4230367395
 30
0.0
 10
57.2814084411
 20
87.3780231171
 30
0.0
  0
SPLINE
  5
4E9
100
AcDbEntity
  8
0
100
AcDbSpline
 62
7
  6
BYLAYER
 70
0
 71
3
 72
13
 73
9
 74
0
 42
0.0000001
 43
0.0000001
 44
0.0000000001
 40
0.0
 40
0.0
 40
0.0
 40
0.0
 40
0.2826505823
 40
0.5450026185
 40
0.6674178343
 40
0.7837247994
 40
0.8943579211
 40
1.0
 40
1.0
 40
1.0
 40
1.0
 10
57.2814084411
 20
78.5234905817
 30
0.0
 10
57.5209379223
 20
78.4618438802
 30
0.0
 10
57.993849509
 20
78.3811690217
 30
0.0
 10
58.5824590763
 20
78.3948557528
 30
0.0
 10
59.0132527331
 20
78.4817396573
 30
0.0
 10
59.3036644382
 20
78.5802465931
 30
0.0
 10
59.5641615176
 20
78.7122555219
 30
0.0
 10
59.7184040737
 20
78.8236489473
 30
0.0
 10
59.7883641409
 20
78.8840745559
 30
0.0
  0
SPLINE
  5
4EA
100
AcDbEntity
  8
0
100
AcDbSpline
 62
7
  6
BYLAYER
 70
0
 71
3
 72
14
 73
10
 74
0
 42
0.0000001
 43
0.0000001
 44
0.0000000001
 40
0.0
 40
0.0
 40
0.0
 40
0.0
 40
0.2195690269
 40
0.3408031023
 40
0.4680786573
 40
0.5997110568
 40
0.7336841191
 40
0.867857641
 40
1.0
 40
1.0
 40
1.0
 40
1.0
 10
54.3208115366
 20
81.1115133231
 30
0.0
 10
54.3933099422
 20
80.8203141604
 30
0.0
 10
54.6004457276
 20
80.3900887197
 30
0.0
 10
54.9936598498
 20
79.8847800551
 30
0.0
 10
55.3648504883
 20
79.5188279931
 30
0.0
 10
55.7911203552
 20
79.1904107758
 30
0.0
 10
56.2604745718
 20
78.9083089884
 30
0.0
 10
56.7592609628
 20
78.6808826363
 30
0.0
 10
57.1065071187
 20
78.5685042041
 30
0.0
 10
57.2814084411
 20
78.5234905817
 30
0.0
  0
SPLINE
  5
4EB
100
AcDbEntity
  8
0
100
AcDbSpline
 62
7
  6
BYLAYER
 70
0
 71
3
 72
15
 73
11
 74
0
 42
0.0000001
 43
0.0000001
 44
0.0000000001
 40
0.0
 40
0.0
 40
0.0
 40
0.0
 40
0.1490561485
 40
0.292233532
 40
0.4281472654
 40
0.5561161092
 40
0.6760577346
 40
0.7887523574
 40
0.895874395
 40
1.0
 40
1.0
 40
1.0
 40
1.0
 10
57.2814084411
 20
83.067500179
 30
0.0
 10
57.1278624785
 20
83.1070176617
 30
0.0
 10
56.8223481783
 20
83.1683785104
 30
0.0
 10
56.3673744996
 20
83.2056547183
 30
0.0
 10
55.9335289549
 20
83.1855644307
 30
0.0
 10
55.5310090619
 20
83.1084105535
 30
0.0
 10
55.1691757564
 20
82.9754186046
 30
0.0
 10
54.8568374364
 20
82.7889005842
 30
0.0
 10
54.6022570907
 20
82.5527701579
 30
0.0
 10
54.4752564964
 20
82.3644794752
 30
0.0
 10
54.4245791113
 20
82.2659958949
 30
0.0
  0
SPLINE
  5
4EC
100
AcDbEntity
  8
0
100
AcDbSpline
 62
7
  6
BYLAYER
 70
0
 71
3
 72
11
 73
7
 74
0
 42
0.0000001
 43
0.0000001
 44
0.0000000001
 40
0.0
 40
0.0
 40
0.0
 40
0.0
 40
0.2380504118
 40
0.489313856
 40
0.7461184123
 40
1.0
 40
1.0
 40
1.0
 40
1.0
 10
59.7883641409
 20
81.416506782
 30
0.0
 10
59.6460032562
 20
81.6127437656
 30
0.0
 10
59.310425537
 20
81.9859476251
 30
0.0
 10
58.7087338397
 20
82.4554736854
 30
0.0
 10
58.0249991849
 20
82.8292195787
 30
0.0
 10
57.5318081411
 20
83.0030558547
 30
0.0
 10
57.2814084411
 20
83.067500179
 30
0.0
  0
SPLINE
  5
4ED
100
AcDbEntity
  8
0
100
AcDbSpline
 62
7
  6
BYLAYER
 70
0
 71
3
 72
15
 73
11
 74
0
 42
0.0000001
 43
0.0000001
 44
0.0000000001
 40
0.0
 40
0.0
 40
0.0
 40
0.0
 40
0.1490561485
 40
0.292233532
 40
0.4281472654
 40
0.5561161092
 40
0.6760577346
 40
0.7887523574
 40
0.895874395
 40
1.0
 40
1.0
 40
1.0
 40
1.0
 10
57.2814084411
 20
91.9220327144
 30
0.0
 10
57.1278624785
 20
91.961550197
 30
0.0
 10
56.8223481783
 20
92.0229110458
 30
0.0
 10
56.3673744996
 20
92.0601872536
 30
0.0
 10
55.9335289549
 20
92.0400969661
 30
0.0
 10
55.5310090619
 20
91.9629430889
 30
0.0
 10
55.1691757564
 20
91.82995114
 30
0.0
 10
54.8568374364
 20
91.6434331195
 30
0.0
 10
54.6022570907
 20
91.4073026932
 30
0.0
 10
54.4752564964
 20
91.2190120106
 30
0.0
 10
54.4245791113
 20
91.1205284303
 30
0.0
  0
SPLINE
  5
4EE
100
AcDbEntity
  8
0
100
AcDbSpline
 62
7
  6
BYLAYER
 70
0
 71
3
 72
11
 73
7
 74
0
 42
0.0000001
 43
0.0000001
 44
0.0000000001
 40
0.0
 40
0.0
 40
0.0
 40
0.0
 40
0.2380504118
 40
0.489313856
 40
0.7461184123
 40
1.0
 40
1.0
 40
1.0
 40
1.0
 10
59.7883641409
 20
90.2710393174
 30
0.0
 10
59.6460032562
 20
90.467276301
 30
0.0
 10
59.310425537
 20
90.8404801605
 30
0.0
 10
58.7087338397
 20
91.3100062208
 30
0.0
 10
58.0249991849
 20
91.6837521141
 30
0.0
 10
57.5318081411
 20
91.85758839
 30
0.0
 10
57.2814084411
 20
91.9220327144
 30
0.0
  0
SPLINE
  5
4EF
100
AcDbEntity
  8
00_COMPONENTS
100
AcDbSpline
 62
7
  6
BYLAYER
 70
0
 71
3
 72
15
 73
11
 74
0
 42
0.0000001
 43
0.0000001
 44
0.0000000001
 40
0.0
 40
0.0
 40
0.0
 40
0.0
 40
0.1250002153
 40
0.2500024236
 40
0.3750010983
 40
0.5
 40
0.6249989017
 40
0.7499975764
 40
0.8749997847
 40
1.0
 40
1.0
 40
1.0
 40
1.0
 10
29.6724072037
 20
43.239935461
 30
0.0
 10
30.2659642386
 20
43.1087935555
 30
0.0
 10
31.459130329
 20
42.8728069535
 30
0.0
 10
33.2644135514
 20
42.609092828
 30
0.0
 10
35.0817477367
 20
42.4460528426
 30
0.0
 10
36.9056115366
 20
42.3908808571
 30
0.0
 10
38.7294753366
 20
42.4460528426
 30
0.0
 10
40.5468095218
 20
42.609092828
 30
0.0
 10
42.3520927442
 20
42.8728069535
 30
0.0
 10
43.5452588347
 20
43.1087935555
 30
0.0
 10
44.1388158696
 20
43.239935461
 30
0.0
  0
SPLINE
  5
4F0
100
AcDbEntity
  8
00_COMPONENTS
100
AcDbSpline
 62
7
  6
BYLAYER
 70
0
 71
3
 72
15
 73
11
 74
0
 42
0.0000001
 43
0.0000001
 44
0.0000000001
 40
0.0
 40
0.0
 40
0.0
 40
0.0
 40
0.1262633288
 40
0.251511948
 40
0.3759715474
 40
0.5
 40
0.6240284526
 40
0.748488052
 40
0.8737366712
 40
1.0
 40
1.0
 40
1.0
 40
1.0
 10
44.1388158696
 20
43.239935461
 30
0.0
 10
44.5566615091
 20
43.109375532
 30
0.0
 10
45.3970541546
 20
42.8740567999
 30
0.0
 10
46.6746683617
 20
42.6097515161
 30
0.0
 10
47.961532259
 20
42.4462064879
 30
0.0
 10
49.2534637031
 20
42.3908360937
 30
0.0
 10
50.5453951472
 20
42.4462064879
 30
0.0
 10
51.8322590445
 20
42.6097515161
 30
0.0
 10
53.1098732516
 20
42.8740567999
 30
0.0
 10
53.9502658972
 20
43.109375532
 30
0.0
 10
54.3681115366
 20
43.239935461
 30
0.0
  0
SPLINE
  5
4F1
100
AcDbEntity
  8
00_COMPONENTS
100
AcDbSpline
 62
7
  6
BYLAYER
 70
0
 71
3
 72
15
 73
11
 74
0
 42
0.0000001
 43
0.0000001
 44
0.0000000001
 40
0.0
 40
0.0
 40
0.0
 40
0.0
 40
0.1262633288
 40
0.251511948
 40
0.3759715474
 40
0.5
 40
0.6240284526
 40
0.748488052
 40
0.8737366712
 40
1.0
 40
1.0
 40
1.0
 40
1.0
 10
19.4431115366
 20
43.239935461
 30
0.0
 10
19.8609571761
 20
43.109375532
 30
0.0
 10
20.7013498216
 20
42.8740567999
 30
0.0
 10
21.9789640288
 20
42.6097515161
 30
0.0
 10
23.2658279261
 20
42.4462064879
 30
0.0
 10
24.5577593702
 20
42.3908360937
 30
0.0
 10
25.8496908143
 20
42.4462064879
 30
0.0
 10
27.1365547116
 20
42.6097515161
 30
0.0
 10
28.4141689187
 20
42.8740567999
 30
0.0
 10
29.2545615642
 20
43.109375532
 30
0.0
 10
29.6724072037
 20
43.239935461
 30
0.0
  0
ELLIPSE
  5
4F2
100
AcDbEntity
  8
00_COMPONENTS_2
100
AcDbEllipse
 62
7
  6
BYLAYER
 10
36.5543972034
 20
9.2585056614
 30
0.0
 11
2.2970175498
 21
0.0002728714
 31
0.0
 40
0.0347530704
 41
0.0314883744
 42
1.4295999874
  0
ELLIPSE
  5
4F3
100
AcDbEntity
  8
00_COMPONENTS_2
100
AcDbEllipse
 62
7
  6
BYLAYER
 10
37.201275101
 20
9.2585056614
 30
0.0
 11
2.2978204694
 21
-0.0002825652
 31
0.0
 40
0.0347409121
 41
1.7121140999
 42
3.1102257128
  0
ELLIPSE
  5
4F4
100
AcDbEntity
  8
0
100
AcDbEllipse
 62
7
  6
BYLAYER
 10
16.1376115366
 20
90.4119843681
 30
0.0
 11
3.4193096007
 21
-0.0
 31
0.0
 40
0.6644630244
 41
-0.1975579181
 42
0.1975579181
  0
ELLIPSE
  5
4F5
100
AcDbEntity
  8
0
100
AcDbEllipse
 62
7
  6
BYLAYER
 10
16.5998537342
 20
80.6594262206
 30
0.0
 11
3.4193096007
 21
-0.0
 31
0.0
 40
0.6644630244
 41
0.5315947947
 42
0.5911452022
  0
ELLIPSE
  5
4F6
100
AcDbEntity
  8
0
100
AcDbEllipse
 62
7
  6
BYLAYER
 10
17.5982968808
 20
87.5742234338
 30
0.0
 11
3.4193096007
 21
0.0
 31
0.0
 40
0.6644630244
 41
7.3215210918
 42
8.8336327586
  0
ELLIPSE
  5
4F7
100
AcDbEntity
  8
0
100
AcDbEllipse
 62
7
  6
BYLAYER
 10
16.5998537342
 20
89.513958756
 30
0.0
 11
3.4193096007
 21
0.0
 31
0.0
 40
0.6644630244
 41
0.5315947947
 42
0.5911452022
  0
ELLIPSE
  5
4F8
100
AcDbEntity
  8
0
100
AcDbEllipse
 62
7
  6
BYLAYER
 10
16.1376115366
 20
81.5574518327
 30
0.0
 11
3.4193096007
 21
-0.0
 31
0.0
 40
0.6644630244
 41
-0.1975579181
 42
0.1975579181
  0
ELLIPSE
  5
4F9
100
AcDbEntity
  8
0
100
AcDbEllipse
 62
7
  6
BYLAYER
 10
17.5982968808
 20
78.7196908985
 30
0.0
 11
3.4193096007
 21
0.0
 31
0.0
 40
0.6644630244
 41
7.3215210918
 42
8.8336327586
  0
ELLIPSE
  5
4FA
100
AcDbEntity
  8
0
100
AcDbEllipse
 62
7
  6
BYLAYER
 10
57.6736115366
 20
90.4119843681
 30
0.0
 11
3.4193096007
 21
-0.0
 31
0.0
 40
0.6644630244
 41
2.9440347355
 42
3.3391505717
  0
ELLIPSE
  5
4FB
100
AcDbEntity
  8
0
100
AcDbEllipse
 62
7
  6
BYLAYER
 10
57.2113693391
 20
89.513958756
 30
0.0
 11
3.4193096007
 21
0.0
 31
0.0
 40
0.6644630244
 41
2.5504474514
 42
2.6099721559
  0
ELLIPSE
  5
4FC
100
AcDbEntity
  8
0
100
AcDbEllipse
 62
7
  6
BYLAYER
 10
56.2129261925
 20
87.5742234338
 30
0.0
 11
3.4193096007
 21
0.0
 31
0.0
 40
0.6644630244
 41
0.5911452022
 42
2.1032571002
  0
ELLIPSE
  5
4FD
100
AcDbEntity
  8
0
100
AcDbEllipse
 62
7
  6
BYLAYER
 10
57.6736115366
 20
81.5574518327
 30
0.0
 11
3.4193096007
 21
0.0
 31
0.0
 40
0.6644630244
 41
2.9440347355
 42
3.3391505717
  0
ELLIPSE
  5
4FE
100
AcDbEntity
  8
0
100
AcDbEllipse
 62
7
  6
BYLAYER
 10
57.2113693391
 20
80.6594262206
 30
0.0
 11
3.4193096007
 21
0.0
 31
0.0
 40
0.6644630244
 41
2.5504474514
 42
2.6099721559
  0
ELLIPSE
  5
4FF
100
AcDbEntity
  8
0
100
AcDbEllipse
 62
7
  6
BYLAYER
 10
56.2129261925
 20
78.7196908985
 30
0.0
 11
3.4193096007
 21
0.0
 31
0.0
 40
0.6644630244
 41
0.5911452022
 42
2.1032571002
  0
ENDSEC
  0
SECTION
  2
OBJECTS
  0
DICTIONARY
  5
C
100
AcDbDictionary
280
0
281
1
  3
ACAD_GROUP
350
D
  3
ACAD_MLINESTYLE
350
17
  3
ACAD_LAYOUT
350
1A
  3
ACAD_PLOTSETTINGS
350
19
  3
ACAD_PLOTSTYLENAME
350
E
  0
DICTIONARY
  5
D
102
{ACAD_REACTORS
330
C
102
}
100
AcDbDictionary
280
0
281
1
  0
ACDBDICTIONARYWDFLT
  5
E
102
{ACAD_REACTORS
330
C
102
}
100
AcDbDictionary
281
1
  3
Normal
350
F
100
AcDbDictionaryWithDefault
340
F
  0
DICTIONARY
  5
17
102
{ACAD_REACTORS
330
C
102
}
100
AcDbDictionary
280
0
281
1
  3
Standard
350
18
  0
DICTIONARY
  5
19
102
{ACAD_REACTORS
330
C
102
}
100
AcDbDictionary
281
1
  0
DICTIONARY
  5
1A
102
{ACAD_REACTORS
330
C
102
}
100
AcDbDictionary
281
1
  3
Model
350
500
  3
Layout1
350
501
  0
ACDBPLACEHOLDER
  5
F
102
{ACAD_REACTORS
330
E
102
}
  0
MLINESTYLE
  5
18
102
{ACAD_REACTORS
330
17
102
}
100
AcDbMlineStyle
  2
STANDARD
 70
0
  3

 62
256
 51
90.0
 52
90.0
 71
2
 49
0.5
 62
256
  6
BYLAYER
 49
-0.5
 62
256
  6
BYLAYER
  0
LAYOUT
  5
500
102
{ACAD_REACTORS
330
1A
102
}
100
AcDbPlotSettings
  1

  2
none_device
  4

  6

 40
0.0
 41
0.0
 42
0.0
 43
0.0
 44
210.0
 45
297.0
 46
0.0
 47
0.0
 48
0.0
 49
0.0
140
0.0
141
0.0
142
1.0
143
1.0
 70
1024
 72
1
 73
0
 74
0
  7

 75
0
147
1.0
148
0.0
149
0.0
100
AcDbLayout
  1
Model
 70
0
 71
0
 10
0.0
 20
0.0
 11
210.0
 21
297.0
 12
0.0
 22
0.0
 32
0.0
 14
0.0
 24
0.0
 34
0.0
 15
0.0
 25
0.0
 35
0.0
146
0.0
 13
0.0
 23
0.0
 33
0.0
 16
1.0
 26
0.0
 36
0.0
 17
0.0
 27
1.0
 37
0.0
 76
0
330
221
345
0
346
0
  0
LAYOUT
  5
501
102
{ACAD_REACTORS
330
1A
102
}
100
AcDbPlotSettings
  1

  2
none_device
  4

  6

 40
0.0
 41
0.0
 42
0.0
 43
0.0
 44
210.0
 45
297.0
 46
0.0
 47
0.0
 48
0.0
 49
0.0
140
0.0
141
0.0
142
1.0
143
1.0
 70
0
 72
1
 73
0
 74
0
  7

 75
0
147
1.0
148
0.0
149
0.0
100
AcDbLayout
  1
Layout1
 70
0
 71
1
 10
0.0
 20
0.0
 11
210.0
 21
297.0
 12
0.0
 22
0.0
 32
0.0
 14
0.0
 24
0.0
 34
0.0
 15
0.0
 25
0.0
 35
0.0
146
0.0
 13
0.0
 23
0.0
 33
0.0
 16
1.0
 26
0.0
 36
0.0
 17
0.0
 27
1.0
 37
0.0
 76
0
330
222
345
0
346
0
  0
ENDSEC
  0
EOF
