999
DXF file: C:\Users\sesa63760\Dev\_Creo\CAD\MCADPE0010377_3D-CAD\drw0001_3.dxf
999
Pro/ENGINEER 2019471 by Parametric Technology Corporation
  0
SECTION
  2
HEADER
  9
$ACADVER
  1
AC1024
  9
$DWGCODEPAGE
  3
ANSI_1252
  9
$EXTMAX
 10
21.0558995755
 20
29.779057971
 30
0.0
  9
$EXTMIN
 10
0.0
 20
0.0
 30
0.0
  9
$LIMMIN
 10
0.0
 20
0.0
  9
$LIMMAX
 10
21.0558995755
 20
29.779057971
  9
$VIEWCTR
 10
10.5279497877
 20
14.8895289855
  9
$VIEWSIZE
 40
29.779057971
  9
$CLAYER
  8
0
  9
$LTSCALE
 40
1.9411534085
  9
$CELTYPE
  6
BYLAYER
  9
$DIMSCALE
 40
1.0
  9
$DIMASZ
 40
0.2506654711
  9
$DIMEXO
 40
1.0
  9
$DIMDLI
 40
1.3411605368
  9
$DIMEXE
 40
1.0
  9
$DIMCEN
 40
0.317643285
  9
$DIMLFAC
 40
1.0
  9
$DIMBLK
  1
_FILLED
  9
$DIMALT
 70
0
  9
$DIMALTF
 40
0.0393700787
  9
$DIMTXT
 40
0.3509316596
  9
$DIMTOL
 70
1
  9
$DIMLIM
 70
0
  9
$DIMTFAC
 40
1.0
  9
$DIMTP
 40
0.01
  9
$DIMTM
 40
0.01
  9
$DIMGAP
 40
0.625
  9
$DIMDSEP
 70
46
  9
$AUNITS
 70
0
  9
$PDMODE
 70
3
  9
$PDSIZE
 40
0.3125
  9
$HANDSEED
  5
3B3
  9
$TILEMODE
 70
1
  9
$MEASUREMENT
 70
1
  9
$INSUNITS
 70
4
  0
ENDSEC
  0
SECTION
  2
CLASSES
  0
CLASS
  1
ACDBDICTIONARYWDFLT
  2
AcDbDictionaryWithDefault
  3
AutoCAD 2000
 90
0
 91
1
280
0
281
0
  0
CLASS
  1
ACDBPLACEHOLDER
  2
AcDbPlaceHolder
  3
AutoCAD 2000
 90
0
 91
1
280
0
281
0
  0
CLASS
  1
LAYOUT
  2
AcDbLayout
  3
AutoCAD 2000
 90
0
 91
0
280
0
281
0
  0
ENDSEC
  0
SECTION
  2
TABLES
  0
TABLE
  2
VPORT
  5
8
100
AcDbSymbolTable
 70
2
  0
VPORT
  5
1F4
100
AcDbSymbolTableRecord
100
AcDbViewportTableRecord
  2
*ACTIVE
 70
0
 10
0.0
 20
0.0
 11
1.0
 21
1.0
 12
10.5279497877
 22
14.8895289855
 13
0.0
 23
0.0
 14
1.0
 24
1.0
 15
0.0
 25
0.0
 16
0.0
 26
0.0
 36
1.0
 17
0.0
 27
0.0
 37
0.0
 40
29.779057971
 41
0.7070707071
 42
50.0
 43
0.0
 44
0.0
 50
0.0
 51
0.0
 71
0
 72
100
 73
1
 74
1
 75
0
 76
0
 77
0
 78
0
  0
ENDTAB
  0
TABLE
  2
LTYPE
  5
5
100
AcDbSymbolTable
 70
6
  0
LTYPE
  5
14
100
AcDbSymbolTableRecord
100
AcDbLinetypeTableRecord
  2
BYBLOCK
 70
0
  3

 72
65
 73
0
 40
0.0
  0
LTYPE
  5
15
100
AcDbSymbolTableRecord
100
AcDbLinetypeTableRecord
  2
BYLAYER
 70
0
  3

 72
65
 73
0
 40
0.0
  0
LTYPE
  5
16
100
AcDbSymbolTableRecord
100
AcDbLinetypeTableRecord
  2
CONTINUOUS
 70
64
  3
Solid line
 72
65
 73
0
 40
0.0
  0
LTYPE
  5
1F5
100
AcDbSymbolTableRecord
100
AcDbLinetypeTableRecord
  2
CENTER
 70
64
  3
____ _ ____ _ ____ _ ____ _ ____ _ ____ _ ____
 72
65
 73
4
 40
0.6
 49
0.375
 74
0
 49
-0.075
 74
0
 49
0.075
 74
0
 49
-0.075
 74
0
  0
LTYPE
  5
1F6
100
AcDbSymbolTableRecord
100
AcDbLinetypeTableRecord
  2
HIDDEN
 70
64
  3
- - - - - - - - - - - - - - - - - - - -
 72
65
 73
2
 40
0.2
 49
0.1
 74
0
 49
-0.1
 74
0
  0
LTYPE
  5
1F7
100
AcDbSymbolTableRecord
100
AcDbLinetypeTableRecord
  2
PHANTOM
 70
64
  3
_____ _ _ _____ _ _ _____ _ _ _____
 72
65
 73
6
 40
0.8
 49
0.45
 74
0
 49
-0.05
 74
0
 49
0.1
 74
0
 49
-0.05
 74
0
 49
0.1
 74
0
 49
-0.05
 74
0
  0
LTYPE
  5
1F8
100
AcDbSymbolTableRecord
100
AcDbLinetypeTableRecord
  2
DOT
 70
64
  3
. . . . . . . . . . . . . . . . . . . .
 72
65
 73
2
 40
0.2
 49
0.1
 74
0
 49
-0.1
 74
0
  0
LTYPE
  5
1F9
100
AcDbSymbolTableRecord
100
AcDbLinetypeTableRecord
  2
DASHED
 70
64
  3
- - - - - - - - - - - - - - - - - - - -
 72
65
 73
2
 40
0.2
 49
0.1
 74
0
 49
-0.1
 74
0
  0
ENDTAB
  0
TABLE
  2
LAYER
  5
2
100
AcDbSymbolTable
 70
36
  0
LAYER
  5
10
100
AcDbSymbolTableRecord
100
AcDbLayerTableRecord
  2
0
 70
0
 62
7
  6
CONTINUOUS
370
-3
390
F
  0
LAYER
  5
1FA
100
AcDbSymbolTableRecord
100
AcDbLayerTableRecord
  2
DEFAULT_1
 70
0
 62
7
  6
CENTER
370
-3
390
F
  0
LAYER
  5
1FB
100
AcDbSymbolTableRecord
100
AcDbLayerTableRecord
  2
DEFAULT_2
 70
0
 62
7
  6
HIDDEN
370
-3
390
F
  0
LAYER
  5
1FC
100
AcDbSymbolTableRecord
100
AcDbLayerTableRecord
  2
DEFAULT_3
 70
0
 62
7
  6
PHANTOM
370
-3
390
F
  0
LAYER
  5
1FD
100
AcDbSymbolTableRecord
100
AcDbLayerTableRecord
  2
00_COMPONENTS
 70
0
 62
7
  6
CONTINUOUS
370
-3
390
F
  0
LAYER
  5
1FE
100
AcDbSymbolTableRecord
100
AcDbLayerTableRecord
  2
01_1_DEFAULT_DATUMS
 70
0
 62
7
  6
CONTINUOUS
370
-3
390
F
  0
LAYER
  5
1FF
100
AcDbSymbolTableRecord
100
AcDbLayerTableRecord
  2
01_PLANES
 70
0
 62
7
  6
CONTINUOUS
370
-3
390
F
  0
LAYER
  5
200
100
AcDbSymbolTableRecord
100
AcDbLayerTableRecord
  2
02_COORD_SYS
 70
0
 62
7
  6
CONTINUOUS
370
-3
390
F
  0
LAYER
  5
201
100
AcDbSymbolTableRecord
100
AcDbLayerTableRecord
  2
03_AXES
 70
0
 62
7
  6
CONTINUOUS
370
-3
390
F
  0
LAYER
  5
202
100
AcDbSymbolTableRecord
100
AcDbLayerTableRecord
  2
04_POINTS
 70
0
 62
7
  6
CONTINUOUS
370
-3
390
F
  0
LAYER
  5
203
100
AcDbSymbolTableRecord
100
AcDbLayerTableRecord
  2
05_CURVES
 70
0
 62
7
  6
CONTINUOUS
370
-3
390
F
  0
LAYER
  5
204
100
AcDbSymbolTableRecord
100
AcDbLayerTableRecord
  2
06_SURFS
 70
0
 62
7
  6
CONTINUOUS
370
-3
390
F
  0
LAYER
  5
205
100
AcDbSymbolTableRecord
100
AcDbLayerTableRecord
  2
07_COSMETICS
 70
0
 62
7
  6
CONTINUOUS
370
-3
390
F
  0
LAYER
  5
206
100
AcDbSymbolTableRecord
100
AcDbLayerTableRecord
  2
10_NOTES
 70
0
 62
7
  6
CONTINUOUS
370
-3
390
F
  0
LAYER
  5
207
100
AcDbSymbolTableRecord
100
AcDbLayerTableRecord
  2
11_NOTES_PUB
 70
0
 62
7
  6
CONTINUOUS
370
-3
390
F
  0
LAYER
  5
208
100
AcDbSymbolTableRecord
100
AcDbLayerTableRecord
  2
13_REF_GTOL
 70
0
 62
7
  6
CONTINUOUS
370
-3
390
F
  0
LAYER
  5
209
100
AcDbSymbolTableRecord
100
AcDbLayerTableRecord
  2
16_MISC
 70
0
 62
7
  6
CONTINUOUS
370
-3
390
F
  0
LAYER
  5
20A
100
AcDbSymbolTableRecord
100
AcDbLayerTableRecord
  2
17_NO_PRINT
 70
0
 62
7
  6
CONTINUOUS
370
-3
390
F
  0
LAYER
  5
20B
100
AcDbSymbolTableRecord
100
AcDbLayerTableRecord
  2
18_DATUM_CAMS_JOINTS
 70
0
 62
7
  6
CONTINUOUS
370
-3
390
F
  0
LAYER
  5
20C
100
AcDbSymbolTableRecord
100
AcDbLayerTableRecord
  2
19_DATUM_FUNCTIONAL
 70
0
 62
7
  6
CONTINUOUS
370
-3
390
F
  0
LAYER
  5
20D
100
AcDbSymbolTableRecord
100
AcDbLayerTableRecord
  2
20_DATUM_KINEMATIC_SCHEME
 70
0
 62
7
  6
CONTINUOUS
370
-3
390
F
  0
ENDTAB
  0
TABLE
  2
STYLE
  5
3
100
AcDbSymbolTable
 70
1
  0
STYLE
  5
11
100
AcDbSymbolTableRecord
100
AcDbTextStyleTableRecord
  2
STANDARD
 70
0
 40
0.0
 41
1.0
 50
0.0
 71
0
 42
0.2
  3
ARIAL.TTF
  4

  0
STYLE
  5
20E
100
AcDbSymbolTableRecord
100
AcDbTextStyleTableRecord
  2
TEXTSTYLE_1
 70
0
 40
0.0
 41
0.8
 50
0.0
 71
0
 42
0.2
  3
gdt
  4

  0
ENDTAB
  0
TABLE
  2
VIEW
  5
6
100
AcDbSymbolTable
 70
0
  0
ENDTAB
  0
TABLE
  2
UCS
  5
7
100
AcDbSymbolTable
 70
0
  0
ENDTAB
  0
TABLE
  2
APPID
  5
9
100
AcDbSymbolTable
 70
1
  0
APPID
  5
20F
100
AcDbSymbolTableRecord
100
AcDbRegAppTableRecord
  2
ACAD
 70
0
  0
ENDTAB
  0
TABLE
  2
BLOCK_RECORD
  5
1
100
AcDbSymbolTable
 70
0
  0
BLOCK_RECORD
  5
210
100
AcDbSymbolTableRecord
100
AcDbBlockTableRecord
  2
*Model_Space
  0
BLOCK_RECORD
  5
211
100
AcDbSymbolTableRecord
100
AcDbBlockTableRecord
  2
*Paper_Space
  0
BLOCK_RECORD
  5
212
100
AcDbSymbolTableRecord
100
AcDbBlockTableRecord
  2
_FILLED
  0
ENDTAB
  0
TABLE
  2
DIMSTYLE
  5
A
100
AcDbSymbolTable
 70
1
100
AcDbDimStyleTable
 71
0
  0
DIMSTYLE
105
213
100
AcDbSymbolTableRecord
100
AcDbDimStyleTableRecord
  2
STANDARD
 70
0
  3

  4

 40
1.0
 41
0.2506654711
 42
1.0
 43
0.38
 44
1.0
 45
0.0
 46
0.0
 47
0.01
 48
0.01
140
0.3509316596
141
0.09
142
0.0
143
25.4
144
1.0
145
0.0
146
1.0
147
0.625
 71
1
 72
0
 73
0
 74
0
 75
0
 76
0
 77
1
 78
8
 79
2
170
0
171
1
172
0
173
0
174
0
175
0
176
0
177
0
178
0
270
2
179
2
271
2
272
2
273
2
274
2
275
0
280
0
281
0
282
0
283
1
284
8
285
0
286
0
287
3
288
0
340
11
278
46
341
212
342
212
343
212
344
212
  0
ENDTAB
  0
ENDSEC
  0
SECTION
  2
BLOCKS
  0
BLOCK
  5
20
100
AcDbEntity
  8
0
100
AcDbBlockBegin
  2
*Model_Space
 70
0
 10
0.0
 20
0.0
 30
0.0
  3
*Model_Space
  1

  0
ENDBLK
  5
21
100
AcDbEntity
  8
0
100
AcDbBlockEnd
  0
BLOCK
  5
1C
100
AcDbEntity
  8
0
100
AcDbBlockBegin
  2
*Paper_Space
 70
0
 10
0.0
 20
0.0
 30
0.0
  3
*Paper_Space
  1

  0
ENDBLK
  5
1D
100
AcDbEntity
  8
0
100
AcDbBlockEnd
  0
BLOCK
  5
214
100
AcDbEntity
  8
0
100
AcDbBlockBegin
  2
_FILLED
 70
64
 10
0.0
 20
0.0
  3
_FILLED
  1

  0
SOLID
  5
215
100
AcDbEntity
  8
0
  6
BYBLOCK
 62
0
100
AcDbTrace
 10
0.0
 20
0.0
 11
-1.0
 21
0.25
 12
-1.0
 22
-0.25
 13
-1.0
 23
-0.25
  0
ENDBLK
  5
216
100
AcDbEntity
  8
0
  6
BYBLOCK
 62
0
100
AcDbBlockEnd
  0
ENDSEC
  0
SECTION
  2
ENTITIES
  0
LINE
  5
217
100
AcDbEntity
  8
0
100
AcDbLine
 62
7
  6
BYLAYER
 10
8.6945439906
 20
2.3874275362
 11
12.9445439906
 21
2.3874275362
  0
LINE
  5
218
100
AcDbEntity
  8
0
100
AcDbLine
 62
7
  6
BYLAYER
 10
8.9457111353
 20
26.8534177939
 11
9.2285538478
 21
27.1362605064
  0
LINE
  5
219
100
AcDbEntity
  8
0
100
AcDbLine
 62
7
  6
BYLAYER
 10
8.974131439
 20
26.8249974903
 11
9.2569741515
 21
27.1078402027
  0
LINE
  5
21A
100
AcDbEntity
  8
0
100
AcDbLine
 62
7
  6
BYLAYER
 10
9.2285538478
 20
2.7885945661
 11
8.9457111353
 21
3.0714372786
  0
LINE
  5
21B
100
AcDbEntity
  8
0
100
AcDbLine
 62
7
  6
BYLAYER
 10
8.974131439
 20
3.0998575822
 11
9.2569741515
 21
2.8170148697
  0
LINE
  5
21C
100
AcDbEntity
  8
0
100
AcDbLine
 62
7
  6
BYLAYER
 10
9.6368021383
 20
26.7280122159
 11
9.3539594258
 21
26.4451695034
  0
LINE
  5
21D
100
AcDbEntity
  8
0
100
AcDbLine
 62
7
  6
BYLAYER
 10
9.6368021383
 20
3.1968428566
 11
9.3539594258
 21
3.479685569
  0
LINE
  5
21E
100
AcDbEntity
  8
0
100
AcDbLine
 62
7
  6
BYLAYER
 10
8.9457111353
 20
24.0957013473
 11
9.7588839337
 21
24.9088741456
  0
LINE
  5
21F
100
AcDbEntity
  8
0
100
AcDbLine
 62
7
  6
BYLAYER
 10
11.173097496
 20
26.323087708
 11
11.9862702944
 21
27.1362605064
  0
LINE
  5
220
100
AcDbEntity
  8
0
100
AcDbLine
 62
7
  6
BYLAYER
 10
12.9445439906
 20
6.9374275362
 11
8.6945439906
 21
6.9374275362
  0
LINE
  5
221
100
AcDbEntity
  8
0
100
AcDbLine
 62
7
  6
BYLAYER
 10
9.1945439906
 20
7.2374275362
 11
12.4445439906
 21
7.2374275362
  0
LINE
  5
222
100
AcDbEntity
  8
0
100
AcDbLine
 62
7
  6
BYLAYER
 10
8.9457111353
 20
5.8291537252
 11
9.7588839337
 21
5.0159809268
  0
LINE
  5
223
100
AcDbEntity
  8
0
100
AcDbLine
 62
7
  6
BYLAYER
 10
11.173097496
 20
3.6017673645
 11
11.9862702944
 21
2.7885945661
  0
LINE
  5
224
100
AcDbEntity
  8
0
100
AcDbLine
 62
7
  6
BYLAYER
 10
9.3539594258
 20
24.079685569
 11
8.9457111353
 21
23.6714372786
  0
LINE
  5
225
100
AcDbEntity
  8
0
100
AcDbLine
 62
7
  6
BYLAYER
 10
12.0022860727
 20
26.7280122159
 11
12.4105343632
 21
27.1362605064
  0
LINE
  5
226
100
AcDbEntity
  8
0
100
AcDbLine
 62
7
  6
BYLAYER
 10
9.2285538478
 20
23.3885945661
 11
9.6368021383
 21
23.7968428565
  0
LINE
  5
227
100
AcDbEntity
  8
0
100
AcDbLine
 62
7
  6
BYLAYER
 10
12.2851287852
 20
26.4451695034
 11
12.6933770756
 21
26.8534177939
  0
LINE
  5
228
100
AcDbEntity
  8
0
100
AcDbLine
 62
7
  6
BYLAYER
 10
9.6528179165
 20
23.3885945661
 11
10.4659907149
 21
24.2017673645
  0
LINE
  5
229
100
AcDbEntity
  8
0
100
AcDbLine
 62
7
  6
BYLAYER
 10
11.8802042772
 20
25.6159809268
 11
12.6933770756
 21
26.4291537252
  0
LINE
  5
22A
100
AcDbEntity
  8
0
100
AcDbLine
 62
7
  6
BYLAYER
 10
8.6945439906
 20
7.5374275362
 11
12.9445439906
 21
7.5374275362
  0
LINE
  5
22B
100
AcDbEntity
  8
0
100
AcDbLine
 62
7
  6
BYLAYER
 10
8.9457111353
 20
6.2534177939
 11
9.3539594258
 21
5.8451695034
  0
LINE
  5
22C
100
AcDbEntity
  8
0
100
AcDbLine
 62
7
  6
BYLAYER
 10
12.0022860727
 20
3.1968428565
 11
12.4105343632
 21
2.7885945661
  0
LINE
  5
22D
100
AcDbEntity
  8
0
100
AcDbLine
 62
7
  6
BYLAYER
 10
9.2285538478
 20
6.5362605064
 11
9.6368021383
 21
6.1280122159
  0
LINE
  5
22E
100
AcDbEntity
  8
0
100
AcDbLine
 62
7
  6
BYLAYER
 10
12.2851287852
 20
3.479685569
 11
12.6933770756
 21
3.0714372786
  0
LINE
  5
22F
100
AcDbEntity
  8
0
100
AcDbLine
 62
7
  6
BYLAYER
 10
9.6528179165
 20
6.5362605064
 11
10.4659907149
 21
5.723087708
  0
LINE
  5
230
100
AcDbEntity
  8
0
100
AcDbLine
 62
7
  6
BYLAYER
 10
11.8802042772
 20
4.3088741457
 11
12.6933770756
 21
3.4957013473
  0
LINE
  5
231
100
AcDbEntity
  8
0
100
AcDbLine
 62
7
  6
BYLAYER
 10
8.9457111353
 20
21.7034177939
 11
9.2285538478
 21
21.9862605064
  0
LINE
  5
232
100
AcDbEntity
  8
0
100
AcDbLine
 62
7
  6
BYLAYER
 10
8.974131439
 20
21.6749974903
 11
9.2569741515
 21
21.9578402027
  0
LINE
  5
233
100
AcDbEntity
  8
0
100
AcDbLine
 62
7
  6
BYLAYER
 10
9.2285538478
 20
7.9385945661
 11
8.9457111353
 21
8.2214372786
  0
LINE
  5
234
100
AcDbEntity
  8
0
100
AcDbLine
 62
7
  6
BYLAYER
 10
8.974131439
 20
8.2498575822
 11
9.2569741515
 21
7.9670148697
  0
LINE
  5
235
100
AcDbEntity
  8
0
100
AcDbLine
 62
7
  6
BYLAYER
 10
9.6368021383
 20
21.5780122159
 11
9.3539594258
 21
21.2951695034
  0
LINE
  5
236
100
AcDbEntity
  8
0
100
AcDbLine
 62
7
  6
BYLAYER
 10
12.0022860727
 20
23.7968428565
 11
12.2851287852
 21
24.079685569
  0
LINE
  5
237
100
AcDbEntity
  8
0
100
AcDbLine
 62
7
  6
BYLAYER
 10
9.6368021383
 20
8.3468428566
 11
9.3539594258
 21
8.629685569
  0
LINE
  5
238
100
AcDbEntity
  8
0
100
AcDbLine
 62
7
  6
BYLAYER
 10
12.2851287852
 20
5.8451695034
 11
12.0022860727
 21
6.1280122159
  0
LINE
  5
239
100
AcDbEntity
  8
0
100
AcDbLine
 62
7
  6
BYLAYER
 10
12.664956772
 20
23.6998575822
 11
12.3821140595
 21
23.4170148697
  0
LINE
  5
23A
100
AcDbEntity
  8
0
100
AcDbLine
 62
7
  6
BYLAYER
 10
12.6933770756
 20
23.6714372786
 11
12.4105343632
 21
23.3885945661
  0
LINE
  5
23B
100
AcDbEntity
  8
0
100
AcDbLine
 62
7
  6
BYLAYER
 10
8.9457111353
 20
18.9457013473
 11
9.7588839337
 21
19.7588741456
  0
LINE
  5
23C
100
AcDbEntity
  8
0
100
AcDbLine
 62
7
  6
BYLAYER
 10
11.173097496
 20
21.173087708
 11
11.9862702944
 21
21.9862605064
  0
LINE
  5
23D
100
AcDbEntity
  8
0
100
AcDbLine
 62
7
  6
BYLAYER
 10
12.3821140595
 20
6.5078402027
 11
12.664956772
 21
6.2249974903
  0
LINE
  5
23E
100
AcDbEntity
  8
0
100
AcDbLine
 62
7
  6
BYLAYER
 10
12.4105343632
 20
6.5362605064
 11
12.6933770756
 21
6.2534177939
  0
LINE
  5
23F
100
AcDbEntity
  8
0
100
AcDbLine
 62
7
  6
BYLAYER
 10
8.9457111353
 20
10.9791537252
 11
9.7588839337
 21
10.1659809268
  0
LINE
  5
240
100
AcDbEntity
  8
0
100
AcDbLine
 62
7
  6
BYLAYER
 10
11.173097496
 20
8.7517673645
 11
11.9862702944
 21
7.9385945661
  0
LINE
  5
241
100
AcDbEntity
  8
0
100
AcDbLine
 62
7
  6
BYLAYER
 10
9.3539594258
 20
18.929685569
 11
8.9457111353
 21
18.5214372786
  0
LINE
  5
242
100
AcDbEntity
  8
0
100
AcDbLine
 62
7
  6
BYLAYER
 10
12.0022860727
 20
21.5780122159
 11
12.4105343632
 21
21.9862605064
  0
LINE
  5
243
100
AcDbEntity
  8
0
100
AcDbLine
 62
7
  6
BYLAYER
 10
9.2285538478
 20
18.2385945661
 11
9.6368021383
 21
18.6468428565
  0
LINE
  5
244
100
AcDbEntity
  8
0
100
AcDbLine
 62
7
  6
BYLAYER
 10
12.2851287852
 20
21.2951695034
 11
12.6933770756
 21
21.7034177939
  0
LINE
  5
245
100
AcDbEntity
  8
0
100
AcDbLine
 62
7
  6
BYLAYER
 10
8.9457111353
 20
11.4034177939
 11
9.3539594258
 21
10.9951695034
  0
LINE
  5
246
100
AcDbEntity
  8
0
100
AcDbLine
 62
7
  6
BYLAYER
 10
12.0022860727
 20
8.3468428565
 11
12.4105343632
 21
7.9385945661
  0
LINE
  5
247
100
AcDbEntity
  8
0
100
AcDbLine
 62
7
  6
BYLAYER
 10
9.2285538478
 20
11.6862605064
 11
9.6368021383
 21
11.2780122159
  0
LINE
  5
248
100
AcDbEntity
  8
0
100
AcDbLine
 62
7
  6
BYLAYER
 10
12.2851287852
 20
8.629685569
 11
12.6933770756
 21
8.2214372786
  0
LINE
  5
249
100
AcDbEntity
  8
0
100
AcDbLine
 62
7
  6
BYLAYER
 10
9.6528179165
 20
18.2385945661
 11
10.4659907149
 21
19.0517673645
  0
LINE
  5
24A
100
AcDbEntity
  8
0
100
AcDbLine
 62
7
  6
BYLAYER
 10
11.8802042772
 20
20.4659809268
 11
12.6933770756
 21
21.2791537252
  0
LINE
  5
24B
100
AcDbEntity
  8
0
100
AcDbLine
 62
7
  6
BYLAYER
 10
8.9457111353
 20
16.5534177939
 11
9.2285538478
 21
16.8362605064
  0
LINE
  5
24C
100
AcDbEntity
  8
0
100
AcDbLine
 62
7
  6
BYLAYER
 10
12.9445439906
 20
12.0874275362
 11
8.6945439906
 21
12.0874275362
  0
LINE
  5
24D
100
AcDbEntity
  8
0
100
AcDbLine
 62
7
  6
BYLAYER
 10
9.1945439906
 20
12.3874275362
 11
12.4445439906
 21
12.3874275362
  0
LINE
  5
24E
100
AcDbEntity
  8
0
100
AcDbLine
 62
7
  6
BYLAYER
 10
9.6528179165
 20
11.6862605064
 11
10.4659907149
 21
10.873087708
  0
LINE
  5
24F
100
AcDbEntity
  8
0
100
AcDbLine
 62
7
  6
BYLAYER
 10
11.8802042772
 20
9.4588741457
 11
12.6933770756
 21
8.6457013473
  0
LINE
  5
250
100
AcDbEntity
  8
0
100
AcDbLine
 62
7
  6
BYLAYER
 10
9.2285538478
 20
13.0885945661
 11
8.9457111353
 21
13.3714372786
  0
LINE
  5
251
100
AcDbEntity
  8
0
100
AcDbLine
 62
7
  6
BYLAYER
 10
8.6945439906
 20
27.5374275362
 11
8.6945439906
 21
22.9874275362
  0
LINE
  5
252
100
AcDbEntity
  8
0
100
AcDbLine
 62
7
  6
BYLAYER
 10
8.6945439906
 20
22.3874275362
 11
8.6945439906
 21
17.8374275362
  0
LINE
  5
253
100
AcDbEntity
  8
0
100
AcDbLine
 62
7
  6
BYLAYER
 10
8.6945439906
 20
17.2374275362
 11
8.6945439906
 21
12.6874275362
  0
LINE
  5
254
100
AcDbEntity
  8
0
100
AcDbLine
 62
7
  6
BYLAYER
 10
8.6945439906
 20
12.0874275362
 11
8.6945439906
 21
7.5374275362
  0
LINE
  5
255
100
AcDbEntity
  8
0
100
AcDbLine
 62
7
  6
BYLAYER
 10
8.6945439906
 20
6.9374275362
 11
8.6945439906
 21
2.3874275362
  0
LINE
  5
256
100
AcDbEntity
  8
0
100
AcDbLine
 62
7
  6
BYLAYER
 10
9.1945439906
 20
22.9874275362
 11
9.1945439906
 21
22.3874275362
  0
LINE
  5
257
100
AcDbEntity
  8
0
100
AcDbLine
 62
7
  6
BYLAYER
 10
9.1945439906
 20
17.8374275362
 11
9.1945439906
 21
17.2374275362
  0
LINE
  5
258
100
AcDbEntity
  8
0
100
AcDbLine
 62
7
  6
BYLAYER
 10
9.1945439906
 20
12.6874275362
 11
9.1945439906
 21
12.0874275362
  0
LINE
  5
259
100
AcDbEntity
  8
0
100
AcDbLine
 62
7
  6
BYLAYER
 10
9.1945439906
 20
7.5374275362
 11
9.1945439906
 21
6.9374275362
  0
LINE
  5
25A
100
AcDbEntity
  8
0
100
AcDbLine
 62
7
  6
BYLAYER
 10
8.974131439
 20
16.5249974903
 11
9.2569741515
 21
16.8078402027
  0
LINE
  5
25B
100
AcDbEntity
  8
0
100
AcDbLine
 62
7
  6
BYLAYER
 10
9.6368021383
 20
16.4280122159
 11
9.3539594258
 21
16.1451695034
  0
LINE
  5
25C
100
AcDbEntity
  8
0
100
AcDbLine
 62
7
  6
BYLAYER
 10
12.0022860727
 20
18.6468428565
 11
12.2851287852
 21
18.929685569
  0
LINE
  5
25D
100
AcDbEntity
  8
0
100
AcDbLine
 62
7
  6
BYLAYER
 10
8.6945439906
 20
12.6874275362
 11
12.9445439906
 21
12.6874275362
  0
LINE
  5
25E
100
AcDbEntity
  8
0
100
AcDbLine
 62
7
  6
BYLAYER
 10
8.974131439
 20
13.3998575822
 11
9.2569741515
 21
13.1170148697
  0
LINE
  5
25F
100
AcDbEntity
  8
0
100
AcDbLine
 62
7
  6
BYLAYER
 10
9.6368021383
 20
13.4968428566
 11
9.3539594258
 21
13.779685569
  0
LINE
  5
260
100
AcDbEntity
  8
0
100
AcDbLine
 62
7
  6
BYLAYER
 10
12.2851287852
 20
10.9951695034
 11
12.0022860727
 21
11.2780122159
  0
LINE
  5
261
100
AcDbEntity
  8
0
100
AcDbLine
 62
7
  6
BYLAYER
 10
12.664956772
 20
18.5498575822
 11
12.3821140595
 21
18.2670148697
  0
LINE
  5
262
100
AcDbEntity
  8
0
100
AcDbLine
 62
7
  6
BYLAYER
 10
12.6933770756
 20
18.5214372786
 11
12.4105343632
 21
18.2385945661
  0
LINE
  5
263
100
AcDbEntity
  8
0
100
AcDbLine
 62
7
  6
BYLAYER
 10
12.3821140595
 20
11.6578402027
 11
12.664956772
 21
11.3749974903
  0
LINE
  5
264
100
AcDbEntity
  8
0
100
AcDbLine
 62
7
  6
BYLAYER
 10
12.4105343632
 20
11.6862605064
 11
12.6933770756
 21
11.4034177939
  0
LINE
  5
265
100
AcDbEntity
  8
0
100
AcDbLine
 62
7
  6
BYLAYER
 10
8.9457111353
 20
13.7957013473
 11
9.7588839337
 21
14.6088741456
  0
LINE
  5
266
100
AcDbEntity
  8
0
100
AcDbLine
 62
7
  6
BYLAYER
 10
11.173097496
 20
16.023087708
 11
11.9862702944
 21
16.8362605064
  0
LINE
  5
267
100
AcDbEntity
  8
0
100
AcDbLine
 62
7
  6
BYLAYER
 10
9.3539594258
 20
13.779685569
 11
8.9457111353
 21
13.3714372786
  0
LINE
  5
268
100
AcDbEntity
  8
0
100
AcDbLine
 62
7
  6
BYLAYER
 10
12.0022860727
 20
16.4280122159
 11
12.4105343632
 21
16.8362605064
  0
LINE
  5
269
100
AcDbEntity
  8
0
100
AcDbLine
 62
7
  6
BYLAYER
 10
8.9457111353
 20
16.1291537252
 11
9.7588839337
 21
15.3159809268
  0
LINE
  5
26A
100
AcDbEntity
  8
0
100
AcDbLine
 62
7
  6
BYLAYER
 10
11.1730974961
 20
13.9017673645
 11
11.9862702944
 21
13.0885945661
  0
LINE
  5
26B
100
AcDbEntity
  8
0
100
AcDbLine
 62
7
  6
BYLAYER
 10
9.3539594258
 20
16.1451695034
 11
8.9457111353
 21
16.5534177939
  0
LINE
  5
26C
100
AcDbEntity
  8
0
100
AcDbLine
 62
7
  6
BYLAYER
 10
12.0022860727
 20
13.4968428565
 11
12.4105343632
 21
13.0885945661
  0
LINE
  5
26D
100
AcDbEntity
  8
0
100
AcDbLine
 62
7
  6
BYLAYER
 10
9.2285538478
 20
13.0885945661
 11
9.6368021383
 21
13.4968428565
  0
LINE
  5
26E
100
AcDbEntity
  8
0
100
AcDbLine
 62
7
  6
BYLAYER
 10
12.2851287852
 20
16.1451695034
 11
12.6933770756
 21
16.5534177939
  0
LINE
  5
26F
100
AcDbEntity
  8
0
100
AcDbLine
 62
7
  6
BYLAYER
 10
9.6528179165
 20
13.0885945661
 11
10.4659907149
 21
13.9017673645
  0
LINE
  5
270
100
AcDbEntity
  8
0
100
AcDbLine
 62
7
  6
BYLAYER
 10
11.8802042772
 20
15.3159809268
 11
12.6933770756
 21
16.1291537252
  0
LINE
  5
271
100
AcDbEntity
  8
0
100
AcDbLine
 62
7
  6
BYLAYER
 10
9.6368021383
 20
16.4280122159
 11
9.2285538478
 21
16.8362605064
  0
LINE
  5
272
100
AcDbEntity
  8
0
100
AcDbLine
 62
7
  6
BYLAYER
 10
12.2851287852
 20
13.779685569
 11
12.6933770756
 21
13.3714372786
  0
LINE
  5
273
100
AcDbEntity
  8
0
100
AcDbLine
 62
7
  6
BYLAYER
 10
9.6528179165
 20
16.8362605064
 11
10.4659907149
 21
16.023087708
  0
LINE
  5
274
100
AcDbEntity
  8
0
100
AcDbLine
 62
7
  6
BYLAYER
 10
11.8802042772
 20
14.6088741457
 11
12.6933770756
 21
13.7957013473
  0
LINE
  5
275
100
AcDbEntity
  8
0
100
AcDbLine
 62
7
  6
BYLAYER
 10
12.4445439906
 20
6.9374275362
 11
12.4445439906
 21
7.5374275362
  0
LINE
  5
276
100
AcDbEntity
  8
0
100
AcDbLine
 62
7
  6
BYLAYER
 10
12.4445439906
 20
12.0874275362
 11
12.4445439906
 21
12.6874275362
  0
LINE
  5
277
100
AcDbEntity
  8
0
100
AcDbLine
 62
7
  6
BYLAYER
 10
12.4445439906
 20
17.2374275362
 11
12.4445439906
 21
17.8374275362
  0
LINE
  5
278
100
AcDbEntity
  8
0
100
AcDbLine
 62
7
  6
BYLAYER
 10
12.4445439906
 20
22.3874275362
 11
12.4445439906
 21
22.9874275362
  0
LINE
  5
279
100
AcDbEntity
  8
0
100
AcDbLine
 62
7
  6
BYLAYER
 10
8.9457111353
 20
11.4034177939
 11
9.2285538478
 21
11.6862605064
  0
LINE
  5
27A
100
AcDbEntity
  8
0
100
AcDbLine
 62
7
  6
BYLAYER
 10
8.974131439
 20
11.3749974903
 11
9.2569741515
 21
11.6578402027
  0
LINE
  5
27B
100
AcDbEntity
  8
0
100
AcDbLine
 62
7
  6
BYLAYER
 10
9.6368021383
 20
11.2780122159
 11
9.3539594258
 21
10.9951695034
  0
LINE
  5
27C
100
AcDbEntity
  8
0
100
AcDbLine
 62
7
  6
BYLAYER
 10
9.2285538478
 20
18.2385945661
 11
8.9457111353
 21
18.5214372786
  0
LINE
  5
27D
100
AcDbEntity
  8
0
100
AcDbLine
 62
7
  6
BYLAYER
 10
8.974131439
 20
18.5498575822
 11
9.2569741515
 21
18.2670148697
  0
LINE
  5
27E
100
AcDbEntity
  8
0
100
AcDbLine
 62
7
  6
BYLAYER
 10
9.6368021383
 20
18.6468428566
 11
9.3539594258
 21
18.929685569
  0
LINE
  5
27F
100
AcDbEntity
  8
0
100
AcDbLine
 62
7
  6
BYLAYER
 10
12.9445439906
 20
27.5374275362
 11
12.9445439906
 21
22.9874275362
  0
LINE
  5
280
100
AcDbEntity
  8
0
100
AcDbLine
 62
7
  6
BYLAYER
 10
12.9445439906
 20
22.3874275362
 11
12.9445439906
 21
17.8374275362
  0
LINE
  5
281
100
AcDbEntity
  8
0
100
AcDbLine
 62
7
  6
BYLAYER
 10
12.9445439906
 20
17.2374275362
 11
12.9445439906
 21
12.6874275362
  0
LINE
  5
282
100
AcDbEntity
  8
0
100
AcDbLine
 62
7
  6
BYLAYER
 10
12.9445439906
 20
12.0874275362
 11
12.9445439906
 21
7.5374275362
  0
LINE
  5
283
100
AcDbEntity
  8
0
100
AcDbLine
 62
7
  6
BYLAYER
 10
12.9445439906
 20
6.9374275362
 11
12.9445439906
 21
2.3874275362
  0
LINE
  5
284
100
AcDbEntity
  8
0
100
AcDbLine
 62
7
  6
BYLAYER
 10
12.0022860727
 20
13.4968428565
 11
12.2851287852
 21
13.779685569
  0
LINE
  5
285
100
AcDbEntity
  8
0
100
AcDbLine
 62
7
  6
BYLAYER
 10
12.664956772
 20
13.3998575822
 11
12.3821140595
 21
13.1170148697
  0
LINE
  5
286
100
AcDbEntity
  8
0
100
AcDbLine
 62
7
  6
BYLAYER
 10
12.6933770756
 20
13.3714372786
 11
12.4105343632
 21
13.0885945661
  0
LINE
  5
287
100
AcDbEntity
  8
0
100
AcDbLine
 62
7
  6
BYLAYER
 10
12.9445439906
 20
17.2374275362
 11
8.6945439906
 21
17.2374275362
  0
LINE
  5
288
100
AcDbEntity
  8
0
100
AcDbLine
 62
7
  6
BYLAYER
 10
9.1945439906
 20
17.5374275362
 11
12.4445439906
 21
17.5374275362
  0
LINE
  5
289
100
AcDbEntity
  8
0
100
AcDbLine
 62
7
  6
BYLAYER
 10
12.2851287852
 20
16.1451695034
 11
12.0022860727
 21
16.4280122159
  0
LINE
  5
28A
100
AcDbEntity
  8
0
100
AcDbLine
 62
7
  6
BYLAYER
 10
12.3821140595
 20
16.8078402027
 11
12.664956772
 21
16.5249974903
  0
LINE
  5
28B
100
AcDbEntity
  8
0
100
AcDbLine
 62
7
  6
BYLAYER
 10
12.4105343632
 20
16.8362605064
 11
12.6933770756
 21
16.5534177939
  0
LINE
  5
28C
100
AcDbEntity
  8
0
100
AcDbLine
 62
7
  6
BYLAYER
 10
8.9457111353
 20
8.6457013473
 11
9.7588839337
 21
9.4588741456
  0
LINE
  5
28D
100
AcDbEntity
  8
0
100
AcDbLine
 62
7
  6
BYLAYER
 10
11.173097496
 20
10.873087708
 11
11.9862702944
 21
11.6862605064
  0
LINE
  5
28E
100
AcDbEntity
  8
0
100
AcDbLine
 62
7
  6
BYLAYER
 10
9.3539594258
 20
8.629685569
 11
8.9457111353
 21
8.2214372786
  0
LINE
  5
28F
100
AcDbEntity
  8
0
100
AcDbLine
 62
7
  6
BYLAYER
 10
12.0022860727
 20
11.2780122159
 11
12.4105343632
 21
11.6862605064
  0
LINE
  5
290
100
AcDbEntity
  8
0
100
AcDbLine
 62
7
  6
BYLAYER
 10
8.6945439906
 20
17.8374275362
 11
12.9445439906
 21
17.8374275362
  0
LINE
  5
291
100
AcDbEntity
  8
0
100
AcDbLine
 62
7
  6
BYLAYER
 10
11.9862702944
 20
18.2385945661
 11
11.1730974961
 21
19.0517673645
  0
LINE
  5
292
100
AcDbEntity
  8
0
100
AcDbLine
 62
7
  6
BYLAYER
 10
9.7588839337
 20
20.4659809268
 11
8.9457111353
 21
21.2791537252
  0
LINE
  5
293
100
AcDbEntity
  8
0
100
AcDbLine
 62
7
  6
BYLAYER
 10
12.0022860727
 20
18.6468428565
 11
12.4105343632
 21
18.2385945661
  0
LINE
  5
294
100
AcDbEntity
  8
0
100
AcDbLine
 62
7
  6
BYLAYER
 10
9.3539594258
 20
21.2951695034
 11
8.9457111353
 21
21.7034177939
  0
LINE
  5
295
100
AcDbEntity
  8
0
100
AcDbLine
 62
7
  6
BYLAYER
 10
9.2285538478
 20
7.9385945661
 11
9.6368021383
 21
8.3468428565
  0
LINE
  5
296
100
AcDbEntity
  8
0
100
AcDbLine
 62
7
  6
BYLAYER
 10
12.2851287852
 20
10.9951695034
 11
12.6933770756
 21
11.4034177939
  0
LINE
  5
297
100
AcDbEntity
  8
0
100
AcDbLine
 62
7
  6
BYLAYER
 10
9.6528179165
 20
7.9385945661
 11
10.4659907149
 21
8.7517673645
  0
LINE
  5
298
100
AcDbEntity
  8
0
100
AcDbLine
 62
7
  6
BYLAYER
 10
11.8802042772
 20
10.1659809268
 11
12.6933770756
 21
10.9791537252
  0
LINE
  5
299
100
AcDbEntity
  8
0
100
AcDbLine
 62
7
  6
BYLAYER
 10
12.2851287852
 20
18.929685569
 11
12.6933770756
 21
18.5214372786
  0
LINE
  5
29A
100
AcDbEntity
  8
0
100
AcDbLine
 62
7
  6
BYLAYER
 10
9.6368021383
 20
21.5780122159
 11
9.2285538478
 21
21.9862605064
  0
LINE
  5
29B
100
AcDbEntity
  8
0
100
AcDbLine
 62
7
  6
BYLAYER
 10
12.6933770756
 20
18.9457013473
 11
11.8802042772
 21
19.7588741457
  0
LINE
  5
29C
100
AcDbEntity
  8
0
100
AcDbLine
 62
7
  6
BYLAYER
 10
10.4659907149
 20
21.173087708
 11
9.6528179165
 21
21.9862605064
  0
LINE
  5
29D
100
AcDbEntity
  8
0
100
AcDbLine
 62
7
  6
BYLAYER
 10
8.9457111353
 20
6.2534177939
 11
9.2285538478
 21
6.5362605064
  0
LINE
  5
29E
100
AcDbEntity
  8
0
100
AcDbLine
 62
7
  6
BYLAYER
 10
8.974131439
 20
6.2249974903
 11
9.2569741515
 21
6.5078402027
  0
LINE
  5
29F
100
AcDbEntity
  8
0
100
AcDbLine
 62
7
  6
BYLAYER
 10
9.2285538478
 20
23.3885945661
 11
8.9457111353
 21
23.6714372786
  0
LINE
  5
2A0
100
AcDbEntity
  8
0
100
AcDbLine
 62
7
  6
BYLAYER
 10
8.974131439
 20
23.6998575822
 11
9.2569741515
 21
23.4170148697
  0
LINE
  5
2A1
100
AcDbEntity
  8
0
100
AcDbLine
 62
7
  6
BYLAYER
 10
9.6368021383
 20
6.1280122159
 11
9.3539594258
 21
5.8451695034
  0
LINE
  5
2A2
100
AcDbEntity
  8
0
100
AcDbLine
 62
7
  6
BYLAYER
 10
12.0022860727
 20
8.3468428565
 11
12.2851287852
 21
8.629685569
  0
LINE
  5
2A3
100
AcDbEntity
  8
0
100
AcDbLine
 62
7
  6
BYLAYER
 10
12.664956772
 20
8.2498575822
 11
12.3821140595
 21
7.9670148697
  0
LINE
  5
2A4
100
AcDbEntity
  8
0
100
AcDbLine
 62
7
  6
BYLAYER
 10
9.6368021383
 20
23.7968428566
 11
9.3539594258
 21
24.079685569
  0
LINE
  5
2A5
100
AcDbEntity
  8
0
100
AcDbLine
 62
7
  6
BYLAYER
 10
12.2851287852
 20
21.2951695034
 11
12.0022860727
 21
21.5780122159
  0
LINE
  5
2A6
100
AcDbEntity
  8
0
100
AcDbLine
 62
7
  6
BYLAYER
 10
12.3821140595
 20
21.9578402027
 11
12.664956772
 21
21.6749974903
  0
LINE
  5
2A7
100
AcDbEntity
  8
0
100
AcDbLine
 62
7
  6
BYLAYER
 10
12.6933770756
 20
8.2214372786
 11
12.4105343632
 21
7.9385945661
  0
LINE
  5
2A8
100
AcDbEntity
  8
0
100
AcDbLine
 62
7
  6
BYLAYER
 10
8.9457111353
 20
3.4957013473
 11
9.7588839337
 21
4.3088741456
  0
LINE
  5
2A9
100
AcDbEntity
  8
0
100
AcDbLine
 62
7
  6
BYLAYER
 10
11.173097496
 20
5.723087708
 11
11.9862702944
 21
6.5362605064
  0
LINE
  5
2AA
100
AcDbEntity
  8
0
100
AcDbLine
 62
7
  6
BYLAYER
 10
12.4105343632
 20
21.9862605064
 11
12.6933770756
 21
21.7034177939
  0
LINE
  5
2AB
100
AcDbEntity
  8
0
100
AcDbLine
 62
7
  6
BYLAYER
 10
11.9862702944
 20
23.3885945661
 11
11.1730974961
 21
24.2017673645
  0
LINE
  5
2AC
100
AcDbEntity
  8
0
100
AcDbLine
 62
7
  6
BYLAYER
 10
9.7588839337
 20
25.6159809268
 11
8.9457111353
 21
26.4291537252
  0
LINE
  5
2AD
100
AcDbEntity
  8
0
100
AcDbLine
 62
7
  6
BYLAYER
 10
9.3539594258
 20
3.479685569
 11
8.9457111353
 21
3.0714372786
  0
LINE
  5
2AE
100
AcDbEntity
  8
0
100
AcDbLine
 62
7
  6
BYLAYER
 10
12.0022860727
 20
6.1280122159
 11
12.4105343632
 21
6.5362605064
  0
LINE
  5
2AF
100
AcDbEntity
  8
0
100
AcDbLine
 62
7
  6
BYLAYER
 10
9.2285538478
 20
2.7885945661
 11
9.6368021383
 21
3.1968428565
  0
LINE
  5
2B0
100
AcDbEntity
  8
0
100
AcDbLine
 62
7
  6
BYLAYER
 10
12.2851287852
 20
5.8451695034
 11
12.6933770756
 21
6.2534177939
  0
LINE
  5
2B1
100
AcDbEntity
  8
0
100
AcDbLine
 62
7
  6
BYLAYER
 10
12.9445439906
 20
22.3874275362
 11
8.6945439906
 21
22.3874275362
  0
LINE
  5
2B2
100
AcDbEntity
  8
0
100
AcDbLine
 62
7
  6
BYLAYER
 10
9.1945439906
 20
22.6874275362
 11
12.4445439906
 21
22.6874275362
  0
LINE
  5
2B3
100
AcDbEntity
  8
0
100
AcDbLine
 62
7
  6
BYLAYER
 10
12.4105343632
 20
23.3885945661
 11
12.0022860727
 21
23.7968428565
  0
LINE
  5
2B4
100
AcDbEntity
  8
0
100
AcDbLine
 62
7
  6
BYLAYER
 10
9.3539594258
 20
26.4451695034
 11
8.9457111353
 21
26.8534177939
  0
LINE
  5
2B5
100
AcDbEntity
  8
0
100
AcDbLine
 62
7
  6
BYLAYER
 10
12.6933770756
 20
23.6714372786
 11
12.2851287852
 21
24.079685569
  0
LINE
  5
2B6
100
AcDbEntity
  8
0
100
AcDbLine
 62
7
  6
BYLAYER
 10
9.6368021383
 20
26.7280122159
 11
9.2285538478
 21
27.1362605064
  0
LINE
  5
2B7
100
AcDbEntity
  8
0
100
AcDbLine
 62
7
  6
BYLAYER
 10
9.6528179165
 20
2.7885945661
 11
10.4659907149
 21
3.6017673645
  0
LINE
  5
2B8
100
AcDbEntity
  8
0
100
AcDbLine
 62
7
  6
BYLAYER
 10
11.8802042772
 20
5.0159809268
 11
12.6933770756
 21
5.8291537252
  0
LINE
  5
2B9
100
AcDbEntity
  8
0
100
AcDbLine
 62
7
  6
BYLAYER
 10
8.6945439906
 20
22.9874275362
 11
12.9445439906
 21
22.9874275362
  0
LINE
  5
2BA
100
AcDbEntity
  8
0
100
AcDbLine
 62
7
  6
BYLAYER
 10
12.6933770756
 20
24.0957013473
 11
11.8802042772
 21
24.9088741457
  0
LINE
  5
2BB
100
AcDbEntity
  8
0
100
AcDbLine
 62
7
  6
BYLAYER
 10
10.4659907149
 20
26.323087708
 11
9.6528179165
 21
27.1362605064
  0
LINE
  5
2BC
100
AcDbEntity
  8
0
100
AcDbLine
 62
7
  6
BYLAYER
 10
12.0022860727
 20
3.1968428565
 11
12.2851287852
 21
3.479685569
  0
LINE
  5
2BD
100
AcDbEntity
  8
0
100
AcDbLine
 62
7
  6
BYLAYER
 10
12.2851287852
 20
26.4451695034
 11
12.0022860727
 21
26.7280122159
  0
LINE
  5
2BE
100
AcDbEntity
  8
0
100
AcDbLine
 62
7
  6
BYLAYER
 10
12.664956772
 20
3.0998575822
 11
12.3821140595
 21
2.8170148697
  0
LINE
  5
2BF
100
AcDbEntity
  8
0
100
AcDbLine
 62
7
  6
BYLAYER
 10
12.6933770756
 20
3.0714372786
 11
12.4105343632
 21
2.7885945661
  0
LINE
  5
2C0
100
AcDbEntity
  8
0
100
AcDbLine
 62
7
  6
BYLAYER
 10
12.3821140595
 20
27.1078402027
 11
12.664956772
 21
26.8249974903
  0
LINE
  5
2C1
100
AcDbEntity
  8
0
100
AcDbLine
 62
7
  6
BYLAYER
 10
12.4105343632
 20
27.1362605064
 11
12.6933770756
 21
26.8534177939
  0
LINE
  5
2C2
100
AcDbEntity
  8
0
100
AcDbLine
 62
7
  6
BYLAYER
 10
12.9445439906
 20
27.5374275362
 11
8.6945439906
 21
27.5374275362
  0
ARC
  5
2C3
100
AcDbEntity
  8
0
100
AcDbCircle
 62
7
  6
BYLAYER
 10
9.4053305431
 20
4.6624275362
 40
0.5
100
AcDbArc
 50
315.0000000014
 51
45.0000000026
  0
ARC
  5
2C4
100
AcDbEntity
  8
0
100
AcDbCircle
 62
7
  6
BYLAYER
 10
9.4913889722
 20
8.1948836792
 40
0.3262723743
100
AcDbArc
 50
244.7777429785
 51
245.7637213486
  0
ARC
  5
2C5
100
AcDbEntity
  8
0
100
AcDbCircle
 62
7
  6
BYLAYER
 10
9.4913889722
 20
3.0448836792
 40
0.3262723742
100
AcDbArc
 50
244.7777429784
 51
245.7637213486
  0
ARC
  5
2C6
100
AcDbEntity
  8
0
100
AcDbCircle
 62
7
  6
BYLAYER
 10
9.1578431697
 20
3.2835693129
 40
0.3
100
AcDbArc
 50
135.0000000016
 51
224.9999999991
  0
ARC
  5
2C7
100
AcDbEntity
  8
0
100
AcDbCircle
 62
7
  6
BYLAYER
 10
9.4406858822
 20
3.0007266004
 40
0.3
100
AcDbArc
 50
225.0000000011
 51
315.0000000001
  0
ARC
  5
2C8
100
AcDbEntity
  8
0
100
AcDbCircle
 62
7
  6
BYLAYER
 10
9.4406858822
 20
6.324128472
 40
0.3
100
AcDbArc
 50
44.999999999
 51
134.9999999991
  0
ARC
  5
2C9
100
AcDbEntity
  8
0
100
AcDbCircle
 62
7
  6
BYLAYER
 10
9.1578431697
 20
6.0412857595
 40
0.3
100
AcDbArc
 50
134.999999998
 51
224.999999999
  0
ARC
  5
2CA
100
AcDbEntity
  8
0
100
AcDbCircle
 62
7
  6
BYLAYER
 10
9.4406858822
 20
8.1507266004
 40
0.3
100
AcDbArc
 50
225.0000000011
 51
315.0000000001
  0
ARC
  5
2CB
100
AcDbEntity
  8
0
100
AcDbCircle
 62
7
  6
BYLAYER
 10
9.1578431697
 20
8.4335693129
 40
0.3
100
AcDbArc
 50
135.0000000016
 51
224.9999999992
  0
ARC
  5
2CC
100
AcDbEntity
  8
0
100
AcDbCircle
 62
7
  6
BYLAYER
 10
9.4817389853
 20
6.34507235
 40
0.2596433247
100
AcDbArc
 50
79.3348367728
 51
85.9077071615
  0
ARC
  5
2CD
100
AcDbEntity
  8
0
100
AcDbCircle
 62
7
  6
BYLAYER
 10
9.4053305431
 20
14.9624275362
 40
0.5
100
AcDbArc
 50
314.9999999998
 51
45.0000000026
  0
ARC
  5
2CE
100
AcDbEntity
  8
0
100
AcDbCircle
 62
7
  6
BYLAYER
 10
9.4053305431
 20
9.8124275362
 40
0.5
100
AcDbArc
 50
314.9999999998
 51
45.0000000026
  0
ARC
  5
2CF
100
AcDbEntity
  8
0
100
AcDbCircle
 62
7
  6
BYLAYER
 10
9.4913889723
 20
13.3448836793
 40
0.3262723743
100
AcDbArc
 50
244.7777429785
 51
245.7637213485
  0
ARC
  5
2D0
100
AcDbEntity
  8
0
100
AcDbCircle
 62
7
  6
BYLAYER
 10
9.4406858822
 20
11.474128472
 40
0.3
100
AcDbArc
 50
44.999999999
 51
134.9999999991
  0
ARC
  5
2D1
100
AcDbEntity
  8
0
100
AcDbCircle
 62
7
  6
BYLAYER
 10
9.1578431697
 20
11.1912857595
 40
0.3
100
AcDbArc
 50
134.999999998
 51
224.999999999
  0
ARC
  5
2D2
100
AcDbEntity
  8
0
100
AcDbCircle
 62
7
  6
BYLAYER
 10
9.1578431697
 20
13.5835693129
 40
0.3
100
AcDbArc
 50
135.0000000016
 51
224.9999999991
  0
ARC
  5
2D3
100
AcDbEntity
  8
0
100
AcDbCircle
 62
7
  6
BYLAYER
 10
9.4406858822
 20
13.3007266004
 40
0.3
100
AcDbArc
 50
225.0000000011
 51
315.0000000001
  0
ARC
  5
2D4
100
AcDbEntity
  8
0
100
AcDbCircle
 62
7
  6
BYLAYER
 10
9.4817389853
 20
11.49507235
 40
0.2596433247
100
AcDbArc
 50
79.3348367728
 51
85.9077071615
  0
ARC
  5
2D5
100
AcDbEntity
  8
0
100
AcDbCircle
 62
7
  6
BYLAYER
 10
10.8195441055
 20
6.0766410986
 40
0.5
100
AcDbArc
 50
224.9999999929
 51
314.9999999936
  0
ARC
  5
2D6
100
AcDbEntity
  8
0
100
AcDbCircle
 62
7
  6
BYLAYER
 10
10.8195441055
 20
3.2482139739
 40
0.5
100
AcDbArc
 50
45.0000000063
 51
134.9999999922
  0
ARC
  5
2D7
100
AcDbEntity
  8
0
100
AcDbCircle
 62
7
  6
BYLAYER
 10
10.8195441055
 20
8.3982139739
 40
0.5
100
AcDbArc
 50
45.0000000063
 51
134.9999999922
  0
ARC
  5
2D8
100
AcDbEntity
  8
0
100
AcDbCircle
 62
7
  6
BYLAYER
 10
10.8195441055
 20
11.2266410986
 40
0.5
100
AcDbArc
 50
224.9999999929
 51
314.9999999936
  0
ARC
  5
2D9
100
AcDbEntity
  8
0
100
AcDbCircle
 62
7
  6
BYLAYER
 10
10.8195441055
 20
13.5482139739
 40
0.5
100
AcDbArc
 50
45.0000000036
 51
134.9999999922
  0
ARC
  5
2DA
100
AcDbEntity
  8
0
100
AcDbCircle
 62
7
  6
BYLAYER
 10
9.4053305431
 20
20.1124275362
 40
0.5
100
AcDbArc
 50
314.9999999986
 51
45.0000000033
  0
ARC
  5
2DB
100
AcDbEntity
  8
0
100
AcDbCircle
 62
7
  6
BYLAYER
 10
9.4913889722
 20
18.4948836792
 40
0.3262723742
100
AcDbArc
 50
244.7777429781
 51
245.7637213485
  0
ARC
  5
2DC
100
AcDbEntity
  8
0
100
AcDbCircle
 62
7
  6
BYLAYER
 10
9.1578431697
 20
21.4912857595
 40
0.3
100
AcDbArc
 50
134.9999999986
 51
224.999999999
  0
ARC
  5
2DD
100
AcDbEntity
  8
0
100
AcDbCircle
 62
7
  6
BYLAYER
 10
9.1578431697
 20
18.7335693129
 40
0.3
100
AcDbArc
 50
135.0000000016
 51
224.9999999999
  0
ARC
  5
2DE
100
AcDbEntity
  8
0
100
AcDbCircle
 62
7
  6
BYLAYER
 10
9.4406858822
 20
18.4507266004
 40
0.3
100
AcDbArc
 50
225.0000000016
 51
315.0000000007
  0
ARC
  5
2DF
100
AcDbEntity
  8
0
100
AcDbCircle
 62
7
  6
BYLAYER
 10
9.1578431697
 20
16.3412857595
 40
0.3
100
AcDbArc
 50
134.999999998
 51
224.999999999
  0
ARC
  5
2E0
100
AcDbEntity
  8
0
100
AcDbCircle
 62
7
  6
BYLAYER
 10
9.4406858822
 20
16.624128472
 40
0.3
100
AcDbArc
 50
44.999999999
 51
134.9999999991
  0
ARC
  5
2E1
100
AcDbEntity
  8
0
100
AcDbCircle
 62
7
  6
BYLAYER
 10
9.4817389853
 20
16.64507235
 40
0.2596433247
100
AcDbArc
 50
79.3348367728
 51
85.9077071615
  0
ARC
  5
2E2
100
AcDbEntity
  8
0
100
AcDbCircle
 62
7
  6
BYLAYER
 10
9.4053305431
 20
25.2624275362
 40
0.5
100
AcDbArc
 50
314.9999999972
 51
45.0000000033
  0
ARC
  5
2E3
100
AcDbEntity
  8
0
100
AcDbCircle
 62
7
  6
BYLAYER
 10
9.1578431697
 20
26.6412857595
 40
0.3
100
AcDbArc
 50
134.9999999986
 51
224.9999999989
  0
ARC
  5
2E4
100
AcDbEntity
  8
0
100
AcDbCircle
 62
7
  6
BYLAYER
 10
9.4406858822
 20
26.924128472
 40
0.3
100
AcDbArc
 50
44.9999999993
 51
134.9999999997
  0
ARC
  5
2E5
100
AcDbEntity
  8
0
100
AcDbCircle
 62
7
  6
BYLAYER
 10
9.1578431697
 20
23.8835693129
 40
0.3
100
AcDbArc
 50
135.0000000016
 51
224.9999999998
  0
ARC
  5
2E6
100
AcDbEntity
  8
0
100
AcDbCircle
 62
7
  6
BYLAYER
 10
9.4406858822
 20
23.6007266004
 40
0.3
100
AcDbArc
 50
225.0000000017
 51
315.0000000007
  0
ARC
  5
2E7
100
AcDbEntity
  8
0
100
AcDbCircle
 62
7
  6
BYLAYER
 10
9.4406858822
 20
21.774128472
 40
0.3
100
AcDbArc
 50
44.9999999993
 51
134.9999999997
  0
ARC
  5
2E8
100
AcDbEntity
  8
0
100
AcDbCircle
 62
7
  6
BYLAYER
 10
9.4817389853
 20
21.79507235
 40
0.2596433247
100
AcDbArc
 50
79.3348367726
 51
85.9077071614
  0
ARC
  5
2E9
100
AcDbEntity
  8
0
100
AcDbCircle
 62
7
  6
BYLAYER
 10
9.4817389853
 20
26.94507235
 40
0.2596433247
100
AcDbArc
 50
79.3348367727
 51
85.9077071615
  0
ARC
  5
2EA
100
AcDbEntity
  8
0
100
AcDbCircle
 62
7
  6
BYLAYER
 10
10.8195441055
 20
18.6982139739
 40
0.5
100
AcDbArc
 50
45.0000000041
 51
134.9999999928
  0
ARC
  5
2EB
100
AcDbEntity
  8
0
100
AcDbCircle
 62
7
  6
BYLAYER
 10
10.8195441055
 20
21.5266410986
 40
0.5
100
AcDbArc
 50
224.9999999969
 51
314.9999999937
  0
ARC
  5
2EC
100
AcDbEntity
  8
0
100
AcDbCircle
 62
7
  6
BYLAYER
 10
10.8195441055
 20
16.3766410986
 40
0.5
100
AcDbArc
 50
224.9999999929
 51
314.9999999936
  0
ARC
  5
2ED
100
AcDbEntity
  8
0
100
AcDbCircle
 62
7
  6
BYLAYER
 10
10.8195441055
 20
23.8482139739
 40
0.5
100
AcDbArc
 50
45.0000000041
 51
134.9999999929
  0
ARC
  5
2EE
100
AcDbEntity
  8
0
100
AcDbCircle
 62
7
  6
BYLAYER
 10
10.8195441055
 20
26.6766410986
 40
0.5
100
AcDbArc
 50
224.9999999956
 51
314.9999999936
  0
ARC
  5
2EF
100
AcDbEntity
  8
0
100
AcDbCircle
 62
7
  6
BYLAYER
 10
12.2337576679
 20
4.6624275362
 40
0.5
100
AcDbArc
 50
135.0000000085
 51
224.9999999933
  0
ARC
  5
2F0
100
AcDbEntity
  8
0
100
AcDbCircle
 62
7
  6
BYLAYER
 10
12.1984023288
 20
3.0007266004
 40
0.3
100
AcDbArc
 50
224.9999999991
 51
315.0000000011
  0
ARC
  5
2F1
100
AcDbEntity
  8
0
100
AcDbCircle
 62
7
  6
BYLAYER
 10
12.1984023288
 20
6.324128472
 40
0.3
100
AcDbArc
 50
44.9999999991
 51
135.0000000011
  0
ARC
  5
2F2
100
AcDbEntity
  8
0
100
AcDbCircle
 62
7
  6
BYLAYER
 10
12.1984023288
 20
8.1507266004
 40
0.3
100
AcDbArc
 50
224.9999999991
 51
315.0000000011
  0
ARC
  5
2F3
100
AcDbEntity
  8
0
100
AcDbCircle
 62
7
  6
BYLAYER
 10
12.2337576679
 20
14.9624275362
 40
0.5
100
AcDbArc
 50
135.0000000085
 51
224.9999999934
  0
ARC
  5
2F4
100
AcDbEntity
  8
0
100
AcDbCircle
 62
7
  6
BYLAYER
 10
12.2337576679
 20
9.8124275362
 40
0.5
100
AcDbArc
 50
135.0000000062
 51
224.9999999934
  0
ARC
  5
2F5
100
AcDbEntity
  8
0
100
AcDbCircle
 62
7
  6
BYLAYER
 10
12.1984023288
 20
11.474128472
 40
0.3
100
AcDbArc
 50
44.9999999991
 51
135.0000000011
  0
ARC
  5
2F6
100
AcDbEntity
  8
0
100
AcDbCircle
 62
7
  6
BYLAYER
 10
12.1984023288
 20
13.3007266004
 40
0.3
100
AcDbArc
 50
224.9999999991
 51
315.0000000011
  0
ARC
  5
2F7
100
AcDbEntity
  8
0
100
AcDbCircle
 62
7
  6
BYLAYER
 10
12.420414529
 20
8.4943830901
 40
0.3458231233
100
AcDbArc
 50
315.0019605681
 51
324.1584014842
  0
ARC
  5
2F8
100
AcDbEntity
  8
0
100
AcDbCircle
 62
7
  6
BYLAYER
 10
12.420414529
 20
3.3443830901
 40
0.3458231233
100
AcDbArc
 50
315.0019605681
 51
324.1584014842
  0
ARC
  5
2F9
100
AcDbEntity
  8
0
100
AcDbCircle
 62
7
  6
BYLAYER
 10
12.4252585296
 20
8.4907633253
 40
0.3397768619
100
AcDbArc
 50
324.1749160695
 51
328.5566681418
  0
ARC
  5
2FA
100
AcDbEntity
  8
0
100
AcDbCircle
 62
7
  6
BYLAYER
 10
12.4252585296
 20
3.3407633253
 40
0.3397768619
100
AcDbArc
 50
324.1749160694
 51
328.5566681418
  0
ARC
  5
2FB
100
AcDbEntity
  8
0
100
AcDbCircle
 62
7
  6
BYLAYER
 10
12.4363475038
 20
5.9902424076
 40
0.3270870536
100
AcDbArc
 50
24.0706011565
 51
26.0265033026
  0
ARC
  5
2FC
100
AcDbEntity
  8
0
100
AcDbCircle
 62
7
  6
BYLAYER
 10
12.4812450413
 20
3.2835693129
 40
0.3
100
AcDbArc
 50
314.9999999991
 51
44.9999999994
  0
ARC
  5
2FD
100
AcDbEntity
  8
0
100
AcDbCircle
 62
7
  6
BYLAYER
 10
12.4812450413
 20
6.0412857595
 40
0.3
100
AcDbArc
 50
315.0000000026
 51
45.0000000009
  0
ARC
  5
2FE
100
AcDbEntity
  8
0
100
AcDbCircle
 62
7
  6
BYLAYER
 10
12.4812450413
 20
8.4335693129
 40
0.3
100
AcDbArc
 50
314.9999999991
 51
44.9999999994
  0
ARC
  5
2FF
100
AcDbEntity
  8
0
100
AcDbCircle
 62
7
  6
BYLAYER
 10
12.5021889193
 20
6.0002326564
 40
0.2596433248
100
AcDbArc
 50
349.334836776
 51
355.9077071644
  0
ARC
  5
300
100
AcDbEntity
  8
0
100
AcDbCircle
 62
7
  6
BYLAYER
 10
12.4214540109
 20
13.6433920142
 40
0.3443873026
100
AcDbArc
 50
314.9962741909
 51
329.6319633283
  0
ARC
  5
301
100
AcDbEntity
  8
0
100
AcDbCircle
 62
7
  6
BYLAYER
 10
12.43160896
 20
13.6369613489
 40
0.3323748743
100
AcDbArc
 50
329.7034145777
 51
334.7608814005
  0
ARC
  5
302
100
AcDbEntity
  8
0
100
AcDbCircle
 62
7
  6
BYLAYER
 10
12.4812450413
 20
11.1912857595
 40
0.3
100
AcDbArc
 50
315.0000000026
 51
45.0000000011
  0
ARC
  5
303
100
AcDbEntity
  8
0
100
AcDbCircle
 62
7
  6
BYLAYER
 10
12.4812450413
 20
13.5835693129
 40
0.3
100
AcDbArc
 50
314.9999999991
 51
44.9999999994
  0
ARC
  5
304
100
AcDbEntity
  8
0
100
AcDbCircle
 62
7
  6
BYLAYER
 10
12.4817366641
 20
11.151211812
 40
0.2801315032
100
AcDbArc
 50
358.7361018796
 51
7.6521037845
  0
ARC
  5
305
100
AcDbEntity
  8
0
100
AcDbCircle
 62
7
  6
BYLAYER
 10
12.2337576679
 20
20.1124275362
 40
0.5
100
AcDbArc
 50
135.0000000041
 51
224.9999999952
  0
ARC
  5
306
100
AcDbEntity
  8
0
100
AcDbCircle
 62
7
  6
BYLAYER
 10
12.1984023288
 20
18.4507266004
 40
0.3
100
AcDbArc
 50
224.9999999994
 51
315.0000000006
  0
ARC
  5
307
100
AcDbEntity
  8
0
100
AcDbCircle
 62
7
  6
BYLAYER
 10
12.1984023288
 20
16.624128472
 40
0.3
100
AcDbArc
 50
44.9999999991
 51
135.0000000011
  0
ARC
  5
308
100
AcDbEntity
  8
0
100
AcDbCircle
 62
7
  6
BYLAYER
 10
12.2337576679
 20
25.2624275362
 40
0.5
100
AcDbArc
 50
135.0000000069
 51
224.9999999952
  0
ARC
  5
309
100
AcDbEntity
  8
0
100
AcDbCircle
 62
7
  6
BYLAYER
 10
12.1984023288
 20
26.924128472
 40
0.3
100
AcDbArc
 50
44.9999999995
 51
135.0000000006
  0
ARC
  5
30A
100
AcDbEntity
  8
0
100
AcDbCircle
 62
7
  6
BYLAYER
 10
12.1984023288
 20
23.6007266004
 40
0.3
100
AcDbArc
 50
224.9999999994
 51
315.0000000006
  0
ARC
  5
30B
100
AcDbEntity
  8
0
100
AcDbCircle
 62
7
  6
BYLAYER
 10
12.1984023288
 20
21.774128472
 40
0.3
100
AcDbArc
 50
44.9999999995
 51
135.0000000006
  0
ARC
  5
30C
100
AcDbEntity
  8
0
100
AcDbCircle
 62
7
  6
BYLAYER
 10
12.4214540109
 20
18.7933920142
 40
0.3443873026
100
AcDbArc
 50
314.99627419
 51
329.6319633291
  0
ARC
  5
30D
100
AcDbEntity
  8
0
100
AcDbCircle
 62
7
  6
BYLAYER
 10
12.43160896
 20
18.7869613489
 40
0.3323748743
100
AcDbArc
 50
329.7034145777
 51
334.7608813999
  0
ARC
  5
30E
100
AcDbEntity
  8
0
100
AcDbCircle
 62
7
  6
BYLAYER
 10
12.4363475038
 20
21.4402424076
 40
0.3270870536
100
AcDbArc
 50
24.0706011566
 51
26.0265033023
  0
ARC
  5
30F
100
AcDbEntity
  8
0
100
AcDbCircle
 62
7
  6
BYLAYER
 10
12.4363475038
 20
16.2902424077
 40
0.3270870536
100
AcDbArc
 50
24.0706011564
 51
26.0265033027
  0
ARC
  5
310
100
AcDbEntity
  8
0
100
AcDbCircle
 62
7
  6
BYLAYER
 10
12.4812450413
 20
21.4912857595
 40
0.3
100
AcDbArc
 50
315.0000000019
 51
45.0000000004
  0
ARC
  5
311
100
AcDbEntity
  8
0
100
AcDbCircle
 62
7
  6
BYLAYER
 10
12.4812450413
 20
18.7335693129
 40
0.3
100
AcDbArc
 50
314.9999999993
 51
44.9999999991
  0
ARC
  5
312
100
AcDbEntity
  8
0
100
AcDbCircle
 62
7
  6
BYLAYER
 10
12.4812450413
 20
16.3412857595
 40
0.3
100
AcDbArc
 50
315.0000000026
 51
45.000000001
  0
ARC
  5
313
100
AcDbEntity
  8
0
100
AcDbCircle
 62
7
  6
BYLAYER
 10
12.5021889193
 20
21.4502326564
 40
0.2596433248
100
AcDbArc
 50
349.3348367756
 51
355.907707164
  0
ARC
  5
314
100
AcDbEntity
  8
0
100
AcDbCircle
 62
7
  6
BYLAYER
 10
12.5021889193
 20
16.3002326564
 40
0.2596433247
100
AcDbArc
 50
349.3348367759
 51
355.9077071644
  0
ARC
  5
315
100
AcDbEntity
  8
0
100
AcDbCircle
 62
7
  6
BYLAYER
 10
12.4214540109
 20
23.9433920142
 40
0.3443873026
100
AcDbArc
 50
314.9962741909
 51
329.6319633284
  0
ARC
  5
316
100
AcDbEntity
  8
0
100
AcDbCircle
 62
7
  6
BYLAYER
 10
12.43160896
 20
23.9369613489
 40
0.3323748743
100
AcDbArc
 50
329.7034145777
 51
334.7608814002
  0
ARC
  5
317
100
AcDbEntity
  8
0
100
AcDbCircle
 62
7
  6
BYLAYER
 10
12.4363475038
 20
26.5902424076
 40
0.3270870536
100
AcDbArc
 50
24.0706011567
 51
26.0265033022
  0
ARC
  5
318
100
AcDbEntity
  8
0
100
AcDbCircle
 62
7
  6
BYLAYER
 10
12.4812450413
 20
26.6412857595
 40
0.3
100
AcDbArc
 50
315.0000000019
 51
45.0000000004
  0
ARC
  5
319
100
AcDbEntity
  8
0
100
AcDbCircle
 62
7
  6
BYLAYER
 10
12.4812450413
 20
23.8835693129
 40
0.3
100
AcDbArc
 50
314.9999999992
 51
44.9999999994
  0
ARC
  5
31A
100
AcDbEntity
  8
0
100
AcDbCircle
 62
7
  6
BYLAYER
 10
12.5021889193
 20
26.6002326564
 40
0.2596433248
100
AcDbArc
 50
349.3348367752
 51
355.9077071637
  0
SPLINE
  5
31B
100
AcDbEntity
  8
0
100
AcDbSpline
 62
7
  6
BYLAYER
 70
0
 71
3
 72
11
 73
7
 74
0
 42
0.0000001
 43
0.0000001
 44
0.0000000001
 40
0.0
 40
0.0
 40
0.0
 40
0.0
 40
0.2465706227
 40
0.4945909619
 40
0.7453714525
 40
1.0
 40
1.0
 40
1.0
 40
1.0
 10
9.6528179165
 20
6.5362605064
 30
0.0
 10
9.6446441514
 20
6.5444342715
 30
0.0
 10
9.6269507314
 20
6.5595871379
 30
0.0
 10
9.5971319794
 20
6.5780543661
 30
0.0
 10
9.5645326931
 20
6.5919784386
 30
0.0
 10
9.5415214546
 20
6.5980186073
 30
0.0
 10
9.5297909512
 20
6.600230467
 30
0.0
  0
SPLINE
  5
31C
100
AcDbEntity
  8
0
100
AcDbSpline
 62
7
  6
BYLAYER
 70
0
 71
3
 72
9
 73
5
 74
0
 42
0.0000001
 43
0.0000001
 44
0.0000000001
 40
0.0
 40
0.0
 40
0.0
 40
0.0
 40
0.2469004396
 40
1.0
 40
1.0
 40
1.0
 40
1.0
 10
9.5002679827
 20
6.6040536859
 30
0.0
 10
9.4946009784
 20
6.6044627782
 30
0.0
 10
9.4715995128
 20
6.6053873523
 30
0.0
 10
9.4484960675
 20
6.6033967363
 30
0.0
 10
9.4314264739
 20
6.6004004944
 30
0.0
  0
SPLINE
  5
31D
100
AcDbEntity
  8
0
100
AcDbSpline
 62
7
  6
BYLAYER
 70
0
 71
3
 72
9
 73
5
 74
0
 42
0.0000001
 43
0.0000001
 44
0.0000000001
 40
0.0
 40
0.0
 40
0.0
 40
0.0
 40
0.4930626388
 40
1.0
 40
1.0
 40
1.0
 40
1.0
 10
9.4314264739
 20
6.6004004944
 30
0.0
 10
9.3990849466
 20
6.5947235557
 30
0.0
 10
9.3351010891
 20
6.5721710475
 30
0.0
 10
9.2808460674
 20
6.5317121187
 30
0.0
 10
9.2569741515
 20
6.5078402027
 30
0.0
  0
SPLINE
  5
31E
100
AcDbEntity
  8
0
100
AcDbSpline
 62
7
  6
BYLAYER
 70
0
 71
3
 72
11
 73
7
 74
0
 42
0.0000001
 43
0.0000001
 44
0.0000000001
 40
0.0
 40
0.0
 40
0.0
 40
0.0
 40
0.2465706227
 40
0.4945909619
 40
0.7453714525
 40
1.0
 40
1.0
 40
1.0
 40
1.0
 10
9.6528179165
 20
21.9862605064
 30
0.0
 10
9.6446441514
 20
21.9944342715
 30
0.0
 10
9.6269507314
 20
22.0095871379
 30
0.0
 10
9.5971319794
 20
22.0280543661
 30
0.0
 10
9.5645326931
 20
22.0419784386
 30
0.0
 10
9.5415214546
 20
22.0480186073
 30
0.0
 10
9.5297909512
 20
22.050230467
 30
0.0
  0
SPLINE
  5
31F
100
AcDbEntity
  8
0
100
AcDbSpline
 62
7
  6
BYLAYER
 70
0
 71
3
 72
9
 73
5
 74
0
 42
0.0000001
 43
0.0000001
 44
0.0000000001
 40
0.0
 40
0.0
 40
0.0
 40
0.0
 40
0.2469004396
 40
1.0
 40
1.0
 40
1.0
 40
1.0
 10
9.5002679827
 20
22.0540536859
 30
0.0
 10
9.4946009784
 20
22.0544627782
 30
0.0
 10
9.4715995129
 20
22.0553873523
 30
0.0
 10
9.4484960675
 20
22.0533967363
 30
0.0
 10
9.4314264739
 20
22.0504004944
 30
0.0
  0
SPLINE
  5
320
100
AcDbEntity
  8
0
100
AcDbSpline
 62
7
  6
BYLAYER
 70
0
 71
3
 72
9
 73
5
 74
0
 42
0.0000001
 43
0.0000001
 44
0.0000000001
 40
0.0
 40
0.0
 40
0.0
 40
0.0
 40
0.4930626388
 40
1.0
 40
1.0
 40
1.0
 40
1.0
 10
9.4314264739
 20
22.0504004944
 30
0.0
 10
9.3990849466
 20
22.0447235557
 30
0.0
 10
9.3351010891
 20
22.0221710475
 30
0.0
 10
9.2808460674
 20
21.9817121187
 30
0.0
 10
9.2569741515
 20
21.9578402027
 30
0.0
  0
SPLINE
  5
321
100
AcDbEntity
  8
0
100
AcDbSpline
 62
7
  6
BYLAYER
 70
0
 71
3
 72
11
 73
7
 74
0
 42
0.0000001
 43
0.0000001
 44
0.0000000001
 40
0.0
 40
0.0
 40
0.0
 40
0.0
 40
0.259786201
 40
0.511845914
 40
0.7576560104
 40
1.0
 40
1.0
 40
1.0
 40
1.0
 10
8.8800971398
 20
6.0412857595
 30
0.0
 10
8.8772831543
 20
6.0215878615
 30
0.0
 10
8.8757033528
 20
5.9820644667
 30
0.0
 10
8.8862571778
 20
5.9245018737
 30
0.0
 10
8.9093519761
 20
5.8721468027
 30
0.0
 10
8.932585872
 20
5.8422789885
 30
0.0
 10
8.9457111354
 20
5.8291537252
 30
0.0
  0
SPLINE
  5
322
100
AcDbEntity
  8
0
100
AcDbSpline
 62
7
  6
BYLAYER
 70
0
 71
3
 72
11
 73
7
 74
0
 42
0.0000001
 43
0.0000001
 44
0.0000000001
 40
0.0
 40
0.0
 40
0.0
 40
0.0
 40
0.2423441451
 40
0.4881543081
 40
0.7402139819
 40
1.0
 40
1.0
 40
1.0
 40
1.0
 10
11.9862702944
 20
23.3885945661
 30
0.0
 10
11.9993955662
 20
23.3754692943
 30
0.0
 10
12.0292633966
 20
23.3522353905
 30
0.0
 10
12.0816184841
 20
23.3291405937
 30
0.0
 10
12.1391810677
 20
23.3185867844
 30
0.0
 10
12.1787044446
 20
23.3201665871
 30
0.0
 10
12.1984023288
 20
23.3229805705
 30
0.0
  0
SPLINE
  5
323
100
AcDbEntity
  8
0
100
AcDbSpline
 62
7
  6
BYLAYER
 70
0
 71
3
 72
11
 73
7
 74
0
 42
0.0000001
 43
0.0000001
 44
0.0000000001
 40
0.0
 40
0.0
 40
0.0
 40
0.0
 40
0.2436774618
 40
0.4925299857
 40
0.7452647728
 40
1.0
 40
1.0
 40
1.0
 40
1.0
 10
12.1984023288
 20
23.3229805705
 30
0.0
 10
12.2152655272
 20
23.3253895989
 30
0.0
 10
12.2489844327
 20
23.333257652
 30
0.0
 10
12.2972871821
 20
23.3533515671
 30
0.0
 10
12.3424555923
 20
23.3812345219
 30
0.0
 10
12.369522325
 20
23.4044231352
 30
0.0
 10
12.3821140595
 20
23.4170148697
 30
0.0
  0
SPLINE
  5
324
100
AcDbEntity
  8
0
100
AcDbSpline
 62
7
  6
BYLAYER
 70
0
 71
3
 72
9
 73
5
 74
0
 42
0.0000001
 43
0.0000001
 44
0.0000000001
 40
0.0
 40
0.0
 40
0.0
 40
0.0
 40
0.503644211
 40
1.0
 40
1.0
 40
1.0
 40
1.0
 10
12.7151413754
 20
8.3135170233
 30
0.0
 10
12.7229478037
 20
8.3262873889
 30
0.0
 10
12.7367750305
 20
8.352707357
 30
0.0
 10
12.7468594975
 20
8.3807788534
 30
0.0
 10
12.7508403861
 20
8.3949823099
 30
0.0
  0
SPLINE
  5
325
100
AcDbEntity
  8
0
100
AcDbSpline
 62
7
  6
BYLAYER
 70
0
 71
3
 72
9
 73
5
 74
0
 42
0.0000001
 43
0.0000001
 44
0.0000000001
 40
0.0
 40
0.0
 40
0.0
 40
0.0
 40
0.252851609
 40
1.0
 40
1.0
 40
1.0
 40
1.0
 10
12.7508403861
 20
8.3949823099
 30
0.0
 10
12.7522347906
 20
8.3999574214
 30
0.0
 10
12.7572534314
 20
8.4197681846
 30
0.0
 10
12.7602608274
 20
8.4400957509
 30
0.0
 10
12.7612634443
 20
8.4553301925
 30
0.0
  0
SPLINE
  5
326
100
AcDbEntity
  8
0
100
AcDbSpline
 62
7
  6
BYLAYER
 70
0
 71
3
 72
9
 73
5
 74
0
 42
0.0000001
 43
0.0000001
 44
0.0000000001
 40
0.0
 40
0.0
 40
0.0
 40
0.0
 40
0.2537015239
 40
1.0
 40
1.0
 40
1.0
 40
1.0
 10
12.7612634443
 20
8.4553301925
 30
0.0
 10
12.7616552171
 20
8.4612830528
 30
0.0
 10
12.7624556143
 20
8.4847881576
 30
0.0
 10
12.7602286057
 20
8.5084118028
 30
0.0
 10
12.756774572
 20
8.5256175833
 30
0.0
  0
SPLINE
  5
327
100
AcDbEntity
  8
0
100
AcDbSpline
 62
7
  6
BYLAYER
 70
0
 71
3
 72
9
 73
5
 74
0
 42
0.0000001
 43
0.0000001
 44
0.0000000001
 40
0.0
 40
0.0
 40
0.0
 40
0.0
 40
0.5051357714
 40
1.0
 40
1.0
 40
1.0
 40
1.0
 10
12.756774572
 20
8.5256175833
 30
0.0
 10
12.7522250396
 20
8.5482804356
 30
0.0
 10
12.7369463793
 20
8.592170629
 30
0.0
 10
12.709389489
 20
8.6296889339
 30
0.0
 10
12.6933770756
 20
8.6457013473
 30
0.0
  0
SPLINE
  5
328
100
AcDbEntity
  8
0
100
AcDbSpline
 62
7
  6
BYLAYER
 70
0
 71
3
 72
11
 73
7
 74
0
 42
0.0000001
 43
0.0000001
 44
0.0000000001
 40
0.0
 40
0.0
 40
0.0
 40
0.0
 40
0.2421869229
 40
0.4880567034
 40
0.7402356096
 40
1.0
 40
1.0
 40
1.0
 40
1.0
 10
8.9457111353
 20
18.9457013473
 30
0.0
 10
8.93259456
 20
18.9325847719
 30
0.0
 10
8.9093824042
 20
18.9027139973
 30
0.0
 10
8.8862427485
 20
18.8503766381
 30
0.0
 10
8.875724161
 20
18.7927939536
 30
0.0
 10
8.8772834295
 20
18.7532652851
 30
0.0
 10
8.8800971398
 20
18.7335693129
 30
0.0
  0
SPLINE
  5
329
100
AcDbEntity
  8
0
100
AcDbSpline
 62
7
  6
BYLAYER
 70
0
 71
3
 72
9
 73
5
 74
0
 42
0.0000001
 43
0.0000001
 44
0.0000000001
 40
0.0
 40
0.0
 40
0.0
 40
0.0
 40
0.4925803713
 40
1.0
 40
1.0
 40
1.0
 40
1.0
 10
8.8800971398
 20
18.7335693129
 30
0.0
 10
8.8849511832
 20
18.6995910091
 30
0.0
 10
8.9071065438
 20
18.6319957931
 30
0.0
 10
8.9491300682
 20
18.574858953
 30
0.0
 10
8.974131439
 20
18.5498575822
 30
0.0
  0
SPLINE
  5
32A
100
AcDbEntity
  8
0
100
AcDbSpline
 62
7
  6
BYLAYER
 70
0
 71
3
 72
9
 73
5
 74
0
 42
0.0000001
 43
0.0000001
 44
0.0000000001
 40
0.0
 40
0.0
 40
0.0
 40
0.0
 40
0.5024433754
 40
1.0
 40
1.0
 40
1.0
 40
1.0
 10
9.2569741515
 20
18.2670148697
 30
0.0
 10
9.2708497173
 20
18.2531393039
 30
0.0
 10
9.3008661663
 20
18.2278224491
 30
0.0
 10
9.3347747072
 20
18.2079981404
 30
0.0
 10
9.3523542817
 20
18.1997175954
 30
0.0
  0
SPLINE
  5
32B
100
AcDbEntity
  8
0
100
AcDbSpline
 62
7
  6
BYLAYER
 70
0
 71
3
 72
9
 73
5
 74
0
 42
0.0000001
 43
0.0000001
 44
0.0000000001
 40
0.0
 40
0.0
 40
0.0
 40
0.0
 40
0.5047901033
 40
1.0
 40
1.0
 40
1.0
 40
1.0
 10
9.3574540029
 20
18.1973688289
 30
0.0
 10
9.3712668155
 20
18.1911506854
 30
0.0
 10
9.3995262825
 20
18.1807229736
 30
0.0
 10
9.4290121519
 20
18.1745057213
 30
0.0
 10
9.4437446566
 20
18.1725601024
 30
0.0
  0
SPLINE
  5
32C
100
AcDbEntity
  8
0
100
AcDbSpline
 62
7
  6
BYLAYER
 70
0
 71
3
 72
11
 73
7
 74
0
 42
0.0000001
 43
0.0000001
 44
0.0000000001
 40
0.0
 40
0.0
 40
0.0
 40
0.0
 40
0.2596244799
 40
0.5116238584
 40
0.7574906043
 40
1.0
 40
1.0
 40
1.0
 40
1.0
 10
9.4437446566
 20
18.1725601024
 30
0.0
 10
9.463195661
 20
18.1699913443
 30
0.0
 10
9.5021805885
 20
18.1688095353
 30
0.0
 10
9.5588737343
 20
18.1796341624
 30
0.0
 10
9.6104221853
 20
18.2026619099
 30
0.0
 10
9.639859125
 20
18.2256357745
 30
0.0
 10
9.6528179165
 20
18.2385945661
 30
0.0
  0
SPLINE
  5
32D
100
AcDbEntity
  8
0
100
AcDbSpline
 62
7
  6
BYLAYER
 70
0
 71
3
 72
11
 73
7
 74
0
 42
0.0000001
 43
0.0000001
 44
0.0000000001
 40
0.0
 40
0.0
 40
0.0
 40
0.0
 40
0.2436774618
 40
0.4925299857
 40
0.7452647728
 40
1.0
 40
1.0
 40
1.0
 40
1.0
 10
12.1984023288
 20
7.8729805705
 30
0.0
 10
12.2152655272
 20
7.8753895989
 30
0.0
 10
12.2489844327
 20
7.883257652
 30
0.0
 10
12.2972871821
 20
7.9033515671
 30
0.0
 10
12.3424555923
 20
7.9312345219
 30
0.0
 10
12.369522325
 20
7.9544231352
 30
0.0
 10
12.3821140595
 20
7.9670148697
 30
0.0
  0
SPLINE
  5
32E
100
AcDbEntity
  8
0
100
AcDbSpline
 62
7
  6
BYLAYER
 70
0
 71
3
 72
9
 73
5
 74
0
 42
0.0000001
 43
0.0000001
 44
0.0000000001
 40
0.0
 40
0.0
 40
0.0
 40
0.0
 40
0.5050209309
 40
1.0
 40
1.0
 40
1.0
 40
1.0
 10
12.7322540463
 20
23.7952377124
 30
0.0
 10
12.7391135832
 20
23.8098004907
 30
0.0
 10
12.7505906399
 20
23.8396820849
 30
0.0
 10
12.7573458687
 20
23.8709865338
 30
0.0
 10
12.7594115393
 20
23.8866280874
 30
0.0
  0
SPLINE
  5
32F
100
AcDbEntity
  8
0
100
AcDbSpline
 62
7
  6
BYLAYER
 70
0
 71
3
 72
11
 73
7
 74
0
 42
0.0000001
 43
0.0000001
 44
0.0000000001
 40
0.0
 40
0.0
 40
0.0
 40
0.0
 40
0.2596244799
 40
0.5116238584
 40
0.7574906043
 40
1.0
 40
1.0
 40
1.0
 40
1.0
 10
12.7594115393
 20
23.8866280874
 30
0.0
 10
12.7619802974
 20
23.9060790918
 30
0.0
 10
12.7631621064
 20
23.9450640192
 30
0.0
 10
12.7523374793
 20
24.0017571651
 30
0.0
 10
12.7293097318
 20
24.0533056161
 30
0.0
 10
12.7063358672
 20
24.0827425557
 30
0.0
 10
12.6933770756
 20
24.0957013473
 30
0.0
  0
SPLINE
  5
330
100
AcDbEntity
  8
0
100
AcDbSpline
 62
7
  6
BYLAYER
 70
0
 71
3
 72
11
 73
7
 74
0
 42
0.0000001
 43
0.0000001
 44
0.0000000001
 40
0.0
 40
0.0
 40
0.0
 40
0.0
 40
0.2465706227
 40
0.4945909619
 40
0.7453714525
 40
1.0
 40
1.0
 40
1.0
 40
1.0
 10
12.6933770756
 20
21.2791537252
 30
0.0
 10
12.7015508407
 20
21.2873274903
 30
0.0
 10
12.7167037072
 20
21.3050209103
 30
0.0
 10
12.7351709353
 20
21.3348396624
 30
0.0
 10
12.7490950079
 20
21.3674389486
 30
0.0
 10
12.7551351765
 20
21.3904501871
 30
0.0
 10
12.7573470362
 20
21.4021806905
 30
0.0
  0
SPLINE
  5
331
100
AcDbEntity
  8
0
100
AcDbSpline
 62
7
  6
BYLAYER
 70
0
 71
3
 72
9
 73
5
 74
0
 42
0.0000001
 43
0.0000001
 44
0.0000000001
 40
0.0
 40
0.0
 40
0.0
 40
0.0
 40
0.2469004396
 40
1.0
 40
1.0
 40
1.0
 40
1.0
 10
12.7611702552
 20
21.431703659
 30
0.0
 10
12.7615793474
 20
21.4373706633
 30
0.0
 10
12.7625039215
 20
21.4603721289
 30
0.0
 10
12.7605133055
 20
21.4834755742
 30
0.0
 10
12.7575170637
 20
21.5005451678
 30
0.0
  0
SPLINE
  5
332
100
AcDbEntity
  8
0
100
AcDbSpline
 62
7
  6
BYLAYER
 70
0
 71
3
 72
9
 73
5
 74
0
 42
0.0000001
 43
0.0000001
 44
0.0000000001
 40
0.0
 40
0.0
 40
0.0
 40
0.0
 40
0.2471742663
 40
1.0
 40
1.0
 40
1.0
 40
1.0
 10
12.7575170637
 20
21.5005451678
 30
0.0
 10
12.7564258691
 20
21.506761705
 30
0.0
 10
12.7512098758
 20
21.531766783
 30
0.0
 10
12.7428322827
 20
21.5560968383
 30
0.0
 10
12.7349922363
 20
21.5736487958
 30
0.0
  0
SPLINE
  5
333
100
AcDbEntity
  8
0
100
AcDbSpline
 62
7
  6
BYLAYER
 70
0
 71
3
 72
9
 73
5
 74
0
 42
0.0000001
 43
0.0000001
 44
0.0000000001
 40
0.0
 40
0.0
 40
0.0
 40
0.0
 40
0.4977401145
 40
1.0
 40
1.0
 40
1.0
 40
1.0
 10
12.7302650429
 20
21.5837639072
 30
0.0
 10
12.7220692757
 20
21.6005489523
 30
0.0
 10
12.7026970655
 20
21.6329199723
 30
0.0
 10
12.6782848193
 20
21.6616694429
 30
0.0
 10
12.664956772
 20
21.6749974903
 30
0.0
  0
SPLINE
  5
334
100
AcDbEntity
  8
0
100
AcDbSpline
 62
7
  6
BYLAYER
 70
0
 71
3
 72
11
 73
7
 74
0
 42
0.0000001
 43
0.0000001
 44
0.0000000001
 40
0.0
 40
0.0
 40
0.0
 40
0.0
 40
0.2547352272
 40
0.5074700142
 40
0.7563225382
 40
1.0
 40
1.0
 40
1.0
 40
1.0
 10
8.974131439
 20
6.2249974903
 30
0.0
 10
8.9615397045
 20
6.2124057557
 30
0.0
 10
8.9383510911
 20
6.1853390231
 30
0.0
 10
8.9104681363
 20
6.1401706129
 30
0.0
 10
8.8903742212
 20
6.0918678635
 30
0.0
 10
8.8825061681
 20
6.0581489579
 30
0.0
 10
8.8800971398
 20
6.0412857595
 30
0.0
  0
SPLINE
  5
335
100
AcDbEntity
  8
0
100
AcDbSpline
 62
7
  6
BYLAYER
 70
0
 71
3
 72
11
 73
7
 74
0
 42
0.0000001
 43
0.0000001
 44
0.0000000001
 40
0.0
 40
0.0
 40
0.0
 40
0.0
 40
0.2423441451
 40
0.4881543081
 40
0.7402139819
 40
1.0
 40
1.0
 40
1.0
 40
1.0
 10
11.9862702944
 20
7.9385945661
 30
0.0
 10
11.9993955662
 20
7.9254692943
 30
0.0
 10
12.0292633966
 20
7.9022353905
 30
0.0
 10
12.0816184841
 20
7.8791405937
 30
0.0
 10
12.1391810677
 20
7.8685867844
 30
0.0
 10
12.1787044446
 20
7.8701665871
 30
0.0
 10
12.1984023288
 20
7.8729805705
 30
0.0
  0
SPLINE
  5
336
100
AcDbEntity
  8
0
100
AcDbSpline
 62
7
  6
BYLAYER
 70
0
 71
3
 72
11
 73
7
 74
0
 42
0.0000001
 43
0.0000001
 44
0.0000000001
 40
0.0
 40
0.0
 40
0.0
 40
0.0
 40
0.2547352272
 40
0.5074700142
 40
0.7563225382
 40
1.0
 40
1.0
 40
1.0
 40
1.0
 10
8.974131439
 20
26.8249974903
 30
0.0
 10
8.9615397045
 20
26.8124057557
 30
0.0
 10
8.9383510911
 20
26.7853390231
 30
0.0
 10
8.9104681363
 20
26.7401706129
 30
0.0
 10
8.8903742212
 20
26.6918678635
 30
0.0
 10
8.8825061681
 20
26.6581489579
 30
0.0
 10
8.8800971398
 20
26.6412857595
 30
0.0
  0
SPLINE
  5
337
100
AcDbEntity
  8
0
100
AcDbSpline
 62
7
  6
BYLAYER
 70
0
 71
3
 72
9
 73
5
 74
0
 42
0.0000001
 43
0.0000001
 44
0.0000000001
 40
0.0
 40
0.0
 40
0.0
 40
0.0
 40
0.5050209309
 40
1.0
 40
1.0
 40
1.0
 40
1.0
 10
12.7322540463
 20
18.6452377124
 30
0.0
 10
12.7391135832
 20
18.6598004907
 30
0.0
 10
12.7505906399
 20
18.6896820849
 30
0.0
 10
12.7573458687
 20
18.7209865338
 30
0.0
 10
12.7594115393
 20
18.7366280874
 30
0.0
  0
SPLINE
  5
338
100
AcDbEntity
  8
0
100
AcDbSpline
 62
7
  6
BYLAYER
 70
0
 71
3
 72
11
 73
7
 74
0
 42
0.0000001
 43
0.0000001
 44
0.0000000001
 40
0.0
 40
0.0
 40
0.0
 40
0.0
 40
0.2596244799
 40
0.5116238584
 40
0.7574906043
 40
1.0
 40
1.0
 40
1.0
 40
1.0
 10
12.7594115393
 20
18.7366280874
 30
0.0
 10
12.7619802974
 20
18.7560790918
 30
0.0
 10
12.7631621064
 20
18.7950640192
 30
0.0
 10
12.7523374793
 20
18.8517571651
 30
0.0
 10
12.7293097318
 20
18.9033056161
 30
0.0
 10
12.7063358672
 20
18.9327425557
 30
0.0
 10
12.6933770756
 20
18.9457013473
 30
0.0
  0
SPLINE
  5
339
100
AcDbEntity
  8
0
100
AcDbSpline
 62
7
  6
BYLAYER
 70
0
 71
3
 72
11
 73
7
 74
0
 42
0.0000001
 43
0.0000001
 44
0.0000000001
 40
0.0
 40
0.0
 40
0.0
 40
0.0
 40
0.259786201
 40
0.511845914
 40
0.7576560104
 40
1.0
 40
1.0
 40
1.0
 40
1.0
 10
8.8800971398
 20
26.6412857595
 30
0.0
 10
8.8772831543
 20
26.6215878615
 30
0.0
 10
8.8757033528
 20
26.5820644667
 30
0.0
 10
8.8862571778
 20
26.5245018737
 30
0.0
 10
8.9093519761
 20
26.4721468027
 30
0.0
 10
8.932585872
 20
26.4422789885
 30
0.0
 10
8.9457111354
 20
26.4291537252
 30
0.0
  0
SPLINE
  5
33A
100
AcDbEntity
  8
0
100
AcDbSpline
 62
7
  6
BYLAYER
 70
0
 71
3
 72
9
 73
5
 74
0
 42
0.0000001
 43
0.0000001
 44
0.0000000001
 40
0.0
 40
0.0
 40
0.0
 40
0.0
 40
0.5024433754
 40
1.0
 40
1.0
 40
1.0
 40
1.0
 10
9.2569741515
 20
7.9670148697
 30
0.0
 10
9.2708497173
 20
7.9531393039
 30
0.0
 10
9.3008661663
 20
7.9278224491
 30
0.0
 10
9.3347747072
 20
7.9079981404
 30
0.0
 10
9.3523542817
 20
7.8997175954
 30
0.0
  0
SPLINE
  5
33B
100
AcDbEntity
  8
0
100
AcDbSpline
 62
7
  6
BYLAYER
 70
0
 71
3
 72
9
 73
5
 74
0
 42
0.0000001
 43
0.0000001
 44
0.0000000001
 40
0.0
 40
0.0
 40
0.0
 40
0.0
 40
0.5047901033
 40
1.0
 40
1.0
 40
1.0
 40
1.0
 10
9.3574540029
 20
7.8973688289
 30
0.0
 10
9.3712668155
 20
7.8911506854
 30
0.0
 10
9.3995262825
 20
7.8807229736
 30
0.0
 10
9.4290121519
 20
7.8745057213
 30
0.0
 10
9.4437446566
 20
7.8725601024
 30
0.0
  0
SPLINE
  5
33C
100
AcDbEntity
  8
0
100
AcDbSpline
 62
7
  6
BYLAYER
 70
0
 71
3
 72
11
 73
7
 74
0
 42
0.0000001
 43
0.0000001
 44
0.0000000001
 40
0.0
 40
0.0
 40
0.0
 40
0.0
 40
0.2596244799
 40
0.5116238584
 40
0.7574906043
 40
1.0
 40
1.0
 40
1.0
 40
1.0
 10
9.4437446566
 20
7.8725601024
 30
0.0
 10
9.463195661
 20
7.8699913443
 30
0.0
 10
9.5021805885
 20
7.8688095353
 30
0.0
 10
9.5588737343
 20
7.8796341624
 30
0.0
 10
9.6104221853
 20
7.9026619099
 30
0.0
 10
9.639859125
 20
7.9256357745
 30
0.0
 10
9.6528179165
 20
7.9385945661
 30
0.0
  0
SPLINE
  5
33D
100
AcDbEntity
  8
0
100
AcDbSpline
 62
7
  6
BYLAYER
 70
0
 71
3
 72
11
 73
7
 74
0
 42
0.0000001
 43
0.0000001
 44
0.0000000001
 40
0.0
 40
0.0
 40
0.0
 40
0.0
 40
0.2465706227
 40
0.4945909619
 40
0.7453714525
 40
1.0
 40
1.0
 40
1.0
 40
1.0
 10
9.6528179165
 20
27.1362605064
 30
0.0
 10
9.6446441514
 20
27.1444342715
 30
0.0
 10
9.6269507314
 20
27.1595871379
 30
0.0
 10
9.5971319794
 20
27.1780543661
 30
0.0
 10
9.5645326931
 20
27.1919784386
 30
0.0
 10
9.5415214546
 20
27.1980186073
 30
0.0
 10
9.5297909512
 20
27.200230467
 30
0.0
  0
SPLINE
  5
33E
100
AcDbEntity
  8
0
100
AcDbSpline
 62
7
  6
BYLAYER
 70
0
 71
3
 72
9
 73
5
 74
0
 42
0.0000001
 43
0.0000001
 44
0.0000000001
 40
0.0
 40
0.0
 40
0.0
 40
0.0
 40
0.2469004396
 40
1.0
 40
1.0
 40
1.0
 40
1.0
 10
9.5002679827
 20
27.2040536859
 30
0.0
 10
9.4946009784
 20
27.2044627782
 30
0.0
 10
9.4715995129
 20
27.2053873523
 30
0.0
 10
9.4484960675
 20
27.2033967363
 30
0.0
 10
9.4314264739
 20
27.2004004944
 30
0.0
  0
SPLINE
  5
33F
100
AcDbEntity
  8
0
100
AcDbSpline
 62
7
  6
BYLAYER
 70
0
 71
3
 72
9
 73
5
 74
0
 42
0.0000001
 43
0.0000001
 44
0.0000000001
 40
0.0
 40
0.0
 40
0.0
 40
0.0
 40
0.4930626388
 40
1.0
 40
1.0
 40
1.0
 40
1.0
 10
9.4314264739
 20
27.2004004944
 30
0.0
 10
9.3990849466
 20
27.1947235557
 30
0.0
 10
9.3351010891
 20
27.1721710475
 30
0.0
 10
9.2808460674
 20
27.1317121187
 30
0.0
 10
9.2569741515
 20
27.1078402027
 30
0.0
  0
SPLINE
  5
340
100
AcDbEntity
  8
0
100
AcDbSpline
 62
7
  6
BYLAYER
 70
0
 71
3
 72
9
 73
5
 74
0
 42
0.0000001
 43
0.0000001
 44
0.0000000001
 40
0.0
 40
0.0
 40
0.0
 40
0.0
 40
0.4925803713
 40
1.0
 40
1.0
 40
1.0
 40
1.0
 10
8.8800971398
 20
8.4335693129
 30
0.0
 10
8.8849511832
 20
8.3995910091
 30
0.0
 10
8.9071065438
 20
8.3319957931
 30
0.0
 10
8.9491300682
 20
8.274858953
 30
0.0
 10
8.974131439
 20
8.2498575822
 30
0.0
  0
SPLINE
  5
341
100
AcDbEntity
  8
0
100
AcDbSpline
 62
7
  6
BYLAYER
 70
0
 71
3
 72
11
 73
7
 74
0
 42
0.0000001
 43
0.0000001
 44
0.0000000001
 40
0.0
 40
0.0
 40
0.0
 40
0.0
 40
0.2421869229
 40
0.4880567034
 40
0.7402356096
 40
1.0
 40
1.0
 40
1.0
 40
1.0
 10
8.9457111353
 20
8.6457013473
 30
0.0
 10
8.93259456
 20
8.6325847719
 30
0.0
 10
8.9093824042
 20
8.6027139973
 30
0.0
 10
8.8862427485
 20
8.5503766381
 30
0.0
 10
8.875724161
 20
8.4927939536
 30
0.0
 10
8.8772834295
 20
8.4532652851
 30
0.0
 10
8.8800971398
 20
8.4335693129
 30
0.0
  0
SPLINE
  5
342
100
AcDbEntity
  8
0
100
AcDbSpline
 62
7
  6
BYLAYER
 70
0
 71
3
 72
11
 73
7
 74
0
 42
0.0000001
 43
0.0000001
 44
0.0000000001
 40
0.0
 40
0.0
 40
0.0
 40
0.0
 40
0.2596967138
 40
0.5118015948
 40
0.7577530516
 40
1.0
 40
1.0
 40
1.0
 40
1.0
 10
12.1984023288
 20
6.6018745019
 30
0.0
 10
12.1787115078
 20
6.6046874764
 30
0.0
 10
12.1391942579
 20
6.6062520716
 30
0.0
 10
12.0816152321
 20
6.5957358987
 30
0.0
 10
12.0292742623
 20
6.5725931828
 30
0.0
 10
11.9993901076
 20
6.5493803195
 30
0.0
 10
11.9862702944
 20
6.5362605064
 30
0.0
  0
SPLINE
  5
343
100
AcDbEntity
  8
0
100
AcDbSpline
 62
7
  6
BYLAYER
 70
0
 71
3
 72
11
 73
7
 74
0
 42
0.0000001
 43
0.0000001
 44
0.0000000001
 40
0.0
 40
0.0
 40
0.0
 40
0.0
 40
0.2546548907
 40
0.5073237102
 40
0.7562290844
 40
1.0
 40
1.0
 40
1.0
 40
1.0
 10
12.3821140595
 20
6.5078402027
 30
0.0
 10
12.3695262857
 20
6.5204279765
 30
0.0
 10
12.3424691851
 20
6.5436120347
 30
0.0
 10
12.2973069933
 20
6.5714925542
 30
0.0
 10
12.2490009791
 20
6.5915933314
 30
0.0
 10
12.2152720084
 20
6.5994645477
 30
0.0
 10
12.1984023288
 20
6.601874502
 30
0.0
  0
SPLINE
  5
344
100
AcDbEntity
  8
0
100
AcDbSpline
 62
7
  6
BYLAYER
 70
0
 71
3
 72
11
 73
7
 74
0
 42
0.0000001
 43
0.0000001
 44
0.0000000001
 40
0.0
 40
0.0
 40
0.0
 40
0.0
 40
0.2465706227
 40
0.4945909619
 40
0.7453714525
 40
1.0
 40
1.0
 40
1.0
 40
1.0
 10
9.6528179165
 20
11.6862605064
 30
0.0
 10
9.6446441514
 20
11.6944342715
 30
0.0
 10
9.6269507314
 20
11.7095871379
 30
0.0
 10
9.5971319794
 20
11.7280543661
 30
0.0
 10
9.5645326931
 20
11.7419784386
 30
0.0
 10
9.5415214546
 20
11.7480186073
 30
0.0
 10
9.5297909512
 20
11.750230467
 30
0.0
  0
SPLINE
  5
345
100
AcDbEntity
  8
0
100
AcDbSpline
 62
7
  6
BYLAYER
 70
0
 71
3
 72
9
 73
5
 74
0
 42
0.0000001
 43
0.0000001
 44
0.0000000001
 40
0.0
 40
0.0
 40
0.0
 40
0.0
 40
0.2469004396
 40
1.0
 40
1.0
 40
1.0
 40
1.0
 10
9.5002679827
 20
11.7540536859
 30
0.0
 10
9.4946009784
 20
11.7544627782
 30
0.0
 10
9.4715995128
 20
11.7553873523
 30
0.0
 10
9.4484960675
 20
11.7533967363
 30
0.0
 10
9.4314264739
 20
11.7504004944
 30
0.0
  0
SPLINE
  5
346
100
AcDbEntity
  8
0
100
AcDbSpline
 62
7
  6
BYLAYER
 70
0
 71
3
 72
9
 73
5
 74
0
 42
0.0000001
 43
0.0000001
 44
0.0000000001
 40
0.0
 40
0.0
 40
0.0
 40
0.0
 40
0.4930626388
 40
1.0
 40
1.0
 40
1.0
 40
1.0
 10
9.4314264739
 20
11.7504004944
 30
0.0
 10
9.3990849466
 20
11.7447235557
 30
0.0
 10
9.3351010891
 20
11.7221710475
 30
0.0
 10
9.2808460674
 20
11.6817121187
 30
0.0
 10
9.2569741515
 20
11.6578402027
 30
0.0
  0
SPLINE
  5
347
100
AcDbEntity
  8
0
100
AcDbSpline
 62
7
  6
BYLAYER
 70
0
 71
3
 72
9
 73
5
 74
0
 42
0.0000001
 43
0.0000001
 44
0.0000000001
 40
0.0
 40
0.0
 40
0.0
 40
0.0
 40
0.5024433754
 40
1.0
 40
1.0
 40
1.0
 40
1.0
 10
9.2569741515
 20
2.8170148697
 30
0.0
 10
9.2708497173
 20
2.8031393039
 30
0.0
 10
9.3008661663
 20
2.7778224491
 30
0.0
 10
9.3347747072
 20
2.7579981404
 30
0.0
 10
9.3523542817
 20
2.7497175954
 30
0.0
  0
SPLINE
  5
348
100
AcDbEntity
  8
0
100
AcDbSpline
 62
7
  6
BYLAYER
 70
0
 71
3
 72
9
 73
5
 74
0
 42
0.0000001
 43
0.0000001
 44
0.0000000001
 40
0.0
 40
0.0
 40
0.0
 40
0.0
 40
0.5047901033
 40
1.0
 40
1.0
 40
1.0
 40
1.0
 10
9.3574540029
 20
2.7473688289
 30
0.0
 10
9.3712668155
 20
2.7411506854
 30
0.0
 10
9.3995262825
 20
2.7307229736
 30
0.0
 10
9.4290121519
 20
2.7245057213
 30
0.0
 10
9.4437446566
 20
2.7225601024
 30
0.0
  0
SPLINE
  5
349
100
AcDbEntity
  8
0
100
AcDbSpline
 62
7
  6
BYLAYER
 70
0
 71
3
 72
11
 73
7
 74
0
 42
0.0000001
 43
0.0000001
 44
0.0000000001
 40
0.0
 40
0.0
 40
0.0
 40
0.0
 40
0.2596244799
 40
0.5116238584
 40
0.7574906043
 40
1.0
 40
1.0
 40
1.0
 40
1.0
 10
9.4437446566
 20
2.7225601024
 30
0.0
 10
9.463195661
 20
2.7199913443
 30
0.0
 10
9.5021805885
 20
2.7188095353
 30
0.0
 10
9.5588737343
 20
2.7296341624
 30
0.0
 10
9.6104221853
 20
2.7526619099
 30
0.0
 10
9.639859125
 20
2.7756357745
 30
0.0
 10
9.6528179165
 20
2.7885945661
 30
0.0
  0
SPLINE
  5
34A
100
AcDbEntity
  8
0
100
AcDbSpline
 62
7
  6
BYLAYER
 70
0
 71
3
 72
9
 73
5
 74
0
 42
0.0000001
 43
0.0000001
 44
0.0000000001
 40
0.0
 40
0.0
 40
0.0
 40
0.0
 40
0.2534703255
 40
1.0
 40
1.0
 40
1.0
 40
1.0
 10
8.8800971398
 20
11.1912857595
 30
0.0
 10
8.8791983419
 20
11.1849941746
 30
0.0
 10
8.8764716596
 20
11.160064614
 30
0.0
 10
8.8770546667
 20
11.1347543392
 30
0.0
 10
8.8794979246
 20
11.1161961557
 30
0.0
  0
SPLINE
  5
34B
100
AcDbEntity
  8
0
100
AcDbSpline
 62
7
  6
BYLAYER
 70
0
 71
3
 72
11
 73
7
 74
0
 42
0.0000001
 43
0.0000001
 44
0.0000000001
 40
0.0
 40
0.0
 40
0.0
 40
0.0
 40
0.2553396094
 40
0.506287701
 40
0.7542748788
 40
1.0
 40
1.0
 40
1.0
 40
1.0
 10
8.8794979246
 20
11.1161961557
 30
0.0
 10
8.8812176387
 20
11.1031337738
 30
0.0
 10
8.8866169134
 20
11.0774460447
 30
0.0
 10
8.9006447017
 20
11.0409620508
 30
0.0
 10
8.9202514012
 20
11.007719511
 30
0.0
 10
8.9367457231
 20
10.9881191374
 30
0.0
 10
8.9457111354
 20
10.9791537252
 30
0.0
  0
SPLINE
  5
34C
100
AcDbEntity
  8
0
100
AcDbSpline
 62
7
  6
BYLAYER
 70
0
 71
3
 72
11
 73
7
 74
0
 42
0.0000001
 43
0.0000001
 44
0.0000000001
 40
0.0
 40
0.0
 40
0.0
 40
0.0
 40
0.2546548907
 40
0.5073237102
 40
0.7562290844
 40
1.0
 40
1.0
 40
1.0
 40
1.0
 10
8.974131439
 20
11.3749974903
 30
0.0
 10
8.9615436652
 20
11.3624097164
 30
0.0
 10
8.938359607
 20
11.3353526158
 30
0.0
 10
8.9104790875
 20
11.290190424
 30
0.0
 10
8.8903783103
 20
11.2418844099
 30
0.0
 10
8.882507094
 20
11.2081554391
 30
0.0
 10
8.8800971398
 20
11.1912857595
 30
0.0
  0
SPLINE
  5
34D
100
AcDbEntity
  8
0
100
AcDbSpline
 62
7
  6
BYLAYER
 70
0
 71
3
 72
11
 73
7
 74
0
 42
0.0000001
 43
0.0000001
 44
0.0000000001
 40
0.0
 40
0.0
 40
0.0
 40
0.0
 40
0.2465706227
 40
0.4945909619
 40
0.7453714525
 40
1.0
 40
1.0
 40
1.0
 40
1.0
 10
12.6933770756
 20
5.8291537252
 30
0.0
 10
12.7015508407
 20
5.8373274903
 30
0.0
 10
12.7167037072
 20
5.8550209103
 30
0.0
 10
12.7351709353
 20
5.8848396624
 30
0.0
 10
12.7490950079
 20
5.9174389486
 30
0.0
 10
12.7551351765
 20
5.9404501871
 30
0.0
 10
12.7573470362
 20
5.9521806905
 30
0.0
  0
SPLINE
  5
34E
100
AcDbEntity
  8
0
100
AcDbSpline
 62
7
  6
BYLAYER
 70
0
 71
3
 72
9
 73
5
 74
0
 42
0.0000001
 43
0.0000001
 44
0.0000000001
 40
0.0
 40
0.0
 40
0.0
 40
0.0
 40
0.2469004396
 40
1.0
 40
1.0
 40
1.0
 40
1.0
 10
12.7611702552
 20
5.981703659
 30
0.0
 10
12.7615793474
 20
5.9873706634
 30
0.0
 10
12.7625039215
 20
6.0103721289
 30
0.0
 10
12.7605133055
 20
6.0334755742
 30
0.0
 10
12.7575170637
 20
6.0505451678
 30
0.0
  0
SPLINE
  5
34F
100
AcDbEntity
  8
0
100
AcDbSpline
 62
7
  6
BYLAYER
 70
0
 71
3
 72
9
 73
5
 74
0
 42
0.0000001
 43
0.0000001
 44
0.0000000001
 40
0.0
 40
0.0
 40
0.0
 40
0.0
 40
0.2471742663
 40
1.0
 40
1.0
 40
1.0
 40
1.0
 10
12.7575170637
 20
6.0505451678
 30
0.0
 10
12.7564258691
 20
6.056761705
 30
0.0
 10
12.7512098758
 20
6.0817667831
 30
0.0
 10
12.7428322827
 20
6.1060968383
 30
0.0
 10
12.7349922363
 20
6.1236487958
 30
0.0
  0
SPLINE
  5
350
100
AcDbEntity
  8
0
100
AcDbSpline
 62
7
  6
BYLAYER
 70
0
 71
3
 72
9
 73
5
 74
0
 42
0.0000001
 43
0.0000001
 44
0.0000000001
 40
0.0
 40
0.0
 40
0.0
 40
0.0
 40
0.4977401145
 40
1.0
 40
1.0
 40
1.0
 40
1.0
 10
12.7302650429
 20
6.1337639072
 30
0.0
 10
12.7220692757
 20
6.1505489523
 30
0.0
 10
12.7026970655
 20
6.1829199723
 30
0.0
 10
12.6782848193
 20
6.2116694429
 30
0.0
 10
12.664956772
 20
6.2249974903
 30
0.0
  0
SPLINE
  5
351
100
AcDbEntity
  8
0
100
AcDbSpline
 62
7
  6
BYLAYER
 70
0
 71
3
 72
11
 73
7
 74
0
 42
0.0000001
 43
0.0000001
 44
0.0000000001
 40
0.0
 40
0.0
 40
0.0
 40
0.0
 40
0.2596967138
 40
0.5118015948
 40
0.7577530516
 40
1.0
 40
1.0
 40
1.0
 40
1.0
 10
12.1984023288
 20
11.7518745019
 30
0.0
 10
12.1787115078
 20
11.7546874764
 30
0.0
 10
12.1391942579
 20
11.7562520716
 30
0.0
 10
12.0816152321
 20
11.7457358987
 30
0.0
 10
12.0292742623
 20
11.7225931828
 30
0.0
 10
11.9993901076
 20
11.6993803195
 30
0.0
 10
11.9862702944
 20
11.6862605064
 30
0.0
  0
SPLINE
  5
352
100
AcDbEntity
  8
0
100
AcDbSpline
 62
7
  6
BYLAYER
 70
0
 71
3
 72
11
 73
7
 74
0
 42
0.0000001
 43
0.0000001
 44
0.0000000001
 40
0.0
 40
0.0
 40
0.0
 40
0.0
 40
0.2546548907
 40
0.5073237102
 40
0.7562290844
 40
1.0
 40
1.0
 40
1.0
 40
1.0
 10
12.3821140595
 20
11.6578402027
 30
0.0
 10
12.3695262857
 20
11.6704279765
 30
0.0
 10
12.3424691851
 20
11.6936120347
 30
0.0
 10
12.2973069933
 20
11.7214925542
 30
0.0
 10
12.2490009791
 20
11.7415933314
 30
0.0
 10
12.2152720084
 20
11.7494645477
 30
0.0
 10
12.1984023288
 20
11.751874502
 30
0.0
  0
SPLINE
  5
353
100
AcDbEntity
  8
0
100
AcDbSpline
 62
7
  6
BYLAYER
 70
0
 71
3
 72
9
 73
5
 74
0
 42
0.0000001
 43
0.0000001
 44
0.0000000001
 40
0.0
 40
0.0
 40
0.0
 40
0.0
 40
0.4974156677
 40
1.0
 40
1.0
 40
1.0
 40
1.0
 10
8.9457111353
 20
24.0957013473
 30
0.0
 10
8.9346576876
 20
24.0846478995
 30
0.0
 10
8.9147121695
 20
24.0600295518
 30
0.0
 10
8.9002707723
 20
24.0318428961
 30
0.0
 10
8.8944963535
 20
24.017141939
 30
0.0
  0
SPLINE
  5
354
100
AcDbEntity
  8
0
100
AcDbSpline
 62
7
  6
BYLAYER
 70
0
 71
3
 72
9
 73
5
 74
0
 42
0.0000001
 43
0.0000001
 44
0.0000000001
 40
0.0
 40
0.0
 40
0.0
 40
0.0
 40
0.2480586117
 40
1.0
 40
1.0
 40
1.0
 40
1.0
 10
8.8944963535
 20
24.017141939
 30
0.0
 10
8.8929883316
 20
24.0133027013
 30
0.0
 10
8.8873105456
 20
23.9976701966
 30
0.0
 10
8.8832446277
 20
23.9814574426
 30
0.0
 10
8.8811003096
 20
23.9691391957
 30
0.0
  0
SPLINE
  5
355
100
AcDbEntity
  8
0
100
AcDbSpline
 62
7
  6
BYLAYER
 70
0
 71
3
 72
9
 73
5
 74
0
 42
0.0000001
 43
0.0000001
 44
0.0000000001
 40
0.0
 40
0.0
 40
0.0
 40
0.0
 40
0.4944672196
 40
1.0
 40
1.0
 40
1.0
 40
1.0
 10
8.8811003096
 20
23.9691391957
 30
0.0
 10
8.8786738923
 20
23.9552004016
 30
0.0
 10
8.8761053752
 20
23.9265613249
 30
0.0
 10
8.8780514752
 20
23.897888965
 30
0.0
 10
8.8800971398
 20
23.8835693129
 30
0.0
  0
SPLINE
  5
356
100
AcDbEntity
  8
0
100
AcDbSpline
 62
7
  6
BYLAYER
 70
0
 71
3
 72
11
 73
7
 74
0
 42
0.0000001
 43
0.0000001
 44
0.0000000001
 40
0.0
 40
0.0
 40
0.0
 40
0.0
 40
0.2436774618
 40
0.4925299857
 40
0.7452647728
 40
1.0
 40
1.0
 40
1.0
 40
1.0
 10
8.8800971398
 20
23.8835693129
 30
0.0
 10
8.8825061681
 20
23.8667061146
 30
0.0
 10
8.8903742212
 20
23.832987209
 30
0.0
 10
8.9104681363
 20
23.7846844596
 30
0.0
 10
8.9383510911
 20
23.7395160494
 30
0.0
 10
8.9615397045
 20
23.7124493167
 30
0.0
 10
8.974131439
 20
23.6998575822
 30
0.0
  0
SPLINE
  5
357
100
AcDbEntity
  8
0
100
AcDbSpline
 62
7
  6
BYLAYER
 70
0
 71
3
 72
11
 73
7
 74
0
 42
0.0000001
 43
0.0000001
 44
0.0000000001
 40
0.0
 40
0.0
 40
0.0
 40
0.0
 40
0.254869257
 40
0.5076577016
 40
0.7564764791
 40
1.0
 40
1.0
 40
1.0
 40
1.0
 10
9.2569741515
 20
23.4170148697
 30
0.0
 10
9.2697573338
 20
23.4042316874
 30
0.0
 10
9.2972627505
 20
23.3807229525
 30
0.0
 10
9.3432091326
 20
23.3525846048
 30
0.0
 10
9.3923424399
 20
23.3324973042
 30
0.0
 10
9.4266199593
 20
23.3248216414
 30
0.0
 10
9.4437446566
 20
23.3225601024
 30
0.0
  0
SPLINE
  5
358
100
AcDbEntity
  8
0
100
AcDbSpline
 62
7
  6
BYLAYER
 70
0
 71
3
 72
11
 73
7
 74
0
 42
0.0000001
 43
0.0000001
 44
0.0000000001
 40
0.0
 40
0.0
 40
0.0
 40
0.0
 40
0.2596244799
 40
0.5116238584
 40
0.7574906043
 40
1.0
 40
1.0
 40
1.0
 40
1.0
 10
9.4437446566
 20
23.3225601024
 30
0.0
 10
9.463195661
 20
23.3199913443
 30
0.0
 10
9.5021805885
 20
23.3188095353
 30
0.0
 10
9.5588737343
 20
23.3296341624
 30
0.0
 10
9.6104221853
 20
23.3526619099
 30
0.0
 10
9.639859125
 20
23.3756357745
 30
0.0
 10
9.6528179165
 20
23.3885945661
 30
0.0
  0
SPLINE
  5
359
100
AcDbEntity
  8
0
100
AcDbSpline
 62
7
  6
BYLAYER
 70
0
 71
3
 72
11
 73
7
 74
0
 42
0.0000001
 43
0.0000001
 44
0.0000000001
 40
0.0
 40
0.0
 40
0.0
 40
0.0
 40
0.2546548907
 40
0.5073237102
 40
0.7562290844
 40
1.0
 40
1.0
 40
1.0
 40
1.0
 10
12.3821140595
 20
16.8078402027
 30
0.0
 10
12.3695262857
 20
16.8204279765
 30
0.0
 10
12.3424691851
 20
16.8436120347
 30
0.0
 10
12.2973069933
 20
16.8714925542
 30
0.0
 10
12.2490009791
 20
16.8915933314
 30
0.0
 10
12.2152720084
 20
16.8994645477
 30
0.0
 10
12.1984023288
 20
16.901874502
 30
0.0
  0
SPLINE
  5
35A
100
AcDbEntity
  8
0
100
AcDbSpline
 62
7
  6
BYLAYER
 70
0
 71
3
 72
11
 73
7
 74
0
 42
0.0000001
 43
0.0000001
 44
0.0000000001
 40
0.0
 40
0.0
 40
0.0
 40
0.0
 40
0.2596967138
 40
0.5118015948
 40
0.7577530516
 40
1.0
 40
1.0
 40
1.0
 40
1.0
 10
12.1984023288
 20
16.9018745019
 30
0.0
 10
12.1787115078
 20
16.9046874764
 30
0.0
 10
12.1391942579
 20
16.9062520716
 30
0.0
 10
12.0816152321
 20
16.8957358987
 30
0.0
 10
12.0292742623
 20
16.8725931828
 30
0.0
 10
11.9993901076
 20
16.8493803195
 30
0.0
 10
11.9862702944
 20
16.8362605064
 30
0.0
  0
SPLINE
  5
35B
100
AcDbEntity
  8
0
100
AcDbSpline
 62
7
  6
BYLAYER
 70
0
 71
3
 72
9
 73
5
 74
0
 42
0.0000001
 43
0.0000001
 44
0.0000000001
 40
0.0
 40
0.0
 40
0.0
 40
0.0
 40
0.4974418223
 40
1.0
 40
1.0
 40
1.0
 40
1.0
 10
12.6933770756
 20
10.9791537252
 30
0.0
 10
12.7044295535
 20
10.990206203
 30
0.0
 10
12.7243723841
 20
11.0148209428
 30
0.0
 10
12.7388129002
 20
11.0430029531
 30
0.0
 10
12.7445869517
 20
11.0577007904
 30
0.0
  0
SPLINE
  5
35C
100
AcDbEntity
  8
0
100
AcDbSpline
 62
7
  6
BYLAYER
 70
0
 71
3
 72
9
 73
5
 74
0
 42
0.0000001
 43
0.0000001
 44
0.0000000001
 40
0.0
 40
0.0
 40
0.0
 40
0.0
 40
0.4945337235
 40
1.0
 40
1.0
 40
1.0
 40
1.0
 10
12.7445869517
 20
11.0577007904
 30
0.0
 10
12.7499729963
 20
11.0714109568
 30
0.0
 10
12.758310706
 20
11.1001972591
 30
0.0
 10
12.7614608928
 20
11.1299808458
 30
0.0
 10
12.761800013
 20
11.1450328409
 30
0.0
  0
SPLINE
  5
35D
100
AcDbEntity
  8
0
100
AcDbSpline
 62
7
  6
BYLAYER
 70
0
 71
3
 72
11
 73
7
 74
0
 42
0.0000001
 43
0.0000001
 44
0.0000000001
 40
0.0
 40
0.0
 40
0.0
 40
0.0
 40
0.2435401379
 40
0.4923628058
 40
0.7451439169
 40
1.0
 40
1.0
 40
1.0
 40
1.0
 10
12.7593735567
 20
11.1885134869
 30
0.0
 10
12.7570979393
 20
11.2056139252
 30
0.0
 10
12.7494037159
 20
11.2398393743
 30
0.0
 10
12.7293153091
 20
11.2888948759
 30
0.0
 10
12.7012006733
 20
11.3347681393
 30
0.0
 10
12.6777219954
 20
11.3622322668
 30
0.0
 10
12.664956772
 20
11.3749974903
 30
0.0
  0
SPLINE
  5
35E
100
AcDbEntity
  8
0
100
AcDbSpline
 62
7
  6
BYLAYER
 70
0
 71
3
 72
9
 73
5
 74
0
 42
0.0000001
 43
0.0000001
 44
0.0000000001
 40
0.0
 40
0.0
 40
0.0
 40
0.0
 40
0.503644211
 40
1.0
 40
1.0
 40
1.0
 40
1.0
 10
12.7151413754
 20
3.1635170233
 30
0.0
 10
12.7229478037
 20
3.1762873889
 30
0.0
 10
12.7367750305
 20
3.202707357
 30
0.0
 10
12.7468594975
 20
3.2307788534
 30
0.0
 10
12.7508403861
 20
3.2449823099
 30
0.0
  0
SPLINE
  5
35F
100
AcDbEntity
  8
0
100
AcDbSpline
 62
7
  6
BYLAYER
 70
0
 71
3
 72
9
 73
5
 74
0
 42
0.0000001
 43
0.0000001
 44
0.0000000001
 40
0.0
 40
0.0
 40
0.0
 40
0.0
 40
0.252851609
 40
1.0
 40
1.0
 40
1.0
 40
1.0
 10
12.7508403861
 20
3.2449823099
 30
0.0
 10
12.7522347906
 20
3.2499574214
 30
0.0
 10
12.7572534314
 20
3.2697681846
 30
0.0
 10
12.7602608274
 20
3.2900957509
 30
0.0
 10
12.7612634443
 20
3.3053301925
 30
0.0
  0
SPLINE
  5
360
100
AcDbEntity
  8
0
100
AcDbSpline
 62
7
  6
BYLAYER
 70
0
 71
3
 72
9
 73
5
 74
0
 42
0.0000001
 43
0.0000001
 44
0.0000000001
 40
0.0
 40
0.0
 40
0.0
 40
0.0
 40
0.2537015239
 40
1.0
 40
1.0
 40
1.0
 40
1.0
 10
12.7612634443
 20
3.3053301925
 30
0.0
 10
12.7616552171
 20
3.3112830528
 30
0.0
 10
12.7624556143
 20
3.3347881576
 30
0.0
 10
12.7602286057
 20
3.3584118028
 30
0.0
 10
12.756774572
 20
3.3756175833
 30
0.0
  0
SPLINE
  5
361
100
AcDbEntity
  8
0
100
AcDbSpline
 62
7
  6
BYLAYER
 70
0
 71
3
 72
9
 73
5
 74
0
 42
0.0000001
 43
0.0000001
 44
0.0000000001
 40
0.0
 40
0.0
 40
0.0
 40
0.0
 40
0.5051357714
 40
1.0
 40
1.0
 40
1.0
 40
1.0
 10
12.756774572
 20
3.3756175833
 30
0.0
 10
12.7522250396
 20
3.3982804356
 30
0.0
 10
12.7369463793
 20
3.442170629
 30
0.0
 10
12.709389489
 20
3.4796889339
 30
0.0
 10
12.6933770756
 20
3.4957013473
 30
0.0
  0
SPLINE
  5
362
100
AcDbEntity
  8
0
100
AcDbSpline
 62
7
  6
BYLAYER
 70
0
 71
3
 72
11
 73
7
 74
0
 42
0.0000001
 43
0.0000001
 44
0.0000000001
 40
0.0
 40
0.0
 40
0.0
 40
0.0
 40
0.2423441451
 40
0.4881543081
 40
0.7402139819
 40
1.0
 40
1.0
 40
1.0
 40
1.0
 10
11.9862702944
 20
18.2385945661
 30
0.0
 10
11.9993955662
 20
18.2254692943
 30
0.0
 10
12.0292633966
 20
18.2022353905
 30
0.0
 10
12.0816184841
 20
18.1791405937
 30
0.0
 10
12.1391810677
 20
18.1685867844
 30
0.0
 10
12.1787044446
 20
18.1701665871
 30
0.0
 10
12.1984023288
 20
18.1729805705
 30
0.0
  0
SPLINE
  5
363
100
AcDbEntity
  8
0
100
AcDbSpline
 62
7
  6
BYLAYER
 70
0
 71
3
 72
11
 73
7
 74
0
 42
0.0000001
 43
0.0000001
 44
0.0000000001
 40
0.0
 40
0.0
 40
0.0
 40
0.0
 40
0.2436774618
 40
0.4925299857
 40
0.7452647728
 40
1.0
 40
1.0
 40
1.0
 40
1.0
 10
12.1984023288
 20
18.1729805705
 30
0.0
 10
12.2152655272
 20
18.1753895989
 30
0.0
 10
12.2489844327
 20
18.183257652
 30
0.0
 10
12.2972871821
 20
18.2033515671
 30
0.0
 10
12.3424555923
 20
18.2312345219
 30
0.0
 10
12.369522325
 20
18.2544231352
 30
0.0
 10
12.3821140595
 20
18.2670148697
 30
0.0
  0
SPLINE
  5
364
100
AcDbEntity
  8
0
100
AcDbSpline
 62
7
  6
BYLAYER
 70
0
 71
3
 72
11
 73
7
 74
0
 42
0.0000001
 43
0.0000001
 44
0.0000000001
 40
0.0
 40
0.0
 40
0.0
 40
0.0
 40
0.2547352272
 40
0.5074700142
 40
0.7563225382
 40
1.0
 40
1.0
 40
1.0
 40
1.0
 10
8.974131439
 20
16.5249974903
 30
0.0
 10
8.9615397045
 20
16.5124057557
 30
0.0
 10
8.9383510911
 20
16.4853390231
 30
0.0
 10
8.9104681363
 20
16.4401706129
 30
0.0
 10
8.8903742212
 20
16.3918678635
 30
0.0
 10
8.8825061681
 20
16.3581489579
 30
0.0
 10
8.8800971398
 20
16.3412857595
 30
0.0
  0
SPLINE
  5
365
100
AcDbEntity
  8
0
100
AcDbSpline
 62
7
  6
BYLAYER
 70
0
 71
3
 72
11
 73
7
 74
0
 42
0.0000001
 43
0.0000001
 44
0.0000000001
 40
0.0
 40
0.0
 40
0.0
 40
0.0
 40
0.259786201
 40
0.511845914
 40
0.7576560104
 40
1.0
 40
1.0
 40
1.0
 40
1.0
 10
8.8800971398
 20
16.3412857595
 30
0.0
 10
8.8772831543
 20
16.3215878615
 30
0.0
 10
8.8757033528
 20
16.2820644667
 30
0.0
 10
8.8862571778
 20
16.2245018737
 30
0.0
 10
8.9093519761
 20
16.1721468027
 30
0.0
 10
8.932585872
 20
16.1422789885
 30
0.0
 10
8.9457111354
 20
16.1291537252
 30
0.0
  0
SPLINE
  5
366
100
AcDbEntity
  8
0
100
AcDbSpline
 62
7
  6
BYLAYER
 70
0
 71
3
 72
11
 73
7
 74
0
 42
0.0000001
 43
0.0000001
 44
0.0000000001
 40
0.0
 40
0.0
 40
0.0
 40
0.0
 40
0.2465706227
 40
0.4945909619
 40
0.7453714525
 40
1.0
 40
1.0
 40
1.0
 40
1.0
 10
9.6528179165
 20
16.8362605064
 30
0.0
 10
9.6446441514
 20
16.8444342715
 30
0.0
 10
9.6269507314
 20
16.8595871379
 30
0.0
 10
9.5971319794
 20
16.8780543661
 30
0.0
 10
9.5645326931
 20
16.8919784386
 30
0.0
 10
9.5415214546
 20
16.8980186073
 30
0.0
 10
9.5297909512
 20
16.900230467
 30
0.0
  0
SPLINE
  5
367
100
AcDbEntity
  8
0
100
AcDbSpline
 62
7
  6
BYLAYER
 70
0
 71
3
 72
9
 73
5
 74
0
 42
0.0000001
 43
0.0000001
 44
0.0000000001
 40
0.0
 40
0.0
 40
0.0
 40
0.0
 40
0.2469004396
 40
1.0
 40
1.0
 40
1.0
 40
1.0
 10
9.5002679827
 20
16.9040536859
 30
0.0
 10
9.4946009784
 20
16.9044627782
 30
0.0
 10
9.4715995128
 20
16.9053873523
 30
0.0
 10
9.4484960675
 20
16.9033967363
 30
0.0
 10
9.4314264739
 20
16.9004004944
 30
0.0
  0
SPLINE
  5
368
100
AcDbEntity
  8
0
100
AcDbSpline
 62
7
  6
BYLAYER
 70
0
 71
3
 72
9
 73
5
 74
0
 42
0.0000001
 43
0.0000001
 44
0.0000000001
 40
0.0
 40
0.0
 40
0.0
 40
0.0
 40
0.4930626388
 40
1.0
 40
1.0
 40
1.0
 40
1.0
 10
9.4314264739
 20
16.9004004944
 30
0.0
 10
9.3990849466
 20
16.8947235557
 30
0.0
 10
9.3351010891
 20
16.8721710475
 30
0.0
 10
9.2808460674
 20
16.8317121187
 30
0.0
 10
9.2569741515
 20
16.8078402027
 30
0.0
  0
SPLINE
  5
369
100
AcDbEntity
  8
0
100
AcDbSpline
 62
7
  6
BYLAYER
 70
0
 71
3
 72
11
 73
7
 74
0
 42
0.0000001
 43
0.0000001
 44
0.0000000001
 40
0.0
 40
0.0
 40
0.0
 40
0.0
 40
0.2436774618
 40
0.4925299857
 40
0.7452647728
 40
1.0
 40
1.0
 40
1.0
 40
1.0
 10
8.8800971398
 20
3.2835693129
 30
0.0
 10
8.8825061681
 20
3.2667061146
 30
0.0
 10
8.8903742212
 20
3.232987209
 30
0.0
 10
8.9104681363
 20
3.1846844596
 30
0.0
 10
8.9383510911
 20
3.1395160494
 30
0.0
 10
8.9615397045
 20
3.1124493167
 30
0.0
 10
8.974131439
 20
3.0998575822
 30
0.0
  0
SPLINE
  5
36A
100
AcDbEntity
  8
0
100
AcDbSpline
 62
7
  6
BYLAYER
 70
0
 71
3
 72
11
 73
7
 74
0
 42
0.0000001
 43
0.0000001
 44
0.0000000001
 40
0.0
 40
0.0
 40
0.0
 40
0.0
 40
0.2546548907
 40
0.5073237102
 40
0.7562290844
 40
1.0
 40
1.0
 40
1.0
 40
1.0
 10
12.3821140595
 20
27.1078402027
 30
0.0
 10
12.3695262857
 20
27.1204279765
 30
0.0
 10
12.3424691851
 20
27.1436120347
 30
0.0
 10
12.2973069933
 20
27.1714925542
 30
0.0
 10
12.2490009791
 20
27.1915933314
 30
0.0
 10
12.2152720084
 20
27.1994645477
 30
0.0
 10
12.1984023288
 20
27.2018745019
 30
0.0
  0
SPLINE
  5
36B
100
AcDbEntity
  8
0
100
AcDbSpline
 62
7
  6
BYLAYER
 70
0
 71
3
 72
9
 73
5
 74
0
 42
0.0000001
 43
0.0000001
 44
0.0000000001
 40
0.0
 40
0.0
 40
0.0
 40
0.0
 40
0.4974156677
 40
1.0
 40
1.0
 40
1.0
 40
1.0
 10
8.9457111353
 20
13.7957013473
 30
0.0
 10
8.9346576876
 20
13.7846478995
 30
0.0
 10
8.9147121695
 20
13.7600295518
 30
0.0
 10
8.9002707723
 20
13.7318428961
 30
0.0
 10
8.8944963535
 20
13.717141939
 30
0.0
  0
SPLINE
  5
36C
100
AcDbEntity
  8
0
100
AcDbSpline
 62
7
  6
BYLAYER
 70
0
 71
3
 72
9
 73
5
 74
0
 42
0.0000001
 43
0.0000001
 44
0.0000000001
 40
0.0
 40
0.0
 40
0.0
 40
0.0
 40
0.2480586117
 40
1.0
 40
1.0
 40
1.0
 40
1.0
 10
8.8944963535
 20
13.717141939
 30
0.0
 10
8.8929883316
 20
13.7133027013
 30
0.0
 10
8.8873105456
 20
13.6976701966
 30
0.0
 10
8.8832446277
 20
13.6814574426
 30
0.0
 10
8.8811003096
 20
13.6691391957
 30
0.0
  0
SPLINE
  5
36D
100
AcDbEntity
  8
0
100
AcDbSpline
 62
7
  6
BYLAYER
 70
0
 71
3
 72
9
 73
5
 74
0
 42
0.0000001
 43
0.0000001
 44
0.0000000001
 40
0.0
 40
0.0
 40
0.0
 40
0.0
 40
0.4944672196
 40
1.0
 40
1.0
 40
1.0
 40
1.0
 10
8.8811003096
 20
13.6691391957
 30
0.0
 10
8.8786738923
 20
13.6552004016
 30
0.0
 10
8.8761053752
 20
13.6265613249
 30
0.0
 10
8.8780514752
 20
13.597888965
 30
0.0
 10
8.8800971398
 20
13.5835693129
 30
0.0
  0
SPLINE
  5
36E
100
AcDbEntity
  8
0
100
AcDbSpline
 62
7
  6
BYLAYER
 70
0
 71
3
 72
11
 73
7
 74
0
 42
0.0000001
 43
0.0000001
 44
0.0000000001
 40
0.0
 40
0.0
 40
0.0
 40
0.0
 40
0.2436774618
 40
0.4925299857
 40
0.7452647728
 40
1.0
 40
1.0
 40
1.0
 40
1.0
 10
8.8800971398
 20
13.5835693129
 30
0.0
 10
8.8825061681
 20
13.5667061146
 30
0.0
 10
8.8903742212
 20
13.532987209
 30
0.0
 10
8.9104681363
 20
13.4846844596
 30
0.0
 10
8.9383510911
 20
13.4395160494
 30
0.0
 10
8.9615397045
 20
13.4124493167
 30
0.0
 10
8.974131439
 20
13.3998575822
 30
0.0
  0
SPLINE
  5
36F
100
AcDbEntity
  8
0
100
AcDbSpline
 62
7
  6
BYLAYER
 70
0
 71
3
 72
11
 73
7
 74
0
 42
0.0000001
 43
0.0000001
 44
0.0000000001
 40
0.0
 40
0.0
 40
0.0
 40
0.0
 40
0.2596967138
 40
0.5118015948
 40
0.7577530516
 40
1.0
 40
1.0
 40
1.0
 40
1.0
 10
12.1984023288
 20
27.2018745019
 30
0.0
 10
12.1787115078
 20
27.2046874764
 30
0.0
 10
12.1391942579
 20
27.2062520716
 30
0.0
 10
12.0816152321
 20
27.1957358987
 30
0.0
 10
12.0292742623
 20
27.1725931828
 30
0.0
 10
11.9993901076
 20
27.1493803195
 30
0.0
 10
11.9862702944
 20
27.1362605064
 30
0.0
  0
SPLINE
  5
370
100
AcDbEntity
  8
0
100
AcDbSpline
 62
7
  6
BYLAYER
 70
0
 71
3
 72
11
 73
7
 74
0
 42
0.0000001
 43
0.0000001
 44
0.0000000001
 40
0.0
 40
0.0
 40
0.0
 40
0.0
 40
0.2465706227
 40
0.4945909619
 40
0.7453714525
 40
1.0
 40
1.0
 40
1.0
 40
1.0
 10
12.6933770756
 20
26.4291537252
 30
0.0
 10
12.7015508407
 20
26.4373274903
 30
0.0
 10
12.7167037072
 20
26.4550209103
 30
0.0
 10
12.7351709353
 20
26.4848396624
 30
0.0
 10
12.7490950079
 20
26.5174389486
 30
0.0
 10
12.7551351765
 20
26.5404501871
 30
0.0
 10
12.7573470362
 20
26.5521806905
 30
0.0
  0
SPLINE
  5
371
100
AcDbEntity
  8
0
100
AcDbSpline
 62
7
  6
BYLAYER
 70
0
 71
3
 72
9
 73
5
 74
0
 42
0.0000001
 43
0.0000001
 44
0.0000000001
 40
0.0
 40
0.0
 40
0.0
 40
0.0
 40
0.2469004396
 40
1.0
 40
1.0
 40
1.0
 40
1.0
 10
12.7611702552
 20
26.581703659
 30
0.0
 10
12.7615793474
 20
26.5873706633
 30
0.0
 10
12.7625039215
 20
26.6103721289
 30
0.0
 10
12.7605133055
 20
26.6334755742
 30
0.0
 10
12.7575170637
 20
26.6505451678
 30
0.0
  0
SPLINE
  5
372
100
AcDbEntity
  8
0
100
AcDbSpline
 62
7
  6
BYLAYER
 70
0
 71
3
 72
9
 73
5
 74
0
 42
0.0000001
 43
0.0000001
 44
0.0000000001
 40
0.0
 40
0.0
 40
0.0
 40
0.0
 40
0.2471742663
 40
1.0
 40
1.0
 40
1.0
 40
1.0
 10
12.7575170637
 20
26.6505451678
 30
0.0
 10
12.7564258691
 20
26.656761705
 30
0.0
 10
12.7512098758
 20
26.681766783
 30
0.0
 10
12.7428322827
 20
26.7060968383
 30
0.0
 10
12.7349922363
 20
26.7236487958
 30
0.0
  0
SPLINE
  5
373
100
AcDbEntity
  8
0
100
AcDbSpline
 62
7
  6
BYLAYER
 70
0
 71
3
 72
9
 73
5
 74
0
 42
0.0000001
 43
0.0000001
 44
0.0000000001
 40
0.0
 40
0.0
 40
0.0
 40
0.0
 40
0.4977401145
 40
1.0
 40
1.0
 40
1.0
 40
1.0
 10
12.7302650429
 20
26.7337639072
 30
0.0
 10
12.7220692757
 20
26.7505489523
 30
0.0
 10
12.7026970655
 20
26.7829199723
 30
0.0
 10
12.6782848193
 20
26.8116694429
 30
0.0
 10
12.664956772
 20
26.8249974903
 30
0.0
  0
SPLINE
  5
374
100
AcDbEntity
  8
0
100
AcDbSpline
 62
7
  6
BYLAYER
 70
0
 71
3
 72
11
 73
7
 74
0
 42
0.0000001
 43
0.0000001
 44
0.0000000001
 40
0.0
 40
0.0
 40
0.0
 40
0.0
 40
0.2546548907
 40
0.5073237102
 40
0.7562290844
 40
1.0
 40
1.0
 40
1.0
 40
1.0
 10
12.3821140595
 20
21.9578402027
 30
0.0
 10
12.3695262857
 20
21.9704279765
 30
0.0
 10
12.3424691851
 20
21.9936120347
 30
0.0
 10
12.2973069933
 20
22.0214925542
 30
0.0
 10
12.2490009791
 20
22.0415933314
 30
0.0
 10
12.2152720084
 20
22.0494645477
 30
0.0
 10
12.1984023288
 20
22.0518745019
 30
0.0
  0
SPLINE
  5
375
100
AcDbEntity
  8
0
100
AcDbSpline
 62
7
  6
BYLAYER
 70
0
 71
3
 72
11
 73
7
 74
0
 42
0.0000001
 43
0.0000001
 44
0.0000000001
 40
0.0
 40
0.0
 40
0.0
 40
0.0
 40
0.2596967138
 40
0.5118015948
 40
0.7577530516
 40
1.0
 40
1.0
 40
1.0
 40
1.0
 10
12.1984023288
 20
22.0518745019
 30
0.0
 10
12.1787115078
 20
22.0546874764
 30
0.0
 10
12.1391942579
 20
22.0562520716
 30
0.0
 10
12.0816152321
 20
22.0457358987
 30
0.0
 10
12.0292742623
 20
22.0225931828
 30
0.0
 10
11.9993901076
 20
21.9993803195
 30
0.0
 10
11.9862702944
 20
21.9862605064
 30
0.0
  0
SPLINE
  5
376
100
AcDbEntity
  8
0
100
AcDbSpline
 62
7
  6
BYLAYER
 70
0
 71
3
 72
9
 73
5
 74
0
 42
0.0000001
 43
0.0000001
 44
0.0000000001
 40
0.0
 40
0.0
 40
0.0
 40
0.0
 40
0.5024433754
 40
1.0
 40
1.0
 40
1.0
 40
1.0
 10
9.2569741515
 20
13.1170148697
 30
0.0
 10
9.2708497173
 20
13.1031393039
 30
0.0
 10
9.3008661663
 20
13.0778224491
 30
0.0
 10
9.3347747072
 20
13.0579981404
 30
0.0
 10
9.3523542817
 20
13.0497175954
 30
0.0
  0
SPLINE
  5
377
100
AcDbEntity
  8
0
100
AcDbSpline
 62
7
  6
BYLAYER
 70
0
 71
3
 72
9
 73
5
 74
0
 42
0.0000001
 43
0.0000001
 44
0.0000000001
 40
0.0
 40
0.0
 40
0.0
 40
0.0
 40
0.5047901033
 40
1.0
 40
1.0
 40
1.0
 40
1.0
 10
9.3574540029
 20
13.0473688289
 30
0.0
 10
9.3712668155
 20
13.0411506854
 30
0.0
 10
9.3995262825
 20
13.0307229736
 30
0.0
 10
9.4290121519
 20
13.0245057213
 30
0.0
 10
9.4437446566
 20
13.0225601024
 30
0.0
  0
SPLINE
  5
378
100
AcDbEntity
  8
0
100
AcDbSpline
 62
7
  6
BYLAYER
 70
0
 71
3
 72
11
 73
7
 74
0
 42
0.0000001
 43
0.0000001
 44
0.0000000001
 40
0.0
 40
0.0
 40
0.0
 40
0.0
 40
0.2596244799
 40
0.5116238584
 40
0.7574906043
 40
1.0
 40
1.0
 40
1.0
 40
1.0
 10
9.4437446566
 20
13.0225601024
 30
0.0
 10
9.463195661
 20
13.0199913443
 30
0.0
 10
9.5021805885
 20
13.0188095353
 30
0.0
 10
9.5588737343
 20
13.0296341624
 30
0.0
 10
9.6104221853
 20
13.0526619099
 30
0.0
 10
9.639859125
 20
13.0756357745
 30
0.0
 10
9.6528179165
 20
13.0885945661
 30
0.0
  0
SPLINE
  5
379
100
AcDbEntity
  8
0
100
AcDbSpline
 62
7
  6
BYLAYER
 70
0
 71
3
 72
9
 73
5
 74
0
 42
0.0000001
 43
0.0000001
 44
0.0000000001
 40
0.0
 40
0.0
 40
0.0
 40
0.0
 40
0.4974156677
 40
1.0
 40
1.0
 40
1.0
 40
1.0
 10
8.9457111353
 20
3.4957013473
 30
0.0
 10
8.9346576876
 20
3.4846478995
 30
0.0
 10
8.9147121695
 20
3.4600295518
 30
0.0
 10
8.9002707723
 20
3.4318428961
 30
0.0
 10
8.8944963535
 20
3.417141939
 30
0.0
  0
SPLINE
  5
37A
100
AcDbEntity
  8
0
100
AcDbSpline
 62
7
  6
BYLAYER
 70
0
 71
3
 72
9
 73
5
 74
0
 42
0.0000001
 43
0.0000001
 44
0.0000000001
 40
0.0
 40
0.0
 40
0.0
 40
0.0
 40
0.2480586117
 40
1.0
 40
1.0
 40
1.0
 40
1.0
 10
8.8944963535
 20
3.417141939
 30
0.0
 10
8.8929883316
 20
3.4133027013
 30
0.0
 10
8.8873105456
 20
3.3976701966
 30
0.0
 10
8.8832446277
 20
3.3814574426
 30
0.0
 10
8.8811003096
 20
3.3691391957
 30
0.0
  0
SPLINE
  5
37B
100
AcDbEntity
  8
0
100
AcDbSpline
 62
7
  6
BYLAYER
 70
0
 71
3
 72
9
 73
5
 74
0
 42
0.0000001
 43
0.0000001
 44
0.0000000001
 40
0.0
 40
0.0
 40
0.0
 40
0.0
 40
0.4944672196
 40
1.0
 40
1.0
 40
1.0
 40
1.0
 10
8.8811003096
 20
3.3691391957
 30
0.0
 10
8.8786738923
 20
3.3552004016
 30
0.0
 10
8.8761053752
 20
3.3265613249
 30
0.0
 10
8.8780514752
 20
3.297888965
 30
0.0
 10
8.8800971398
 20
3.2835693129
 30
0.0
  0
SPLINE
  5
37C
100
AcDbEntity
  8
0
100
AcDbSpline
 62
7
  6
BYLAYER
 70
0
 71
3
 72
11
 73
7
 74
0
 42
0.0000001
 43
0.0000001
 44
0.0000000001
 40
0.0
 40
0.0
 40
0.0
 40
0.0
 40
0.2465706227
 40
0.4945909619
 40
0.7453714525
 40
1.0
 40
1.0
 40
1.0
 40
1.0
 10
12.6933770756
 20
16.1291537252
 30
0.0
 10
12.7015508407
 20
16.1373274903
 30
0.0
 10
12.7167037072
 20
16.1550209103
 30
0.0
 10
12.7351709353
 20
16.1848396624
 30
0.0
 10
12.7490950079
 20
16.2174389486
 30
0.0
 10
12.7551351765
 20
16.2404501871
 30
0.0
 10
12.7573470362
 20
16.2521806905
 30
0.0
  0
SPLINE
  5
37D
100
AcDbEntity
  8
0
100
AcDbSpline
 62
7
  6
BYLAYER
 70
0
 71
3
 72
9
 73
5
 74
0
 42
0.0000001
 43
0.0000001
 44
0.0000000001
 40
0.0
 40
0.0
 40
0.0
 40
0.0
 40
0.2469004396
 40
1.0
 40
1.0
 40
1.0
 40
1.0
 10
12.7611702552
 20
16.281703659
 30
0.0
 10
12.7615793474
 20
16.2873706634
 30
0.0
 10
12.7625039215
 20
16.3103721289
 30
0.0
 10
12.7605133055
 20
16.3334755742
 30
0.0
 10
12.7575170637
 20
16.3505451678
 30
0.0
  0
SPLINE
  5
37E
100
AcDbEntity
  8
0
100
AcDbSpline
 62
7
  6
BYLAYER
 70
0
 71
3
 72
9
 73
5
 74
0
 42
0.0000001
 43
0.0000001
 44
0.0000000001
 40
0.0
 40
0.0
 40
0.0
 40
0.0
 40
0.2471742663
 40
1.0
 40
1.0
 40
1.0
 40
1.0
 10
12.7575170637
 20
16.3505451678
 30
0.0
 10
12.7564258691
 20
16.356761705
 30
0.0
 10
12.7512098758
 20
16.3817667831
 30
0.0
 10
12.7428322827
 20
16.4060968383
 30
0.0
 10
12.7349922363
 20
16.4236487958
 30
0.0
  0
SPLINE
  5
37F
100
AcDbEntity
  8
0
100
AcDbSpline
 62
7
  6
BYLAYER
 70
0
 71
3
 72
9
 73
5
 74
0
 42
0.0000001
 43
0.0000001
 44
0.0000000001
 40
0.0
 40
0.0
 40
0.0
 40
0.0
 40
0.4977401145
 40
1.0
 40
1.0
 40
1.0
 40
1.0
 10
12.7302650429
 20
16.4337639072
 30
0.0
 10
12.7220692757
 20
16.4505489523
 30
0.0
 10
12.7026970655
 20
16.4829199723
 30
0.0
 10
12.6782848193
 20
16.5116694429
 30
0.0
 10
12.664956772
 20
16.5249974903
 30
0.0
  0
SPLINE
  5
380
100
AcDbEntity
  8
0
100
AcDbSpline
 62
7
  6
BYLAYER
 70
0
 71
3
 72
11
 73
7
 74
0
 42
0.0000001
 43
0.0000001
 44
0.0000000001
 40
0.0
 40
0.0
 40
0.0
 40
0.0
 40
0.2436774618
 40
0.4925299857
 40
0.7452647728
 40
1.0
 40
1.0
 40
1.0
 40
1.0
 10
12.1984023288
 20
2.7229805705
 30
0.0
 10
12.2152655272
 20
2.7253895989
 30
0.0
 10
12.2489844327
 20
2.733257652
 30
0.0
 10
12.2972871821
 20
2.7533515671
 30
0.0
 10
12.3424555923
 20
2.7812345219
 30
0.0
 10
12.369522325
 20
2.8044231352
 30
0.0
 10
12.3821140595
 20
2.8170148697
 30
0.0
  0
SPLINE
  5
381
100
AcDbEntity
  8
0
100
AcDbSpline
 62
7
  6
BYLAYER
 70
0
 71
3
 72
11
 73
7
 74
0
 42
0.0000001
 43
0.0000001
 44
0.0000000001
 40
0.0
 40
0.0
 40
0.0
 40
0.0
 40
0.2546548907
 40
0.5073237102
 40
0.7562290844
 40
1.0
 40
1.0
 40
1.0
 40
1.0
 10
8.974131439
 20
21.6749974903
 30
0.0
 10
8.9615436652
 20
21.6624097164
 30
0.0
 10
8.938359607
 20
21.6353526158
 30
0.0
 10
8.9104790875
 20
21.590190424
 30
0.0
 10
8.8903783103
 20
21.5418844099
 30
0.0
 10
8.882507094
 20
21.5081554391
 30
0.0
 10
8.8800971398
 20
21.4912857595
 30
0.0
  0
SPLINE
  5
382
100
AcDbEntity
  8
0
100
AcDbSpline
 62
7
  6
BYLAYER
 70
0
 71
3
 72
9
 73
5
 74
0
 42
0.0000001
 43
0.0000001
 44
0.0000000001
 40
0.0
 40
0.0
 40
0.0
 40
0.0
 40
0.5050209309
 40
1.0
 40
1.0
 40
1.0
 40
1.0
 10
12.7322540463
 20
13.4952377124
 30
0.0
 10
12.7391135832
 20
13.5098004907
 30
0.0
 10
12.7505906399
 20
13.5396820849
 30
0.0
 10
12.7573458687
 20
13.5709865338
 30
0.0
 10
12.7594115393
 20
13.5866280874
 30
0.0
  0
SPLINE
  5
383
100
AcDbEntity
  8
0
100
AcDbSpline
 62
7
  6
BYLAYER
 70
0
 71
3
 72
11
 73
7
 74
0
 42
0.0000001
 43
0.0000001
 44
0.0000000001
 40
0.0
 40
0.0
 40
0.0
 40
0.0
 40
0.2596244799
 40
0.5116238584
 40
0.7574906043
 40
1.0
 40
1.0
 40
1.0
 40
1.0
 10
12.7594115393
 20
13.5866280874
 30
0.0
 10
12.7619802974
 20
13.6060790918
 30
0.0
 10
12.7631621064
 20
13.6450640192
 30
0.0
 10
12.7523374793
 20
13.7017571651
 30
0.0
 10
12.7293097318
 20
13.7533056161
 30
0.0
 10
12.7063358672
 20
13.7827425557
 30
0.0
 10
12.6933770756
 20
13.7957013473
 30
0.0
  0
SPLINE
  5
384
100
AcDbEntity
  8
0
100
AcDbSpline
 62
7
  6
BYLAYER
 70
0
 71
3
 72
9
 73
5
 74
0
 42
0.0000001
 43
0.0000001
 44
0.0000000001
 40
0.0
 40
0.0
 40
0.0
 40
0.0
 40
0.2534703255
 40
1.0
 40
1.0
 40
1.0
 40
1.0
 10
8.8800971398
 20
21.4912857595
 30
0.0
 10
8.8791983419
 20
21.4849941746
 30
0.0
 10
8.8764716596
 20
21.460064614
 30
0.0
 10
8.8770546667
 20
21.4347543392
 30
0.0
 10
8.8794979246
 20
21.4161961557
 30
0.0
  0
SPLINE
  5
385
100
AcDbEntity
  8
0
100
AcDbSpline
 62
7
  6
BYLAYER
 70
0
 71
3
 72
11
 73
7
 74
0
 42
0.0000001
 43
0.0000001
 44
0.0000000001
 40
0.0
 40
0.0
 40
0.0
 40
0.0
 40
0.2553396094
 40
0.506287701
 40
0.7542748788
 40
1.0
 40
1.0
 40
1.0
 40
1.0
 10
8.8794979246
 20
21.4161961557
 30
0.0
 10
8.8812176387
 20
21.4031337739
 30
0.0
 10
8.8866169134
 20
21.3774460447
 30
0.0
 10
8.9006447017
 20
21.3409620508
 30
0.0
 10
8.9202514012
 20
21.307719511
 30
0.0
 10
8.9367457231
 20
21.2881191374
 30
0.0
 10
8.9457111354
 20
21.2791537252
 30
0.0
  0
SPLINE
  5
386
100
AcDbEntity
  8
0
100
AcDbSpline
 62
7
  6
BYLAYER
 70
0
 71
3
 72
11
 73
7
 74
0
 42
0.0000001
 43
0.0000001
 44
0.0000000001
 40
0.0
 40
0.0
 40
0.0
 40
0.0
 40
0.2423441451
 40
0.4881543081
 40
0.7402139819
 40
1.0
 40
1.0
 40
1.0
 40
1.0
 10
11.9862702944
 20
2.7885945661
 30
0.0
 10
11.9993955662
 20
2.7754692943
 30
0.0
 10
12.0292633966
 20
2.7522353905
 30
0.0
 10
12.0816184841
 20
2.7291405937
 30
0.0
 10
12.1391810677
 20
2.7185867844
 30
0.0
 10
12.1787044446
 20
2.7201665871
 30
0.0
 10
12.1984023288
 20
2.7229805705
 30
0.0
  0
SPLINE
  5
387
100
AcDbEntity
  8
0
100
AcDbSpline
 62
7
  6
BYLAYER
 70
0
 71
3
 72
11
 73
7
 74
0
 42
0.0000001
 43
0.0000001
 44
0.0000000001
 40
0.0
 40
0.0
 40
0.0
 40
0.0
 40
0.2423441451
 40
0.4881543081
 40
0.7402139819
 40
1.0
 40
1.0
 40
1.0
 40
1.0
 10
11.9862702944
 20
13.0885945661
 30
0.0
 10
11.9993955662
 20
13.0754692943
 30
0.0
 10
12.0292633966
 20
13.0522353905
 30
0.0
 10
12.0816184841
 20
13.0291405937
 30
0.0
 10
12.1391810677
 20
13.0185867844
 30
0.0
 10
12.1787044446
 20
13.0201665871
 30
0.0
 10
12.1984023288
 20
13.0229805705
 30
0.0
  0
SPLINE
  5
388
100
AcDbEntity
  8
0
100
AcDbSpline
 62
7
  6
BYLAYER
 70
0
 71
3
 72
11
 73
7
 74
0
 42
0.0000001
 43
0.0000001
 44
0.0000000001
 40
0.0
 40
0.0
 40
0.0
 40
0.0
 40
0.2436774618
 40
0.4925299857
 40
0.7452647728
 40
1.0
 40
1.0
 40
1.0
 40
1.0
 10
12.1984023288
 20
13.0229805705
 30
0.0
 10
12.2152655272
 20
13.0253895989
 30
0.0
 10
12.2489844327
 20
13.033257652
 30
0.0
 10
12.2972871821
 20
13.0533515671
 30
0.0
 10
12.3424555923
 20
13.0812345219
 30
0.0
 10
12.369522325
 20
13.1044231352
 30
0.0
 10
12.3821140595
 20
13.1170148697
 30
0.0
  0
ELLIPSE
  5
389
100
AcDbEntity
  8
0
100
AcDbEllipse
 62
7
  6
BYLAYER
 10
9.5989084001
 20
10.7502205292
 30
0.0
 11
-0.2449489743
 21
0.2449489743
 31
0.0
 40
0.8660254038
 41
6.2831853072
 42
7.853981634
  0
ELLIPSE
  5
38A
100
AcDbEntity
  8
0
100
AcDbEllipse
 62
7
  6
BYLAYER
 10
9.5989084001
 20
19.1746345433
 30
0.0
 11
0.2449489743
 21
0.2449489743
 31
0.0
 40
0.8660254038
 41
7.8539816339
 42
9.4247779608
  0
ELLIPSE
  5
38B
100
AcDbEntity
  8
0
100
AcDbEllipse
 62
7
  6
BYLAYER
 10
12.0401798109
 20
8.8746345433
 30
0.0
 11
0.2449489743
 21
-0.2449489743
 31
0.0
 40
0.8660254038
 41
0.0000000001
 42
1.5707963268
  0
ELLIPSE
  5
38C
100
AcDbEntity
  8
0
100
AcDbEllipse
 62
7
  6
BYLAYER
 10
11.7573370984
 20
24.0417918308
 30
0.0
 11
-0.2449489743
 21
0.2449489743
 31
0.0
 40
0.8660254038
 41
7.853981634
 42
9.4247779608
  0
ELLIPSE
  5
38D
100
AcDbEntity
  8
0
100
AcDbEllipse
 62
7
  6
BYLAYER
 10
9.8817511126
 20
18.8917918308
 30
0.0
 11
-0.2449489743
 21
-0.2449489743
 31
0.0
 40
0.8660254038
 41
-0.0
 42
1.5707963269
  0
ELLIPSE
  5
38E
100
AcDbEntity
  8
0
100
AcDbEllipse
 62
7
  6
BYLAYER
 10
9.8817511126
 20
26.4830632416
 30
0.0
 11
0.2449489743
 21
-0.2449489743
 31
0.0
 40
0.8660254038
 41
1.570796327
 42
3.1415926536
  0
ELLIPSE
  5
38F
100
AcDbEntity
  8
0
100
AcDbEllipse
 62
7
  6
BYLAYER
 10
9.5989084001
 20
21.0502205292
 30
0.0
 11
-0.2449489743
 21
0.2449489743
 31
0.0
 40
0.8660254038
 41
-0.0
 42
1.5707963269
  0
ELLIPSE
  5
390
100
AcDbEntity
  8
0
100
AcDbEllipse
 62
7
  6
BYLAYER
 10
12.0401798109
 20
24.3246345433
 30
0.0
 11
0.2449489743
 21
-0.2449489743
 31
0.0
 40
0.8660254038
 41
0.0000000003
 42
1.570796327
  0
ELLIPSE
  5
391
100
AcDbEntity
  8
0
100
AcDbEllipse
 62
7
  6
BYLAYER
 10
12.0401798109
 20
21.0502205292
 30
0.0
 11
-0.2449489743
 21
-0.2449489743
 31
0.0
 40
0.8660254038
 41
1.5707963267
 42
3.1415926536
  0
ELLIPSE
  5
392
100
AcDbEntity
  8
0
100
AcDbEllipse
 62
7
  6
BYLAYER
 10
11.7573370984
 20
3.4417918308
 30
0.0
 11
-0.2449489743
 21
0.2449489743
 31
0.0
 40
0.8660254038
 41
1.5707963268
 42
3.1415926537
  0
ELLIPSE
  5
393
100
AcDbEntity
  8
0
100
AcDbEllipse
 62
7
  6
BYLAYER
 10
11.7573370984
 20
8.5917918308
 30
0.0
 11
-0.2449489743
 21
0.2449489743
 31
0.0
 40
0.8660254038
 41
1.5707963268
 42
3.1415926537
  0
ELLIPSE
  5
394
100
AcDbEntity
  8
0
100
AcDbEllipse
 62
7
  6
BYLAYER
 10
9.8817511126
 20
3.4417918308
 30
0.0
 11
-0.2449489743
 21
-0.2449489743
 31
0.0
 40
0.8660254038
 41
-0.0000000001
 42
1.5707963268
  0
ELLIPSE
  5
395
100
AcDbEntity
  8
0
100
AcDbEllipse
 62
7
  6
BYLAYER
 10
12.0401798109
 20
19.1746345433
 30
0.0
 11
0.2449489743
 21
-0.2449489743
 31
0.0
 40
0.8660254038
 41
0.0000000003
 42
1.5707963268
  0
ELLIPSE
  5
396
100
AcDbEntity
  8
0
100
AcDbEllipse
 62
7
  6
BYLAYER
 10
9.8817511126
 20
5.8830632416
 30
0.0
 11
0.2449489743
 21
-0.2449489743
 31
0.0
 40
0.8660254038
 41
1.5707963271
 42
3.1415926536
  0
ELLIPSE
  5
397
100
AcDbEntity
  8
0
100
AcDbEllipse
 62
7
  6
BYLAYER
 10
12.0401798109
 20
5.6002205292
 30
0.0
 11
-0.2449489743
 21
-0.2449489743
 31
0.0
 40
0.8660254038
 41
1.5707963267
 42
3.1415926536
  0
ELLIPSE
  5
398
100
AcDbEntity
  8
0
100
AcDbEllipse
 62
7
  6
BYLAYER
 10
9.8817511126
 20
8.5917918308
 30
0.0
 11
-0.2449489743
 21
-0.2449489743
 31
0.0
 40
0.8660254038
 41
-0.0000000001
 42
1.5707963268
  0
ELLIPSE
  5
399
100
AcDbEntity
  8
0
100
AcDbEllipse
 62
7
  6
BYLAYER
 10
9.5989084001
 20
8.8746345433
 30
0.0
 11
0.2449489743
 21
0.2449489743
 31
0.0
 40
0.8660254038
 41
1.5707963267
 42
3.1415926537
  0
ELLIPSE
  5
39A
100
AcDbEntity
  8
0
100
AcDbEllipse
 62
7
  6
BYLAYER
 10
11.7573370984
 20
5.8830632416
 30
0.0
 11
0.2449489743
 21
0.2449489743
 31
0.0
 40
0.8660254038
 41
-0.0000000003
 42
1.5707963268
  0
ELLIPSE
  5
39B
100
AcDbEntity
  8
0
100
AcDbEllipse
 62
7
  6
BYLAYER
 10
9.8817511126
 20
11.0330632416
 30
0.0
 11
0.2449489743
 21
-0.2449489743
 31
0.0
 40
0.8660254038
 41
1.5707963271
 42
3.1415926536
  0
ELLIPSE
  5
39C
100
AcDbEntity
  8
0
100
AcDbEllipse
 62
7
  6
BYLAYER
 10
9.5989084001
 20
24.3246345433
 30
0.0
 11
0.2449489743
 21
0.2449489743
 31
0.0
 40
0.8660254038
 41
7.8539816339
 42
9.4247779608
  0
ELLIPSE
  5
39D
100
AcDbEntity
  8
0
100
AcDbEllipse
 62
7
  6
BYLAYER
 10
11.7573370984
 20
11.0330632416
 30
0.0
 11
0.2449489743
 21
0.2449489743
 31
0.0
 40
0.8660254038
 41
-0.0000000003
 42
1.5707963268
  0
ELLIPSE
  5
39E
100
AcDbEntity
  8
0
100
AcDbEllipse
 62
7
  6
BYLAYER
 10
9.5989084001
 20
3.7246345433
 30
0.0
 11
0.2449489743
 21
0.2449489743
 31
0.0
 40
0.8660254038
 41
1.5707963267
 42
3.1415926537
  0
ELLIPSE
  5
39F
100
AcDbEntity
  8
0
100
AcDbEllipse
 62
7
  6
BYLAYER
 10
12.0401798109
 20
3.7246345433
 30
0.0
 11
0.2449489743
 21
-0.2449489743
 31
0.0
 40
0.8660254038
 41
0.0000000001
 42
1.5707963268
  0
ELLIPSE
  5
3A0
100
AcDbEntity
  8
0
100
AcDbEllipse
 62
7
  6
BYLAYER
 10
9.8817511126
 20
24.0417918308
 30
0.0
 11
-0.2449489743
 21
-0.2449489743
 31
0.0
 40
0.8660254038
 41
-0.0
 42
1.5707963269
  0
ELLIPSE
  5
3A1
100
AcDbEntity
  8
0
100
AcDbEllipse
 62
7
  6
BYLAYER
 10
12.0401798109
 20
10.7502205292
 30
0.0
 11
-0.2449489743
 21
-0.2449489743
 31
0.0
 40
0.8660254038
 41
1.5707963267
 42
3.1415926536
  0
ELLIPSE
  5
3A2
100
AcDbEntity
  8
0
100
AcDbEllipse
 62
7
  6
BYLAYER
 10
11.7573370984
 20
16.1830632416
 30
0.0
 11
0.2449489743
 21
0.2449489743
 31
0.0
 40
0.8660254038
 41
6.2831853069
 42
7.8539816339
  0
ELLIPSE
  5
3A3
100
AcDbEntity
  8
0
100
AcDbEllipse
 62
7
  6
BYLAYER
 10
9.8817511126
 20
16.1830632416
 30
0.0
 11
0.2449489743
 21
-0.2449489743
 31
0.0
 40
0.8660254038
 41
1.5707963271
 42
3.1415926536
  0
ELLIPSE
  5
3A4
100
AcDbEntity
  8
0
100
AcDbEllipse
 62
7
  6
BYLAYER
 10
11.7573370984
 20
18.8917918308
 30
0.0
 11
-0.2449489743
 21
0.2449489743
 31
0.0
 40
0.8660254038
 41
7.853981634
 42
9.4247779608
  0
ELLIPSE
  5
3A5
100
AcDbEntity
  8
0
100
AcDbEllipse
 62
7
  6
BYLAYER
 10
11.7573370984
 20
26.4830632416
 30
0.0
 11
0.2449489743
 21
0.2449489743
 31
0.0
 40
0.8660254038
 41
-0.0000000003
 42
1.5707963268
  0
ELLIPSE
  5
3A6
100
AcDbEntity
  8
0
100
AcDbEllipse
 62
7
  6
BYLAYER
 10
9.5989084001
 20
26.2002205292
 30
0.0
 11
-0.2449489743
 21
0.2449489743
 31
0.0
 40
0.8660254038
 41
-0.0
 42
1.5707963269
  0
ELLIPSE
  5
3A7
100
AcDbEntity
  8
0
100
AcDbEllipse
 62
7
  6
BYLAYER
 10
9.5989084001
 20
14.0246345433
 30
0.0
 11
0.2449489743
 21
0.2449489743
 31
0.0
 40
0.8660254038
 41
7.8539816339
 42
9.4247779608
  0
ELLIPSE
  5
3A8
100
AcDbEntity
  8
0
100
AcDbEllipse
 62
7
  6
BYLAYER
 10
9.8817511126
 20
13.7417918308
 30
0.0
 11
-0.2449489743
 21
-0.2449489743
 31
0.0
 40
0.8660254038
 41
-0.0000000001
 42
1.5707963268
  0
ELLIPSE
  5
3A9
100
AcDbEntity
  8
0
100
AcDbEllipse
 62
7
  6
BYLAYER
 10
9.5989084001
 20
15.9002205292
 30
0.0
 11
-0.2449489743
 21
0.2449489743
 31
0.0
 40
0.8660254038
 41
-0.0
 42
1.5707963269
  0
ELLIPSE
  5
3AA
100
AcDbEntity
  8
0
100
AcDbEllipse
 62
7
  6
BYLAYER
 10
11.7573370984
 20
21.3330632416
 30
0.0
 11
0.2449489743
 21
0.2449489743
 31
0.0
 40
0.8660254038
 41
6.2831853069
 42
7.8539816339
  0
ELLIPSE
  5
3AB
100
AcDbEntity
  8
0
100
AcDbEllipse
 62
7
  6
BYLAYER
 10
12.0401798109
 20
26.2002205292
 30
0.0
 11
-0.2449489743
 21
-0.2449489743
 31
0.0
 40
0.8660254038
 41
1.5707963267
 42
3.1415926536
  0
ELLIPSE
  5
3AC
100
AcDbEntity
  8
0
100
AcDbEllipse
 62
7
  6
BYLAYER
 10
9.8817511126
 20
21.3330632416
 30
0.0
 11
0.2449489743
 21
-0.2449489743
 31
0.0
 40
0.8660254038
 41
1.570796327
 42
3.1415926536
  0
ELLIPSE
  5
3AD
100
AcDbEntity
  8
0
100
AcDbEllipse
 62
7
  6
BYLAYER
 10
12.0401798109
 20
15.9002205292
 30
0.0
 11
-0.2449489743
 21
-0.2449489743
 31
0.0
 40
0.8660254038
 41
1.5707963267
 42
3.1415926536
  0
ELLIPSE
  5
3AE
100
AcDbEntity
  8
0
100
AcDbEllipse
 62
7
  6
BYLAYER
 10
9.5989084001
 20
5.6002205292
 30
0.0
 11
-0.2449489743
 21
0.2449489743
 31
0.0
 40
0.8660254038
 41
-0.0
 42
1.5707963269
  0
ELLIPSE
  5
3AF
100
AcDbEntity
  8
0
100
AcDbEllipse
 62
7
  6
BYLAYER
 10
12.0401798109
 20
14.0246345433
 30
0.0
 11
0.2449489743
 21
-0.2449489743
 31
0.0
 40
0.8660254038
 41
0.0000000001
 42
1.5707963268
  0
ELLIPSE
  5
3B0
100
AcDbEntity
  8
0
100
AcDbEllipse
 62
7
  6
BYLAYER
 10
11.7573370984
 20
13.7417918308
 30
0.0
 11
-0.2449489743
 21
0.2449489743
 31
0.0
 40
0.8660254038
 41
7.853981634
 42
9.4247779609
  0
ENDSEC
  0
SECTION
  2
OBJECTS
  0
DICTIONARY
  5
C
100
AcDbDictionary
280
0
281
1
  3
ACAD_GROUP
350
D
  3
ACAD_MLINESTYLE
350
17
  3
ACAD_LAYOUT
350
1A
  3
ACAD_PLOTSETTINGS
350
19
  3
ACAD_PLOTSTYLENAME
350
E
  0
DICTIONARY
  5
D
102
{ACAD_REACTORS
330
C
102
}
100
AcDbDictionary
280
0
281
1
  0
ACDBDICTIONARYWDFLT
  5
E
102
{ACAD_REACTORS
330
C
102
}
100
AcDbDictionary
281
1
  3
Normal
350
F
100
AcDbDictionaryWithDefault
340
F
  0
DICTIONARY
  5
17
102
{ACAD_REACTORS
330
C
102
}
100
AcDbDictionary
280
0
281
1
  3
Standard
350
18
  0
DICTIONARY
  5
19
102
{ACAD_REACTORS
330
C
102
}
100
AcDbDictionary
281
1
  0
DICTIONARY
  5
1A
102
{ACAD_REACTORS
330
C
102
}
100
AcDbDictionary
281
1
  3
Model
350
3B1
  3
Layout1
350
3B2
  0
ACDBPLACEHOLDER
  5
F
102
{ACAD_REACTORS
330
E
102
}
  0
MLINESTYLE
  5
18
102
{ACAD_REACTORS
330
17
102
}
100
AcDbMlineStyle
  2
STANDARD
 70
0
  3

 62
256
 51
90.0
 52
90.0
 71
2
 49
0.5
 62
256
  6
BYLAYER
 49
-0.5
 62
256
  6
BYLAYER
  0
LAYOUT
  5
3B1
102
{ACAD_REACTORS
330
1A
102
}
100
AcDbPlotSettings
  1

  2
none_device
  4

  6

 40
0.0
 41
0.0
 42
0.0
 43
0.0
 44
210.0
 45
297.0
 46
0.0
 47
0.0
 48
0.0
 49
0.0
140
0.0
141
0.0
142
1.0
143
1.0
 70
1024
 72
1
 73
0
 74
0
  7

 75
0
147
1.0
148
0.0
149
0.0
100
AcDbLayout
  1
Model
 70
0
 71
0
 10
0.0
 20
0.0
 11
210.0
 21
297.0
 12
0.0
 22
0.0
 32
0.0
 14
0.0
 24
0.0
 34
0.0
 15
0.0
 25
0.0
 35
0.0
146
0.0
 13
0.0
 23
0.0
 33
0.0
 16
1.0
 26
0.0
 36
0.0
 17
0.0
 27
1.0
 37
0.0
 76
0
330
210
345
0
346
0
  0
LAYOUT
  5
3B2
102
{ACAD_REACTORS
330
1A
102
}
100
AcDbPlotSettings
  1

  2
none_device
  4

  6

 40
0.0
 41
0.0
 42
0.0
 43
0.0
 44
210.0
 45
297.0
 46
0.0
 47
0.0
 48
0.0
 49
0.0
140
0.0
141
0.0
142
1.0
143
1.0
 70
0
 72
1
 73
0
 74
0
  7

 75
0
147
1.0
148
0.0
149
0.0
100
AcDbLayout
  1
Layout1
 70
0
 71
1
 10
0.0
 20
0.0
 11
210.0
 21
297.0
 12
0.0
 22
0.0
 32
0.0
 14
0.0
 24
0.0
 34
0.0
 15
0.0
 25
0.0
 35
0.0
146
0.0
 13
0.0
 23
0.0
 33
0.0
 16
1.0
 26
0.0
 36
0.0
 17
0.0
 27
1.0
 37
0.0
 76
0
330
211
345
0
346
0
  0
ENDSEC
  0
EOF
