999
DXF file: C:\Users\sesa63760\Dev\_Creo\CAD\MCADUE0001698_3D-CAD\drw0001_4.dxf
999
Pro/ENGINEER 2019471 by Parametric Technology Corporation
  0
SECTION
  2
HEADER
  9
$ACADVER
  1
AC1024
  9
$DWGCODEPAGE
  3
ANSI_1252
  9
$EXTMAX
 10
1301.6429038587
 20
1840.8949640288
 30
0.0
  9
$EXTMIN
 10
0.0
 20
0.0
 30
0.0
  9
$LIMMIN
 10
0.0
 20
0.0
  9
$LIMMAX
 10
1301.6429038587
 20
1840.8949640288
  9
$VIEWCTR
 10
650.8214519294
 20
920.4474820144
  9
$VIEWSIZE
 40
1840.8949640288
  9
$CLAYER
  8
0
  9
$LTSCALE
 40
119.9990791367
  9
$CELTYPE
  6
BYLAYER
  9
$DIMSCALE
 40
1.0
  9
$DIMASZ
 40
15.4957488555
  9
$DIMEXO
 40
1.0
  9
$DIMDLI
 40
82.9084546763
  9
$DIMEXE
 40
1.0
  9
$DIMCEN
 40
19.6362129496
  9
$DIMLFAC
 40
1.0
  9
$DIMBLK
  1
_FILLED
  9
$DIMALT
 70
0
  9
$DIMALTF
 40
0.0393700787
  9
$DIMTXT
 40
21.6940483976
  9
$DIMTOL
 70
1
  9
$DIMLIM
 70
0
  9
$DIMTFAC
 40
1.0
  9
$DIMTP
 40
0.01
  9
$DIMTM
 40
0.01
  9
$DIMGAP
 40
0.625
  9
$DIMDSEP
 70
46
  9
$AUNITS
 70
0
  9
$PDMODE
 70
3
  9
$PDSIZE
 40
0.3125
  9
$HANDSEED
  5
489
  9
$TILEMODE
 70
1
  9
$MEASUREMENT
 70
1
  9
$INSUNITS
 70
4
  0
ENDSEC
  0
SECTION
  2
CLASSES
  0
CLASS
  1
ACDBDICTIONARYWDFLT
  2
AcDbDictionaryWithDefault
  3
AutoCAD 2000
 90
0
 91
1
280
0
281
0
  0
CLASS
  1
ACDBPLACEHOLDER
  2
AcDbPlaceHolder
  3
AutoCAD 2000
 90
0
 91
1
280
0
281
0
  0
CLASS
  1
LAYOUT
  2
AcDbLayout
  3
AutoCAD 2000
 90
0
 91
0
280
0
281
0
  0
ENDSEC
  0
SECTION
  2
TABLES
  0
TABLE
  2
VPORT
  5
8
100
AcDbSymbolTable
 70
2
  0
VPORT
  5
1F4
100
AcDbSymbolTableRecord
100
AcDbViewportTableRecord
  2
*ACTIVE
 70
0
 10
0.0
 20
0.0
 11
1.0
 21
1.0
 12
650.8214519294
 22
920.4474820144
 13
0.0
 23
0.0
 14
1.0
 24
1.0
 15
0.0
 25
0.0
 16
0.0
 26
0.0
 36
1.0
 17
0.0
 27
0.0
 37
0.0
 40
1840.8949640288
 41
0.7070707071
 42
50.0
 43
0.0
 44
0.0
 50
0.0
 51
0.0
 71
0
 72
100
 73
1
 74
1
 75
0
 76
0
 77
0
 78
0
  0
ENDTAB
  0
TABLE
  2
LTYPE
  5
5
100
AcDbSymbolTable
 70
6
  0
LTYPE
  5
14
100
AcDbSymbolTableRecord
100
AcDbLinetypeTableRecord
  2
BYBLOCK
 70
0
  3

 72
65
 73
0
 40
0.0
  0
LTYPE
  5
15
100
AcDbSymbolTableRecord
100
AcDbLinetypeTableRecord
  2
BYLAYER
 70
0
  3

 72
65
 73
0
 40
0.0
  0
LTYPE
  5
16
100
AcDbSymbolTableRecord
100
AcDbLinetypeTableRecord
  2
CONTINUOUS
 70
64
  3
Solid line
 72
65
 73
0
 40
0.0
  0
LTYPE
  5
1F5
100
AcDbSymbolTableRecord
100
AcDbLinetypeTableRecord
  2
CENTER
 70
64
  3
____ _ ____ _ ____ _ ____ _ ____ _ ____ _ ____
 72
65
 73
4
 40
0.6
 49
0.375
 74
0
 49
-0.075
 74
0
 49
0.075
 74
0
 49
-0.075
 74
0
  0
LTYPE
  5
1F6
100
AcDbSymbolTableRecord
100
AcDbLinetypeTableRecord
  2
HIDDEN
 70
64
  3
- - - - - - - - - - - - - - - - - - - -
 72
65
 73
2
 40
0.2
 49
0.1
 74
0
 49
-0.1
 74
0
  0
LTYPE
  5
1F7
100
AcDbSymbolTableRecord
100
AcDbLinetypeTableRecord
  2
PHANTOM
 70
64
  3
_____ _ _ _____ _ _ _____ _ _ _____
 72
65
 73
6
 40
0.8
 49
0.45
 74
0
 49
-0.05
 74
0
 49
0.1
 74
0
 49
-0.05
 74
0
 49
0.1
 74
0
 49
-0.05
 74
0
  0
LTYPE
  5
1F8
100
AcDbSymbolTableRecord
100
AcDbLinetypeTableRecord
  2
DOT
 70
64
  3
. . . . . . . . . . . . . . . . . . . .
 72
65
 73
2
 40
0.2
 49
0.1
 74
0
 49
-0.1
 74
0
  0
LTYPE
  5
1F9
100
AcDbSymbolTableRecord
100
AcDbLinetypeTableRecord
  2
DASHED
 70
64
  3
- - - - - - - - - - - - - - - - - - - -
 72
65
 73
2
 40
0.2
 49
0.1
 74
0
 49
-0.1
 74
0
  0
ENDTAB
  0
TABLE
  2
LAYER
  5
2
100
AcDbSymbolTable
 70
36
  0
LAYER
  5
10
100
AcDbSymbolTableRecord
100
AcDbLayerTableRecord
  2
0
 70
0
 62
7
  6
CONTINUOUS
370
-3
390
F
  0
LAYER
  5
1FA
100
AcDbSymbolTableRecord
100
AcDbLayerTableRecord
  2
DEFAULT_1
 70
0
 62
7
  6
CENTER
370
-3
390
F
  0
LAYER
  5
1FB
100
AcDbSymbolTableRecord
100
AcDbLayerTableRecord
  2
DEFAULT_2
 70
0
 62
8
  6
HIDDEN
370
-3
390
F
  0
LAYER
  5
1FC
100
AcDbSymbolTableRecord
100
AcDbLayerTableRecord
  2
DEFAULT_3
 70
0
 62
7
  6
PHANTOM
370
-3
390
F
  0
LAYER
  5
1FD
100
AcDbSymbolTableRecord
100
AcDbLayerTableRecord
  2
00_COMPONENTS
 70
0
 62
7
  6
CONTINUOUS
370
-3
390
F
  0
LAYER
  5
1FE
100
AcDbSymbolTableRecord
100
AcDbLayerTableRecord
  2
01_1_DEFAULT_DATUMS
 70
0
 62
7
  6
CONTINUOUS
370
-3
390
F
  0
LAYER
  5
1FF
100
AcDbSymbolTableRecord
100
AcDbLayerTableRecord
  2
01_PLANES
 70
0
 62
7
  6
CONTINUOUS
370
-3
390
F
  0
LAYER
  5
200
100
AcDbSymbolTableRecord
100
AcDbLayerTableRecord
  2
02_COORD_SYS
 70
0
 62
7
  6
CONTINUOUS
370
-3
390
F
  0
LAYER
  5
201
100
AcDbSymbolTableRecord
100
AcDbLayerTableRecord
  2
03_AXES
 70
0
 62
7
  6
CONTINUOUS
370
-3
390
F
  0
LAYER
  5
202
100
AcDbSymbolTableRecord
100
AcDbLayerTableRecord
  2
04_POINTS
 70
0
 62
7
  6
CONTINUOUS
370
-3
390
F
  0
LAYER
  5
203
100
AcDbSymbolTableRecord
100
AcDbLayerTableRecord
  2
05_CURVES
 70
0
 62
7
  6
CONTINUOUS
370
-3
390
F
  0
LAYER
  5
204
100
AcDbSymbolTableRecord
100
AcDbLayerTableRecord
  2
06_SURFS
 70
0
 62
7
  6
CONTINUOUS
370
-3
390
F
  0
LAYER
  5
205
100
AcDbSymbolTableRecord
100
AcDbLayerTableRecord
  2
07_COSMETICS
 70
0
 62
7
  6
CONTINUOUS
370
-3
390
F
  0
LAYER
  5
206
100
AcDbSymbolTableRecord
100
AcDbLayerTableRecord
  2
10_NOTES
 70
0
 62
7
  6
CONTINUOUS
370
-3
390
F
  0
LAYER
  5
207
100
AcDbSymbolTableRecord
100
AcDbLayerTableRecord
  2
11_NOTES_PUB
 70
0
 62
7
  6
CONTINUOUS
370
-3
390
F
  0
LAYER
  5
208
100
AcDbSymbolTableRecord
100
AcDbLayerTableRecord
  2
13_REF_GTOL
 70
0
 62
7
  6
CONTINUOUS
370
-3
390
F
  0
LAYER
  5
209
100
AcDbSymbolTableRecord
100
AcDbLayerTableRecord
  2
16_MISC
 70
0
 62
7
  6
CONTINUOUS
370
-3
390
F
  0
LAYER
  5
20A
100
AcDbSymbolTableRecord
100
AcDbLayerTableRecord
  2
17_NO_PRINT
 70
0
 62
7
  6
CONTINUOUS
370
-3
390
F
  0
LAYER
  5
20B
100
AcDbSymbolTableRecord
100
AcDbLayerTableRecord
  2
18_DATUM_CAMS_JOINTS
 70
0
 62
7
  6
CONTINUOUS
370
-3
390
F
  0
LAYER
  5
20C
100
AcDbSymbolTableRecord
100
AcDbLayerTableRecord
  2
19_DATUM_FUNCTIONAL
 70
0
 62
7
  6
CONTINUOUS
370
-3
390
F
  0
LAYER
  5
20D
100
AcDbSymbolTableRecord
100
AcDbLayerTableRecord
  2
20_DATUM_KINEMATIC_SCHEME
 70
0
 62
7
  6
CONTINUOUS
370
-3
390
F
  0
LAYER
  5
20E
100
AcDbSymbolTableRecord
100
AcDbLayerTableRecord
  2
INTFCLR_223025
 70
0
 62
7
  6
CONTINUOUS
370
-3
390
F
  0
LAYER
  5
20F
100
AcDbSymbolTableRecord
100
AcDbLayerTableRecord
  2
INTFCLR_234749
 70
0
 62
7
  6
CONTINUOUS
370
-3
390
F
  0
ENDTAB
  0
TABLE
  2
STYLE
  5
3
100
AcDbSymbolTable
 70
1
  0
STYLE
  5
11
100
AcDbSymbolTableRecord
100
AcDbTextStyleTableRecord
  2
STANDARD
 70
0
 40
0.0
 41
0.8
 50
0.0
 71
0
 42
0.2
  3
txt
  4

  0
STYLE
  5
210
100
AcDbSymbolTableRecord
100
AcDbTextStyleTableRecord
  2
TEXTSTYLE_1
 70
0
 40
0.0
 41
0.8
 50
0.0
 71
0
 42
0.2
  3
gdt
  4

  0
ENDTAB
  0
TABLE
  2
VIEW
  5
6
100
AcDbSymbolTable
 70
0
  0
ENDTAB
  0
TABLE
  2
UCS
  5
7
100
AcDbSymbolTable
 70
0
  0
ENDTAB
  0
TABLE
  2
APPID
  5
9
100
AcDbSymbolTable
 70
1
  0
APPID
  5
211
100
AcDbSymbolTableRecord
100
AcDbRegAppTableRecord
  2
ACAD
 70
0
  0
ENDTAB
  0
TABLE
  2
BLOCK_RECORD
  5
1
100
AcDbSymbolTable
 70
0
  0
BLOCK_RECORD
  5
212
100
AcDbSymbolTableRecord
100
AcDbBlockTableRecord
  2
*Model_Space
  0
BLOCK_RECORD
  5
213
100
AcDbSymbolTableRecord
100
AcDbBlockTableRecord
  2
*Paper_Space
  0
BLOCK_RECORD
  5
214
100
AcDbSymbolTableRecord
100
AcDbBlockTableRecord
  2
_FILLED
  0
ENDTAB
  0
TABLE
  2
DIMSTYLE
  5
A
100
AcDbSymbolTable
 70
1
100
AcDbDimStyleTable
 71
0
  0
DIMSTYLE
105
215
100
AcDbSymbolTableRecord
100
AcDbDimStyleTableRecord
  2
STANDARD
 70
0
  3

  4

 40
1.0
 41
15.4957488555
 42
1.0
 43
0.38
 44
1.0
 45
0.0
 46
0.0
 47
0.01
 48
0.01
140
21.6940483976
141
0.09
142
0.0
143
25.4
144
1.0
145
0.0
146
1.0
147
0.625
 71
1
 72
0
 73
0
 74
0
 75
0
 76
0
 77
1
 78
8
 79
2
170
0
171
1
172
0
173
0
174
0
175
0
176
0
177
0
178
0
270
2
179
2
271
2
272
2
273
2
274
2
275
0
280
0
281
0
282
0
283
1
284
8
285
0
286
0
287
3
288
0
340
11
278
46
341
214
342
214
343
214
344
214
  0
ENDTAB
  0
ENDSEC
  0
SECTION
  2
BLOCKS
  0
BLOCK
  5
20
100
AcDbEntity
  8
0
100
AcDbBlockBegin
  2
*Model_Space
 70
0
 10
0.0
 20
0.0
 30
0.0
  3
*Model_Space
  1

  0
ENDBLK
  5
21
100
AcDbEntity
  8
0
100
AcDbBlockEnd
  0
BLOCK
  5
1C
100
AcDbEntity
  8
0
100
AcDbBlockBegin
  2
*Paper_Space
 70
0
 10
0.0
 20
0.0
 30
0.0
  3
*Paper_Space
  1

  0
ENDBLK
  5
1D
100
AcDbEntity
  8
0
100
AcDbBlockEnd
  0
BLOCK
  5
216
100
AcDbEntity
  8
0
100
AcDbBlockBegin
  2
_FILLED
 70
64
 10
0.0
 20
0.0
  3
_FILLED
  1

  0
SOLID
  5
217
100
AcDbEntity
  8
0
  6
BYBLOCK
 62
0
100
AcDbTrace
 10
0.0
 20
0.0
 11
-1.0
 21
0.25
 12
-1.0
 22
-0.25
 13
-1.0
 23
-0.25
  0
ENDBLK
  5
218
100
AcDbEntity
  8
0
  6
BYBLOCK
 62
0
100
AcDbBlockEnd
  0
ENDSEC
  0
SECTION
  2
ENTITIES
  0
LINE
  5
219
100
AcDbEntity
  8
0
100
AcDbLine
 62
7
  6
CONTINUOUS
 10
284.0207325049
 20
131.8143884892
 11
1051.4207325049
 21
131.8143884892
  0
LINE
  5
21A
100
AcDbEntity
  8
0
100
AcDbLine
 62
7
  6
CONTINUOUS
 10
283.2207325049
 20
133.6143884892
 11
284.0207325049
 21
133.6143884892
  0
LINE
  5
21B
100
AcDbEntity
  8
0
100
AcDbLine
 62
7
  6
CONTINUOUS
 10
1051.4207325049
 20
133.6143884892
 11
1052.2207325049
 21
133.6143884892
  0
LINE
  5
21C
100
AcDbEntity
  8
0
100
AcDbLine
 62
7
  6
CONTINUOUS
 10
285.0207325049
 20
133.919688647
 11
283.8313328203
 21
133.9196886469
  0
LINE
  5
21D
100
AcDbEntity
  8
0
100
AcDbLine
 62
7
  6
CONTINUOUS
 10
1050.4207325053
 20
133.9196886472
 11
1051.6101321906
 21
133.9196886456
  0
LINE
  5
21E
100
AcDbEntity
  8
0
100
AcDbLine
 62
7
  6
CONTINUOUS
 10
1048.6207325049
 20
135.4143884892
 11
286.8207325049
 21
135.4143884892
  0
LINE
  5
21F
100
AcDbEntity
  8
0
100
AcDbLine
 62
7
  6
CONTINUOUS
 10
965.2207325049
 20
245.8143884892
 11
370.2207325049
 21
245.8143884892
  0
LINE
  5
220
100
AcDbEntity
  8
0
100
AcDbLine
 62
7
  6
CONTINUOUS
 10
1051.8633977428
 20
1695.8356784534
 11
1051.6101856239
 21
1695.7090883303
  0
LINE
  5
221
100
AcDbEntity
  8
0
100
AcDbLine
 62
7
  6
CONTINUOUS
 10
1051.8512695291
 20
1695.8296601707
 11
1051.6101321872
 21
1695.7090883303
  0
LINE
  5
222
100
AcDbEntity
  8
0
100
AcDbLine
 62
7
  6
CONTINUOUS
 10
1051.61013219
 20
133.9196886464
 11
1052.2207325049
 21
133.6143884892
  0
LINE
  5
223
100
AcDbEntity
  8
0
100
AcDbLine
 62
7
  6
CONTINUOUS
 10
318.7656856791
 20
1008.6261210606
 11
318.7704031535
 21
1008.5226596875
  0
LINE
  5
224
100
AcDbEntity
  8
0
100
AcDbLine
 62
7
  6
CONTINUOUS
 10
319.8910602389
 20
864.2138661115
 11
319.8784231463
 21
880.9305968375
  0
LWPOLYLINE
  5
225
100
AcDbEntity
  8
0
100
AcDbPolyline
 62
7
  6
CONTINUOUS
 90
4
 70
0
 10
285.5788705485
 20
924.0641283703
 10
285.5800098668
 20
920.8246682043
 10
285.5800137778
 20
917.3255926451
 10
285.5788705486
 20
914.0646486106
  0
LINE
  5
226
100
AcDbEntity
  8
0
100
AcDbLine
 62
7
  6
CONTINUOUS
 10
319.8784231463
 20
880.9305968375
 11
319.8625944275
 21
914.0646486279
  0
LWPOLYLINE
  5
227
100
AcDbEntity
  8
0
100
AcDbPolyline
 62
7
  6
CONTINUOUS
 90
4
 70
0
 10
319.8625944613
 20
914.0646486081
 10
319.8614551428
 20
917.3041102561
 10
319.8614512323
 20
920.8031857953
 10
319.8625944613
 20
924.0641283055
  0
LWPOLYLINE
  5
228
100
AcDbEntity
  8
0
100
AcDbPolyline
 62
7
  6
CONTINUOUS
 90
4
 70
0
 10
319.8625947927
 20
924.0641281929
 10
319.8516423582
 20
949.0842357907
 10
319.8058225598
 20
975.7729488928
 10
319.7710150828
 20
1003.6088132802
  0
LINE
  5
229
100
AcDbEntity
  8
0
100
AcDbLine
 62
7
  6
CONTINUOUS
 10
283.2207325049
 20
1696.0143884892
 11
283.2207325049
 21
133.6143884892
  0
LINE
  5
22A
100
AcDbEntity
  8
0
100
AcDbLine
 62
7
  6
CONTINUOUS
 10
284.0207325049
 20
131.8143884892
 11
284.0207325049
 21
133.9196886471
  0
LINE
  5
22B
100
AcDbEntity
  8
0
100
AcDbLine
 62
7
  6
CONTINUOUS
 10
284.0207325049
 20
1695.7090883312
 11
284.0207325049
 21
1697.8143884892
  0
LINE
  5
22C
100
AcDbEntity
  8
0
100
AcDbLine
 62
7
  6
CONTINUOUS
 10
286.8207325049
 20
135.4143884892
 11
286.8207325049
 21
860.5387879308
  0
LINE
  5
22D
100
AcDbEntity
  8
0
100
AcDbLine
 62
7
  6
CONTINUOUS
 10
286.8207325049
 20
1008.88835442
 11
286.8207325049
 21
1694.2143884892
  0
LINE
  5
22E
100
AcDbEntity
  8
0
100
AcDbLine
 62
7
  6
CONTINUOUS
 10
289.0207325049
 20
793.0643884892
 11
289.0207325049
 21
857.7187340878
  0
LINE
  5
22F
100
AcDbEntity
  8
0
100
AcDbLine
 62
7
  6
CONTINUOUS
 10
289.0207325049
 20
1010.1186886441
 11
289.0207325049
 21
1026.5180694519
  0
LINE
  5
230
100
AcDbEntity
  8
0
100
AcDbLine
 62
7
  6
CONTINUOUS
 10
289.0207325049
 20
1026.6643884892
 11
289.0207325049
 21
1046.0643884892
  0
LINE
  5
231
100
AcDbEntity
  8
0
100
AcDbLine
 62
7
  6
CONTINUOUS
 10
290.5207325049
 20
851.1643884892
 11
290.5207325049
 21
808.9643884892
  0
LINE
  5
232
100
AcDbEntity
  8
0
100
AcDbLine
 62
7
  6
CONTINUOUS
 10
290.5207325049
 20
1010.2643625303
 11
290.5207325049
 21
1026.6643884892
  0
LINE
  5
233
100
AcDbEntity
  8
0
100
AcDbLine
 62
7
  6
CONTINUOUS
 10
290.5207325049
 20
1039.6996415821
 11
290.5207325049
 21
1046.0643884892
  0
LINE
  5
234
100
AcDbEntity
  8
0
100
AcDbLine
 62
7
  6
CONTINUOUS
 10
290.7207325049
 20
1010.2837857151
 11
290.7207325049
 21
1024.0643884892
  0
LINE
  5
235
100
AcDbEntity
  8
0
100
AcDbLine
 62
7
  6
CONTINUOUS
 10
291.5207325049
 20
793.0643884892
 11
291.5207325049
 21
808.9643884892
  0
LINE
  5
236
100
AcDbEntity
  8
0
100
AcDbLine
 62
7
  6
CONTINUOUS
 10
291.5207325049
 20
851.1643884892
 11
291.5207325049
 21
857.4180566174
  0
LINE
  5
237
100
AcDbEntity
  8
0
100
AcDbLine
 62
7
  6
CONTINUOUS
 10
291.5207325049
 20
1026.6643884892
 11
291.5207325049
 21
1039.9289728388
  0
LINE
  5
238
100
AcDbEntity
  8
0
100
AcDbLine
 62
7
  6
CONTINUOUS
 10
292.2207325049
 20
1024.0643884892
 11
292.2207325049
 21
1010.4294596013
  0
LINE
  5
239
100
AcDbEntity
  8
0
100
AcDbLine
 62
7
  6
CONTINUOUS
 10
292.7207325049
 20
1042.0643884892
 11
292.7207325049
 21
1043.0643884892
  0
LINE
  5
23A
100
AcDbEntity
  8
0
100
AcDbLine
 62
7
  6
CONTINUOUS
 10
293.2207325049
 20
1010.5265755254
 11
293.2207325049
 21
1024.0643884892
  0
LINE
  5
23B
100
AcDbEntity
  8
0
100
AcDbLine
 62
7
  6
CONTINUOUS
 10
293.2304413267
 20
974.6157540784
 11
293.2304413267
 21
972.2996249653
  0
LINE
  5
23C
100
AcDbEntity
  8
0
100
AcDbLine
 62
7
  6
CONTINUOUS
 10
293.2304413268
 20
966.3137937094
 11
293.2304413268
 21
965.7343306184
  0
LINE
  5
23D
100
AcDbEntity
  8
0
100
AcDbLine
 62
7
  6
CONTINUOUS
 10
293.2304413268
 20
943.3024875454
 11
293.2304413268
 21
940.9790779398
  0
LINE
  5
23E
100
AcDbEntity
  8
0
100
AcDbLine
 62
7
  6
CONTINUOUS
 10
293.2304413268
 20
930.1293725154
 11
293.2304413268
 21
928.9662077566
  0
LINE
  5
23F
100
AcDbEntity
  8
0
100
AcDbLine
 62
7
  6
CONTINUOUS
 10
293.6187903234
 20
966.6881362324
 11
293.6187903234
 21
966.7021377172
  0
LINE
  5
240
100
AcDbEntity
  8
0
100
AcDbLine
 62
7
  6
CONTINUOUS
 10
295.5605379888
 20
928.5756276142
 11
295.5605379888
 21
928.5896043363
  0
LINE
  5
241
100
AcDbEntity
  8
0
100
AcDbLine
 62
7
  6
CONTINUOUS
 10
296.5314118215
 20
1007.9607848586
 11
296.5314118215
 21
991.4060501279
  0
LINE
  5
242
100
AcDbEntity
  8
0
100
AcDbLine
 62
7
  6
CONTINUOUS
 10
296.5314118215
 20
985.8173352918
 11
296.5314118215
 21
983.5038334277
  0
LINE
  5
243
100
AcDbEntity
  8
0
100
AcDbLine
 62
7
  6
CONTINUOUS
 10
296.5314118215
 20
966.7147675883
 11
296.5314118215
 21
964.3968021402
  0
LINE
  5
244
100
AcDbEntity
  8
0
100
AcDbLine
 62
7
  6
CONTINUOUS
 10
296.5314118215
 20
951.0580468605
 11
296.5314118215
 21
948.7364446352
  0
LINE
  5
245
100
AcDbEntity
  8
0
100
AcDbLine
 62
7
  6
CONTINUOUS
 10
296.8999361781
 20
1010.8838847902
 11
296.8999361781
 21
1022.0643884892
  0
LINE
  5
246
100
AcDbEntity
  8
0
100
AcDbLine
 62
7
  6
CONTINUOUS
 10
297.1139366575
 20
989.2744952221
 11
297.1139366575
 21
989.2884987868
  0
LINE
  5
247
100
AcDbEntity
  8
0
100
AcDbLine
 62
7
  6
CONTINUOUS
 10
297.4707325049
 20
1030.0643884892
 11
297.4707325049
 21
1028.6643884892
  0
LINE
  5
248
100
AcDbEntity
  8
0
100
AcDbLine
 62
7
  6
CONTINUOUS
 10
298.0848104903
 20
952.2234310191
 11
298.0848104903
 21
952.8036798015
  0
LINE
  5
249
100
AcDbEntity
  8
0
100
AcDbLine
 62
7
  6
CONTINUOUS
 10
298.6673339852
 20
947.9547306503
 11
298.6673339852
 21
947.9686910636
  0
LINE
  5
24A
100
AcDbEntity
  8
0
100
AcDbLine
 62
7
  6
CONTINUOUS
 10
299.2498588213
 20
980.4257321949
 11
299.2498588213
 21
977.7251272794
  0
LINE
  5
24B
100
AcDbEntity
  8
0
100
AcDbLine
 62
7
  6
CONTINUOUS
 10
299.2498588213
 20
961.5060414226
 11
299.2498588213
 21
958.9935802187
  0
LINE
  5
24C
100
AcDbEntity
  8
0
100
AcDbLine
 62
7
  6
CONTINUOUS
 10
299.2498588213
 20
943.3108136007
 11
299.2498588213
 21
943.3247709516
  0
LINE
  5
24D
100
AcDbEntity
  8
0
100
AcDbLine
 62
7
  6
CONTINUOUS
 10
299.2498588213
 20
951.0515616398
 11
299.2498588213
 21
951.0655210416
  0
LINE
  5
24E
100
AcDbEntity
  8
0
100
AcDbLine
 62
7
  6
CONTINUOUS
 10
299.6382078179
 20
963.6182306778
 11
299.6382078179
 21
963.6321958847
  0
LINE
  5
24F
100
AcDbEntity
  8
0
100
AcDbLine
 62
7
  6
CONTINUOUS
 10
299.8323836573
 20
982.5341830625
 11
299.8323836573
 21
982.5481668493
  0
LINE
  5
250
100
AcDbEntity
  8
0
100
AcDbLine
 62
7
  6
CONTINUOUS
 10
300.4149071523
 20
958.8021998898
 11
300.4149071523
 21
963.6333842767
  0
LINE
  5
251
100
AcDbEntity
  8
0
100
AcDbLine
 62
7
  6
CONTINUOUS
 10
300.4149071523
 20
982.5350396738
 11
300.4149071523
 21
982.5490220878
  0
LINE
  5
252
100
AcDbEntity
  8
0
100
AcDbLine
 62
7
  6
CONTINUOUS
 10
300.5707325049
 20
798.6143884892
 11
300.5707325049
 21
800.5143884892
  0
LINE
  5
253
100
AcDbEntity
  8
0
100
AcDbLine
 62
7
  6
CONTINUOUS
 10
300.9974319884
 20
985.8133125381
 11
300.9974319884
 21
985.8272982646
  0
LINE
  5
254
100
AcDbEntity
  8
0
100
AcDbLine
 62
7
  6
CONTINUOUS
 10
301.385780985
 20
947.9589151589
 11
301.385780985
 21
947.9728687661
  0
LINE
  5
255
100
AcDbEntity
  8
0
100
AcDbLine
 62
7
  6
CONTINUOUS
 10
301.5799554833
 20
929.7671406755
 11
301.5799554833
 21
929.1855579385
  0
LINE
  5
256
100
AcDbEntity
  8
0
100
AcDbLine
 62
7
  6
CONTINUOUS
 10
302.1624803194
 20
980.2361812353
 11
302.1624803194
 21
979.657527965
  0
LINE
  5
257
100
AcDbEntity
  8
0
100
AcDbLine
 62
7
  6
CONTINUOUS
 10
302.1624803194
 20
961.1228846635
 11
302.1624803194
 21
960.7363793453
  0
LINE
  5
258
100
AcDbEntity
  8
0
100
AcDbLine
 62
7
  6
CONTINUOUS
 10
302.3566548177
 20
948.7473239742
 11
302.3566548177
 21
947.7798338601
  0
LINE
  5
259
100
AcDbEntity
  8
0
100
AcDbLine
 62
7
  6
CONTINUOUS
 10
303.5217031487
 20
941.0046406665
 11
303.5217031487
 21
943.3280301082
  0
LINE
  5
25A
100
AcDbEntity
  8
0
100
AcDbLine
 62
7
  6
CONTINUOUS
 10
303.5217031487
 20
953.583226454
 11
303.5217031487
 21
955.7103479288
  0
LINE
  5
25B
100
AcDbEntity
  8
0
100
AcDbLine
 62
7
  6
CONTINUOUS
 10
303.5217031487
 20
964.4074849826
 11
303.5217031487
 21
966.7254433813
  0
LINE
  5
25C
100
AcDbEntity
  8
0
100
AcDbLine
 62
7
  6
CONTINUOUS
 10
303.5217031487
 20
972.3249409399
 11
303.5217031487
 21
974.6410539383
  0
LINE
  5
25D
100
AcDbEntity
  8
0
100
AcDbLine
 62
7
  6
CONTINUOUS
 10
303.5217031487
 20
983.5144618502
 11
303.5217031487
 21
985.8279576914
  0
LINE
  5
25E
100
AcDbEntity
  8
0
100
AcDbLine
 62
7
  6
CONTINUOUS
 10
303.5217031487
 20
991.416658478
 11
303.5217031487
 21
1007.9713557172
  0
LINE
  5
25F
100
AcDbEntity
  8
0
100
AcDbLine
 62
7
  6
CONTINUOUS
 10
304.2207325049
 20
797.4863542842
 11
304.2207325049
 21
801.6323125981
  0
LINE
  5
260
100
AcDbEntity
  8
0
100
AcDbLine
 62
7
  6
CONTINUOUS
 10
304.2207325049
 20
1028.9363542842
 11
304.2207325049
 21
1031.1823125981
  0
LINE
  5
261
100
AcDbEntity
  8
0
100
AcDbLine
 62
7
  6
CONTINUOUS
 10
304.4925769814
 20
959.7692435132
 11
304.4925769814
 21
958.8028195589
  0
LINE
  5
262
100
AcDbEntity
  8
0
100
AcDbLine
 62
7
  6
CONTINUOUS
 10
304.4925769814
 20
957.0630216673
 11
304.4925769814
 21
953.5825137629
  0
LINE
  5
263
100
AcDbEntity
  8
0
100
AcDbLine
 62
7
  6
CONTINUOUS
 10
304.4925769814
 20
947.5854667421
 11
304.4925769814
 21
949.9073308096
  0
LINE
  5
264
100
AcDbEntity
  8
0
100
AcDbLine
 62
7
  6
CONTINUOUS
 10
304.8707325049
 20
800.5143884892
 11
304.8707325049
 21
798.6143884892
  0
LINE
  5
265
100
AcDbEntity
  8
0
100
AcDbLine
 62
7
  6
CONTINUOUS
 10
305.0751011469
 20
982.3561225361
 11
305.0751011469
 21
981.7775985704
  0
LINE
  5
266
100
AcDbEntity
  8
0
100
AcDbLine
 62
7
  6
CONTINUOUS
 10
305.4634508141
 20
949.7126114286
 11
305.4634508141
 21
948.1647305132
  0
LINE
  5
267
100
AcDbEntity
  8
0
100
AcDbLine
 62
7
  6
CONTINUOUS
 10
305.4634508141
 20
954.5481945443
 11
305.4634508141
 21
957.0617741053
  0
LINE
  5
268
100
AcDbEntity
  8
0
100
AcDbLine
 62
7
  6
CONTINUOUS
 10
305.8518004813
 20
981.3906892679
 11
305.8518004813
 21
982.3549185189
  0
LINE
  5
269
100
AcDbEntity
  8
0
100
AcDbLine
 62
7
  6
CONTINUOUS
 10
306.2401501485
 20
943.7118532489
 11
306.2401501485
 21
942.3566593651
  0
LINE
  5
26A
100
AcDbEntity
  8
0
100
AcDbLine
 62
7
  6
CONTINUOUS
 10
306.4343246469
 20
949.5173548724
 11
306.4343246469
 21
951.4519071697
  0
LINE
  5
26B
100
AcDbEntity
  8
0
100
AcDbLine
 62
7
  6
CONTINUOUS
 10
306.6284998157
 20
982.353375227
 11
306.6284998157
 21
981.3891456088
  0
LINE
  5
26C
100
AcDbEntity
  8
0
100
AcDbLine
 62
7
  6
CONTINUOUS
 10
306.6284998157
 20
977.5312919631
 11
306.6284998157
 21
976.5665922321
  0
LINE
  5
26D
100
AcDbEntity
  8
0
100
AcDbLine
 62
7
  6
CONTINUOUS
 10
306.6284998157
 20
974.6369109678
 11
306.6284998157
 21
973.4789208557
  0
LINE
  5
26E
100
AcDbEntity
  8
0
100
AcDbLine
 62
7
  6
CONTINUOUS
 10
307.0168488124
 20
956.8653351876
 11
307.0168488124
 21
954.5450842969
  0
LINE
  5
26F
100
AcDbEntity
  8
0
100
AcDbLine
 62
7
  6
CONTINUOUS
 10
307.0168488124
 20
951.0636962717
 11
307.0168488124
 21
949.1290683366
  0
LINE
  5
270
100
AcDbEntity
  8
0
100
AcDbLine
 62
7
  6
CONTINUOUS
 10
307.4051984795
 20
963.0490472751
 11
307.4051984795
 21
963.6286671197
  0
LINE
  5
271
100
AcDbEntity
  8
0
100
AcDbLine
 62
7
  6
CONTINUOUS
 10
307.4051984795
 20
973.47703397
 11
307.4051984795
 21
974.635024678
  0
LINE
  5
272
100
AcDbEntity
  8
0
100
AcDbLine
 62
7
  6
CONTINUOUS
 10
307.4051984795
 20
985.8219447976
 11
307.4051984795
 21
986.2074716762
  0
LINE
  5
273
100
AcDbEntity
  8
0
100
AcDbLine
 62
7
  6
CONTINUOUS
 10
307.4051984795
 20
968.8437224709
 11
307.4051987802
 21
968.8355927425
  0
LINE
  5
274
100
AcDbEntity
  8
0
100
AcDbLine
 62
7
  6
CONTINUOUS
 10
307.9707325049
 20
1028.6643884892
 11
307.9707325049
 21
1030.0643884892
  0
LINE
  5
275
100
AcDbEntity
  8
0
100
AcDbLine
 62
7
  6
CONTINUOUS
 10
307.9877226451
 20
964.2066103368
 11
307.9877226451
 21
962.4677526137
  0
LINE
  5
276
100
AcDbEntity
  8
0
100
AcDbLine
 62
7
  6
CONTINUOUS
 10
307.9877226451
 20
943.3202924595
 11
307.9877226451
 21
941.7714211985
  0
LINE
  5
277
100
AcDbEntity
  8
0
100
AcDbLine
 62
7
  6
CONTINUOUS
 10
307.9877226451
 20
949.1264243609
 11
307.9877226451
 21
950.8676094498
  0
LINE
  5
278
100
AcDbEntity
  8
0
100
AcDbLine
 62
7
  6
CONTINUOUS
 10
307.9877226451
 20
954.5424449598
 11
307.9877226451
 21
956.8626977852
  0
LINE
  5
279
100
AcDbEntity
  8
0
100
AcDbLine
 62
7
  6
CONTINUOUS
 10
308.5415288317
 20
1010.8849767145
 11
308.5415288317
 21
1022.0643884892
  0
LINE
  5
27A
100
AcDbEntity
  8
0
100
AcDbLine
 62
7
  6
CONTINUOUS
 10
308.5702471458
 20
985.0333838238
 11
308.5702471458
 21
985.0473826481
  0
LINE
  5
27B
100
AcDbEntity
  8
0
100
AcDbLine
 62
7
  6
CONTINUOUS
 10
308.7644219794
 20
950.2847473752
 11
308.7644219794
 21
948.7369520708
  0
LINE
  5
27C
100
AcDbEntity
  8
0
100
AcDbLine
 62
7
  6
CONTINUOUS
 10
308.7644219794
 20
962.465261637
 11
308.7644219794
 21
965.1700229213
  0
LINE
  5
27D
100
AcDbEntity
  8
0
100
AcDbLine
 62
7
  6
CONTINUOUS
 10
308.9585964778
 20
967.8593923079
 11
308.9585964778
 21
967.8733743927
  0
LINE
  5
27E
100
AcDbEntity
  8
0
100
AcDbLine
 62
7
  6
CONTINUOUS
 10
309.7352954769
 20
963.6209392382
 11
309.7352954769
 21
963.2345297325
  0
LINE
  5
27F
100
AcDbEntity
  8
0
100
AcDbLine
 62
7
  6
CONTINUOUS
 10
309.7352954769
 20
957.0499317505
 11
309.7352954769
 21
954.536342794
  0
LINE
  5
280
100
AcDbEntity
  8
0
100
AcDbLine
 62
7
  6
CONTINUOUS
 10
310.1236451441
 20
943.5061606225
 11
310.1236451441
 21
942.9253726106
  0
LINE
  5
281
100
AcDbEntity
  8
0
100
AcDbLine
 62
7
  6
CONTINUOUS
 10
310.511994476
 20
953.5661365418
 11
310.511994476
 21
957.0466623847
  0
LINE
  5
282
100
AcDbEntity
  8
0
100
AcDbLine
 62
7
  6
CONTINUOUS
 10
310.511994476
 20
958.7864690813
 11
310.511994476
 21
959.7528978801
  0
LINE
  5
283
100
AcDbEntity
  8
0
100
AcDbLine
 62
7
  6
CONTINUOUS
 10
310.511994476
 20
970.1703640271
 11
310.511994476
 21
970.1843582133
  0
LINE
  5
284
100
AcDbEntity
  8
0
100
AcDbLine
 62
7
  6
CONTINUOUS
 10
310.511994476
 20
974.8030523374
 11
310.511994476
 21
974.8170510487
  0
LINE
  5
285
100
AcDbEntity
  8
0
100
AcDbLine
 62
7
  6
CONTINUOUS
 10
310.511994476
 20
976.5537577545
 11
310.511994476
 21
977.5184608971
  0
LINE
  5
286
100
AcDbEntity
  8
0
100
AcDbLine
 62
7
  6
CONTINUOUS
 10
310.511994476
 20
981.3763279278
 11
310.511994476
 21
982.3405608271
  0
LINE
  5
287
100
AcDbEntity
  8
0
100
AcDbLine
 62
7
  6
CONTINUOUS
 10
312.0653926418
 20
943.6904542041
 11
312.0653926418
 21
945.2390352276
  0
LINE
  5
288
100
AcDbEntity
  8
0
100
AcDbLine
 62
7
  6
CONTINUOUS
 10
312.2207325049
 20
1024.0643884892
 11
312.2207325049
 21
1010.5271965926
  0
LINE
  5
289
100
AcDbEntity
  8
0
100
AcDbLine
 62
7
  6
CONTINUOUS
 10
312.7207325049
 20
1042.0643884892
 11
312.7207325049
 21
1043.0643884892
  0
LINE
  5
28A
100
AcDbEntity
  8
0
100
AcDbLine
 62
7
  6
CONTINUOUS
 10
313.2207325049
 20
1010.4299526904
 11
313.2207325049
 21
1024.0643884892
  0
LINE
  5
28B
100
AcDbEntity
  8
0
100
AcDbLine
 62
7
  6
CONTINUOUS
 10
313.9207325049
 20
1039.9289728388
 11
313.9207325049
 21
1026.6643884892
  0
LINE
  5
28C
100
AcDbEntity
  8
0
100
AcDbLine
 62
7
  6
CONTINUOUS
 10
313.9207325049
 20
857.418290407
 11
313.9207325049
 21
851.1643884892
  0
LINE
  5
28D
100
AcDbEntity
  8
0
100
AcDbLine
 62
7
  6
CONTINUOUS
 10
313.9207325049
 20
808.9643884892
 11
313.9207325049
 21
793.0643884892
  0
LINE
  5
28E
100
AcDbEntity
  8
0
100
AcDbLine
 62
7
  6
CONTINUOUS
 10
314.7207325049
 20
1010.2840868372
 11
314.7207325049
 21
1024.0643884892
  0
LINE
  5
28F
100
AcDbEntity
  8
0
100
AcDbLine
 62
7
  6
CONTINUOUS
 10
314.9207325049
 20
808.9643884892
 11
314.9207325049
 21
851.1643884892
  0
LINE
  5
290
100
AcDbEntity
  8
0
100
AcDbLine
 62
7
  6
CONTINUOUS
 10
314.9207325049
 20
1010.2646380568
 11
314.9207325049
 21
1026.6643884892
  0
LINE
  5
291
100
AcDbEntity
  8
0
100
AcDbLine
 62
7
  6
CONTINUOUS
 10
314.9207325049
 20
1039.6995929342
 11
314.9207325049
 21
1046.0643884892
  0
LINE
  5
292
100
AcDbEntity
  8
0
100
AcDbLine
 62
7
  6
CONTINUOUS
 10
316.4207325049
 20
793.0643884892
 11
316.4207325049
 21
857.7179759406
  0
LINE
  5
293
100
AcDbEntity
  8
0
100
AcDbLine
 62
7
  6
CONTINUOUS
 10
316.4207325049
 20
1010.1187722036
 11
316.4207325049
 21
1026.5180694519
  0
LINE
  5
294
100
AcDbEntity
  8
0
100
AcDbLine
 62
7
  6
CONTINUOUS
 10
316.4207325049
 20
1026.6643884892
 11
316.4207325049
 21
1046.0643884892
  0
LWPOLYLINE
  5
295
100
AcDbEntity
  8
0
100
AcDbPolyline
 62
7
  6
CONTINUOUS
 90
3
 70
0
 10
285.5788705824
 20
914.0646486321
 10
285.5630538126
 20
880.9519396969
 10
285.5504047555
 20
864.2138518017
  0
LWPOLYLINE
  5
296
100
AcDbEntity
  8
0
100
AcDbPolyline
 62
7
  6
CONTINUOUS
 90
4
 70
0
 10
285.670449885
 20
1003.6088160574
 10
285.6356813573
 20
975.7940922902
 10
285.5898496111
 20
949.1054136743
 10
285.5788703021
 20
924.0641282669
  0
LINE
  5
297
100
AcDbEntity
  8
0
100
AcDbLine
 62
7
  6
CONTINUOUS
 10
286.6759655138
 20
1008.6273767792
 11
286.6710577081
 21
1008.5226626957
  0
LINE
  5
298
100
AcDbEntity
  8
0
100
AcDbLine
 62
7
  6
CONTINUOUS
 10
307.0168488124
 20
941.774071748
 11
307.0770733561
 21
942.314389826
  0
LINE
  5
299
100
AcDbEntity
  8
0
100
AcDbLine
 62
7
  6
CONTINUOUS
 10
305.6422212562
 20
943.8143884892
 11
305.657625983
 21
943.9065108483
  0
LINE
  5
29A
100
AcDbEntity
  8
0
100
AcDbLine
 62
7
  6
CONTINUOUS
 10
285.6883125504
 20
1003.6914381515
 11
285.6751041979
 21
1003.6149827189
  0
LINE
  5
29B
100
AcDbEntity
  8
0
100
AcDbLine
 62
7
  6
CONTINUOUS
 10
285.6890521657
 20
1003.6914278503
 11
285.6751041979
 21
1003.6149827189
  0
LWPOLYLINE
  5
29C
100
AcDbEntity
  8
0
100
AcDbPolyline
 62
7
  6
CONTINUOUS
 90
4
 70
0
 10
286.6759530923
 20
1008.6268685171
 10
286.3287084536
 20
1007.0750110821
 10
285.9736942756
 20
1005.322458861
 10
285.6778023021
 20
1003.6934804694
  0
LINE
  5
29D
100
AcDbEntity
  8
0
100
AcDbLine
 62
7
  6
CONTINUOUS
 10
286.6761543291
 20
1008.6281667931
 11
286.6759655138
 21
1008.6273767792
  0
LINE
  5
29E
100
AcDbEntity
  8
0
100
AcDbLine
 62
7
  6
CONTINUOUS
 10
285.5540072001
 20
864.2104303572
 11
285.5962880418
 21
864.0802586958
  0
LWPOLYLINE
  5
29F
100
AcDbEntity
  8
0
100
AcDbPolyline
 62
7
  6
CONTINUOUS
 90
4
 70
0
 10
285.5708380449
 20
864.0719923245
 10
286.1676205693
 20
862.227898828
 10
286.9113191563
 20
860.3045081823
 10
287.7257244976
 20
858.4977924313
  0
LINE
  5
2A0
100
AcDbEntity
  8
0
100
AcDbLine
 62
7
  6
CONTINUOUS
 10
285.5540072001
 20
864.2104303572
 11
285.5924801524
 21
864.0803452828
  0
LINE
  5
2A1
100
AcDbEntity
  8
0
100
AcDbLine
 62
7
  6
CONTINUOUS
 10
287.7257244976
 20
858.4977924313
 11
287.6857630059
 21
858.7069833175
  0
LINE
  5
2A2
100
AcDbEntity
  8
0
100
AcDbLine
 62
7
  6
CONTINUOUS
 10
370.2207325049
 20
245.8143884892
 11
370.2207325049
 21
1583.8143884892
  0
LINE
  5
2A3
100
AcDbEntity
  8
0
100
AcDbLine
 62
7
  6
CONTINUOUS
 10
317.7159261881
 20
858.4984230231
 11
317.7555411798
 21
858.7073322888
  0
LINE
  5
2A4
100
AcDbEntity
  8
0
100
AcDbLine
 62
7
  6
CONTINUOUS
 10
319.8490696116
 20
864.0810784557
 11
319.8875832452
 21
864.2112970962
  0
LINE
  5
2A5
100
AcDbEntity
  8
0
100
AcDbLine
 62
7
  6
CONTINUOUS
 10
319.8452569345
 20
864.0809886219
 11
319.8875832452
 21
864.2112970962
  0
LWPOLYLINE
  5
2A6
100
AcDbEntity
  8
0
100
AcDbPolyline
 62
7
  6
CONTINUOUS
 90
4
 70
0
 10
317.71574656
 20
858.4977968181
 10
318.5265886671
 20
860.2960439041
 10
319.2708311288
 20
862.2194358094
 10
319.8706330671
 20
864.0720124541
  0
LINE
  5
2A7
100
AcDbEntity
  8
0
100
AcDbLine
 62
7
  6
CONTINUOUS
 10
294.9707325049
 20
1026.6643884892
 11
297.4707325049
 21
1028.6643884892
  0
LWPOLYLINE
  5
2A8
100
AcDbEntity
  8
0
100
AcDbPolyline
 62
7
  6
CONTINUOUS
 90
4
 70
0
 10
287.7279527475
 20
858.4934731751
 10
288.0905660427
 20
858.0845397464
 10
288.5051948674
 20
857.8559580572
 10
289.4145839499
 20
857.6139001151
  0
LINE
  5
2A9
100
AcDbEntity
  8
0
100
AcDbLine
 62
7
  6
CONTINUOUS
 10
318.765511767
 20
1008.6268689858
 11
318.7656856791
 21
1008.6261210606
  0
LINE
  5
2AA
100
AcDbEntity
  8
0
100
AcDbLine
 62
7
  6
CONTINUOUS
 10
319.7663616707
 20
1003.6149843693
 11
319.7524466914
 21
1003.6912478728
  0
LWPOLYLINE
  5
2AB
100
AcDbEntity
  8
0
100
AcDbPolyline
 62
7
  6
CONTINUOUS
 90
4
 70
0
 10
319.7636630252
 20
1003.6934782575
 10
319.4704457442
 20
1005.308491079
 10
319.1157389092
 20
1007.0610484444
 10
318.765511767
 20
1008.6268689858
  0
LINE
  5
2AC
100
AcDbEntity
  8
0
100
AcDbLine
 62
7
  6
CONTINUOUS
 10
319.7663616707
 20
1003.6149843693
 11
319.7531846233
 21
1003.6912579422
  0
LWPOLYLINE
  5
2AD
100
AcDbEntity
  8
0
100
AcDbPolyline
 62
7
  6
CONTINUOUS
 90
4
 70
0
 10
288.3603824575
 20
1010.0545559216
 10
287.5413599913
 20
1009.7395871861
 10
287.0924399364
 20
1009.3781730167
 10
286.6759655138
 20
1008.6273767792
  0
LWPOLYLINE
  5
2AE
100
AcDbEntity
  8
0
100
AcDbPolyline
 62
7
  6
CONTINUOUS
 90
4
 70
0
 10
318.7654996488
 20
1008.6273635036
 10
318.3632201211
 20
1009.3629041817
 10
317.9179850795
 20
1009.728583189
 10
317.0810883722
 20
1010.0545604886
  0
LINE
  5
2AF
100
AcDbEntity
  8
0
100
AcDbLine
 62
7
  6
CONTINUOUS
 10
316.4207325049
 20
793.0643884892
 11
289.0207325049
 21
793.0643884892
  0
LINE
  5
2B0
100
AcDbEntity
  8
0
100
AcDbLine
 62
7
  6
CONTINUOUS
 10
289.4146367206
 20
857.6138934157
 11
289.4143753071
 21
857.6139316621
  0
LINE
  5
2B1
100
AcDbEntity
  8
0
100
AcDbLine
 62
7
  6
CONTINUOUS
 10
307.9707325049
 20
1028.6643884892
 11
310.4707325049
 21
1026.6643884892
  0
LINE
  5
2B2
100
AcDbEntity
  8
0
100
AcDbLine
 62
7
  6
CONTINUOUS
 10
289.0207325049
 20
808.9643884892
 11
316.4207325049
 21
808.9643884892
  0
LINE
  5
2B3
100
AcDbEntity
  8
0
100
AcDbLine
 62
7
  6
CONTINUOUS
 10
316.4207325049
 20
809.9643884892
 11
314.9207325049
 21
809.9643884892
  0
LINE
  5
2B4
100
AcDbEntity
  8
0
100
AcDbLine
 62
7
  6
CONTINUOUS
 10
290.5207325049
 20
809.9643884892
 11
289.0207325049
 21
809.9643884892
  0
LINE
  5
2B5
100
AcDbEntity
  8
0
100
AcDbLine
 62
7
  6
CONTINUOUS
 10
289.0207325049
 20
810.4643884892
 11
290.5207325049
 21
810.4643884892
  0
LINE
  5
2B6
100
AcDbEntity
  8
0
100
AcDbLine
 62
7
  6
CONTINUOUS
 10
314.9207325049
 20
810.4643884892
 11
316.4207325049
 21
810.4643884892
  0
LINE
  5
2B7
100
AcDbEntity
  8
0
100
AcDbLine
 62
7
  6
CONTINUOUS
 10
289.0207325049
 20
811.4643884892
 11
290.5207325049
 21
811.4643884892
  0
LINE
  5
2B8
100
AcDbEntity
  8
0
100
AcDbLine
 62
7
  6
CONTINUOUS
 10
314.9207325049
 20
811.4643884892
 11
316.4207325049
 21
811.4643884892
  0
LINE
  5
2B9
100
AcDbEntity
  8
0
100
AcDbLine
 62
7
  6
CONTINUOUS
 10
316.4207325049
 20
812.9643884892
 11
314.9207325049
 21
812.9643884892
  0
LINE
  5
2BA
100
AcDbEntity
  8
0
100
AcDbLine
 62
7
  6
CONTINUOUS
 10
290.5207325049
 20
812.9643884892
 11
289.0207325049
 21
812.9643884892
  0
LINE
  5
2BB
100
AcDbEntity
  8
0
100
AcDbLine
 62
7
  6
CONTINUOUS
 10
289.0207325049
 20
847.1643884892
 11
290.5207325049
 21
847.1643884892
  0
LINE
  5
2BC
100
AcDbEntity
  8
0
100
AcDbLine
 62
7
  6
CONTINUOUS
 10
314.9207325049
 20
847.1643884892
 11
316.4207325049
 21
847.1643884892
  0
LINE
  5
2BD
100
AcDbEntity
  8
0
100
AcDbLine
 62
7
  6
CONTINUOUS
 10
316.4207325049
 20
848.6643884892
 11
314.9207325049
 21
848.6643884892
  0
LINE
  5
2BE
100
AcDbEntity
  8
0
100
AcDbLine
 62
7
  6
CONTINUOUS
 10
290.5207325049
 20
848.6643884892
 11
289.0207325049
 21
848.6643884892
  0
LINE
  5
2BF
100
AcDbEntity
  8
0
100
AcDbLine
 62
7
  6
CONTINUOUS
 10
316.4207325049
 20
849.6643884892
 11
314.9207325049
 21
849.6643884892
  0
LINE
  5
2C0
100
AcDbEntity
  8
0
100
AcDbLine
 62
7
  6
CONTINUOUS
 10
290.5207325049
 20
849.6643884892
 11
289.0207325049
 21
849.6643884892
  0
LINE
  5
2C1
100
AcDbEntity
  8
0
100
AcDbLine
 62
7
  6
CONTINUOUS
 10
289.0207325049
 20
850.1643884892
 11
290.5207325049
 21
850.1643884892
  0
LINE
  5
2C2
100
AcDbEntity
  8
0
100
AcDbLine
 62
7
  6
CONTINUOUS
 10
314.9207325049
 20
850.1643884892
 11
316.4207325049
 21
850.1643884892
  0
LINE
  5
2C3
100
AcDbEntity
  8
0
100
AcDbLine
 62
7
  6
CONTINUOUS
 10
316.4207325049
 20
851.1643884892
 11
310.2207325049
 21
851.1643884892
  0
LINE
  5
2C4
100
AcDbEntity
  8
0
100
AcDbLine
 62
7
  6
CONTINUOUS
 10
295.2207325049
 20
851.1643884892
 11
289.0207325049
 21
851.1643884892
  0
LWPOLYLINE
  5
2C5
100
AcDbEntity
  8
0
100
AcDbPolyline
 62
7
  6
CONTINUOUS
 90
4
 70
0
 10
289.414405196
 20
857.6140802566
 10
298.2044523245
 20
856.7960416641
 10
307.2157981604
 20
856.795045413
 10
316.0270601832
 20
857.6140802707
  0
LINE
  5
2C6
100
AcDbEntity
  8
0
100
AcDbLine
 62
7
  6
CONTINUOUS
 10
285.5822306469
 20
914.0643885517
 11
287.2768071297
 21
914.0643884892
  0
LINE
  5
2C7
100
AcDbEntity
  8
0
100
AcDbLine
 62
7
  6
CONTINUOUS
 10
319.8592353176
 20
914.0643885879
 11
318.1646578796
 21
914.0643884892
  0
LINE
  5
2C8
100
AcDbEntity
  8
0
100
AcDbLine
 62
7
  6
CONTINUOUS
 10
285.5788705486
 20
914.0646486106
 11
285.5822303568
 21
914.0643885536
  0
LINE
  5
2C9
100
AcDbEntity
  8
0
100
AcDbLine
 62
7
  6
CONTINUOUS
 10
319.8625944613
 20
924.0641283055
 11
319.8592351206
 21
924.0643883443
  0
LWPOLYLINE
  5
2CA
100
AcDbEntity
  8
0
100
AcDbPolyline
 62
7
  6
CONTINUOUS
 90
4
 70
0
 10
316.0268858909
 20
857.6139086602
 10
316.9250932838
 20
857.8512447127
 10
317.3400286001
 20
858.0767414274
 10
317.7135252544
 20
858.493499062
  0
LINE
  5
2CB
100
AcDbEntity
  8
0
100
AcDbLine
 62
7
  6
CONTINUOUS
 10
319.8625944275
 20
914.0646486279
 11
319.8592667241
 21
914.0643898017
  0
LINE
  5
2CC
100
AcDbEntity
  8
0
100
AcDbLine
 62
7
  6
CONTINUOUS
 10
285.5788703016
 20
924.0641283753
 11
285.5822318531
 21
924.0643884805
  0
LINE
  5
2CD
100
AcDbEntity
  8
0
100
AcDbLine
 62
7
  6
CONTINUOUS
 10
303.470732505
 20
941.0046139328
 11
303.5217031487
 21
941.0046406566
  0
LINE
  5
2CE
100
AcDbEntity
  8
0
100
AcDbLine
 62
7
  6
CONTINUOUS
 10
319.8592348306
 20
924.0643883874
 11
318.2423007526
 21
924.0643884894
  0
LINE
  5
2CF
100
AcDbEntity
  8
0
100
AcDbLine
 62
7
  6
CONTINUOUS
 10
285.5822314962
 20
924.0643884604
 11
287.1991642601
 21
924.0643884892
  0
LINE
  5
2D0
100
AcDbEntity
  8
0
100
AcDbLine
 62
7
  6
CONTINUOUS
 10
303.470732505
 20
953.5832318465
 11
303.5217031487
 21
953.5832264504
  0
LINE
  5
2D1
100
AcDbEntity
  8
0
100
AcDbLine
 62
7
  6
CONTINUOUS
 10
303.470732604
 20
972.3249634158
 11
303.5217031487
 21
972.3249409399
  0
LINE
  5
2D2
100
AcDbEntity
  8
0
100
AcDbLine
 62
7
  6
CONTINUOUS
 10
303.470732505
 20
972.3249622866
 11
303.5217031487
 21
972.3249409399
  0
LWPOLYLINE
  5
2D3
100
AcDbEntity
  8
0
100
AcDbPolyline
 62
7
  6
CONTINUOUS
 90
3
 70
0
 10
317.0810852594
 20
1010.054556925
 10
302.7301833173
 20
1011.450094629
 10
288.3603856404
 20
1010.0545584481
  0
LINE
  5
2D4
100
AcDbEntity
  8
0
100
AcDbLine
 62
7
  6
CONTINUOUS
 10
317.0425716462
 20
1009.6492314865
 11
317.0175312877
 21
1009.653196537
  0
LINE
  5
2D5
100
AcDbEntity
  8
0
100
AcDbLine
 62
7
  6
CONTINUOUS
 10
317.0425716462
 20
1009.6492314865
 11
317.0178330776
 21
1009.6545113101
  0
LINE
  5
2D6
100
AcDbEntity
  8
0
100
AcDbLine
 62
7
  6
CONTINUOUS
 10
303.470732505
 20
983.5144512424
 11
303.5217031487
 21
983.5144618436
  0
LINE
  5
2D7
100
AcDbEntity
  8
0
100
AcDbLine
 62
7
  6
CONTINUOUS
 10
314.7207325049
 20
1011.6253011927
 11
313.2207325049
 21
1011.6253011927
  0
LINE
  5
2D8
100
AcDbEntity
  8
0
100
AcDbLine
 62
7
  6
CONTINUOUS
 10
292.2207325049
 20
1011.6253011927
 11
290.7207325049
 21
1011.6253011927
  0
LINE
  5
2D9
100
AcDbEntity
  8
0
100
AcDbLine
 62
7
  6
CONTINUOUS
 10
290.7207325049
 20
1017.0643884892
 11
292.2207325049
 21
1017.0643884892
  0
LINE
  5
2DA
100
AcDbEntity
  8
0
100
AcDbLine
 62
7
  6
CONTINUOUS
 10
313.2207325049
 20
1017.0643884892
 11
314.7207325049
 21
1017.0643884892
  0
LINE
  5
2DB
100
AcDbEntity
  8
0
100
AcDbLine
 62
7
  6
CONTINUOUS
 10
289.0207325049
 20
1017.6559738009
 11
290.5207325049
 21
1017.6559738009
  0
LINE
  5
2DC
100
AcDbEntity
  8
0
100
AcDbLine
 62
7
  6
CONTINUOUS
 10
314.9207325049
 20
1017.6559738009
 11
316.4207325049
 21
1017.6559738009
  0
LINE
  5
2DD
100
AcDbEntity
  8
0
100
AcDbLine
 62
7
  6
CONTINUOUS
 10
316.4207325049
 20
1019.0643884892
 11
314.9207325049
 21
1019.0643884892
  0
LINE
  5
2DE
100
AcDbEntity
  8
0
100
AcDbLine
 62
7
  6
CONTINUOUS
 10
290.5207325049
 20
1019.0643884892
 11
289.0207325049
 21
1019.0643884892
  0
LINE
  5
2DF
100
AcDbEntity
  8
0
100
AcDbLine
 62
7
  6
CONTINUOUS
 10
314.7207325049
 20
1019.5392622234
 11
313.2207325049
 21
1019.5392622234
  0
LINE
  5
2E0
100
AcDbEntity
  8
0
100
AcDbLine
 62
7
  6
CONTINUOUS
 10
292.2207325049
 20
1019.5392622234
 11
290.7207325049
 21
1019.5392622234
  0
LINE
  5
2E1
100
AcDbEntity
  8
0
100
AcDbLine
 62
7
  6
CONTINUOUS
 10
289.0207325049
 20
1020.0643884892
 11
290.5207325049
 21
1020.0643884892
  0
LINE
  5
2E2
100
AcDbEntity
  8
0
100
AcDbLine
 62
7
  6
CONTINUOUS
 10
314.9207325049
 20
1020.0643884892
 11
316.4207325049
 21
1020.0643884892
  0
LINE
  5
2E3
100
AcDbEntity
  8
0
100
AcDbLine
 62
7
  6
CONTINUOUS
 10
290.7207325049
 20
1020.5643884892
 11
292.2207325049
 21
1020.5643884892
  0
LINE
  5
2E4
100
AcDbEntity
  8
0
100
AcDbLine
 62
7
  6
CONTINUOUS
 10
313.2207325049
 20
1020.5643884892
 11
314.7207325049
 21
1020.5643884892
  0
LINE
  5
2E5
100
AcDbEntity
  8
0
100
AcDbLine
 62
7
  6
CONTINUOUS
 10
316.4207325049
 20
1024.0643884892
 11
314.9207325049
 21
1024.0643884892
  0
LINE
  5
2E6
100
AcDbEntity
  8
0
100
AcDbLine
 62
7
  6
CONTINUOUS
 10
290.5207325049
 20
1024.0643884892
 11
289.0207325049
 21
1024.0643884892
  0
LINE
  5
2E7
100
AcDbEntity
  8
0
100
AcDbLine
 62
7
  6
CONTINUOUS
 10
290.7207325049
 20
1024.0643884892
 11
294.8999361781
 21
1024.0643884892
  0
LINE
  5
2E8
100
AcDbEntity
  8
0
100
AcDbLine
 62
7
  6
CONTINUOUS
 10
310.5415288317
 20
1024.0643884892
 11
314.7207325049
 21
1024.0643884892
  0
LINE
  5
2E9
100
AcDbEntity
  8
0
100
AcDbLine
 62
7
  6
CONTINUOUS
 10
316.4207325049
 20
1025.0643884892
 11
314.9207325049
 21
1025.0643884892
  0
LINE
  5
2EA
100
AcDbEntity
  8
0
100
AcDbLine
 62
7
  6
CONTINUOUS
 10
290.5207325049
 20
1025.0643884892
 11
289.0207325049
 21
1025.0643884892
  0
LINE
  5
2EB
100
AcDbEntity
  8
0
100
AcDbLine
 62
7
  6
CONTINUOUS
 10
289.0207325049
 20
1025.6643884892
 11
290.5207325049
 21
1025.6643884892
  0
LINE
  5
2EC
100
AcDbEntity
  8
0
100
AcDbLine
 62
7
  6
CONTINUOUS
 10
314.9207325049
 20
1025.6643884892
 11
316.4207325049
 21
1025.6643884892
  0
LINE
  5
2ED
100
AcDbEntity
  8
0
100
AcDbLine
 62
7
  6
CONTINUOUS
 10
289.0207325049
 20
1026.5180694519
 11
290.5207325049
 21
1026.5180694519
  0
LINE
  5
2EE
100
AcDbEntity
  8
0
100
AcDbLine
 62
7
  6
CONTINUOUS
 10
314.9207325049
 20
1026.5180694519
 11
316.4207325049
 21
1026.5180694519
  0
LINE
  5
2EF
100
AcDbEntity
  8
0
100
AcDbLine
 62
7
  6
CONTINUOUS
 10
316.2670196958
 20
1026.6643884892
 11
310.4707325049
 21
1026.6643884892
  0
LINE
  5
2F0
100
AcDbEntity
  8
0
100
AcDbLine
 62
7
  6
CONTINUOUS
 10
294.9707325049
 20
1026.6643884892
 11
289.174445314
 21
1026.6643884892
  0
LINE
  5
2F1
100
AcDbEntity
  8
0
100
AcDbLine
 62
7
  6
CONTINUOUS
 10
288.425061785
 20
1009.6548608822
 11
288.3988954423
 21
1009.6492319495
  0
LINE
  5
2F2
100
AcDbEntity
  8
0
100
AcDbLine
 62
7
  6
CONTINUOUS
 10
288.4253682183
 20
1009.6535215025
 11
288.3988954423
 21
1009.6492319495
  0
LINE
  5
2F3
100
AcDbEntity
  8
0
100
AcDbLine
 62
7
  6
CONTINUOUS
 10
316.4207325049
 20
1039.7822897054
 11
314.9207325049
 21
1039.7822897054
  0
LINE
  5
2F4
100
AcDbEntity
  8
0
100
AcDbLine
 62
7
  6
CONTINUOUS
 10
290.5207325049
 20
1039.7822897054
 11
289.0207325049
 21
1039.7822897054
  0
LINE
  5
2F5
100
AcDbEntity
  8
0
100
AcDbLine
 62
7
  6
CONTINUOUS
 10
316.4207325049
 20
1042.0643884892
 11
314.9207325049
 21
1042.0643884892
  0
LINE
  5
2F6
100
AcDbEntity
  8
0
100
AcDbLine
 62
7
  6
CONTINUOUS
 10
290.5207325049
 20
1042.0643884892
 11
289.0207325049
 21
1042.0643884892
  0
LINE
  5
2F7
100
AcDbEntity
  8
0
100
AcDbLine
 62
7
  6
CONTINUOUS
 10
289.0207325049
 20
1044.0643884892
 11
290.5207325049
 21
1044.0643884892
  0
LINE
  5
2F8
100
AcDbEntity
  8
0
100
AcDbLine
 62
7
  6
CONTINUOUS
 10
314.9207325049
 20
1044.0643884892
 11
316.4207325049
 21
1044.0643884892
  0
LINE
  5
2F9
100
AcDbEntity
  8
0
100
AcDbLine
 62
7
  6
CONTINUOUS
 10
294.7207325049
 20
1045.0643884892
 11
310.7207325049
 21
1045.0643884892
  0
LINE
  5
2FA
100
AcDbEntity
  8
0
100
AcDbLine
 62
7
  6
CONTINUOUS
 10
316.4207325049
 20
1046.0643884892
 11
314.9207325049
 21
1046.0643884892
  0
LINE
  5
2FB
100
AcDbEntity
  8
0
100
AcDbLine
 62
7
  6
CONTINUOUS
 10
290.5207325049
 20
1046.0643884892
 11
289.0207325049
 21
1046.0643884892
  0
LINE
  5
2FC
100
AcDbEntity
  8
0
100
AcDbLine
 62
7
  6
CONTINUOUS
 10
965.2207325049
 20
1583.8143884892
 11
965.2207325049
 21
245.8143884892
  0
LINE
  5
2FD
100
AcDbEntity
  8
0
100
AcDbLine
 62
7
  6
CONTINUOUS
 10
1048.6207325049
 20
1694.2143884892
 11
1048.6207325049
 21
135.4143884892
  0
LINE
  5
2FE
100
AcDbEntity
  8
0
100
AcDbLine
 62
7
  6
CONTINUOUS
 10
1051.4207325049
 20
1697.8143884892
 11
1051.4207325049
 21
1695.7090883304
  0
LINE
  5
2FF
100
AcDbEntity
  8
0
100
AcDbLine
 62
7
  6
CONTINUOUS
 10
1051.4207325049
 20
133.9196886471
 11
1051.4207325049
 21
131.8143884892
  0
LINE
  5
300
100
AcDbEntity
  8
0
100
AcDbLine
 62
7
  6
CONTINUOUS
 10
1052.2207325049
 20
133.6143884892
 11
1052.2207325049
 21
1696.0143884892
  0
LINE
  5
301
100
AcDbEntity
  8
0
100
AcDbLine
 62
7
  6
CONTINUOUS
 10
283.590189531
 20
133.7991114105
 11
283.8313328203
 21
133.9196886467
  0
LINE
  5
302
100
AcDbEntity
  8
0
100
AcDbLine
 62
7
  6
CONTINUOUS
 10
283.2207325049
 20
133.6143884892
 11
283.590189531
 21
133.7991114105
  0
LINE
  5
303
100
AcDbEntity
  8
0
100
AcDbLine
 62
7
  6
CONTINUOUS
 10
283.8313328203
 20
1695.7090883317
 11
283.2207325049
 21
1696.0143884892
  0
LINE
  5
304
100
AcDbEntity
  8
0
100
AcDbLine
 62
7
  6
CONTINUOUS
 10
370.2207325049
 20
1583.8143884892
 11
965.2207325049
 21
1583.8143884892
  0
LINE
  5
305
100
AcDbEntity
  8
0
100
AcDbLine
 62
7
  6
CONTINUOUS
 10
286.8207325049
 20
1694.2143884892
 11
1048.6207325049
 21
1694.2143884892
  0
LINE
  5
306
100
AcDbEntity
  8
0
100
AcDbLine
 62
7
  6
CONTINUOUS
 10
285.0207325046
 20
1695.7090883311
 11
283.8313328198
 21
1695.7090883324
  0
LINE
  5
307
100
AcDbEntity
  8
0
100
AcDbLine
 62
7
  6
CONTINUOUS
 10
1050.4207325049
 20
1695.7090883304
 11
1051.6101321872
 21
1695.7090883303
  0
LINE
  5
308
100
AcDbEntity
  8
0
100
AcDbLine
 62
7
  6
CONTINUOUS
 10
1052.2207325049
 20
1696.0143884892
 11
1051.4207325049
 21
1696.0143884892
  0
LINE
  5
309
100
AcDbEntity
  8
0
100
AcDbLine
 62
7
  6
CONTINUOUS
 10
284.0207325049
 20
1696.0143884892
 11
283.2207325049
 21
1696.0143884892
  0
LINE
  5
30A
100
AcDbEntity
  8
0
100
AcDbLine
 62
7
  6
CONTINUOUS
 10
1051.4207325049
 20
1697.8143884892
 11
284.0207325049
 21
1697.8143884892
  0
ARC
  5
30B
100
AcDbEntity
  8
0
100
AcDbCircle
 62
7
  6
CONTINUOUS
 10
302.7119726171
 20
-879.2116827497
 40
1838.015114368
100
AcDbArc
 50
89.7737187949
 51
89.9444938526
  0
ARC
  5
30C
100
AcDbEntity
  8
0
100
AcDbCircle
 62
7
  6
CONTINUOUS
 10
302.7121129496
 20
-789.1727587164
 40
1763.8139996886
100
AcDbArc
 50
89.9737012501
 51
90.3080043493
  0
ARC
  5
30D
100
AcDbEntity
  8
0
100
AcDbCircle
 62
7
  6
CONTINUOUS
 10
302.6851905367
 20
-798.4870028601
 40
1741.8151512592
100
AcDbArc
 50
90.1768755104
 51
90.3110088266
  0
ARC
  5
30E
100
AcDbEntity
  8
0
100
AcDbCircle
 62
7
  6
CONTINUOUS
 10
274.628396343
 20
145.7606957257
 40
15.8994725254
100
AcDbArc
 50
308.9449410382
 51
310.4989955967
  0
ARC
  5
30F
100
AcDbEntity
  8
0
100
AcDbCircle
 62
7
  6
CONTINUOUS
 10
276.341150596
 20
143.6443849883
 40
13.1769196446
100
AcDbArc
 50
307.4239463706
 51
308.9369455158
  0
ARC
  5
310
100
AcDbEntity
  8
0
100
AcDbCircle
 62
7
  6
CONTINUOUS
 10
290.3748588982
 20
123.6418613134
 40
12.210336962
100
AcDbArc
 50
116.1261487738
 51
118.0928581198
  0
ARC
  5
311
100
AcDbEntity
  8
0
100
AcDbCircle
 62
7
  6
CONTINUOUS
 10
277.6165804435
 20
141.9737242183
 40
11.0750580935
100
AcDbArc
 50
305.3275490805
 51
307.4362452571
  0
ARC
  5
312
100
AcDbEntity
  8
0
100
AcDbCircle
 62
7
  6
CONTINUOUS
 10
286.2593836377
 20
130.7167889624
 40
4.0192343386
100
AcDbArc
 50
124.3096348962
 51
127.1655789533
  0
ARC
  5
313
100
AcDbEntity
  8
0
100
AcDbCircle
 62
7
  6
CONTINUOUS
 10
-3754.6809070199
 20
887.6794316172
 40
4042.0438328004
100
AcDbArc
 50
0.3740081677
 51
0.5157620025
  0
ARC
  5
314
100
AcDbEntity
  8
0
100
AcDbCircle
 62
7
  6
CONTINUOUS
 10
159.6155105829
 20
1100.1584750575
 40
191.9916053664
100
AcDbArc
 50
314.9148582059
 51
315.0408042551
  0
ARC
  5
315
100
AcDbEntity
  8
0
100
AcDbCircle
 62
7
  6
CONTINUOUS
 10
262.9713678544
 20
1670.8624450646
 40
33.3666051974
100
AcDbArc
 50
46.6230297964
 51
47.3397629701
  0
ARC
  5
316
100
AcDbEntity
  8
0
100
AcDbCircle
 62
7
  6
CONTINUOUS
 10
290.6185816607
 20
956.6318258858
 40
12.6815823947
100
AcDbArc
 50
33.1509447183
 51
33.5160974616
  0
ARC
  5
317
100
AcDbEntity
  8
0
100
AcDbCircle
 62
7
  6
CONTINUOUS
 10
289.2652979071
 20
1046.4174246749
 40
6.8710258041
100
AcDbArc
 50
280.2125926173
 51
280.747144908
  0
ARC
  5
318
100
AcDbEntity
  8
0
100
AcDbCircle
 62
7
  6
CONTINUOUS
 10
298.2427041391
 20
929.3499227893
 40
5.4576864858
100
AcDbArc
 50
344.3766188653
 51
348.8009799868
  0
ARC
  5
319
100
AcDbEntity
  8
0
100
AcDbCircle
 62
7
  6
CONTINUOUS
 10
300.4266250198
 20
970.5736766867
 40
4.089388444
100
AcDbArc
 50
179.965358192
 51
183.6429001473
  0
ARC
  5
31A
100
AcDbEntity
  8
0
100
AcDbCircle
 62
7
  6
CONTINUOUS
 10
299.6353302386
 20
970.5847316174
 40
4.0805489547
100
AcDbArc
 50
356.1939236272
 51
0.0375370849
  0
ARC
  5
31B
100
AcDbEntity
  8
0
100
AcDbCircle
 62
7
  6
CONTINUOUS
 10
295.72537856
 20
928.4826422635
 40
2.6049636864
100
AcDbArc
 50
264.3474762135
 51
270.2930246106
  0
ARC
  5
31C
100
AcDbEntity
  8
0
100
AcDbCircle
 62
7
  6
CONTINUOUS
 10
290.2207325049
 20
1042.0643884892
 40
2.5
100
AcDbArc
 50
301.3322514976
 51
360.0
  0
ARC
  5
31D
100
AcDbEntity
  8
0
100
AcDbCircle
 62
7
  6
CONTINUOUS
 10
299.21301498
 20
929.7674139906
 40
2.3669405192
100
AcDbArc
 50
359.9933839475
 51
1.1397209446
  0
ARC
  5
31E
100
AcDbEntity
  8
0
100
AcDbCircle
 62
7
  6
CONTINUOUS
 10
294.8999361781
 20
1022.0643884892
 40
2.0
100
AcDbArc
 50
0.0
 51
90.0
  0
ARC
  5
31F
100
AcDbEntity
  8
0
100
AcDbCircle
 62
7
  6
CONTINUOUS
 10
294.7207325049
 20
1043.0643884892
 40
2.0
100
AcDbArc
 50
90.0
 51
180.0
  0
ARC
  5
320
100
AcDbEntity
  8
0
100
AcDbCircle
 62
7
  6
CONTINUOUS
 10
287.4795088791
 20
1008.291709228
 40
0.8408091505
100
AcDbArc
 50
158.8365592233
 51
164.0566473265
  0
ARC
  5
321
100
AcDbEntity
  8
0
100
AcDbCircle
 62
7
  6
CONTINUOUS
 10
286.1704455614
 20
1003.6086591677
 40
0.5
100
AcDbArc
 50
170.2514292344
 51
180.0
  0
ARC
  5
322
100
AcDbEntity
  8
0
100
AcDbCircle
 62
7
  6
CONTINUOUS
 10
286.0504067131
 20
864.213342044
 40
0.5
100
AcDbArc
 50
179.9419811455
 51
196.3360658743
  0
ARC
  5
323
100
AcDbEntity
  8
0
100
AcDbCircle
 62
7
  6
CONTINUOUS
 10
285.9834534046
 20
864.1924060217
 40
0.4298275567
100
AcDbArc
 50
177.5971925738
 51
196.1676359139
  0
ARC
  5
324
100
AcDbEntity
  8
0
100
AcDbCircle
 62
7
  6
CONTINUOUS
 10
285.9650855495
 20
1003.6443407451
 40
0.2914557483
100
AcDbArc
 50
170.3288322296
 51
185.7765863651
  0
ARC
  5
325
100
AcDbEntity
  8
0
100
AcDbCircle
 62
7
  6
CONTINUOUS
 10
302.7206653149
 20
-773.5920416031
 40
1781.5635774003
100
AcDbArc
 50
89.97423831
 51
90.1990492067
  0
ARC
  5
326
100
AcDbEntity
  8
0
100
AcDbCircle
 62
7
  6
CONTINUOUS
 10
302.723246798
 20
-785.5515120885
 40
1776.9683499503
100
AcDbArc
 50
89.9742549266
 51
90.1996471853
  0
ARC
  5
327
100
AcDbEntity
  8
0
100
AcDbCircle
 62
7
  6
CONTINUOUS
 10
302.7289064334
 20
-793.0547390735
 40
1776.5693821377
100
AcDbArc
 50
90.0244526827
 51
90.1857110211
  0
ARC
  5
328
100
AcDbEntity
  8
0
100
AcDbCircle
 62
7
  6
CONTINUOUS
 10
302.7200209923
 20
-816.4102047236
 40
1776.1802806258
100
AcDbArc
 50
89.7486467891
 51
89.9428211221
  0
ARC
  5
329
100
AcDbEntity
  8
0
100
AcDbCircle
 62
7
  6
CONTINUOUS
 10
302.7311143035
 20
-787.2436010867
 40
1769.6012681371
100
AcDbArc
 50
89.7480714784
 51
89.8738111655
  0
ARC
  5
32A
100
AcDbEntity
  8
0
100
AcDbCircle
 62
7
  6
CONTINUOUS
 10
302.7193890639
 20
-796.4910417876
 40
1763.2166677002
100
AcDbArc
 50
89.9739287784
 51
90.2010789224
  0
ARC
  5
32B
100
AcDbEntity
  8
0
100
AcDbCircle
 62
7
  6
CONTINUOUS
 10
302.7206866294
 20
-797.5580674608
 40
1761.9657345139
100
AcDbArc
 50
89.9739524631
 51
90.1463353303
  0
ARC
  5
32C
100
AcDbEntity
  8
0
100
AcDbCircle
 62
7
  6
CONTINUOUS
 10
302.7227965051
 20
-803.4362659394
 40
1759.1467952777
100
AcDbArc
 50
89.9739794424
 51
90.1384117022
  0
ARC
  5
32D
100
AcDbEntity
  8
0
100
AcDbCircle
 62
7
  6
CONTINUOUS
 10
302.7284460704
 20
-809.5836406498
 40
1758.3310056795
100
AcDbArc
 50
90.0437511765
 51
90.2019327657
  0
ARC
  5
32E
100
AcDbEntity
  8
0
100
AcDbCircle
 62
7
  6
CONTINUOUS
 10
302.7210509759
 20
-803.9032641117
 40
1757.4866707135
100
AcDbArc
 50
89.7636464054
 51
89.9422465147
  0
ARC
  5
32F
100
AcDbEntity
  8
0
100
AcDbCircle
 62
7
  6
CONTINUOUS
 10
302.7212754211
 20
-809.209553093
 40
1750.2143764166
100
AcDbArc
 50
90.0245725163
 51
90.237378818
  0
ARC
  5
330
100
AcDbEntity
  8
0
100
AcDbCircle
 62
7
  6
CONTINUOUS
 10
302.7204868505
 20
-806.100362986
 40
1749.4285765677
100
AcDbArc
 50
89.9737592523
 51
90.1136670976
  0
ARC
  5
331
100
AcDbEntity
  8
0
100
AcDbCircle
 62
7
  6
CONTINUOUS
 10
302.7304531399
 20
-289.356641897
 40
1261.6827572739
100
AcDbArc
 50
90.0610645134
 51
90.2021513894
  0
ARC
  5
332
100
AcDbEntity
  8
0
100
AcDbCircle
 62
7
  6
CONTINUOUS
 10
1072.4688638725
 20
158.7650157184
 40
33.3648015066
100
AcDbArc
 50
226.6230168409
 51
227.340038431
  0
ARC
  5
333
100
AcDbEntity
  8
0
100
AcDbCircle
 62
7
  6
CONTINUOUS
 10
414.0799904012
 20
846.0288591774
 40
167.6388071192
100
AcDbArc
 50
134.8970132562
 51
135.0341966319
  0
ARC
  5
334
100
AcDbEntity
  8
0
100
AcDbCircle
 62
7
  6
CONTINUOUS
 10
347.1380694757
 20
907.5412044009
 40
52.2488762287
100
AcDbArc
 50
156.5723466307
 51
158.0774724881
  0
ARC
  5
335
100
AcDbEntity
  8
0
100
AcDbCircle
 62
7
  6
CONTINUOUS
 10
302.7207325049
 20
843.2893884892
 40
10.875
100
AcDbArc
 50
46.3971810273
 51
133.6028189727
  0
ARC
  5
336
100
AcDbEntity
  8
0
100
AcDbCircle
 62
7
  6
CONTINUOUS
 10
316.1760765054
 20
1046.4169459908
 40
6.8705385399
100
AcDbArc
 50
259.2606533733
 51
259.7869699643
  0
ARC
  5
337
100
AcDbEntity
  8
0
100
AcDbCircle
 62
7
  6
CONTINUOUS
 10
302.7207325049
 20
1030.0643884892
 40
5.25
100
AcDbArc
 50
0.0
 51
180.0
  0
ARC
  5
338
100
AcDbEntity
  8
0
100
AcDbCircle
 62
7
  6
CONTINUOUS
 10
311.0422521635
 20
963.8196563002
 40
4.6079297361
100
AcDbArc
 50
179.9437652164
 51
183.2029713287
  0
CIRCLE
  5
339
100
AcDbEntity
  8
0
100
AcDbCircle
 62
7
  6
CONTINUOUS
 10
302.7207325049
 20
801.0643884892
 40
4.6
  0
ARC
  5
33A
100
AcDbEntity
  8
0
100
AcDbCircle
 62
7
  6
CONTINUOUS
 10
308.5807087154
 20
987.4436337766
 40
3.3602347749
100
AcDbArc
 50
268.1224849898
 51
269.8216181922
  0
ARC
  5
33B
100
AcDbEntity
  8
0
100
AcDbCircle
 62
7
  6
CONTINUOUS
 10
315.2207325049
 20
1042.0643884892
 40
2.5
100
AcDbArc
 50
180.0
 51
238.6677485024
  0
CIRCLE
  5
33C
100
AcDbEntity
  8
0
100
AcDbCircle
 62
7
  6
CONTINUOUS
 10
302.7207325049
 20
1030.0643884892
 40
2.15
  0
ARC
  5
33D
100
AcDbEntity
  8
0
100
AcDbCircle
 62
7
  6
CONTINUOUS
 10
302.7207325049
 20
798.6143884892
 40
2.15
100
AcDbArc
 50
180.0
 51
360.0
  0
ARC
  5
33E
100
AcDbEntity
  8
0
100
AcDbCircle
 62
7
  6
CONTINUOUS
 10
302.7207325049
 20
800.5143884892
 40
2.15
100
AcDbArc
 50
0.0
 51
180.0
  0
ARC
  5
33F
100
AcDbEntity
  8
0
100
AcDbCircle
 62
7
  6
CONTINUOUS
 10
310.5415288317
 20
1022.0643884892
 40
2.0
100
AcDbArc
 50
90.0
 51
180.0
  0
ARC
  5
340
100
AcDbEntity
  8
0
100
AcDbCircle
 62
7
  6
CONTINUOUS
 10
310.7207325049
 20
1043.0643884892
 40
2.0
100
AcDbArc
 50
0.0
 51
90.0
  0
ARC
  5
341
100
AcDbEntity
  8
0
100
AcDbCircle
 62
7
  6
CONTINUOUS
 10
317.9330330586
 20
1008.2767479183
 40
0.8727340147
100
AcDbArc
 50
16.3662092067
 51
21.3594912643
  0
ARC
  5
342
100
AcDbEntity
  8
0
100
AcDbCircle
 62
7
  6
CONTINUOUS
 10
319.2710197528
 20
1003.6086568737
 40
0.5
100
AcDbArc
 50
0.0
 51
9.7485748327
  0
ARC
  5
343
100
AcDbEntity
  8
0
100
AcDbCircle
 62
7
  6
CONTINUOUS
 10
319.3910645899
 20
864.213358454
 40
0.5
100
AcDbArc
 50
343.6577386989
 51
0.0575588799
  0
ARC
  5
344
100
AcDbEntity
  8
0
100
AcDbCircle
 62
7
  6
CONTINUOUS
 10
319.4580139251
 20
864.1924127815
 40
0.4298273626
100
AcDbArc
 50
343.825900687
 51
2.4038808331
  0
ARC
  5
345
100
AcDbEntity
  8
0
100
AcDbCircle
 62
7
  6
CONTINUOUS
 10
319.4763798616
 20
1003.6443385553
 40
0.291455662
100
AcDbArc
 50
354.2233592772
 51
9.6711577512
  0
CIRCLE
  5
346
100
AcDbEntity
  8
0
100
AcDbCircle
 62
7
  6
CONTINUOUS
 10
303.670732505
 20
958.0143884892
 40
0.2
  0
ARC
  5
347
100
AcDbEntity
  8
0
100
AcDbCircle
 62
7
  6
CONTINUOUS
 10
1060.8130688188
 20
1683.8680810685
 40
15.8994727641
100
AcDbArc
 50
128.944941047
 51
130.4989955821
  0
ARC
  5
348
100
AcDbEntity
  8
0
100
AcDbCircle
 62
7
  6
CONTINUOUS
 10
1059.1003145675
 20
1685.9843918104
 40
13.176919881
100
AcDbArc
 50
127.4239464262
 51
128.9369455445
  0
ARC
  5
349
100
AcDbEntity
  8
0
100
AcDbCircle
 62
7
  6
CONTINUOUS
 10
1045.0857372028
 20
1705.9511636094
 40
12.1698086406
100
AcDbArc
 50
296.1191553721
 51
298.090329398
  0
ARC
  5
34A
100
AcDbEntity
  8
0
100
AcDbCircle
 62
7
  6
CONTINUOUS
 10
1057.8248839387
 20
1687.6550536011
 40
11.0750570445
100
AcDbArc
 50
125.3275489477
 51
127.4362453239
  0
ARC
  5
34B
100
AcDbEntity
  8
0
100
AcDbCircle
 62
7
  6
CONTINUOUS
 10
1049.1817751334
 20
1698.9121481598
 40
4.0195540425
100
AcDbArc
 50
304.313274426
 51
307.1678115619
  0
ARC
  5
34C
100
AcDbEntity
  8
0
100
AcDbCircle
 62
7
  6
CONTINUOUS
 10
4360.1193386523
 20
887.6794542341
 40
4042.0407993396
100
AcDbArc
 50
179.484237931
 51
179.6259918722
  0
SPLINE
  5
34D
100
AcDbEntity
  8
0
100
AcDbSpline
 62
7
  6
CONTINUOUS
 70
0
 71
3
 72
9
 73
5
 74
0
 42
0.0000001
 43
0.0000001
 44
0.0000000001
 40
0.0
 40
0.0
 40
0.0
 40
0.0
 40
0.5001612488
 40
1.0
 40
1.0
 40
1.0
 40
1.0
 10
295.4688021498
 20
925.8903451445
 30
0.0
 10
295.1704511002
 20
925.9202279863
 30
0.0
 10
294.5736255586
 20
926.1011401174
 30
0.0
 10
294.1321476679
 20
926.5379471291
 30
0.0
 10
293.9583826464
 20
926.7820703496
 30
0.0
  0
SPLINE
  5
34E
100
AcDbEntity
  8
0
100
AcDbSpline
 62
7
  6
CONTINUOUS
 70
0
 71
3
 72
8
 73
4
 74
0
 42
0.0000001
 43
0.0000001
 44
0.0000000001
 40
0.0
 40
0.0
 40
0.0
 40
0.0
 40
1.0
 40
1.0
 40
1.0
 40
1.0
 10
293.9583826464
 20
926.7820703496
 30
0.0
 10
293.6392936295
 20
927.2303598719
 30
0.0
 10
293.4562522714
 20
927.7750656567
 30
0.0
 10
293.3413977699
 20
928.3132010858
 30
0.0
  0
SPLINE
  5
34F
100
AcDbEntity
  8
0
100
AcDbSpline
 62
7
  6
CONTINUOUS
 70
0
 71
3
 72
8
 73
4
 74
0
 42
0.0000001
 43
0.0000001
 44
0.0000000001
 40
0.0
 40
0.0
 40
0.0
 40
0.0
 40
1.0
 40
1.0
 40
1.0
 40
1.0
 10
293.3413977699
 20
928.3132010858
 30
0.0
 10
293.2953294206
 20
928.5290481847
 30
0.0
 10
293.2601406817
 20
928.7473162171
 30
0.0
 10
293.2319148279
 20
928.9662124576
 30
0.0
  0
SPLINE
  5
350
100
AcDbEntity
  8
0
100
AcDbSpline
 62
7
  6
CONTINUOUS
 70
0
 71
3
 72
10
 73
6
 74
0
 42
0.0000001
 43
0.0000001
 44
0.0000000001
 40
0.0
 40
0.0
 40
0.0
 40
0.0
 40
0.4992446126
 40
0.7497450376
 40
1.0
 40
1.0
 40
1.0
 40
1.0
 10
299.6431596254
 20
975.4101562745
 30
0.0
 10
299.1003893647
 20
975.4092110244
 30
0.0
 10
298.2497104914
 20
975.5757268489
 30
0.0
 10
297.3915684246
 20
976.2714521973
 30
0.0
 10
297.0797034481
 20
976.7257132786
 30
0.0
 10
296.9502648612
 20
976.9650238786
 30
0.0
  0
SPLINE
  5
351
100
AcDbEntity
  8
0
100
AcDbSpline
 62
7
  6
CONTINUOUS
 70
0
 71
3
 72
8
 73
4
 74
0
 42
0.0000001
 43
0.0000001
 44
0.0000000001
 40
0.0
 40
0.0
 40
0.0
 40
0.0
 40
1.0
 40
1.0
 40
1.0
 40
1.0
 10
296.9502648612
 20
976.9650238786
 30
0.0
 10
296.6029759667
 20
977.6071037694
 30
0.0
 10
296.430620253
 20
978.3434371075
 30
0.0
 10
296.3372373232
 20
979.0674231508
 30
0.0
  0
SPLINE
  5
352
100
AcDbEntity
  8
0
100
AcDbSpline
 62
7
  6
CONTINUOUS
 70
0
 71
3
 72
11
 73
7
 74
0
 42
0.0000001
 43
0.0000001
 44
0.0000000001
 40
0.0
 40
0.0
 40
0.0
 40
0.0
 40
0.248980448
 40
0.4988196576
 40
0.7493334029
 40
1.0
 40
1.0
 40
1.0
 40
1.0
 10
297.890635992
 20
986.0143224272
 30
0.0
 10
297.6706148028
 20
986.0137236487
 30
0.0
 10
297.2182121567
 20
986.1597921839
 30
0.0
 10
296.7891604648
 20
986.689349038
 30
0.0
 10
296.5142765796
 20
987.2952243382
 30
0.0
 10
296.389955071
 20
987.7217328145
 30
0.0
 10
296.3372373232
 20
987.9368802593
 30
0.0
  0
LINE
  5
353
100
AcDbEntity
  8
0
100
AcDbLine
 62
7
  6
CONTINUOUS
 10
306.2401501485
 20
943.7118532489
 11
305.9333730995
 21
943.8143908133
  0
LINE
  5
354
100
AcDbEntity
  8
0
100
AcDbLine
 62
7
  6
CONTINUOUS
 10
305.9333730995
 20
943.8143908133
 11
305.657625983
 21
943.9065108483
  0
LINE
  5
355
100
AcDbEntity
  8
0
100
AcDbLine
 62
7
  6
CONTINUOUS
 10
307.9877226451
 20
943.3202924595
 11
307.2110239812
 21
943.5160463651
  0
LINE
  5
356
100
AcDbEntity
  8
0
100
AcDbLine
 62
7
  6
CONTINUOUS
 10
308.3760723123
 20
941.382955586
 11
307.9877226451
 21
941.7714211985
  0
SPLINE
  5
357
100
AcDbEntity
  8
0
100
AcDbSpline
 62
7
  6
CONTINUOUS
 70
0
 71
3
 72
8
 73
4
 74
0
 42
0.0000001
 43
0.0000001
 44
0.0000000001
 40
0.0
 40
0.0
 40
0.0
 40
0.0
 40
1.0
 40
1.0
 40
1.0
 40
1.0
 10
306.6284998157
 20
981.3891456088
 30
0.0
 10
307.2426037476
 20
981.3877913617
 30
0.0
 10
307.8567070592
 20
981.3861183825
 30
0.0
 10
308.470809255
 20
981.3841268324
 30
0.0
  0
SPLINE
  5
358
100
AcDbEntity
  8
0
100
AcDbSpline
 62
7
  6
CONTINUOUS
 70
0
 71
3
 72
8
 73
4
 74
0
 42
0.0000001
 43
0.0000001
 44
0.0000000001
 40
0.0
 40
0.0
 40
0.0
 40
0.0
 40
1.0
 40
1.0
 40
1.0
 40
1.0
 10
308.470809255
 20
981.3841268324
 30
0.0
 10
308.9708165826
 20
981.3825052951
 30
0.0
 10
309.4708232684
 20
981.3806718916
 30
0.0
 10
309.9708290382
 20
981.3786256451
 30
0.0
  0
LINE
  5
359
100
AcDbEntity
  8
0
100
AcDbLine
 62
7
  6
CONTINUOUS
 10
309.9708290382
 20
981.3786256451
 11
310.511994476
 21
981.3763279278
  0
SPLINE
  5
35A
100
AcDbEntity
  8
0
100
AcDbSpline
 62
7
  6
CONTINUOUS
 70
0
 71
3
 72
11
 73
7
 74
0
 42
0.0000001
 43
0.0000001
 44
0.0000000001
 40
0.0
 40
0.0
 40
0.0
 40
0.0
 40
0.2519144243
 40
0.5025643992
 40
0.7510078997
 40
1.0
 40
1.0
 40
1.0
 40
1.0
 10
308.5702471458
 20
984.083415291
 30
0.0
 10
308.8331024745
 20
984.1223615864
 30
0.0
 10
309.3531608925
 20
984.2343814821
 30
0.0
 10
310.0853947711
 20
984.5706513294
 30
0.0
 10
310.6189396558
 20
985.2005926217
 30
0.0
 10
310.7061693096
 20
985.7402847733
 30
0.0
 10
310.7061693096
 20
986.0029271698
 30
0.0
  0
LINE
  5
35B
100
AcDbEntity
  8
0
100
AcDbLine
 62
7
  6
CONTINUOUS
 10
309.5411209785
 20
987.3570525975
 11
309.7352954769
 21
986.3925535738
  0
LINE
  5
35C
100
AcDbEntity
  8
0
100
AcDbLine
 62
7
  6
CONTINUOUS
 10
307.4051984795
 20
986.2074716762
 11
307.7935481467
 21
987.3629053718
  0
SPLINE
  5
35D
100
AcDbEntity
  8
0
100
AcDbSpline
 62
7
  6
CONTINUOUS
 70
0
 71
3
 72
11
 73
7
 74
0
 42
0.0000001
 43
0.0000001
 44
0.0000000001
 40
0.0
 40
0.0
 40
0.0
 40
0.0
 40
0.2496945503
 40
0.4995291935
 40
0.749532355
 40
1.0
 40
1.0
 40
1.0
 40
1.0
 10
306.4343246468
 20
986.4025298715
 30
0.0
 10
306.4456458525
 20
986.1970015544
 30
0.0
 10
306.4918091952
 20
985.7863568616
 30
0.0
 10
306.6652683443
 20
985.1887369565
 30
0.0
 10
306.9933124166
 20
984.6515962808
 30
0.0
 10
307.3324742321
 20
984.3961529993
 30
0.0
 10
307.5172760577
 20
984.3040600063
 30
0.0
  0
SPLINE
  5
35E
100
AcDbEntity
  8
0
100
AcDbSpline
 62
7
  6
CONTINUOUS
 70
0
 71
3
 72
8
 73
4
 74
0
 42
0.0000001
 43
0.0000001
 44
0.0000000001
 40
0.0
 40
0.0
 40
0.0
 40
0.0
 40
1.0
 40
1.0
 40
1.0
 40
1.0
 10
307.5172760577
 20
984.3040600063
 30
0.0
 10
307.8090953652
 20
984.1586365866
 30
0.0
 10
308.144747774
 20
984.0959455336
 30
0.0
 10
308.4706174964
 20
984.0852029427
 30
0.0
  0
SPLINE
  5
35F
100
AcDbEntity
  8
0
100
AcDbSpline
 62
7
  6
CONTINUOUS
 70
0
 71
3
 72
8
 73
4
 74
0
 42
0.0000001
 43
0.0000001
 44
0.0000000001
 40
0.0
 40
0.0
 40
0.0
 40
0.0
 40
1.0
 40
1.0
 40
1.0
 40
1.0
 10
306.6284998157
 20
976.5665922321
 30
0.0
 10
307.24260382
 20
976.565236301
 30
0.0
 10
307.8567072023
 20
976.5635611565
 30
0.0
 10
308.4708094656
 20
976.5615669794
 30
0.0
  0
SPLINE
  5
360
100
AcDbEntity
  8
0
100
AcDbSpline
 62
7
  6
CONTINUOUS
 70
0
 71
3
 72
8
 73
4
 74
0
 42
0.0000001
 43
0.0000001
 44
0.0000000001
 40
0.0
 40
0.0
 40
0.0
 40
0.0
 40
1.0
 40
1.0
 40
1.0
 40
1.0
 10
308.4708094656
 20
976.5615669794
 30
0.0
 10
308.9708168101
 20
976.5599433033
 30
0.0
 10
309.470823511
 20
976.5581074542
 30
0.0
 10
309.9708292937
 20
976.5560584996
 30
0.0
  0
LINE
  5
361
100
AcDbEntity
  8
0
100
AcDbLine
 62
7
  6
CONTINUOUS
 10
309.9708292937
 20
976.5560584996
 11
310.511994476
 21
976.5537577545
  0
LINE
  5
362
100
AcDbEntity
  8
0
100
AcDbLine
 62
7
  6
CONTINUOUS
 10
307.4051984795
 20
978.3010985866
 11
307.7935481467
 21
979.0716604701
  0
SPLINE
  5
363
100
AcDbEntity
  8
0
100
AcDbSpline
 62
7
  6
CONTINUOUS
 70
0
 71
3
 72
9
 73
5
 74
0
 42
0.0000001
 43
0.0000001
 44
0.0000000001
 40
0.0
 40
0.0
 40
0.0
 40
0.0
 40
0.2507717945
 40
1.0
 40
1.0
 40
1.0
 40
1.0
 10
306.4343246468
 20
978.8821285028
 30
0.0
 10
306.4343246468
 20
978.7574492603
 30
0.0
 10
306.5004685832
 20
978.2588539189
 30
0.0
 10
306.7799384277
 20
977.8178495516
 30
0.0
 10
307.0168488123
 20
977.5303920178
 30
0.0
  0
LINE
  5
364
100
AcDbEntity
  8
0
100
AcDbLine
 62
7
  6
CONTINUOUS
 10
308.1818978139
 20
966.9103074913
 11
308.9585964778
 21
966.9077343804
  0
SPLINE
  5
365
100
AcDbEntity
  8
0
100
AcDbSpline
 62
7
  6
CONTINUOUS
 70
0
 71
3
 72
9
 73
5
 74
0
 42
0.0000001
 43
0.0000001
 44
0.0000000001
 40
0.0
 40
0.0
 40
0.0
 40
0.0
 40
0.501344821
 40
1.0
 40
1.0
 40
1.0
 40
1.0
 10
308.9585964778
 20
966.9077343804
 30
0.0
 10
309.1396843583
 20
966.9070950068
 30
0.0
 10
309.5044081376
 20
966.9473895067
 30
0.0
 10
309.835985615
 20
967.1163355413
 30
0.0
 10
309.9765649681
 20
967.2289399674
 30
0.0
  0
SPLINE
  5
366
100
AcDbEntity
  8
0
100
AcDbSpline
 62
7
  6
CONTINUOUS
 70
0
 71
3
 72
9
 73
5
 74
0
 42
0.0000001
 43
0.0000001
 44
0.0000000001
 40
0.0
 40
0.0
 40
0.0
 40
0.0
 40
0.251170745
 40
1.0
 40
1.0
 40
1.0
 40
1.0
 10
309.9765649681
 20
967.2289399674
 30
0.0
 10
310.0935691468
 20
967.3226606177
 30
0.0
 10
310.4975800642
 20
967.7759182937
 30
0.0
 10
310.6478340362
 20
968.3887639281
 30
0.0
 10
310.7061693096
 20
968.8318808308
 30
0.0
  0
LINE
  5
367
100
AcDbEntity
  8
0
100
AcDbLine
 62
7
  6
CONTINUOUS
 10
309.5411209785
 20
970.188374847
 11
309.7352954769
 21
968.8360066611
  0
LINE
  5
368
100
AcDbEntity
  8
0
100
AcDbLine
 62
7
  6
CONTINUOUS
 10
307.4051984795
 20
968.8437224769
 11
307.7935481467
 21
970.001178872
  0
SPLINE
  5
369
100
AcDbEntity
  8
0
100
AcDbSpline
 62
7
  6
CONTINUOUS
 70
0
 71
3
 72
12
 73
8
 74
0
 42
0.0000001
 43
0.0000001
 44
0.0000000001
 40
0.0
 40
0.0
 40
0.0
 40
0.0
 40
0.2494827868
 40
0.4986789378
 40
0.6241803311
 40
0.7497817848
 40
1.0
 40
1.0
 40
1.0
 40
1.0
 10
306.4343246468
 20
969.0391295747
 30
0.0
 10
306.4343246468
 20
968.7782005937
 30
0.0
 10
306.4702505391
 20
968.256155126
 30
0.0
 10
306.6965597829
 20
967.6218567664
 30
0.0
 10
307.0566785879
 20
967.2313225411
 30
0.0
 10
307.5167055559
 20
966.9652247582
 30
0.0
 10
307.9202009136
 20
966.9111164456
 30
0.0
 10
308.1818978139
 20
966.9103074848
 30
0.0
  0
LINE
  5
36A
100
AcDbEntity
  8
0
100
AcDbLine
 62
7
  6
CONTINUOUS
 10
307.4051984796
 20
963.6286671197
 11
307.9877226451
 21
964.2066103368
  0
SPLINE
  5
36B
100
AcDbEntity
  8
0
100
AcDbSpline
 62
7
  6
CONTINUOUS
 70
0
 71
3
 72
9
 73
5
 74
0
 42
0.0000001
 43
0.0000001
 44
0.0000000001
 40
0.0
 40
0.0
 40
0.0
 40
0.0
 40
0.5017575922
 40
1.0
 40
1.0
 40
1.0
 40
1.0
 10
308.5702471458
 20
961.4997521474
 30
0.0
 10
308.8250804796
 20
961.498906534
 30
0.0
 10
309.3392692773
 20
961.552985956
 30
0.0
 10
309.799474981
 20
961.8125151347
 30
0.0
 10
309.9846111805
 20
961.9850219514
 30
0.0
  0
SPLINE
  5
36C
100
AcDbEntity
  8
0
100
AcDbSpline
 62
7
  6
CONTINUOUS
 70
0
 71
3
 72
9
 73
5
 74
0
 42
0.0000001
 43
0.0000001
 44
0.0000000001
 40
0.0
 40
0.0
 40
0.0
 40
0.0
 40
0.2508883128
 40
1.0
 40
1.0
 40
1.0
 40
1.0
 10
309.9846111805
 20
961.9850219514
 30
0.0
 10
310.0840655828
 20
962.0776919014
 30
0.0
 10
310.4365471474
 20
962.4956278919
 30
0.0
 10
310.6168256054
 20
963.0276743413
 30
0.0
 10
310.7061693096
 20
963.4236051747
 30
0.0
  0
LINE
  5
36D
100
AcDbEntity
  8
0
100
AcDbLine
 62
7
  6
CONTINUOUS
 10
309.346946145
 20
964.9747573857
 11
309.7352954769
 21
963.6209392382
  0
SPLINE
  5
36E
100
AcDbEntity
  8
0
100
AcDbSpline
 62
7
  6
CONTINUOUS
 70
0
 71
3
 72
11
 73
7
 74
0
 42
0.0000001
 43
0.0000001
 44
0.0000000001
 40
0.0
 40
0.0
 40
0.0
 40
0.0
 40
0.2499218996
 40
0.4993748659
 40
0.7491769584
 40
1.0
 40
1.0
 40
1.0
 40
1.0
 10
306.4415206221
 20
963.5621961356
 30
0.0
 10
306.457316912
 20
963.2848584657
 30
0.0
 10
306.5394866951
 20
962.7298598442
 30
0.0
 10
306.9651024185
 20
961.9741258141
 30
0.0
 10
307.7298084099
 20
961.5565805679
 30
0.0
 10
308.2914599056
 20
961.500677242
 30
0.0
 10
308.5702471459
 20
961.4997521422
 30
0.0
  0
LINE
  5
36F
100
AcDbEntity
  8
0
100
AcDbLine
 62
7
  6
CONTINUOUS
 10
307.2110239812
 20
971.9333381524
 11
307.4051984795
 21
972.5119393447
  0
LINE
  5
370
100
AcDbEntity
  8
0
100
AcDbLine
 62
7
  6
CONTINUOUS
 10
307.4051984795
 20
972.5119393447
 11
308.4707416406
 21
972.5087961028
  0
LINE
  5
371
100
AcDbEntity
  8
0
100
AcDbLine
 62
7
  6
CONTINUOUS
 10
308.4707416406
 20
972.5087961028
 11
309.1527713114
 21
972.506446992
  0
SPLINE
  5
372
100
AcDbEntity
  8
0
100
AcDbSpline
 62
7
  6
CONTINUOUS
 70
0
 71
3
 72
8
 73
4
 74
0
 42
0.0000001
 43
0.0000001
 44
0.0000000001
 40
0.0
 40
0.0
 40
0.0
 40
0.0
 40
1.0
 40
1.0
 40
1.0
 40
1.0
 10
309.1527713114
 20
972.506446992
 30
0.0
 10
309.4408495151
 20
972.5054005716
 30
0.0
 10
309.7435538035
 20
972.5644918734
 30
0.0
 10
309.9930630345
 20
972.7084894084
 30
0.0
  0
SPLINE
  5
373
100
AcDbEntity
  8
0
100
AcDbSpline
 62
7
  6
CONTINUOUS
 70
0
 71
3
 72
9
 73
5
 74
0
 42
0.0000001
 43
0.0000001
 44
0.0000000001
 40
0.0
 40
0.0
 40
0.0
 40
0.0
 40
0.4996653608
 40
1.0
 40
1.0
 40
1.0
 40
1.0
 10
309.9930630345
 20
972.7084894084
 30
0.0
 10
310.167210512
 20
972.8089939363
 30
0.0
 10
310.468443034
 20
973.0980154631
 30
0.0
 10
310.6402728571
 20
973.467968938
 30
0.0
 10
310.7061693096
 20
973.6582175603
 30
0.0
  0
LINE
  5
374
100
AcDbEntity
  8
0
100
AcDbLine
 62
7
  6
CONTINUOUS
 10
309.5411209785
 20
974.8210623422
 11
309.7352954769
 21
973.8553377034
  0
SPLINE
  5
375
100
AcDbEntity
  8
0
100
AcDbSpline
 62
7
  6
CONTINUOUS
 70
0
 71
3
 72
8
 73
4
 74
0
 42
0.0000001
 43
0.0000001
 44
0.0000000001
 40
0.0
 40
0.0
 40
0.0
 40
0.0
 40
1.0
 40
1.0
 40
1.0
 40
1.0
 10
305.657625983
 20
973.4808011977
 30
0.0
 10
306.1755590178
 20
972.9651144322
 30
0.0
 10
306.6933583045
 20
972.4492933014
 30
0.0
 10
307.2110239812
 20
971.9333381524
 30
0.0
  0
LINE
  5
376
100
AcDbEntity
  8
0
100
AcDbLine
 62
7
  6
CONTINUOUS
 10
305.4634508141
 20
981.3913338539
 11
305.8518004813
 21
981.3906892679
  0
LINE
  5
377
100
AcDbEntity
  8
0
100
AcDbLine
 62
7
  6
CONTINUOUS
 10
305.0751011469
 20
981.7775985704
 11
305.4634508141
 21
981.3913338539
  0
LINE
  5
378
100
AcDbEntity
  8
0
100
AcDbLine
 62
7
  6
CONTINUOUS
 10
309.9709225344
 20
958.7890975252
 11
310.511993621
 21
958.7868785277
  0
LINE
  5
379
100
AcDbEntity
  8
0
100
AcDbLine
 62
7
  6
CONTINUOUS
 10
309.9709237866
 20
953.5684531799
 11
310.511994476
 21
953.5661365418
  0
SPLINE
  5
37A
100
AcDbEntity
  8
0
100
AcDbSpline
 62
7
  6
CONTINUOUS
 70
0
 71
3
 72
11
 73
7
 74
0
 42
0.0000001
 43
0.0000001
 44
0.0000000001
 40
0.0
 40
0.0
 40
0.0
 40
0.0
 40
0.2501538974
 40
0.4994715261
 40
0.749466795
 40
1.0
 40
1.0
 40
1.0
 40
1.0
 10
307.4051984796
 20
947.5801050619
 30
0.0
 10
307.7322188501
 20
947.5792321183
 30
0.0
 10
308.3963538818
 20
947.4914860494
 30
0.0
 10
309.2470274877
 20
946.931975046
 30
0.0
 10
309.7573365928
 20
946.0682165076
 30
0.0
 10
309.9296556161
 20
945.4328721363
 30
0.0
 10
309.9906475691
 20
945.1110839649
 30
0.0
  0
SPLINE
  5
37B
100
AcDbEntity
  8
0
100
AcDbSpline
 62
7
  6
CONTINUOUS
 70
0
 71
3
 72
8
 73
4
 74
0
 42
0.0000001
 43
0.0000001
 44
0.0000000001
 40
0.0
 40
0.0
 40
0.0
 40
0.0
 40
1.0
 40
1.0
 40
1.0
 40
1.0
 10
309.9906475691
 20
945.1110839649
 30
0.0
 10
310.0906147163
 20
944.5836661024
 30
0.0
 10
310.1236451441
 20
944.0429688119
 30
0.0
 10
310.1236451441
 20
943.5061606225
 30
0.0
  0
SPLINE
  5
37C
100
AcDbEntity
  8
0
100
AcDbSpline
 62
7
  6
CONTINUOUS
 70
0
 71
3
 72
8
 73
4
 74
0
 42
0.0000001
 43
0.0000001
 44
0.0000000001
 40
0.0
 40
0.0
 40
0.0
 40
0.0
 40
1.0
 40
1.0
 40
1.0
 40
1.0
 10
307.4051984796
 20
947.5801050619
 30
0.0
 10
306.7580496415
 20
947.7753133117
 30
0.0
 10
306.1108002403
 20
947.9701884872
 30
0.0
 10
305.4634508142
 20
948.1647305132
 30
0.0
  0
LINE
  5
37D
100
AcDbEntity
  8
0
100
AcDbLine
 62
7
  6
CONTINUOUS
 10
305.4634508141
 20
949.7126114286
 11
304.4925769814
 21
949.9073308096
  0
LINE
  5
37E
100
AcDbEntity
  8
0
100
AcDbLine
 62
7
  6
CONTINUOUS
 10
305.4634508142
 20
942.7452649997
 11
305.6422213025
 21
943.8143903363
  0
SPLINE
  5
37F
100
AcDbEntity
  8
0
100
AcDbSpline
 62
7
  6
CONTINUOUS
 70
0
 71
3
 72
8
 73
4
 74
0
 42
0.0000001
 43
0.0000001
 44
0.0000000001
 40
0.0
 40
0.0
 40
0.0
 40
0.0
 40
1.0
 40
1.0
 40
1.0
 40
1.0
 10
306.2401501485
 20
942.3566593651
 30
0.0
 10
306.2401501485
 20
942.3420806064
 30
0.0
 10
306.2418141359
 20
942.3274404773
 30
0.0
 10
306.2448020227
 20
942.3131711838
 30
0.0
  0
SPLINE
  5
380
100
AcDbEntity
  8
0
100
AcDbSpline
 62
7
  6
CONTINUOUS
 70
0
 71
3
 72
10
 73
6
 74
0
 42
0.0000001
 43
0.0000001
 44
0.0000000001
 40
0.0
 40
0.0
 40
0.0
 40
0.0
 40
0.2477988155
 40
0.4984569329
 40
1.0
 40
1.0
 40
1.0
 40
1.0
 10
306.2448020227
 20
942.3131711838
 30
0.0
 10
306.2611530204
 20
942.2350834932
 30
0.0
 10
306.3729607171
 20
942.1017131276
 30
0.0
 10
306.6411277759
 20
941.9287281261
 30
0.0
 10
306.8660199564
 20
941.8317376505
 30
0.0
 10
307.0168488124
 20
941.774071748
 30
0.0
  0
LINE
  5
381
100
AcDbEntity
  8
0
100
AcDbLine
 62
7
  6
CONTINUOUS
 10
307.0770733561
 20
942.314389826
 11
307.2110239812
 21
943.5160463651
  0
LINE
  5
382
100
AcDbEntity
  8
0
100
AcDbLine
 62
7
  6
CONTINUOUS
 10
308.3760723123
 20
941.382955586
 11
309.346946145
 21
941.3795504924
  0
SPLINE
  5
383
100
AcDbEntity
  8
0
100
AcDbSpline
 62
7
  6
CONTINUOUS
 70
0
 71
3
 72
8
 73
4
 74
0
 42
0.0000001
 43
0.0000001
 44
0.0000000001
 40
0.0
 40
0.0
 40
0.0
 40
0.0
 40
1.0
 40
1.0
 40
1.0
 40
1.0
 10
309.346946145
 20
941.3795504931
 30
0.0
 10
309.5603091992
 20
941.4042741173
 30
0.0
 10
309.7730211202
 20
941.4378502487
 30
0.0
 10
309.9827999786
 20
941.4839792102
 30
0.0
  0
SPLINE
  5
384
100
AcDbEntity
  8
0
100
AcDbSpline
 62
7
  6
CONTINUOUS
 70
0
 71
3
 72
11
 73
7
 74
0
 42
0.0000001
 43
0.0000001
 44
0.0000000001
 40
0.0
 40
0.0
 40
0.0
 40
0.0
 40
0.2507205856
 40
0.5006872439
 40
0.7498405245
 40
1.0
 40
1.0
 40
1.0
 40
1.0
 10
309.9827999786
 20
941.4839792102
 30
0.0
 10
310.2531861978
 20
941.5434353231
 30
0.0
 10
310.7858055024
 20
941.7027321677
 30
0.0
 10
311.5085861352
 20
942.1405876171
 30
0.0
 10
311.987818771
 20
942.8527261757
 30
0.0
 10
312.0653926418
 20
943.4142277355
 30
0.0
 10
312.0653926418
 20
943.6904542096
 30
0.0
  0
SPLINE
  5
385
100
AcDbEntity
  8
0
100
AcDbSpline
 62
7
  6
CONTINUOUS
 70
0
 71
3
 72
9
 73
5
 74
0
 42
0.0000001
 43
0.0000001
 44
0.0000000001
 40
0.0
 40
0.0
 40
0.0
 40
0.0
 40
0.4991772079
 40
1.0
 40
1.0
 40
1.0
 40
1.0
 10
302.3566548177
 20
947.7798338601
 30
0.0
 10
302.3566548177
 20
947.2390404956
 30
0.0
 10
302.586235994
 20
946.1490684487
 30
0.0
 10
303.1460070466
 20
945.20667266
 30
0.0
 10
303.4681214402
 20
944.7700593466
 30
0.0
  0
SPLINE
  5
386
100
AcDbEntity
  8
0
100
AcDbSpline
 62
7
  6
CONTINUOUS
 70
0
 71
3
 72
8
 73
4
 74
0
 42
0.0000001
 43
0.0000001
 44
0.0000000001
 40
0.0
 40
0.0
 40
0.0
 40
0.0
 40
1.0
 40
1.0
 40
1.0
 40
1.0
 10
303.4681214402
 20
944.7700593466
 30
0.0
 10
303.733580685
 20
944.4102398452
 30
0.0
 10
304.0299660224
 20
944.0723563342
 30
0.0
 10
304.3439913772
 20
943.7540376877
 30
0.0
  0
SPLINE
  5
387
100
AcDbEntity
  8
0
100
AcDbSpline
 62
7
  6
CONTINUOUS
 70
0
 71
3
 72
8
 73
4
 74
0
 42
0.0000001
 43
0.0000001
 44
0.0000000001
 40
0.0
 40
0.0
 40
0.0
 40
0.0
 40
1.0
 40
1.0
 40
1.0
 40
1.0
 10
304.3439913772
 20
943.7540376877
 30
0.0
 10
304.6967564779
 20
943.3964496533
 30
0.0
 10
305.0733072613
 20
943.0616515145
 30
0.0
 10
305.4634508142
 20
942.7452649997
 30
0.0
  0
SPLINE
  5
388
100
AcDbEntity
  8
0
100
AcDbSpline
 62
7
  6
CONTINUOUS
 70
0
 71
3
 72
8
 73
4
 74
0
 42
0.0000001
 43
0.0000001
 44
0.0000000001
 40
0.0
 40
0.0
 40
0.0
 40
0.0
 40
1.0
 40
1.0
 40
1.0
 40
1.0
 10
296.5314118215
 20
964.3968021336
 30
0.0
 10
297.0944644441
 20
964.398776186
 30
0.0
 10
297.657518068
 20
964.4004830657
 30
0.0
 10
298.2205723167
 20
964.4019203291
 30
0.0
  0
LINE
  5
389
100
AcDbEntity
  8
0
100
AcDbLine
 62
7
  6
CONTINUOUS
 10
296.5314118215
 20
983.5038334212
 11
296.970577651
 21
983.5053109104
  0
SPLINE
  5
38A
100
AcDbEntity
  8
0
100
AcDbSpline
 62
7
  6
CONTINUOUS
 70
0
 71
3
 72
8
 73
4
 74
0
 42
0.0000001
 43
0.0000001
 44
0.0000000001
 40
0.0
 40
0.0
 40
0.0
 40
0.0
 40
1.0
 40
1.0
 40
1.0
 40
1.0
 10
301.9707024891
 20
983.5144812711
 30
0.0
 10
302.4707134099
 20
983.5146948032
 30
0.0
 10
302.9707244672
 20
983.5146967917
 30
0.0
 10
303.4707353885
 20
983.5144842517
 30
0.0
  0
LINE
  5
38B
100
AcDbEntity
  8
0
100
AcDbLine
 62
7
  6
CONTINUOUS
 10
298.6673339852
 20
987.3655258784
 11
299.055684323
 21
988.5227350555
  0
SPLINE
  5
38C
100
AcDbEntity
  8
0
100
AcDbSpline
 62
7
  6
CONTINUOUS
 70
0
 71
3
 72
11
 73
7
 74
0
 42
0.0000001
 43
0.0000001
 44
0.0000000001
 40
0.0
 40
0.0
 40
0.0
 40
0.0
 40
0.2494652038
 40
0.4986027274
 40
0.7486787596
 40
1.0
 40
1.0
 40
1.0
 40
1.0
 10
297.8906359919
 20
979.072338818
 30
0.0
 10
297.8906359919
 20
979.2537066881
 30
0.0
 10
297.9248393695
 20
979.6194282622
 30
0.0
 10
298.195404491
 20
980.1215020914
 30
0.0
 10
298.6995981443
 20
980.3906952674
 30
0.0
 10
299.0671419141
 20
980.4253739538
 30
0.0
 10
299.2498588213
 20
980.4257321949
 30
0.0
  0
LINE
  5
38D
100
AcDbEntity
  8
0
100
AcDbLine
 62
7
  6
CONTINUOUS
 10
299.6382078179
 20
975.4104588398
 11
300.4149071523
 21
975.4116436111
  0
SPLINE
  5
38E
100
AcDbEntity
  8
0
100
AcDbSpline
 62
7
  6
CONTINUOUS
 70
0
 71
3
 72
8
 73
4
 74
0
 42
0.0000001
 43
0.0000001
 44
0.0000000001
 40
0.0
 40
0.0
 40
0.0
 40
0.0
 40
1.0
 40
1.0
 40
1.0
 40
1.0
 10
300.4149071523
 20
975.4116436044
 30
0.0
 10
300.9667567126
 20
975.4123636883
 30
0.0
 10
301.5469637376
 20
975.5320229942
 30
0.0
 10
302.0204459834
 20
975.8154890745
 30
0.0
  0
SPLINE
  5
38F
100
AcDbEntity
  8
0
100
AcDbSpline
 62
7
  6
CONTINUOUS
 70
0
 71
3
 72
9
 73
5
 74
0
 42
0.0000001
 43
0.0000001
 44
0.0000000001
 40
0.0
 40
0.0
 40
0.0
 40
0.0
 40
0.4995517872
 40
1.0
 40
1.0
 40
1.0
 40
1.0
 10
302.0204459834
 20
975.8154890745
 30
0.0
 10
302.412235031
 20
976.0500467724
 30
0.0
 10
303.0652252282
 20
976.7502749403
 30
0.0
 10
303.3843005223
 20
977.6198265256
 30
0.0
 10
303.5004317493
 20
978.0622952002
 30
0.0
  0
SPLINE
  5
390
100
AcDbEntity
  8
0
100
AcDbSpline
 62
7
  6
CONTINUOUS
 70
0
 71
3
 72
8
 73
4
 74
0
 42
0.0000001
 43
0.0000001
 44
0.0000000001
 40
0.0
 40
0.0
 40
0.0
 40
0.0
 40
1.0
 40
1.0
 40
1.0
 40
1.0
 10
303.5004317493
 20
978.0622952002
 30
0.0
 10
303.6043720575
 20
978.4583155615
 30
0.0
 10
303.6718365221
 20
978.8644951304
 30
0.0
 10
303.7158783176
 20
979.2715529082
 30
0.0
  0
SPLINE
  5
391
100
AcDbEntity
  8
0
100
AcDbSpline
 62
7
  6
CONTINUOUS
 70
0
 71
3
 72
8
 73
4
 74
0
 42
0.0000001
 43
0.0000001
 44
0.0000000001
 40
0.0
 40
0.0
 40
0.0
 40
0.0
 40
1.0
 40
1.0
 40
1.0
 40
1.0
 10
301.1916064867
 20
982.5498650796
 30
0.0
 10
301.4815286073
 20
982.054257199
 30
0.0
 10
301.768985499
 20
981.5521574883
 30
0.0
 10
301.9785080821
 20
981.0175713919
 30
0.0
  0
SPLINE
  5
392
100
AcDbEntity
  8
0
100
AcDbSpline
 62
7
  6
CONTINUOUS
 70
0
 71
3
 72
8
 73
4
 74
0
 42
0.0000001
 43
0.0000001
 44
0.0000000001
 40
0.0
 40
0.0
 40
0.0
 40
0.0
 40
1.0
 40
1.0
 40
1.0
 40
1.0
 10
301.9785080821
 20
981.0175713919
 30
0.0
 10
302.0761520099
 20
980.7684379312
 30
0.0
 10
302.1624803194
 20
980.5037663953
 30
0.0
 10
302.1624803194
 20
980.2361812353
 30
0.0
  0
SPLINE
  5
393
100
AcDbEntity
  8
0
100
AcDbSpline
 62
7
  6
CONTINUOUS
 70
0
 71
3
 72
11
 73
7
 74
0
 42
0.0000001
 43
0.0000001
 44
0.0000000001
 40
0.0
 40
0.0
 40
0.0
 40
0.0
 40
0.2498753747
 40
0.4991679891
 40
0.7490212971
 40
1.0
 40
1.0
 40
1.0
 40
1.0
 10
297.8906359919
 20
960.1500518193
 30
0.0
 10
297.8906359919
 20
960.3318915285
 30
0.0
 10
297.9248642024
 20
960.6983625035
 30
0.0
 10
298.195494385
 20
961.2012927722
 30
0.0
 10
298.6997164703
 20
961.4709452442
 30
0.0
 10
299.067216551
 20
961.505681503
 30
0.0
 10
299.2498588213
 20
961.5060414226
 30
0.0
  0
LINE
  5
394
100
AcDbEntity
  8
0
100
AcDbLine
 62
7
  6
CONTINUOUS
 10
299.8323836574
 20
956.4815397227
 11
300.6090816506
 21
956.4826449235
  0
SPLINE
  5
395
100
AcDbEntity
  8
0
100
AcDbSpline
 62
7
  6
CONTINUOUS
 70
0
 71
3
 72
11
 73
7
 74
0
 42
0.0000001
 43
0.0000001
 44
0.0000000001
 40
0.0
 40
0.0
 40
0.0
 40
0.0
 40
0.2502287079
 40
0.4997435298
 40
0.749736761
 40
1.0
 40
1.0
 40
1.0
 40
1.0
 10
300.6090816506
 20
956.4826449235
 30
0.0
 10
300.9648185458
 20
956.4830729129
 30
0.0
 10
301.6895666638
 20
956.59833756
 30
0.0
 10
302.5841015105
 20
957.2428653219
 30
0.0
 10
303.1557120458
 20
958.1618088112
 30
0.0
 10
303.3891581154
 20
958.8371066334
 30
0.0
 10
303.4821552743
 20
959.1805238428
 30
0.0
  0
SPLINE
  5
396
100
AcDbEntity
  8
0
100
AcDbSpline
 62
7
  6
CONTINUOUS
 70
0
 71
3
 72
8
 73
4
 74
0
 42
0.0000001
 43
0.0000001
 44
0.0000000001
 40
0.0
 40
0.0
 40
0.0
 40
0.0
 40
1.0
 40
1.0
 40
1.0
 40
1.0
 10
303.4821552743
 20
959.1805238428
 30
0.0
 10
303.5860361423
 20
959.5641320971
 30
0.0
 10
303.660444782
 20
959.9561256337
 30
0.0
 10
303.7158783176
 20
960.3496655309
 30
0.0
  0
SPLINE
  5
397
100
AcDbEntity
  8
0
100
AcDbSpline
 62
7
  6
CONTINUOUS
 70
0
 71
3
 72
8
 73
4
 74
0
 42
0.0000001
 43
0.0000001
 44
0.0000000001
 40
0.0
 40
0.0
 40
0.0
 40
0.0
 40
1.0
 40
1.0
 40
1.0
 40
1.0
 10
301.2360186169
 20
963.5667061671
 30
0.0
 10
301.5356220069
 20
963.1079724697
 30
0.0
 10
301.8135279071
 20
962.6247423126
 30
0.0
 10
301.9895019451
 20
962.1058666682
 30
0.0
  0
SPLINE
  5
398
100
AcDbEntity
  8
0
100
AcDbSpline
 62
7
  6
CONTINUOUS
 70
0
 71
3
 72
8
 73
4
 74
0
 42
0.0000001
 43
0.0000001
 44
0.0000000001
 40
0.0
 40
0.0
 40
0.0
 40
0.0
 40
1.0
 40
1.0
 40
1.0
 40
1.0
 10
301.9895019451
 20
962.1058666682
 30
0.0
 10
302.0963559296
 20
961.790797862
 30
0.0
 10
302.1624803194
 20
961.4555799094
 30
0.0
 10
302.1624803194
 20
961.1228846635
 30
0.0
  0
SPLINE
  5
399
100
AcDbEntity
  8
0
100
AcDbSpline
 62
7
  6
CONTINUOUS
 70
0
 71
3
 72
9
 73
5
 74
0
 42
0.0000001
 43
0.0000001
 44
0.0000000001
 40
0.0
 40
0.0
 40
0.0
 40
0.0
 40
0.5008563665
 40
1.0
 40
1.0
 40
1.0
 40
1.0
 10
296.3372373232
 20
959.9518400802
 30
0.0
 10
296.3372373232
 20
959.5716947583
 30
0.0
 10
296.4205685941
 20
958.8059560835
 30
0.0
 10
296.7754227308
 20
958.1075026472
 30
0.0
 10
297.0153207974
 20
957.8142915719
 30
0.0
  0
SPLINE
  5
39A
100
AcDbEntity
  8
0
100
AcDbSpline
 62
7
  6
CONTINUOUS
 70
0
 71
3
 72
9
 73
5
 74
0
 42
0.0000001
 43
0.0000001
 44
0.0000000001
 40
0.0
 40
0.0
 40
0.0
 40
0.0
 40
0.4976961957
 40
1.0
 40
1.0
 40
1.0
 40
1.0
 10
297.0153207974
 20
957.8142915719
 30
0.0
 10
297.3482762035
 20
957.4073428457
 30
0.0
 10
298.268804917
 20
956.7944259046
 30
0.0
 10
299.3071004607
 20
956.5569506789
 30
0.0
 10
299.8323836574
 20
956.4815397227
 30
0.0
  0
SPLINE
  5
39B
100
AcDbEntity
  8
0
100
AcDbSpline
 62
7
  6
CONTINUOUS
 70
0
 71
3
 72
9
 73
5
 74
0
 42
0.0000001
 43
0.0000001
 44
0.0000000001
 40
0.0
 40
0.0
 40
0.0
 40
0.0
 40
0.4995993495
 40
1.0
 40
1.0
 40
1.0
 40
1.0
 10
301.385780985
 20
948.7468524034
 30
0.0
 10
301.385780985
 20
949.064271729
 30
0.0
 10
301.4880368761
 20
949.7039889375
 30
0.0
 10
301.7777208294
 20
950.2792499558
 30
0.0
 10
301.9525671392
 20
950.5447819781
 30
0.0
  0
SPLINE
  5
39C
100
AcDbEntity
  8
0
100
AcDbSpline
 62
7
  6
CONTINUOUS
 70
0
 71
3
 72
8
 73
4
 74
0
 42
0.0000001
 43
0.0000001
 44
0.0000000001
 40
0.0
 40
0.0
 40
0.0
 40
0.0
 40
1.0
 40
1.0
 40
1.0
 40
1.0
 10
301.9525671392
 20
950.5447819781
 30
0.0
 10
302.0738908547
 20
950.7290314001
 30
0.0
 10
302.2103114124
 20
950.9038397398
 30
0.0
 10
302.3566548177
 20
951.0689182095
 30
0.0
  0
SPLINE
  5
39D
100
AcDbEntity
  8
0
100
AcDbSpline
 62
7
  6
CONTINUOUS
 70
0
 71
3
 72
11
 73
7
 74
0
 42
0.0000001
 43
0.0000001
 44
0.0000000001
 40
0.0
 40
0.0
 40
0.0
 40
0.0
 40
0.2484757987
 40
0.4986886468
 40
0.7493345694
 40
1.0
 40
1.0
 40
1.0
 40
1.0
 10
298.0848104903
 20
952.8036798015
 30
0.0
 10
298.1414303168
 20
952.9617404674
 30
0.0
 10
298.3543263931
 20
953.2493625162
 30
0.0
 10
298.8231682954
 20
953.4681490861
 30
0.0
 10
299.3237151053
 20
953.5647465979
 30
0.0
 10
299.6630086072
 20
953.5807536701
 30
0.0
 10
299.8323836574
 20
953.5810315005
 30
0.0
  0
SPLINE
  5
39E
100
AcDbEntity
  8
0
100
AcDbSpline
 62
7
  6
CONTINUOUS
 70
0
 71
3
 72
8
 73
4
 74
0
 42
0.0000001
 43
0.0000001
 44
0.0000000001
 40
0.0
 40
0.0
 40
0.0
 40
0.0
 40
1.0
 40
1.0
 40
1.0
 40
1.0
 10
299.8323836574
 20
953.581031497
 30
0.0
 10
300.5451635953
 20
953.5822006888
 30
0.0
 10
301.2579443664
 20
953.5829445115
 30
0.0
 10
301.9707251983
 20
953.5832488688
 30
0.0
  0
SPLINE
  5
39F
100
AcDbEntity
  8
0
100
AcDbSpline
 62
7
  6
CONTINUOUS
 70
0
 71
3
 72
8
 73
4
 74
0
 42
0.0000001
 43
0.0000001
 44
0.0000000001
 40
0.0
 40
0.0
 40
0.0
 40
0.0
 40
1.0
 40
1.0
 40
1.0
 40
1.0
 10
301.9707251983
 20
953.5832488688
 30
0.0
 10
302.4707280915
 20
953.58346237
 30
0.0
 10
302.9707311217
 20
953.5834630208
 30
0.0
 10
303.4707340147
 20
953.5832490105
 30
0.0
  0
SPLINE
  5
3A0
100
AcDbEntity
  8
0
100
AcDbSpline
 62
7
  6
CONTINUOUS
 70
0
 71
3
 72
9
 73
5
 74
0
 42
0.0000001
 43
0.0000001
 44
0.0000000001
 40
0.0
 40
0.0
 40
0.0
 40
0.0
 40
0.4982497565
 40
1.0
 40
1.0
 40
1.0
 40
1.0
 10
296.3372373232
 20
953.1850160902
 30
0.0
 10
296.3372373232
 20
952.7934791145
 30
0.0
 10
296.6476108582
 20
952.029260409
 30
0.0
 10
297.0755496484
 20
951.3790104622
 30
0.0
 10
297.3081111559
 20
951.0606113871
 30
0.0
  0
LINE
  5
3A1
100
AcDbEntity
  8
0
100
AcDbLine
 62
7
  6
CONTINUOUS
 10
299.4440333196
 20
934.0283456446
 11
300.4149071523
 21
934.0298983534
  0
SPLINE
  5
3A2
100
AcDbEntity
  8
0
100
AcDbSpline
 62
7
  6
CONTINUOUS
 70
0
 71
3
 72
8
 73
4
 74
0
 42
0.0000001
 43
0.0000001
 44
0.0000000001
 40
0.0
 40
0.0
 40
0.0
 40
0.0
 40
1.0
 40
1.0
 40
1.0
 40
1.0
 10
300.4149071523
 20
934.0298983534
 30
0.0
 10
300.9668297477
 20
934.0306296702
 30
0.0
 10
301.5472279717
 20
934.1509920942
 30
0.0
 10
302.020272057
 20
934.4353305887
 30
0.0
  0
SPLINE
  5
3A3
100
AcDbEntity
  8
0
100
AcDbSpline
 62
7
  6
CONTINUOUS
 70
0
 71
3
 72
9
 73
5
 74
0
 42
0.0000001
 43
0.0000001
 44
0.0000000001
 40
0.0
 40
0.0
 40
0.0
 40
0.0
 40
0.4990067619
 40
1.0
 40
1.0
 40
1.0
 40
1.0
 10
302.020272057
 20
934.4353305887
 30
0.0
 10
302.4124395214
 20
934.6710555662
 30
0.0
 10
303.0657752733
 20
935.3750184826
 30
0.0
 10
303.384452585
 20
936.247671699
 30
0.0
 10
303.5005805089
 20
936.6921332683
 30
0.0
  0
SPLINE
  5
3A4
100
AcDbEntity
  8
0
100
AcDbSpline
 62
7
  6
CONTINUOUS
 70
0
 71
3
 72
8
 73
4
 74
0
 42
0.0000001
 43
0.0000001
 44
0.0000000001
 40
0.0
 40
0.0
 40
0.0
 40
0.0
 40
1.0
 40
1.0
 40
1.0
 40
1.0
 10
303.5005805089
 20
936.6921332683
 30
0.0
 10
303.6044495925
 20
937.0896760326
 30
0.0
 10
303.6718608529
 20
937.4973263877
 30
0.0
 10
303.7158783176
 20
937.9058499473
 30
0.0
  0
LINE
  5
3A5
100
AcDbEntity
  8
0
100
AcDbLine
 62
7
  6
CONTINUOUS
 10
301.5799554833
 20
940.4235194605
 11
301.9683058211
 21
938.6807330023
  0
LINE
  5
3A6
100
AcDbEntity
  8
0
100
AcDbLine
 62
7
  6
CONTINUOUS
 10
298.0848104903
 20
938.4810627295
 11
298.6673339852
 21
940.2255428071
  0
SPLINE
  5
3A7
100
AcDbEntity
  8
0
100
AcDbSpline
 62
7
  6
CONTINUOUS
 70
0
 71
3
 72
11
 73
7
 74
0
 42
0.0000001
 43
0.0000001
 44
0.0000000001
 40
0.0
 40
0.0
 40
0.0
 40
0.0
 40
0.2500039976
 40
0.499292418
 40
0.7492229923
 40
1.0
 40
1.0
 40
1.0
 40
1.0
 10
296.3372373232
 20
937.7007777443
 30
0.0
 10
296.3372373232
 20
937.2662064246
 30
0.0
 10
296.4467698749
 20
936.3867366842
 30
0.0
 10
297.1199309857
 20
935.2238895207
 30
0.0
 10
298.199817424
 20
934.4440812498
 30
0.0
 10
299.0236166324
 20
934.1435485317
 30
0.0
 10
299.4440333196
 20
934.0283456445
 30
0.0
  0
SPLINE
  5
3A8
100
AcDbEntity
  8
0
100
AcDbSpline
 62
7
  6
CONTINUOUS
 70
0
 71
3
 72
9
 73
5
 74
0
 42
0.0000001
 43
0.0000001
 44
0.0000000001
 40
0.0
 40
0.0
 40
0.0
 40
0.0
 40
0.4996360707
 40
1.0
 40
1.0
 40
1.0
 40
1.0
 10
301.385780985
 20
972.3246168209
 30
0.0
 10
301.4989960249
 20
972.2930478668
 30
0.0
 10
301.7144795826
 20
972.1675932854
 30
0.0
 10
301.8303082883
 20
971.9528980923
 30
0.0
 10
301.8706152973
 20
971.8423093631
 30
0.0
  0
SPLINE
  5
3A9
100
AcDbEntity
  8
0
100
AcDbSpline
 62
7
  6
CONTINUOUS
 70
0
 71
3
 72
8
 73
4
 74
0
 42
0.0000001
 43
0.0000001
 44
0.0000000001
 40
0.0
 40
0.0
 40
0.0
 40
0.0
 40
1.0
 40
1.0
 40
1.0
 40
1.0
 10
301.8706152973
 20
971.8423093631
 30
0.0
 10
301.9485355769
 20
971.6285226073
 30
0.0
 10
301.9683058211
 20
971.3942473676
 30
0.0
 10
301.9683058211
 20
971.1667032028
 30
0.0
  0
LINE
  5
3AA
100
AcDbEntity
  8
0
100
AcDbLine
 62
7
  6
CONTINUOUS
 10
298.0848104903
 20
971.1607750695
 11
298.1943344228
 21
971.814391439
  0
LINE
  5
3AB
100
AcDbEntity
  8
0
100
AcDbLine
 62
7
  6
CONTINUOUS
 10
298.1943344228
 20
971.814391439
 11
298.2789849886
 21
972.3195344964
  0
SPLINE
  5
3AC
100
AcDbEntity
  8
0
100
AcDbSpline
 62
7
  6
CONTINUOUS
 70
0
 71
3
 72
11
 73
7
 74
0
 42
0.0000001
 43
0.0000001
 44
0.0000000001
 40
0.0
 40
0.0
 40
0.0
 40
0.0
 40
0.2488935934
 40
0.4975812144
 40
0.7482180487
 40
1.0
 40
1.0
 40
1.0
 40
1.0
 10
296.3454994536
 20
970.3138460513
 30
0.0
 10
296.3722307234
 20
969.8980547851
 30
0.0
 10
296.5669363905
 20
969.056004082
 30
0.0
 10
297.4328340523
 20
968.0847402741
 30
0.0
 10
298.5901999738
 20
967.5447229272
 30
0.0
 10
299.4154762503
 20
967.364607659
 30
0.0
 10
299.8323836573
 20
967.3026589517
 30
0.0
  0
LINE
  5
3AD
100
AcDbEntity
  8
0
100
AcDbLine
 62
7
  6
CONTINUOUS
 10
299.8323836573
 20
967.3026589517
 11
300.220732654
 21
967.3032525697
  0
SPLINE
  5
3AE
100
AcDbEntity
  8
0
100
AcDbSpline
 62
7
  6
CONTINUOUS
 70
0
 71
3
 72
8
 73
4
 74
0
 42
0.0000001
 43
0.0000001
 44
0.0000000001
 40
0.0
 40
0.0
 40
0.0
 40
0.0
 40
1.0
 40
1.0
 40
1.0
 40
1.0
 10
300.220732654
 20
967.3032525697
 30
0.0
 10
300.8217965018
 20
967.3944025843
 30
0.0
 10
301.4254634662
 20
967.5441439441
 30
0.0
 10
301.9735248061
 20
967.8072310817
 30
0.0
  0
SPLINE
  5
3AF
100
AcDbEntity
  8
0
100
AcDbSpline
 62
7
  6
CONTINUOUS
 70
0
 71
3
 72
9
 73
5
 74
0
 42
0.0000001
 43
0.0000001
 44
0.0000000001
 40
0.0
 40
0.0
 40
0.0
 40
0.0
 40
0.5013083214
 40
1.0
 40
1.0
 40
1.0
 40
1.0
 10
301.9735248061
 20
967.8072310817
 30
0.0
 10
302.2966332665
 20
967.9623335744
 30
0.0
 10
302.9098249741
 20
968.3560658226
 30
0.0
 10
303.3330163526
 20
968.9616148478
 30
0.0
 10
303.4726010908
 20
969.2896917861
 30
0.0
  0
SPLINE
  5
3B0
100
AcDbEntity
  8
0
100
AcDbSpline
 62
7
  6
CONTINUOUS
 70
0
 71
3
 72
8
 73
4
 74
0
 42
0.0000001
 43
0.0000001
 44
0.0000000001
 40
0.0
 40
0.0
 40
0.0
 40
0.0
 40
1.0
 40
1.0
 40
1.0
 40
1.0
 10
303.4726010908
 20
969.2896917861
 30
0.0
 10
303.6097086599
 20
969.6119464401
 30
0.0
 10
303.6833969505
 20
969.9644447893
 30
0.0
 10
303.7068792739
 20
970.3138659221
 30
0.0
  0
LINE
  5
3B1
100
AcDbEntity
  8
0
100
AcDbLine
 62
7
  6
CONTINUOUS
 10
303.1333541521
 20
972.3250750264
 11
303.470732604
 21
972.3249634158
  0
SPLINE
  5
3B2
100
AcDbEntity
  8
0
100
AcDbSpline
 62
7
  6
CONTINUOUS
 70
0
 71
3
 72
8
 73
4
 74
0
 42
0.0000001
 43
0.0000001
 44
0.0000000001
 40
0.0
 40
0.0
 40
0.0
 40
0.0
 40
1.0
 40
1.0
 40
1.0
 40
1.0
 10
293.2304413267
 20
972.299624962
 30
0.0
 10
293.9771949627
 20
972.3036443401
 30
0.0
 10
294.7239513215
 20
972.3071862647
 30
0.0
 10
295.4707094888
 20
972.3102502102
 30
0.0
  0
SPLINE
  5
3B3
100
AcDbEntity
  8
0
100
AcDbSpline
 62
7
  6
CONTINUOUS
 70
0
 71
3
 72
8
 73
4
 74
0
 42
0.0000001
 43
0.0000001
 44
0.0000000001
 40
0.0
 40
0.0
 40
0.0
 40
0.0
 40
1.0
 40
1.0
 40
1.0
 40
1.0
 10
295.4707094888
 20
972.3102502102
 30
0.0
 10
295.8890011793
 20
972.3119664593
 30
0.0
 10
296.3072935115
 20
972.3135327214
 30
0.0
 10
296.7255863198
 20
972.314950599
 30
0.0
  0
LINE
  5
3B4
100
AcDbEntity
  8
0
100
AcDbLine
 62
7
  6
CONTINUOUS
 10
294.7838386544
 20
964.1966145638
 11
295.1721889922
 21
964.198321079
  0
SPLINE
  5
3B5
100
AcDbEntity
  8
0
100
AcDbSpline
 62
7
  6
CONTINUOUS
 70
0
 71
3
 72
10
 73
6
 74
0
 42
0.0000001
 43
0.0000001
 44
0.0000000001
 40
0.0
 40
0.0
 40
0.0
 40
0.0
 40
0.4989229566
 40
0.7492949872
 40
1.0
 40
1.0
 40
1.0
 40
1.0
 10
293.2304413267
 20
965.7343306202
 30
0.0
 10
293.2304413267
 20
965.4569424668
 30
0.0
 10
293.2834146945
 20
965.0247338697
 30
0.0
 10
293.6012085488
 20
964.55302466
 30
0.0
 10
293.8415109243
 20
964.3973493258
 30
0.0
 10
293.9689596826
 20
964.3409124807
 30
0.0
  0
SPLINE
  5
3B6
100
AcDbEntity
  8
0
100
AcDbSpline
 62
7
  6
CONTINUOUS
 70
0
 71
3
 72
8
 73
4
 74
0
 42
0.0000001
 43
0.0000001
 44
0.0000000001
 40
0.0
 40
0.0
 40
0.0
 40
0.0
 40
1.0
 40
1.0
 40
1.0
 40
1.0
 10
293.9689596826
 20
964.3409124807
 30
0.0
 10
294.2211883971
 20
964.2292205892
 30
0.0
 10
294.5079893134
 20
964.1953719525
 30
0.0
 10
294.7838386544
 20
964.1966145641
 30
0.0
  0
SPLINE
  5
3B7
100
AcDbEntity
  8
0
100
AcDbSpline
 62
7
  6
CONTINUOUS
 70
0
 71
3
 72
10
 73
6
 74
0
 42
0.0000001
 43
0.0000001
 44
0.0000000001
 40
0.0
 40
0.0
 40
0.0
 40
0.0
 40
0.2512437449
 40
0.5025453008
 40
1.0
 40
1.0
 40
1.0
 40
1.0
 10
298.0848104903
 20
944.6771397072
 30
0.0
 10
298.1283256847
 20
944.8209484359
 30
0.0
 10
298.2478475944
 20
945.1015754503
 30
0.0
 10
298.6681092417
 20
945.5501465019
 30
0.0
 10
299.1465471287
 20
945.6474429338
 30
0.0
 10
299.4440333196
 20
945.6479979572
 30
0.0
  0
SPLINE
  5
3B8
100
AcDbEntity
  8
0
100
AcDbSpline
 62
7
  6
CONTINUOUS
 70
0
 71
3
 72
8
 73
4
 74
0
 42
0.0000001
 43
0.0000001
 44
0.0000000001
 40
0.0
 40
0.0
 40
0.0
 40
0.0
 40
1.0
 40
1.0
 40
1.0
 40
1.0
 10
299.4440333196
 20
945.6479979572
 30
0.0
 10
300.2854565794
 20
945.6495678103
 30
0.0
 10
301.1268811749
 20
945.650540299
 30
0.0
 10
301.9683058211
 20
945.6509026301
 30
0.0
  0
SPLINE
  5
3B9
100
AcDbEntity
  8
0
100
AcDbSpline
 62
7
  6
CONTINUOUS
 70
0
 71
3
 72
8
 73
4
 74
0
 42
0.0000001
 43
0.0000001
 44
0.0000000001
 40
0.0
 40
0.0
 40
0.0
 40
0.0
 40
1.0
 40
1.0
 40
1.0
 40
1.0
 10
296.3372373232
 20
945.2523349747
 30
0.0
 10
296.4581673865
 20
944.7479912872
 30
0.0
 10
296.646840776
 20
944.2489646382
 30
0.0
 10
296.9270778107
 20
943.8125544645
 30
0.0
  0
SPLINE
  5
3BA
100
AcDbEntity
  8
0
100
AcDbSpline
 62
7
  6
CONTINUOUS
 70
0
 71
3
 72
8
 73
4
 74
0
 42
0.0000001
 43
0.0000001
 44
0.0000000001
 40
0.0
 40
0.0
 40
0.0
 40
0.0
 40
1.0
 40
1.0
 40
1.0
 40
1.0
 10
296.9270778107
 20
943.8125544645
 30
0.0
 10
297.0392600766
 20
943.6378542068
 30
0.0
 10
297.1666850908
 20
943.4718477557
 30
0.0
 10
297.3081111559
 20
943.319848713
 30
0.0
  0
LINE
  5
3BB
100
AcDbEntity
  8
0
100
AcDbLine
 62
7
  6
CONTINUOUS
 10
293.2304413268
 20
940.9790779299
 11
293.9701468432
 21
940.982939516
  0
SPLINE
  5
3BC
100
AcDbEntity
  8
0
100
AcDbSpline
 62
7
  6
CONTINUOUS
 70
0
 71
3
 72
8
 73
4
 74
0
 42
0.0000001
 43
0.0000001
 44
0.0000000001
 40
0.0
 40
0.0
 40
0.0
 40
0.0
 40
1.0
 40
1.0
 40
1.0
 40
1.0
 10
293.9701468432
 20
940.982939516
 30
0.0
 10
294.4701250565
 20
940.9854429356
 30
0.0
 10
294.9701043983
 20
940.9877302172
 30
0.0
 10
295.4700845852
 20
940.9898023082
 30
0.0
  0
SPLINE
  5
3BD
100
AcDbEntity
  8
0
100
AcDbSpline
 62
7
  6
CONTINUOUS
 70
0
 71
3
 72
8
 73
4
 74
0
 42
0.0000001
 43
0.0000001
 44
0.0000000001
 40
0.0
 40
0.0
 40
0.0
 40
0.0
 40
1.0
 40
1.0
 40
1.0
 40
1.0
 10
301.9706587021
 20
941.0046623646
 30
0.0
 10
302.4706847087
 20
941.0048774502
 30
0.0
 10
302.970710854
 20
941.0048780158
 30
0.0
 10
303.4707368607
 20
941.0046632888
 30
0.0
  0
LINE
  5
3BE
100
AcDbEntity
  8
0
100
AcDbLine
 62
7
  6
CONTINUOUS
 10
295.7547124871
 20
925.8757237649
 11
296.7255863198
 21
925.8793384803
  0
SPLINE
  5
3BF
100
AcDbEntity
  8
0
100
AcDbSpline
 62
7
  6
CONTINUOUS
 70
0
 71
3
 72
9
 73
5
 74
0
 42
0.0000001
 43
0.0000001
 44
0.0000000001
 40
0.0
 40
0.0
 40
0.0
 40
0.0
 40
0.49691904
 40
1.0
 40
1.0
 40
1.0
 40
1.0
 10
296.7255863198
 20
925.8793384803
 30
0.0
 10
297.1080442168
 20
925.8806589949
 30
0.0
 10
297.858090312
 20
926.2271546086
 30
0.0
 10
298.4074248036
 20
926.7614487501
 30
0.0
 10
298.6673339852
 20
927.0484560825
 30
0.0
  0
SPLINE
  5
3C0
100
AcDbEntity
  8
0
100
AcDbSpline
 62
7
  6
CONTINUOUS
 70
0
 71
3
 72
8
 73
4
 74
0
 42
0.0000001
 43
0.0000001
 44
0.0000000001
 40
0.0
 40
0.0
 40
0.0
 40
0.0
 40
1.0
 40
1.0
 40
1.0
 40
1.0
 10
299.1964422996
 20
928.3148764611
 30
0.0
 10
299.4168343664
 20
928.8217302778
 30
0.0
 10
299.6455193784
 20
929.3258838696
 30
0.0
 10
299.9039312564
 20
929.8144498897
 30
0.0
  0
SPLINE
  5
3C1
100
AcDbEntity
  8
0
100
AcDbSpline
 62
7
  6
CONTINUOUS
 70
0
 71
3
 72
12
 73
8
 74
0
 42
0.0000001
 43
0.0000001
 44
0.0000000001
 40
0.0
 40
0.0
 40
0.0
 40
0.0
 40
0.2504866196
 40
0.500959043
 40
0.7512905473
 40
0.8764271147
 40
1.0
 40
1.0
 40
1.0
 40
1.0
 10
299.9039312564
 20
929.8144498897
 30
0.0
 10
299.9611874786
 20
929.9227012782
 30
0.0
 10
300.0790822305
 20
930.1376169762
 30
0.0
 10
300.2705444069
 20
930.4505121869
 30
0.0
 10
300.453377912
 20
930.69929445
 30
0.0
 10
300.6265883227
 20
930.868141543
 30
0.0
 10
300.7428424611
 20
930.9294560178
 30
0.0
 10
300.803256149
 20
930.9295225076
 30
0.0
  0
SPLINE
  5
3C2
100
AcDbEntity
  8
0
100
AcDbSpline
 62
7
  6
CONTINUOUS
 70
0
 71
3
 72
10
 73
6
 74
0
 42
0.0000001
 43
0.0000001
 44
0.0000000001
 40
0.0
 40
0.0
 40
0.0
 40
0.0
 40
0.2513079664
 40
0.5018254602
 40
1.0
 40
1.0
 40
1.0
 40
1.0
 10
300.803256149
 20
930.9295225076
 30
0.0
 10
300.9222486131
 20
930.8992672325
 30
0.0
 10
301.1554856941
 20
930.8065410232
 30
0.0
 10
301.5080430104
 20
930.4457302184
 30
0.0
 10
301.5746178967
 20
930.0578324248
 30
0.0
 10
301.5794872308
 20
929.8144937896
 30
0.0
  0
SPLINE
  5
3C3
100
AcDbEntity
  8
0
100
AcDbSpline
 62
7
  6
CONTINUOUS
 70
0
 71
3
 72
8
 73
4
 74
0
 42
0.0000001
 43
0.0000001
 44
0.0000000001
 40
0.0
 40
0.0
 40
0.0
 40
0.0
 40
1.0
 40
1.0
 40
1.0
 40
1.0
 10
300.4149071523
 20
926.2759858899
 30
0.0
 10
300.933535749
 20
926.2295862901
 30
0.0
 10
301.45214382
 20
926.1829566893
 30
0.0
 10
301.9707310366
 20
926.1360968668
 30
0.0
  0
LINE
  5
3C4
100
AcDbEntity
  8
0
100
AcDbLine
 62
7
  6
CONTINUOUS
 10
301.9707310366
 20
926.1360968668
 11
302.550829316
 21
926.0835819684
  0
SPLINE
  5
3C5
100
AcDbEntity
  8
0
100
AcDbSpline
 62
7
  6
CONTINUOUS
 70
0
 71
3
 72
8
 73
4
 74
0
 42
0.0000001
 43
0.0000001
 44
0.0000000001
 40
0.0
 40
0.0
 40
0.0
 40
0.0
 40
1.0
 40
1.0
 40
1.0
 40
1.0
 10
302.550829316
 20
926.0835819684
 30
0.0
 10
302.990643383
 20
926.5983724943
 30
0.0
 10
303.3161013111
 20
927.2281105213
 30
0.0
 10
303.4987440982
 20
927.8800977231
 30
0.0
  0
SPLINE
  5
3C6
100
AcDbEntity
  8
0
100
AcDbSpline
 62
7
  6
CONTINUOUS
 70
0
 71
3
 72
8
 73
4
 74
0
 42
0.0000001
 43
0.0000001
 44
0.0000000001
 40
0.0
 40
0.0
 40
0.0
 40
0.0
 40
1.0
 40
1.0
 40
1.0
 40
1.0
 10
303.5964679642
 20
928.2899441662
 30
0.0
 10
303.6800933515
 20
928.7113847217
 30
0.0
 10
303.7158783176
 20
929.1437156475
 30
0.0
 10
303.7158783176
 20
929.5733728914
 30
0.0
  0
SPLINE
  5
3C7
100
AcDbEntity
  8
0
100
AcDbSpline
 62
7
  6
CONTINUOUS
 70
0
 71
3
 72
8
 73
4
 74
0
 42
0.0000001
 43
0.0000001
 44
0.0000000001
 40
0.0
 40
0.0
 40
0.0
 40
0.0
 40
1.0
 40
1.0
 40
1.0
 40
1.0
 10
295.1721889922
 20
929.5573116323
 30
0.0
 10
295.1721889922
 20
930.1563725159
 30
0.0
 10
295.2938191161
 20
930.7565967806
 30
0.0
 10
295.4664866258
 20
931.3302341864
 30
0.0
  0
SPLINE
  5
3C8
100
AcDbEntity
  8
0
100
AcDbSpline
 62
7
  6
CONTINUOUS
 70
0
 71
3
 72
8
 73
4
 74
0
 42
0.0000001
 43
0.0000001
 44
0.0000000001
 40
0.0
 40
0.0
 40
0.0
 40
0.0
 40
1.0
 40
1.0
 40
1.0
 40
1.0
 10
295.4664866258
 20
931.3302341864
 30
0.0
 10
295.644053361
 20
931.9201478393
 30
0.0
 10
295.8795101461
 20
932.4932795518
 30
0.0
 10
296.1430628249
 20
933.0501170944
 30
0.0
  0
LINE
  5
3C9
100
AcDbEntity
  8
0
100
AcDbLine
 62
7
  6
CONTINUOUS
 10
305.8518004813
 20
982.3549185189
 11
305.0751011469
 21
982.3561225361
  0
SPLINE
  5
3CA
100
AcDbEntity
  8
0
100
AcDbSpline
 62
7
  6
CONTINUOUS
 70
0
 71
3
 72
9
 73
5
 74
0
 42
0.0000001
 43
0.0000001
 44
0.0000000001
 40
0.0
 40
0.0
 40
0.0
 40
0.0
 40
0.2490284031
 40
1.0
 40
1.0
 40
1.0
 40
1.0
 10
319.7531846233
 20
1003.6912579422
 30
0.0
 10
319.6833255894
 20
1004.0945503474
 30
0.0
 10
319.3912963696
 20
1005.7119950077
 30
0.0
 10
319.0523301336
 20
1007.3210071935
 30
0.0
 10
318.7704025815
 20
1008.522660086
 30
0.0
  0
SPLINE
  5
3CB
100
AcDbEntity
  8
0
100
AcDbSpline
 62
7
  6
CONTINUOUS
 70
0
 71
3
 72
11
 73
7
 74
0
 42
0.0000001
 43
0.0000001
 44
0.0000000001
 40
0.0
 40
0.0
 40
0.0
 40
0.0
 40
0.2492305993
 40
0.4986059572
 40
0.7491207191
 40
1.0
 40
1.0
 40
1.0
 40
1.0
 10
300.0265581557
 20
936.354349069
 30
0.0
 10
299.7679841568
 20
936.3539501918
 30
0.0
 10
299.2354089649
 20
936.4711251993
 30
0.0
 10
298.65480907
 20
937.0292714772
 30
0.0
 10
298.299300269
 20
937.7290838249
 30
0.0
 10
298.1471161378
 20
938.2283451358
 30
0.0
 10
298.0848104903
 20
938.4810627295
 30
0.0
  0
SPLINE
  5
3CC
100
AcDbEntity
  8
0
100
AcDbSpline
 62
7
  6
CONTINUOUS
 70
0
 71
3
 72
8
 73
4
 74
0
 42
0.0000001
 43
0.0000001
 44
0.0000000001
 40
0.0
 40
0.0
 40
0.0
 40
0.0
 40
1.0
 40
1.0
 40
1.0
 40
1.0
 10
298.6673339852
 20
940.2255428071
 30
0.0
 10
298.0200838336
 20
940.2240435941
 30
0.0
 10
297.3728344114
 20
940.222186331
 30
0.0
 10
296.7255863198
 20
940.2199694693
 30
0.0
  0
SPLINE
  5
3CD
100
AcDbEntity
  8
0
100
AcDbSpline
 62
7
  6
CONTINUOUS
 70
0
 71
3
 72
9
 73
5
 74
0
 42
0.0000001
 43
0.0000001
 44
0.0000000001
 40
0.0
 40
0.0
 40
0.0
 40
0.0
 40
0.2495998696
 40
1.0
 40
1.0
 40
1.0
 40
1.0
 10
319.7663612804
 20
1003.6150001776
 30
0.0
 10
319.768084908
 20
998.2726595117
 30
0.0
 10
319.791495342
 20
976.8690472699
 30
0.0
 10
319.8469200994
 20
955.4654813901
 30
0.0
 10
319.8576950139
 20
939.4042052193
 30
0.0
  0
SPLINE
  5
3CE
100
AcDbEntity
  8
0
100
AcDbSpline
 62
7
  6
CONTINUOUS
 70
0
 71
3
 72
8
 73
4
 74
0
 42
0.0000001
 43
0.0000001
 44
0.0000000001
 40
0.0
 40
0.0
 40
0.0
 40
0.0
 40
1.0
 40
1.0
 40
1.0
 40
1.0
 10
319.8576950139
 20
939.4042052193
 30
0.0
 10
319.8594578116
 20
936.7765480863
 30
0.0
 10
319.8605226555
 20
934.1488903619
 30
0.0
 10
319.8607806843
 20
931.5212326503
 30
0.0
  0
SPLINE
  5
3CF
100
AcDbEntity
  8
0
100
AcDbSpline
 62
7
  6
CONTINUOUS
 70
0
 71
3
 72
8
 73
4
 74
0
 42
0.0000001
 43
0.0000001
 44
0.0000000001
 40
0.0
 40
0.0
 40
0.0
 40
0.0
 40
1.0
 40
1.0
 40
1.0
 40
1.0
 10
319.8607806843
 20
931.5212326503
 30
0.0
 10
319.8610247649
 20
929.0356178635
 30
0.0
 10
319.8605435521
 20
926.5500028679
 30
0.0
 10
319.8592332331
 20
924.0643884146
 30
0.0
  0
SPLINE
  5
3D0
100
AcDbEntity
  8
0
100
AcDbSpline
 62
7
  6
CONTINUOUS
 70
0
 71
3
 72
9
 73
5
 74
0
 42
0.0000001
 43
0.0000001
 44
0.0000000001
 40
0.0
 40
0.0
 40
0.0
 40
0.0
 40
0.4175506402
 40
1.0
 40
1.0
 40
1.0
 40
1.0
 10
285.6704498833
 20
1003.6088094898
 30
0.0
 10
285.6704524166
 20
1003.6099200431
 30
0.0
 10
285.671664475
 20
1003.6125271882
 30
0.0
 10
285.6738174627
 20
1003.614150012
 30
0.0
 10
285.6751087534
 20
1003.6150058103
 30
0.0
  0
SPLINE
  5
3D1
100
AcDbEntity
  8
0
100
AcDbSpline
 62
7
  6
CONTINUOUS
 70
0
 71
3
 72
19
 73
15
 74
0
 42
0.0000001
 43
0.0000001
 44
0.0000000001
 40
0.0
 40
0.0
 40
0.0
 40
0.0
 40
0.0623858561
 40
0.124823692
 40
0.1872899089
 40
0.2497942963
 40
0.3748762477
 40
0.500001469
 40
0.6251270086
 40
0.7502066841
 40
0.8127137476
 40
0.875179379
 40
0.9376140295
 40
1.0
 40
1.0
 40
1.0
 40
1.0
 10
317.0178330776
 20
1009.6545113101
 30
0.0
 10
316.4326942041
 20
1009.7790643578
 30
0.0
 10
315.2525044808
 20
1009.9823442274
 30
0.0
 10
313.4778044308
 20
1010.257310993
 30
0.0
 10
311.6970911903
 20
1010.5014675487
 30
0.0
 10
309.3131734595
 20
1010.7620252174
 30
0.0
 10
306.3209578445
 20
1010.9775957274
 30
0.0
 10
302.7214399321
 20
1011.0670178182
 30
0.0
 10
299.1219018485
 20
1010.9779911756
 30
0.0
 10
296.1297678804
 20
1010.7614463855
 30
0.0
 10
293.7457057987
 20
1010.5024534998
 30
0.0
 10
291.9648512606
 20
1010.2590015814
 30
0.0
 10
290.1910981834
 20
1009.978607117
 30
0.0
 10
289.0100154332
 20
1009.7802861804
 30
0.0
 10
288.425061785
 20
1009.6548608822
 30
0.0
  0
LINE
  5
3D2
100
AcDbEntity
  8
0
100
AcDbLine
 62
7
  6
CONTINUOUS
 10
296.7255863198
 20
940.2199694693
 11
296.3372373232
 21
937.7007777443
  0
LINE
  5
3D3
100
AcDbEntity
  8
0
100
AcDbLine
 62
7
  6
CONTINUOUS
 10
310.5119941187
 20
957.0468257897
 11
309.7352957859
 21
957.0497748024
  0
SPLINE
  5
3D4
100
AcDbEntity
  8
0
100
AcDbSpline
 62
7
  6
CONTINUOUS
 70
0
 71
3
 72
8
 73
4
 74
0
 42
0.0000001
 43
0.0000001
 44
0.0000000001
 40
0.0
 40
0.0
 40
0.0
 40
0.0
 40
1.0
 40
1.0
 40
1.0
 40
1.0
 10
309.7352954769
 20
954.536342794
 30
0.0
 10
309.1527722795
 20
954.538665612
 30
0.0
 10
308.5702478657
 20
954.5407018788
 30
0.0
 10
307.9877226451
 20
954.5424449598
 30
0.0
  0
SPLINE
  5
3D5
100
AcDbEntity
  8
0
100
AcDbSpline
 62
7
  6
CONTINUOUS
 70
0
 71
3
 72
11
 73
7
 74
0
 42
0.0000001
 43
0.0000001
 44
0.0000000001
 40
0.0
 40
0.0
 40
0.0
 40
0.0
 40
0.2494701734
 40
0.4980081925
 40
0.7484331949
 40
1.0
 40
1.0
 40
1.0
 40
1.0
 10
301.9683058211
 20
971.1667031997
 30
0.0
 10
301.9683058211
 20
970.945710115
 30
0.0
 10
301.9218497969
 20
970.4966147291
 30
0.0
 10
301.5293248425
 20
969.9151193237
 30
0.0
 10
300.888849639
 20
969.6553763077
 30
0.0
 10
300.4435828152
 20
969.620853075
 30
0.0
 10
300.220732654
 20
969.6205370825
 30
0.0
  0
LINE
  5
3D6
100
AcDbEntity
  8
0
100
AcDbLine
 62
7
  6
CONTINUOUS
 10
310.7061693096
 20
986.0029271684
 11
310.511994476
 21
987.3530548321
  0
LINE
  5
3D7
100
AcDbEntity
  8
0
100
AcDbLine
 62
7
  6
CONTINUOUS
 10
307.9877224329
 20
956.8628403958
 11
307.0168489727
 21
956.8652031991
  0
SPLINE
  5
3D8
100
AcDbEntity
  8
0
100
AcDbSpline
 62
7
  6
CONTINUOUS
 70
0
 71
3
 72
11
 73
7
 74
0
 42
0.0000001
 43
0.0000001
 44
0.0000000001
 40
0.0
 40
0.0
 40
0.0
 40
0.0
 40
0.2488356688
 40
0.4969668288
 40
0.7479672981
 40
1.0
 40
1.0
 40
1.0
 40
1.0
 10
298.0848111443
 20
971.1607789739
 30
0.0
 10
298.0848111443
 20
970.9136585846
 30
0.0
 10
298.1665882733
 20
970.3989782076
 30
0.0
 10
298.7378102833
 20
969.8517845595
 30
0.0
 10
299.4707709825
 20
969.6506324365
 30
0.0
 10
299.9704354385
 20
969.620182789
 30
0.0
 10
300.2207305714
 20
969.6205376974
 30
0.0
  0
LINE
  5
3D9
100
AcDbEntity
  8
0
100
AcDbLine
 62
7
  6
CONTINUOUS
 10
296.7255863198
 20
972.3149506023
 11
296.3372373232
 21
970.5761491865
  0
LINE
  5
3DA
100
AcDbEntity
  8
0
100
AcDbLine
 62
7
  6
CONTINUOUS
 10
310.511994476
 20
987.3530548321
 11
309.5411209785
 21
987.3570525975
  0
SPLINE
  5
3DB
100
AcDbEntity
  8
0
100
AcDbSpline
 62
7
  6
CONTINUOUS
 70
0
 71
3
 72
8
 73
4
 74
0
 42
0.0000001
 43
0.0000001
 44
0.0000000001
 40
0.0
 40
0.0
 40
0.0
 40
0.0
 40
1.0
 40
1.0
 40
1.0
 40
1.0
 10
307.0168488124
 20
954.5450842969
 30
0.0
 10
306.4990499847
 20
954.5463483817
 30
0.0
 10
305.9812505544
 20
954.5473865803
 30
0.0
 10
305.4634508141
 20
954.5481945443
 30
0.0
  0
SPLINE
  5
3DC
100
AcDbEntity
  8
0
100
AcDbSpline
 62
7
  6
CONTINUOUS
 70
0
 71
3
 72
11
 73
7
 74
0
 42
0.0000001
 43
0.0000001
 44
0.0000000001
 40
0.0
 40
0.0
 40
0.0
 40
0.0
 40
0.2511773413
 40
0.6267017952
 40
0.8136822527
 40
1.0
 40
1.0
 40
1.0
 40
1.0
 10
316.4981420131
 20
924.1642711068
 30
0.0
 10
316.5629907462
 20
931.321430745
 30
0.0
 10
316.6793150739
 20
949.179364102
 30
0.0
 10
316.7542966543
 20
972.3656201558
 30
0.0
 10
316.8747198054
 20
993.7034815328
 30
0.0
 10
316.981272727
 20
1004.3403461231
 30
0.0
 10
317.0425716462
 20
1009.6492314865
 30
0.0
  0
SPLINE
  5
3DD
100
AcDbEntity
  8
0
100
AcDbSpline
 62
7
  6
CONTINUOUS
 70
0
 71
3
 72
8
 73
4
 74
0
 42
0.0000001
 43
0.0000001
 44
0.0000000001
 40
0.0
 40
0.0
 40
0.0
 40
0.0
 40
1.0
 40
1.0
 40
1.0
 40
1.0
 10
316.4207810891
 20
914.1358759879
 30
0.0
 10
316.448480535
 20
917.4786590606
 30
0.0
 10
316.4768267871
 20
920.8214412291
 30
0.0
 10
316.4981420131
 20
924.1642711068
 30
0.0
  0
LINE
  5
3DE
100
AcDbEntity
  8
0
100
AcDbLine
 62
7
  6
CONTINUOUS
 10
305.4634507633
 20
957.0618398981
 11
304.4925770094
 21
957.0629658168
  0
LINE
  5
3DF
100
AcDbEntity
  8
0
100
AcDbLine
 62
7
  6
CONTINUOUS
 10
303.7158783176
 20
970.5874049714
 11
303.1333541521
 21
972.3250750264
  0
SPLINE
  5
3E0
100
AcDbEntity
  8
0
100
AcDbSpline
 62
7
  6
CONTINUOUS
 70
0
 71
3
 72
9
 73
5
 74
0
 42
0.0000001
 43
0.0000001
 44
0.0000000001
 40
0.0
 40
0.0
 40
0.0
 40
0.0
 40
0.2499263312
 40
1.0
 40
1.0
 40
1.0
 40
1.0
 10
316.0138300451
 20
858.0881910639
 30
0.0
 10
316.0497053919
 20
862.7574404891
 30
0.0
 10
316.1912550088
 20
881.4399587305
 30
0.0
 10
316.32493614
 20
900.1225365852
 30
0.0
 10
316.4207810891
 20
914.1358759879
 30
0.0
  0
SPLINE
  5
3E1
100
AcDbEntity
  8
0
100
AcDbSpline
 62
7
  6
CONTINUOUS
 70
0
 71
3
 72
11
 73
7
 74
0
 42
0.0000001
 43
0.0000001
 44
0.0000000001
 40
0.0
 40
0.0
 40
0.0
 40
0.0
 40
0.2505455987
 40
0.4996899068
 40
0.7482302335
 40
1.0
 40
1.0
 40
1.0
 40
1.0
 10
309.7352954769
 20
986.3925535738
 30
0.0
 10
309.7352954769
 20
986.2232572999
 30
0.0
 10
309.7098514037
 20
985.8853463754
 30
0.0
 10
309.5221087296
 20
985.3960205266
 30
0.0
 10
309.0858172849
 20
985.0835178482
 30
0.0
 10
308.7403696785
 20
985.0468219152
 30
0.0
 10
308.5702471458
 20
985.0473826481
 30
0.0
  0
SPLINE
  5
3E2
100
AcDbEntity
  8
0
100
AcDbSpline
 62
7
  6
CONTINUOUS
 70
0
 71
3
 72
10
 73
6
 74
0
 42
0.0000001
 43
0.0000001
 44
0.0000000001
 40
0.0
 40
0.0
 40
0.0
 40
0.0
 40
0.2437185071
 40
0.495538462
 40
1.0
 40
1.0
 40
1.0
 40
1.0
 10
307.4051984795
 20
985.8079504844
 30
0.0
 10
307.4051984795
 20
985.6904182364
 30
0.0
 10
307.5850311089
 20
985.4795579112
 30
0.0
 10
307.9949252997
 20
985.2481577548
 30
0.0
 10
308.3402448016
 20
985.1126391404
 30
0.0
 10
308.5702471458
 20
985.0333838238
 30
0.0
  0
SPLINE
  5
3E3
100
AcDbEntity
  8
0
100
AcDbSpline
 62
7
  6
CONTINUOUS
 70
0
 71
3
 72
10
 73
6
 74
0
 42
0.0000001
 43
0.0000001
 44
0.0000000001
 40
0.0
 40
0.0
 40
0.0
 40
0.0
 40
0.5044617528
 40
0.7562815251
 40
1.0
 40
1.0
 40
1.0
 40
1.0
 10
308.5702471458
 20
985.0473826481
 30
0.0
 10
308.3402446871
 20
985.126636888
 30
0.0
 10
307.9949251648
 20
985.2621540242
 30
0.0
 10
307.5850307771
 20
985.4935526786
 30
0.0
 10
307.4051984795
 20
985.7044127324
 30
0.0
 10
307.4051984795
 20
985.8219447976
 30
0.0
  0
SPLINE
  5
3E4
100
AcDbEntity
  8
0
100
AcDbSpline
 62
7
  6
CONTINUOUS
 70
0
 71
3
 72
9
 73
5
 74
0
 42
0.0000001
 43
0.0000001
 44
0.0000000001
 40
0.0
 40
0.0
 40
0.0
 40
0.0
 40
0.4999995818
 40
1.0
 40
1.0
 40
1.0
 40
1.0
 10
289.4282495296
 20
858.0931762875
 30
0.0
 10
293.827077463
 20
857.4784908772
 30
0.0
 10
302.7207016166
 20
856.8546092977
 30
0.0
 10
311.6143264143
 20
857.4784845547
 30
0.0
 10
316.0131620149
 20
858.093168779
 30
0.0
  0
SPLINE
  5
3E5
100
AcDbEntity
  8
0
100
AcDbSpline
 62
7
  6
CONTINUOUS
 70
0
 71
3
 72
13
 73
9
 74
0
 42
0.0000001
 43
0.0000001
 44
0.0000000001
 40
0.0
 40
0.0
 40
0.0
 40
0.0
 40
0.2501855028
 40
0.5003272969
 40
0.6254881705
 40
0.7506454024
 40
0.8755494949
 40
1.0
 40
1.0
 40
1.0
 40
1.0
 10
308.7644219795
 20
944.8664176943
 30
0.0
 10
308.3180371347
 20
944.9478250747
 30
0.0
 10
307.4307847196
 20
945.1408385306
 30
0.0
 10
306.3493412013
 20
945.5012903809
 30
0.0
 10
305.5434533871
 20
945.924432326
 30
0.0
 10
304.9989874613
 20
946.3410011735
 30
0.0
 10
304.5881340119
 20
946.900450909
 30
0.0
 10
304.4925769814
 20
947.3597579071
 30
0.0
 10
304.4925769814
 20
947.5854667397
 30
0.0
  0
LINE
  5
3E6
100
AcDbEntity
  8
0
100
AcDbLine
 62
7
  6
CONTINUOUS
 10
307.7935481467
 20
987.3629053718
 11
306.6284998157
 21
987.3658525879
  0
SPLINE
  5
3E7
100
AcDbEntity
  8
0
100
AcDbSpline
 62
7
  6
CONTINUOUS
 70
0
 71
3
 72
11
 73
7
 74
0
 42
0.0000001
 43
0.0000001
 44
0.0000000001
 40
0.0
 40
0.0
 40
0.0
 40
0.0
 40
0.2497932436
 40
0.4987887995
 40
0.7492854737
 40
1.0
 40
1.0
 40
1.0
 40
1.0
 10
310.1236451441
 20
942.9253726106
 30
0.0
 10
309.901247086
 20
942.9263131531
 30
0.0
 10
309.4374053069
 20
943.0113177701
 30
0.0
 10
308.9658940564
 20
943.541098312
 30
0.0
 10
308.792082247
 20
944.1966673259
 30
0.0
 10
308.7644219794
 20
944.6431974004
 30
0.0
 10
308.7644219794
 20
944.866417699
 30
0.0
  0
SPLINE
  5
3E8
100
AcDbEntity
  8
0
100
AcDbSpline
 62
7
  6
CONTINUOUS
 70
0
 71
3
 72
10
 73
6
 74
0
 42
0.0000001
 43
0.0000001
 44
0.0000000001
 40
0.0
 40
0.0
 40
0.0
 40
0.0
 40
0.4978381442
 40
0.7486996161
 40
1.0
 40
1.0
 40
1.0
 40
1.0
 10
295.7547124871
 20
964.7802728891
 30
0.0
 10
295.7547124871
 20
965.1749194317
 30
0.0
 10
295.646369234
 20
965.8012255796
 30
0.0
 10
295.1118973497
 20
966.4095382475
 30
0.0
 10
294.7683606261
 20
966.618837897
 30
0.0
 10
294.5896641561
 20
966.7068866825
 30
0.0
  0
LINE
  5
3E9
100
AcDbEntity
  8
0
100
AcDbLine
 62
7
  6
CONTINUOUS
 10
293.6187892937
 20
966.6876017756
 11
294.5896650306
 21
966.6934006927
  0
LINE
  5
3EA
100
AcDbEntity
  8
0
100
AcDbLine
 62
7
  6
CONTINUOUS
 10
294.5896641561
 20
966.7068866871
 11
293.6187903234
 21
966.7021377172
  0
LINE
  5
3EB
100
AcDbEntity
  8
0
100
AcDbLine
 62
7
  6
CONTINUOUS
 10
306.6284998157
 20
987.3658525879
 11
306.4343246468
 21
986.402529875
  0
SPLINE
  5
3EC
100
AcDbEntity
  8
0
100
AcDbSpline
 62
7
  6
CONTINUOUS
 70
0
 71
3
 72
9
 73
5
 74
0
 42
0.0000001
 43
0.0000001
 44
0.0000000001
 40
0.0
 40
0.0
 40
0.0
 40
0.0
 40
0.4997187068
 40
1.0
 40
1.0
 40
1.0
 40
1.0
 10
298.0848104903
 20
944.6631777193
 30
0.0
 10
298.1912959134
 20
944.3803859838
 30
0.0
 10
298.5006633136
 20
943.8434602299
 30
0.0
 10
298.9860850628
 20
943.4589332366
 30
0.0
 10
299.2498588213
 20
943.3108136007
 30
0.0
  0
SPLINE
  5
3ED
100
AcDbEntity
  8
0
100
AcDbSpline
 62
7
  6
CONTINUOUS
 70
0
 71
3
 72
9
 73
5
 74
0
 42
0.0000001
 43
0.0000001
 44
0.0000000001
 40
0.0
 40
0.0
 40
0.0
 40
0.0
 40
0.5002824152
 40
1.0
 40
1.0
 40
1.0
 40
1.0
 10
299.2498588213
 20
943.3247709516
 30
0.0
 10
298.986085263
 20
943.4728910277
 30
0.0
 10
298.5006931906
 20
943.8574472162
 30
0.0
 10
298.1912952804
 20
944.3943491387
 30
0.0
 10
298.0848104903
 20
944.6771397072
 30
0.0
  0
LINE
  5
3EE
100
AcDbEntity
  8
0
100
AcDbLine
 62
7
  6
CONTINUOUS
 10
307.0168488123
 20
977.5303920178
 11
306.6284998157
 21
977.5312919632
  0
SPLINE
  5
3EF
100
AcDbEntity
  8
0
100
AcDbSpline
 62
7
  6
CONTINUOUS
 70
0
 71
3
 72
11
 73
7
 74
0
 42
0.0000001
 43
0.0000001
 44
0.0000000001
 40
0.0
 40
0.0
 40
0.0
 40
0.0
 40
0.0860923652
 40
0.2800292939
 40
0.5939025862
 40
1.0
 40
1.0
 40
1.0
 40
1.0
 10
316.0270601832
 20
857.6140802707
 30
0.0
 10
316.040650902
 20
857.6159725137
 30
0.0
 10
316.0416032722
 20
857.6797515181
 30
0.0
 10
316.0466236843
 20
857.7586841445
 30
0.0
 10
316.0344121132
 20
857.9125875799
 30
0.0
 10
316.0223006894
 20
858.0240267991
 30
0.0
 10
316.0137622168
 20
858.0881868999
 30
0.0
  0
SPLINE
  5
3F0
100
AcDbEntity
  8
0
100
AcDbSpline
 62
7
  6
CONTINUOUS
 70
0
 71
3
 72
11
 73
7
 74
0
 42
0.0000001
 43
0.0000001
 44
0.0000000001
 40
0.0
 40
0.0
 40
0.0
 40
0.0
 40
0.0862282467
 40
0.2794345402
 40
0.5937511518
 40
1.0
 40
1.0
 40
1.0
 40
1.0
 10
289.4143753071
 20
857.6139316621
 30
0.0
 10
289.4008483298
 20
857.6162404973
 30
0.0
 10
289.3998697315
 20
857.6789803691
 30
0.0
 10
289.3948323104
 20
857.7584777082
 30
0.0
 10
289.406963328
 20
857.9117743147
 30
0.0
 10
289.4190658282
 20
858.0232482772
 30
0.0
 10
289.427587336
 20
858.0873357927
 30
0.0
  0
SPLINE
  5
3F1
100
AcDbEntity
  8
0
100
AcDbSpline
 62
7
  6
CONTINUOUS
 70
0
 71
3
 72
12
 73
8
 74
0
 42
0.0000001
 43
0.0000001
 44
0.0000000001
 40
0.0
 40
0.0
 40
0.0
 40
0.0
 40
0.1253753592
 40
0.2506804858
 40
0.4993190091
 40
0.7495248417
 40
1.0
 40
1.0
 40
1.0
 40
1.0
 10
300.9997333164
 20
933.6427406164
 30
0.0
 10
301.225057101
 20
933.6429630454
 30
0.0
 10
301.679740808
 20
933.5876707736
 30
0.0
 10
302.5016836435
 20
933.1800759683
 30
0.0
 10
303.1693410644
 20
932.2110788746
 30
0.0
 10
303.5460054973
 20
930.915285742
 30
0.0
 10
303.6727632644
 20
930.0214559348
 30
0.0
 10
303.7158783176
 20
929.5733728914
 30
0.0
  0
LINE
  5
3F2
100
AcDbEntity
  8
0
100
AcDbLine
 62
7
  6
CONTINUOUS
 10
301.9683058211
 20
945.6509026301
 11
301.385780985
 21
947.9728687661
  0
SPLINE
  5
3F3
100
AcDbEntity
  8
0
100
AcDbSpline
 62
7
  6
CONTINUOUS
 70
0
 71
3
 72
8
 73
4
 74
0
 42
0.0000001
 43
0.0000001
 44
0.0000000001
 40
0.0
 40
0.0
 40
0.0
 40
0.0
 40
1.0
 40
1.0
 40
1.0
 40
1.0
 10
298.6673339852
 20
947.9547306503
 30
0.0
 10
299.5734816332
 20
947.9568272619
 30
0.0
 10
300.4796311761
 20
947.9582227169
 30
0.0
 10
301.385780985
 20
947.9589151589
 30
0.0
  0
SPLINE
  5
3F4
100
AcDbEntity
  8
0
100
AcDbSpline
 62
7
  6
CONTINUOUS
 70
0
 71
3
 72
8
 73
4
 74
0
 42
0.0000001
 43
0.0000001
 44
0.0000000001
 40
0.0
 40
0.0
 40
0.0
 40
0.0
 40
1.0
 40
1.0
 40
1.0
 40
1.0
 10
301.385780985
 20
947.9728687661
 30
0.0
 10
300.4796311787
 20
947.9721775369
 30
0.0
 10
299.5734816554
 20
947.9707765246
 30
0.0
 10
298.6673339852
 20
947.9686910636
 30
0.0
  0
SPLINE
  5
3F5
100
AcDbEntity
  8
0
100
AcDbSpline
 62
7
  6
CONTINUOUS
 70
0
 71
3
 72
11
 73
7
 74
0
 42
0.0000001
 43
0.0000001
 44
0.0000000001
 40
0.0
 40
0.0
 40
0.0
 40
0.0
 40
0.2505073517
 40
0.500773148
 40
0.7500566766
 40
1.0
 40
1.0
 40
1.0
 40
1.0
 10
296.3372373232
 20
945.2383638757
 30
0.0
 10
296.3769506671
 20
945.5661997872
 30
0.0
 10
296.4992425159
 20
946.2172955654
 30
0.0
 10
296.8907692052
 20
947.1427839458
 30
0.0
 10
297.6595062103
 20
947.8366236794
 30
0.0
 10
298.337845854
 20
947.9539682925
 30
0.0
 10
298.6673339852
 20
947.9547306503
 30
0.0
  0
SPLINE
  5
3F6
100
AcDbEntity
  8
0
100
AcDbSpline
 62
7
  6
CONTINUOUS
 70
0
 71
3
 72
11
 73
7
 74
0
 42
0.0000001
 43
0.0000001
 44
0.0000000001
 40
0.0
 40
0.0
 40
0.0
 40
0.0
 40
0.2497170225
 40
0.4987818156
 40
0.7491802175
 40
1.0
 40
1.0
 40
1.0
 40
1.0
 10
298.6673339852
 20
947.9686910636
 30
0.0
 10
298.3381338762
 20
947.9679334233
 30
0.0
 10
297.6602497706
 20
947.8513584573
 30
0.0
 10
296.8917426206
 20
947.1578018343
 30
0.0
 10
296.499480398
 20
946.2323110568
 30
0.0
 10
296.3770014608
 20
945.5805900186
 30
0.0
 10
296.3372373232
 20
945.2523349747
 30
0.0
  0
SPLINE
  5
3F7
100
AcDbEntity
  8
0
100
AcDbSpline
 62
7
  6
CONTINUOUS
 70
0
 71
3
 72
8
 73
4
 74
0
 42
0.0000001
 43
0.0000001
 44
0.0000000001
 40
0.0
 40
0.0
 40
0.0
 40
0.0
 40
1.0
 40
1.0
 40
1.0
 40
1.0
 10
310.511994476
 20
977.5184608971
 30
0.0
 10
309.929471517
 20
977.5210276393
 30
0.0
 10
309.3469472195
 20
977.523307835
 30
0.0
 10
308.7644219794
 20
977.5252904159
 30
0.0
  0
SPLINE
  5
3F8
100
AcDbEntity
  8
0
100
AcDbSpline
 62
7
  6
CONTINUOUS
 70
0
 71
3
 72
11
 73
7
 74
0
 42
0.0000001
 43
0.0000001
 44
0.0000000001
 40
0.0
 40
0.0
 40
0.0
 40
0.0
 40
0.2491339355
 40
0.4991427867
 40
0.7495272478
 40
1.0
 40
1.0
 40
1.0
 40
1.0
 10
312.0653926418
 20
945.2390352276
 30
0.0
 10
312.0653926418
 20
945.7568942562
 30
0.0
 10
311.853186328
 20
946.8021668533
 30
0.0
 10
311.0507686681
 20
948.1582325311
 30
0.0
 10
309.9871949991
 20
949.3099599732
 30
0.0
 10
309.1813470149
 20
949.9729116057
 30
0.0
 10
308.7644219794
 20
950.2847473752
 30
0.0
  0
LINE
  5
3F9
100
AcDbEntity
  8
0
100
AcDbLine
 62
7
  6
CONTINUOUS
 10
308.7644219794
 20
948.7369520708
 11
308.3760723123
 21
948.7382460715
  0
SPLINE
  5
3FA
100
AcDbEntity
  8
0
100
AcDbSpline
 62
7
  6
CONTINUOUS
 70
0
 71
3
 72
10
 73
6
 74
0
 42
0.0000001
 43
0.0000001
 44
0.0000000001
 40
0.0
 40
0.0
 40
0.0
 40
0.0
 40
0.4989657912
 40
0.7498562492
 40
1.0
 40
1.0
 40
1.0
 40
1.0
 10
308.7644219794
 20
977.5252904159
 30
0.0
 10
308.4884062485
 20
977.5262298147
 30
0.0
 10
308.055077076
 20
977.5873146351
 30
0.0
 10
307.6039043955
 20
977.9299566184
 30
0.0
 10
307.4588754786
 20
978.1735595379
 30
0.0
 10
307.4051984795
 20
978.3010985866
 30
0.0
  0
SPLINE
  5
3FB
100
AcDbEntity
  8
0
100
AcDbSpline
 62
7
  6
CONTINUOUS
 70
0
 71
3
 72
8
 73
4
 74
0
 42
0.0000001
 43
0.0000001
 44
0.0000000001
 40
0.0
 40
0.0
 40
0.0
 40
0.0
 40
1.0
 40
1.0
 40
1.0
 40
1.0
 10
298.4731594869
 20
933.0573410567
 30
0.0
 10
299.1203077345
 20
933.2526773531
 30
0.0
 10
299.7675570125
 20
933.4476792507
 30
0.0
 10
300.4149071523
 20
933.6423454254
 30
0.0
  0
LINE
  5
3FC
100
AcDbEntity
  8
0
100
AcDbLine
 62
7
  6
CONTINUOUS
 10
307.7935481467
 20
979.0716604701
 11
307.0168488123
 21
979.652396856
  0
SPLINE
  5
3FD
100
AcDbEntity
  8
0
100
AcDbSpline
 62
7
  6
CONTINUOUS
 70
0
 71
3
 72
8
 73
4
 74
0
 42
0.0000001
 43
0.0000001
 44
0.0000000001
 40
0.0
 40
0.0
 40
0.0
 40
0.0
 40
1.0
 40
1.0
 40
1.0
 40
1.0
 10
306.4343246469
 20
951.4519071697
 30
0.0
 10
305.9812504841
 20
951.4528656934
 30
0.0
 10
305.5281759167
 20
951.4536491887
 30
0.0
 10
305.075101147
 20
951.4542564304
 30
0.0
  0
SPLINE
  5
3FE
100
AcDbEntity
  8
0
100
AcDbSpline
 62
7
  6
CONTINUOUS
 70
0
 71
3
 72
11
 73
7
 74
0
 42
0.0000001
 43
0.0000001
 44
0.0000000001
 40
0.0
 40
0.0
 40
0.0
 40
0.0
 40
0.2510823514
 40
0.500653775
 40
0.7497765413
 40
1.0
 40
1.0
 40
1.0
 40
1.0
 10
305.075101147
 20
951.4542564283
 30
0.0
 10
304.7092150254
 20
951.4547468138
 30
0.0
 10
303.9739577658
 20
951.3896634246
 30
0.0
 10
302.958479488
 20
950.857672033
 30
0.0
 10
302.4228090053
 20
949.8453772447
 30
0.0
 10
302.3566548177
 20
949.1119588149
 30
0.0
 10
302.3566548177
 20
948.7473239748
 30
0.0
  0
SPLINE
  5
3FF
100
AcDbEntity
  8
0
100
AcDbSpline
 62
7
  6
CONTINUOUS
 70
0
 71
3
 72
9
 73
5
 74
0
 42
0.0000001
 43
0.0000001
 44
0.0000000001
 40
0.0
 40
0.0
 40
0.0
 40
0.0
 40
0.4984242926
 40
1.0
 40
1.0
 40
1.0
 40
1.0
 10
301.5799554833
 20
929.1855579386
 30
0.0
 10
301.5799554833
 20
928.6601292675
 30
0.0
 10
301.2441707915
 20
927.6196091453
 30
0.0
 10
300.7082896873
 20
926.7158769287
 30
0.0
 10
300.4149071523
 20
926.2759858899
 30
0.0
  0
SPLINE
  5
400
100
AcDbEntity
  8
0
100
AcDbSpline
 62
7
  6
CONTINUOUS
 70
0
 71
3
 72
9
 73
5
 74
0
 42
0.0000001
 43
0.0000001
 44
0.0000000001
 40
0.0
 40
0.0
 40
0.0
 40
0.0
 40
0.4913373507
 40
1.0
 40
1.0
 40
1.0
 40
1.0
 10
307.0168488123
 20
979.652396856
 30
0.0
 10
306.8549374562
 20
979.6527895467
 30
0.0
 10
306.6122581112
 20
979.319636017
 30
0.0
 10
306.4943817681
 20
979.0386212232
 30
0.0
 10
306.4343246468
 20
978.8821285028
 30
0.0
  0
SPLINE
  5
401
100
AcDbEntity
  8
0
100
AcDbSpline
 62
7
  6
CONTINUOUS
 70
0
 71
3
 72
11
 73
7
 74
0
 42
0.0000001
 43
0.0000001
 44
0.0000000001
 40
0.0
 40
0.0
 40
0.0
 40
0.0
 40
0.0714814422
 40
0.2559925673
 40
0.5767115819
 40
1.0
 40
1.0
 40
1.0
 40
1.0
 10
288.3603741553
 20
1010.0545561811
 30
0.0
 10
288.3508035783
 20
1010.0526499103
 30
0.0
 10
288.3547418279
 20
1010.0025092396
 30
0.0
 10
288.3541339362
 20
1009.9375976333
 30
0.0
 10
288.373381414
 20
1009.8038362444
 30
0.0
 10
288.3887362217
 20
1009.7061159542
 30
0.0
 10
288.3989018935
 20
1009.6492302167
 30
0.0
  0
LINE
  5
402
100
AcDbEntity
  8
0
100
AcDbLine
 62
7
  6
CONTINUOUS
 10
293.2304413267
 20
966.3137937095
 11
293.6187903234
 21
966.7021377172
  0
LINE
  5
403
100
AcDbEntity
  8
0
100
AcDbLine
 62
7
  6
CONTINUOUS
 10
300.9974319884
 20
933.6430183463
 11
300.4149071523
 21
933.6423454254
  0
SPLINE
  5
404
100
AcDbEntity
  8
0
100
AcDbSpline
 62
7
  6
CONTINUOUS
 70
0
 71
3
 72
17
 73
13
 74
0
 42
0.0000001
 43
0.0000001
 44
0.0000000001
 40
0.0
 40
0.0
 40
0.0
 40
0.0
 40
0.2500312023
 40
0.3750630087
 40
0.5001053506
 40
0.6251583567
 40
0.750221496
 40
0.8127593934
 40
0.8752994658
 40
0.9378289832
 40
0.9690907867
 40
1.0
 40
1.0
 40
1.0
 40
1.0
 10
298.4731594869
 20
933.0573410567
 30
0.0
 10
298.2882152144
 20
932.6688004708
 30
0.0
 10
298.0081450159
 20
932.0872093832
 30
0.0
 10
297.6264120419
 20
931.3157801779
 30
0.0
 10
297.3345892035
 20
930.7398950094
 30
0.0
 10
297.0350545533
 20
930.1678252936
 30
0.0
 10
296.7759612979
 20
929.696362775
 30
0.0
 10
296.5580115266
 20
929.3245857541
 30
0.0
 10
296.3868105829
 20
929.0522333876
 30
0.0
 10
296.2309938392
 20
928.8279031709
 30
0.0
 10
296.092799848
 20
928.672763757
 30
0.0
 10
296.0020836709
 20
928.5913642548
 30
0.0
 10
295.9488883266
 20
928.5911573388
 30
0.0
  0
LINE
  5
405
100
AcDbEntity
  8
0
100
AcDbLine
 62
7
  6
CONTINUOUS
 10
295.5605379888
 20
928.5756276142
 11
295.9488883266
 21
928.5771831888
  0
LINE
  5
406
100
AcDbEntity
  8
0
100
AcDbLine
 62
7
  6
CONTINUOUS
 10
295.9488883266
 20
928.5911573388
 11
295.5605379888
 21
928.5896043363
  0
LINE
  5
407
100
AcDbEntity
  8
0
100
AcDbLine
 62
7
  6
CONTINUOUS
 10
295.1721889922
 20
929.5433324492
 11
295.5605379888
 21
928.5756276142
  0
LINE
  5
408
100
AcDbEntity
  8
0
100
AcDbLine
 62
7
  6
CONTINUOUS
 10
295.5605379888
 20
928.5896043363
 11
295.1721889922
 21
929.5573116323
  0
SPLINE
  5
409
100
AcDbEntity
  8
0
100
AcDbSpline
 62
7
  6
CONTINUOUS
 70
0
 71
3
 72
8
 73
4
 74
0
 42
0.0000001
 43
0.0000001
 44
0.0000000001
 40
0.0
 40
0.0
 40
0.0
 40
0.0
 40
1.0
 40
1.0
 40
1.0
 40
1.0
 10
296.1430628249
 20
933.0501170944
 30
0.0
 10
295.4958480093
 20
933.1122720396
 30
0.0
 10
294.8485986489
 20
933.1740683271
 30
0.0
 10
294.2013151595
 20
933.2355039763
 30
0.0
  0
SPLINE
  5
40A
100
AcDbEntity
  8
0
100
AcDbSpline
 62
7
  6
CONTINUOUS
 70
0
 71
3
 72
10
 73
6
 74
0
 42
0.0000001
 43
0.0000001
 44
0.0000000001
 40
0.0
 40
0.0
 40
0.0
 40
0.0
 40
0.2456861346
 40
0.4971858435
 40
1.0
 40
1.0
 40
1.0
 40
1.0
 10
294.2013151595
 20
933.2355039763
 30
0.0
 10
293.9378063296
 20
933.152815412
 30
0.0
 10
293.5853815676
 20
932.618013775
 30
0.0
 10
293.2899575214
 20
931.5596364152
 30
0.0
 10
293.2304413268
 20
930.6945904976
 30
0.0
 10
293.2304413268
 20
930.1293725154
 30
0.0
  0
SPLINE
  5
40B
100
AcDbEntity
  8
0
100
AcDbSpline
 62
7
  6
CONTINUOUS
 70
0
 71
3
 72
12
 73
8
 74
0
 42
0.0000001
 43
0.0000001
 44
0.0000000001
 40
0.0
 40
0.0
 40
0.0
 40
0.0
 40
0.1209559452
 40
0.2463899443
 40
0.4974684439
 40
0.7487193335
 40
1.0
 40
1.0
 40
1.0
 40
1.0
 10
302.9395375157
 20
940.4238275994
 30
0.0
 10
303.0495957879
 20
940.4238137833
 30
0.0
 10
303.2423106187
 20
940.2377827418
 30
0.0
 10
303.4049618594
 20
939.8274005684
 30
0.0
 10
303.5432689183
 20
939.2649596938
 30
0.0
 10
303.6446515425
 20
938.5885703073
 30
0.0
 10
303.6943834412
 20
938.1334785545
 30
0.0
 10
303.7158783176
 20
937.9058499473
 30
0.0
  0
SPLINE
  5
40C
100
AcDbEntity
  8
0
100
AcDbSpline
 62
7
  6
CONTINUOUS
 70
0
 71
3
 72
11
 73
7
 74
0
 42
0.0000001
 43
0.0000001
 44
0.0000000001
 40
0.0
 40
0.0
 40
0.0
 40
0.0
 40
0.2497402705
 40
0.49869266
 40
0.7490954027
 40
1.0
 40
1.0
 40
1.0
 40
1.0
 10
300.0265581557
 20
936.354349069
 30
0.0
 10
300.3058861116
 20
936.3547799613
 30
0.0
 10
300.8823517208
 20
936.4547115077
 30
0.0
 10
301.5242931415
 20
937.0564789296
 30
0.0
 10
301.8411816362
 20
937.8475768178
 30
0.0
 10
301.9377186546
 20
938.4017743391
 30
0.0
 10
301.9683058211
 20
938.6807330023
 30
0.0
  0
SPLINE
  5
40D
100
AcDbEntity
  8
0
100
AcDbSpline
 62
7
  6
CONTINUOUS
 70
0
 71
3
 72
8
 73
4
 74
0
 42
0.0000001
 43
0.0000001
 44
0.0000000001
 40
0.0
 40
0.0
 40
0.0
 40
0.0
 40
1.0
 40
1.0
 40
1.0
 40
1.0
 10
297.8906359919
 20
986.0143224272
 30
0.0
 10
297.4375366035
 20
985.9488304644
 30
0.0
 10
296.9844616358
 20
985.8831693164
 30
0.0
 10
296.5314118215
 20
985.8173352919
 30
0.0
  0
SPLINE
  5
40E
100
AcDbEntity
  8
0
100
AcDbSpline
 62
7
  6
CONTINUOUS
 70
0
 71
3
 72
9
 73
5
 74
0
 42
0.0000001
 43
0.0000001
 44
0.0000000001
 40
0.0
 40
0.0
 40
0.0
 40
0.0
 40
0.5714328595
 40
1.0
 40
1.0
 40
1.0
 40
1.0
 10
288.3988953961
 20
1009.6492320012
 30
0.0
 10
288.0110120948
 20
1009.5861610926
 30
0.0
 10
287.3443811587
 20
1009.3772147345
 30
0.0
 10
286.8016790936
 20
1008.8701684004
 30
0.0
 10
286.6954086429
 20
1008.5952662197
 30
0.0
  0
SPLINE
  5
40F
100
AcDbEntity
  8
0
100
AcDbSpline
 62
7
  6
CONTINUOUS
 70
0
 71
3
 72
9
 73
5
 74
0
 42
0.0000001
 43
0.0000001
 44
0.0000000001
 40
0.0
 40
0.0
 40
0.0
 40
0.0
 40
0.5017329846
 40
1.0
 40
1.0
 40
1.0
 40
1.0
 10
288.943322994
 20
924.164271102
 30
0.0
 10
288.8157135923
 20
938.460869883
 30
0.0
 10
288.7071117678
 20
966.9562669763
 30
0.0
 10
288.5717908523
 20
995.4518812159
 30
0.0
 10
288.3988953961
 20
1009.6492320012
 30
0.0
  0
SPLINE
  5
410
100
AcDbEntity
  8
0
100
AcDbSpline
 62
7
  6
CONTINUOUS
 70
0
 71
3
 72
11
 73
7
 74
0
 42
0.0000001
 43
0.0000001
 44
0.0000000001
 40
0.0
 40
0.0
 40
0.0
 40
0.0
 40
0.1162444911
 40
0.3440734549
 40
0.6562789611
 40
1.0
 40
1.0
 40
1.0
 40
1.0
 10
287.1991632326
 20
924.0643892333
 30
0.0
 10
287.2639694645
 20
924.0841510516
 30
0.0
 10
287.4654931485
 20
924.1027883512
 30
0.0
 10
287.8455594177
 20
924.1329841788
 30
0.0
 10
288.360969561
 20
924.1523034519
 30
0.0
 10
288.7430092048
 20
924.1613216034
 30
0.0
 10
288.943322994
 20
924.164271102
 30
0.0
  0
SPLINE
  5
411
100
AcDbEntity
  8
0
100
AcDbSpline
 62
7
  6
CONTINUOUS
 70
0
 71
3
 72
8
 73
4
 74
0
 42
0.0000001
 43
0.0000001
 44
0.0000000001
 40
0.0
 40
0.0
 40
0.0
 40
0.0
 40
1.0
 40
1.0
 40
1.0
 40
1.0
 10
289.0206851002
 20
914.1358760362
 30
0.0
 10
288.9929450143
 20
917.4786587573
 30
0.0
 10
288.9646795859
 20
920.8214415031
 30
0.0
 10
288.9433229934
 20
924.1642711023
 30
0.0
  0
SPLINE
  5
412
100
AcDbEntity
  8
0
100
AcDbSpline
 62
7
  6
CONTINUOUS
 70
0
 71
3
 72
11
 73
7
 74
0
 42
0.0000001
 43
0.0000001
 44
0.0000000001
 40
0.0
 40
0.0
 40
0.0
 40
0.0
 40
0.1162169227
 40
0.3441146872
 40
0.6562989206
 40
1.0
 40
1.0
 40
1.0
 40
1.0
 10
287.2768092766
 20
914.0643885291
 30
0.0
 10
287.3429341535
 20
914.0786368029
 30
0.0
 10
287.5437496414
 20
914.0917431942
 30
0.0
 10
287.924472842
 20
914.1134864765
 30
0.0
 10
288.4390371075
 20
914.1272605325
 30
0.0
 10
288.8206496741
 20
914.1337516709
 30
0.0
 10
289.0206851002
 20
914.1358760362
 30
0.0
  0
SPLINE
  5
413
100
AcDbEntity
  8
0
100
AcDbSpline
 62
7
  6
CONTINUOUS
 70
0
 71
3
 72
8
 73
4
 74
0
 42
0.0000001
 43
0.0000001
 44
0.0000000001
 40
0.0
 40
0.0
 40
0.0
 40
0.0
 40
1.0
 40
1.0
 40
1.0
 40
1.0
 10
287.6858813613
 20
858.7073697649
 30
0.0
 10
287.706192361
 20
858.6736060447
 30
0.0
 10
287.7327209227
 20
858.6434491344
 30
0.0
 10
287.7614091324
 20
858.616439652
 30
0.0
  0
SPLINE
  5
414
100
AcDbEntity
  8
0
100
AcDbSpline
 62
7
  6
CONTINUOUS
 70
0
 71
3
 72
10
 73
6
 74
0
 42
0.0000001
 43
0.0000001
 44
0.0000000001
 40
0.0
 40
0.0
 40
0.0
 40
0.0
 40
0.1729872928
 40
0.4053311926
 40
1.0
 40
1.0
 40
1.0
 40
1.0
 10
287.7614091324
 20
858.616439652
 30
0.0
 10
287.8356229086
 20
858.5465685901
 30
0.0
 10
288.0433668768
 20
858.4210814825
 30
0.0
 10
288.5938366083
 20
858.2092643172
 30
0.0
 10
289.0795434637
 20
858.1278808137
 30
0.0
 10
289.4275876449
 20
858.0873359043
 30
0.0
  0
SPLINE
  5
415
100
AcDbEntity
  8
0
100
AcDbSpline
 62
7
  6
CONTINUOUS
 70
0
 71
3
 72
9
 73
5
 74
0
 42
0.0000001
 43
0.0000001
 44
0.0000000001
 40
0.0
 40
0.0
 40
0.0
 40
0.0
 40
0.2499262661
 40
1.0
 40
1.0
 40
1.0
 40
1.0
 10
289.4275876449
 20
858.0873359043
 30
0.0
 10
289.3937464931
 20
862.7566705028
 30
0.0
 10
289.2483423835
 20
881.4394447544
 30
0.0
 10
289.1148953899
 20
900.122310618
 30
0.0
 10
289.0206851201
 20
914.1358760157
 30
0.0
  0
LINE
  5
416
100
AcDbEntity
  8
0
100
AcDbLine
 62
7
  6
CONTINUOUS
 10
319.8910602476
 20
864.2138576076
 11
319.8875821849
 21
864.2104932561
  0
SPLINE
  5
417
100
AcDbEntity
  8
0
100
AcDbSpline
 62
7
  6
CONTINUOUS
 70
0
 71
3
 72
8
 73
4
 74
0
 42
0.0000001
 43
0.0000001
 44
0.0000000001
 40
0.0
 40
0.0
 40
0.0
 40
0.0
 40
1.0
 40
1.0
 40
1.0
 40
1.0
 10
317.7555411798
 20
858.7073322888
 30
0.0
 10
317.7342163051
 20
858.6731314306
 30
0.0
 10
317.7069109258
 20
858.6425410574
 30
0.0
 10
317.6775299452
 20
858.614951078
 30
0.0
  0
SPLINE
  5
418
100
AcDbEntity
  8
0
100
AcDbSpline
 62
7
  6
CONTINUOUS
 70
0
 71
3
 72
10
 73
6
 74
0
 42
0.0000001
 43
0.0000001
 44
0.0000000001
 40
0.0
 40
0.0
 40
0.0
 40
0.0
 40
0.1736944633
 40
0.4060983934
 40
1.0
 40
1.0
 40
1.0
 40
1.0
 10
317.6775299452
 20
858.614951078
 30
0.0
 10
317.6030437562
 20
858.5450054063
 30
0.0
 10
317.3953501086
 20
858.4192294451
 30
0.0
 10
316.8451273037
 20
858.2100938798
 30
0.0
 10
316.3615053845
 20
858.1222053764
 30
0.0
 10
316.0138753648
 20
858.0873368464
 30
0.0
  0
LINE
  5
419
100
AcDbEntity
  8
0
100
AcDbLine
 62
7
  6
CONTINUOUS
 10
310.7061693096
 20
968.8318808308
 11
310.511994476
 21
970.1843582133
  0
SPLINE
  5
41A
100
AcDbEntity
  8
0
100
AcDbSpline
 62
7
  6
CONTINUOUS
 70
0
 71
3
 72
9
 73
5
 74
0
 42
0.0000001
 43
0.0000001
 44
0.0000000001
 40
0.0
 40
0.0
 40
0.0
 40
0.0
 40
0.5798194144
 40
1.0
 40
1.0
 40
1.0
 40
1.0
 10
285.5539903369
 20
864.2104314226
 30
0.0
 10
285.5533014881
 20
864.210758625
 30
0.0
 10
285.5521427142
 20
864.2113811155
 30
0.0
 10
285.5511192291
 20
864.2122556433
 30
0.0
 10
285.5508026249
 20
864.2127086087
 30
0.0
  0
LINE
  5
41B
100
AcDbEntity
  8
0
100
AcDbLine
 62
7
  6
CONTINUOUS
 10
285.5508026249
 20
864.2127086087
 11
285.5504047509
 21
864.2138472975
  0
LINE
  5
41C
100
AcDbEntity
  8
0
100
AcDbLine
 62
7
  6
CONTINUOUS
 10
310.511994476
 20
970.1843582133
 11
309.5411209785
 21
970.188374847
  0
SPLINE
  5
41D
100
AcDbEntity
  8
0
100
AcDbSpline
 62
7
  6
CONTINUOUS
 70
0
 71
3
 72
8
 73
4
 74
0
 42
0.0000001
 43
0.0000001
 44
0.0000000001
 40
0.0
 40
0.0
 40
0.0
 40
0.0
 40
1.0
 40
1.0
 40
1.0
 40
1.0
 10
303.5217031487
 20
985.827957689
 30
0.0
 10
302.6802794869
 20
985.8283402445
 30
0.0
 10
301.8388553429
 20
985.8281128274
 30
0.0
 10
300.9974319884
 20
985.8272982646
 30
0.0
  0
SPLINE
  5
41E
100
AcDbEntity
  8
0
100
AcDbSpline
 62
7
  6
CONTINUOUS
 70
0
 71
3
 72
11
 73
7
 74
0
 42
0.0000001
 43
0.0000001
 44
0.0000000001
 40
0.0
 40
0.0
 40
0.0
 40
0.0
 40
0.2485341659
 40
0.4972078219
 40
0.7480249418
 40
1.0
 40
1.0
 40
1.0
 40
1.0
 10
298.6673339852
 20
987.3515318963
 30
0.0
 10
298.7195073481
 20
987.1042229628
 30
0.0
 10
298.9003013684
 20
986.6145587826
 30
0.0
 10
299.4865276182
 20
986.0839249487
 30
0.0
 10
300.2287029032
 20
985.8486402643
 30
0.0
 10
300.7411804326
 20
985.8130622374
 30
0.0
 10
300.9974319884
 20
985.8133125404
 30
0.0
  0
SPLINE
  5
41F
100
AcDbEntity
  8
0
100
AcDbSpline
 62
7
  6
CONTINUOUS
 70
0
 71
3
 72
11
 73
7
 74
0
 42
0.0000001
 43
0.0000001
 44
0.0000000001
 40
0.0
 40
0.0
 40
0.0
 40
0.0
 40
0.2519743526
 40
0.5027912601
 40
0.7514653516
 40
1.0
 40
1.0
 40
1.0
 40
1.0
 10
300.9974319884
 20
985.8272982642
 30
0.0
 10
300.7411807792
 20
985.8270501932
 30
0.0
 10
300.2287034887
 20
985.8626265059
 30
0.0
 10
299.4865281925
 20
986.0979142889
 30
0.0
 10
298.9003016908
 20
986.6285502065
 30
0.0
 10
298.7195074146
 20
987.1182160842
 30
0.0
 10
298.6673339852
 20
987.3655258769
 30
0.0
  0
SPLINE
  5
420
100
AcDbEntity
  8
0
100
AcDbSpline
 62
7
  6
CONTINUOUS
 70
0
 71
3
 72
11
 73
7
 74
0
 42
0.0000001
 43
0.0000001
 44
0.0000000001
 40
0.0
 40
0.0
 40
0.0
 40
0.0
 40
0.0713441254
 40
0.2562444806
 40
0.5765595292
 40
1.0
 40
1.0
 40
1.0
 40
1.0
 10
317.0810894509
 20
1010.0545602782
 30
0.0
 10
317.0906638976
 20
1010.0527720499
 30
0.0
 10
317.0867081915
 20
1010.00234368
 30
0.0
 10
317.0873399896
 20
1009.9376927512
 30
0.0
 10
317.0681302577
 20
1009.8037764868
 30
0.0
 10
317.052743262
 20
1009.7061361669
 30
0.0
 10
317.0425690477
 20
1009.6492297846
 30
0.0
  0
SPLINE
  5
421
100
AcDbEntity
  8
0
100
AcDbSpline
 62
7
  6
CONTINUOUS
 70
0
 71
3
 72
9
 73
5
 74
0
 42
0.0000001
 43
0.0000001
 44
0.0000000001
 40
0.0
 40
0.0
 40
0.0
 40
0.0
 40
0.5597499752
 40
1.0
 40
1.0
 40
1.0
 40
1.0
 10
319.7663564941
 20
1003.6150033506
 30
0.0
 10
319.7672742989
 20
1003.6143950603
 30
0.0
 10
319.7688491327
 20
1003.6132025367
 30
0.0
 10
319.7701120498
 20
1003.6116411549
 30
0.0
 10
319.7704987531
 20
1003.6108662732
 30
0.0
  0
SPLINE
  5
422
100
AcDbEntity
  8
0
100
AcDbSpline
 62
7
  6
CONTINUOUS
 70
0
 71
3
 72
9
 73
5
 74
0
 42
0.0000001
 43
0.0000001
 44
0.0000000001
 40
0.0
 40
0.0
 40
0.0
 40
0.0
 40
0.5138789005
 40
1.0
 40
1.0
 40
1.0
 40
1.0
 10
319.7704987531
 20
1003.6108662732
 30
0.0
 10
319.770662277
 20
1003.6105386016
 30
0.0
 10
319.7709210372
 20
1003.6098678992
 30
0.0
 10
319.7710143494
 20
1003.6091529838
 30
0.0
 10
319.7710150846
 20
1003.6088065572
 30
0.0
  0
LINE
  5
423
100
AcDbEntity
  8
0
100
AcDbLine
 62
7
  6
CONTINUOUS
 10
309.7352954769
 20
968.8360066611
 11
308.9585964778
 21
967.8733743927
  0
LINE
  5
424
100
AcDbEntity
  8
0
100
AcDbLine
 62
7
  6
CONTINUOUS
 10
308.5702469442
 20
967.8608925533
 11
308.958596698
 21
967.8592189911
  0
LINE
  5
425
100
AcDbEntity
  8
0
100
AcDbLine
 62
7
  6
CONTINUOUS
 10
308.9585964778
 20
967.8733743927
 11
308.5702471458
 21
967.8747033206
  0
SPLINE
  5
426
100
AcDbEntity
  8
0
100
AcDbSpline
 62
7
  6
CONTINUOUS
 70
0
 71
3
 72
12
 73
8
 74
0
 42
0.0000001
 43
0.0000001
 44
0.0000000001
 40
0.0
 40
0.0
 40
0.0
 40
0.0
 40
0.1209095986
 40
0.2460822852
 40
0.4971281744
 40
0.7485319287
 40
1.0
 40
1.0
 40
1.0
 40
1.0
 10
299.055684323
 20
988.5227350555
 30
0.0
 10
299.055684323
 20
988.6097146228
 30
0.0
 10
298.9223316601
 20
988.7671629992
 30
0.0
 10
298.6093828991
 20
988.9249309547
 30
0.0
 10
298.1752010478
 20
989.0682381659
 30
0.0
 10
297.648087443
 20
989.1906307391
 30
0.0
 10
297.2921872646
 20
989.2576500637
 30
0.0
 10
297.1139366575
 20
989.2884987868
 30
0.0
  0
SPLINE
  5
427
100
AcDbEntity
  8
0
100
AcDbSpline
 62
7
  6
CONTINUOUS
 70
0
 71
3
 72
11
 73
7
 74
0
 42
0.0000001
 43
0.0000001
 44
0.0000000001
 40
0.0
 40
0.0
 40
0.0
 40
0.0
 40
0.2511413395
 40
0.5018631781
 40
0.7505638105
 40
1.0
 40
1.0
 40
1.0
 40
1.0
 10
308.5702471458
 20
967.874703314
 30
0.0
 10
308.4260262953
 20
967.8751807953
 30
0.0
 10
308.1378570061
 20
967.8964442924
 30
0.0
 10
307.7186145471
 20
968.0463421398
 30
0.0
 10
307.4391311539
 20
968.4071468819
 30
0.0
 10
307.4051984795
 20
968.7004800375
 30
0.0
 10
307.4051984795
 20
968.8437224708
 30
0.0
  0
LINE
  5
428
100
AcDbEntity
  8
0
100
AcDbLine
 62
7
  6
CONTINUOUS
 10
307.9877226451
 20
949.1264243609
 11
308.3760723123
 21
948.7382460715
  0
SPLINE
  5
429
100
AcDbEntity
  8
0
100
AcDbSpline
 62
7
  6
CONTINUOUS
 70
0
 71
3
 72
12
 73
8
 74
0
 42
0.0000001
 43
0.0000001
 44
0.0000000001
 40
0.0
 40
0.0
 40
0.0
 40
0.0
 40
0.1229649558
 40
0.2484016363
 40
0.4990092278
 40
0.7495420844
 40
1.0
 40
1.0
 40
1.0
 40
1.0
 10
297.1139366575
 20
989.2884987868
 30
0.0
 10
297.0484273264
 20
989.2882920507
 30
0.0
 10
296.9295217295
 20
989.1967291507
 30
0.0
 10
296.779567239
 20
988.9839587301
 30
0.0
 10
296.6267067557
 20
988.6825187273
 30
0.0
 10
296.4740314126
 20
988.3134347164
 30
0.0
 10
296.3817130137
 20
988.0626813243
 30
0.0
 10
296.3372373232
 20
987.9368802593
 30
0.0
  0
LINE
  5
42A
100
AcDbEntity
  8
0
100
AcDbLine
 62
7
  6
CONTINUOUS
 10
307.7935481467
 20
970.001178872
 11
306.6284998157
 21
970.0041396804
  0
SPLINE
  5
42B
100
AcDbEntity
  8
0
100
AcDbSpline
 62
7
  6
CONTINUOUS
 70
0
 71
3
 72
9
 73
5
 74
0
 42
0.0000001
 43
0.0000001
 44
0.0000000001
 40
0.0
 40
0.0
 40
0.0
 40
0.0
 40
0.5017794523
 40
1.0
 40
1.0
 40
1.0
 40
1.0
 10
287.1991632325
 20
924.0643892381
 30
0.0
 10
287.0722377867
 20
938.1905732583
 30
0.0
 10
286.9644965816
 20
966.3437285714
 30
0.0
 10
286.8358279067
 20
994.4970728728
 30
0.0
 10
286.6710425591
 20
1008.5226641554
 30
0.0
  0
SPLINE
  5
42C
100
AcDbEntity
  8
0
100
AcDbSpline
 62
7
  6
CONTINUOUS
 70
0
 71
3
 72
9
 73
5
 74
0
 42
0.0000001
 43
0.0000001
 44
0.0000000001
 40
0.0
 40
0.0
 40
0.0
 40
0.0
 40
0.2510456369
 40
1.0
 40
1.0
 40
1.0
 40
1.0
 10
286.6710624559
 20
1008.5226615556
 30
0.0
 10
286.5768177885
 20
1008.1209698141
 30
0.0
 10
286.2135703493
 20
1006.518060644
 30
0.0
 10
285.8984063161
 20
1004.9043005248
 30
0.0
 10
285.6883125504
 20
1003.6914381515
 30
0.0
  0
SPLINE
  5
42D
100
AcDbEntity
  8
0
100
AcDbSpline
 62
7
  6
CONTINUOUS
 70
0
 71
3
 72
8
 73
4
 74
0
 42
0.0000001
 43
0.0000001
 44
0.0000000001
 40
0.0
 40
0.0
 40
0.0
 40
0.0
 40
1.0
 40
1.0
 40
1.0
 40
1.0
 10
285.5822318531
 20
924.0643884805
 30
0.0
 10
285.5809212557
 20
926.5513300253
 30
0.0
 10
285.580440499
 20
929.0382721127
 30
0.0
 10
285.580685641
 20
931.5252139907
 30
0.0
  0
SPLINE
  5
42E
100
AcDbEntity
  8
0
100
AcDbSpline
 62
7
  6
CONTINUOUS
 70
0
 71
3
 72
8
 73
4
 74
0
 42
0.0000001
 43
0.0000001
 44
0.0000000001
 40
0.0
 40
0.0
 40
0.0
 40
0.0
 40
1.0
 40
1.0
 40
1.0
 40
1.0
 10
285.580685641
 20
931.5252139907
 30
0.0
 10
285.5809454464
 20
934.1609151103
 30
0.0
 10
285.5820168094
 20
936.7966162426
 30
0.0
 10
285.5837899164
 20
939.4323167785
 30
0.0
  0
SPLINE
  5
42F
100
AcDbEntity
  8
0
100
AcDbSpline
 62
7
  6
CONTINUOUS
 70
0
 71
3
 72
9
 73
5
 74
0
 42
0.0000001
 43
0.0000001
 44
0.0000000001
 40
0.0
 40
0.0
 40
0.0
 40
0.0
 40
0.2503466171
 40
1.0
 40
1.0
 40
1.0
 40
1.0
 10
285.5837899164
 20
939.4323167785
 30
0.0
 10
285.5873930271
 20
944.7882938339
 30
0.0
 10
285.614122292
 20
966.1825289674
 30
0.0
 10
285.6699283154
 20
987.5767314716
 30
0.0
 10
285.6751044897
 20
1003.6150029838
 30
0.0
  0
SPLINE
  5
430
100
AcDbEntity
  8
0
100
AcDbSpline
 62
7
  6
CONTINUOUS
 70
0
 71
3
 72
8
 73
4
 74
0
 42
0.0000001
 43
0.0000001
 44
0.0000000001
 40
0.0
 40
0.0
 40
0.0
 40
0.0
 40
1.0
 40
1.0
 40
1.0
 40
1.0
 10
285.5821712171
 20
914.0643909639
 30
0.0
 10
285.583984047
 20
917.3977221542
 30
0.0
 10
285.5839840468
 20
920.7310548234
 30
0.0
 10
285.5821712171
 20
924.0643860136
 30
0.0
  0
LINE
  5
431
100
AcDbEntity
  8
0
100
AcDbLine
 62
7
  6
CONTINUOUS
 10
306.6284998157
 20
970.0041396804
 11
306.4343246468
 21
969.0391295789
  0
SPLINE
  5
432
100
AcDbEntity
  8
0
100
AcDbSpline
 62
7
  6
CONTINUOUS
 70
0
 71
3
 72
9
 73
5
 74
0
 42
0.0000001
 43
0.0000001
 44
0.0000000001
 40
0.0
 40
0.0
 40
0.0
 40
0.0
 40
0.2441888964
 40
1.0
 40
1.0
 40
1.0
 40
1.0
 10
285.5924801524
 20
864.0803452828
 30
0.0
 10
285.7265884766
 20
863.6302205933
 30
0.0
 10
286.3140982317
 20
861.7984309021
 30
0.0
 10
287.0535394942
 20
860.0159866312
 30
0.0
 10
287.6857827541
 20
858.7069277437
 30
0.0
  0
SPLINE
  5
433
100
AcDbEntity
  8
0
100
AcDbSpline
 62
7
  6
CONTINUOUS
 70
0
 71
3
 72
9
 73
5
 74
0
 42
0.0000001
 43
0.0000001
 44
0.0000000001
 40
0.0
 40
0.0
 40
0.0
 40
0.0
 40
0.2499226667
 40
1.0
 40
1.0
 40
1.0
 40
1.0
 10
287.6858845153
 20
858.7069347307
 30
0.0
 10
287.652449649
 20
863.3186332217
 30
0.0
 10
287.5095730263
 20
881.7710667692
 30
0.0
 10
287.3670449942
 20
900.2235105391
 30
0.0
 10
287.2767873447
 20
914.0643834457
 30
0.0
  0
SPLINE
  5
434
100
AcDbEntity
  8
0
100
AcDbSpline
 62
7
  6
CONTINUOUS
 70
0
 71
3
 72
9
 73
5
 74
0
 42
0.0000001
 43
0.0000001
 44
0.0000000001
 40
0.0
 40
0.0
 40
0.0
 40
0.0
 40
0.2501311573
 40
1.0
 40
1.0
 40
1.0
 40
1.0
 10
285.5823399273
 20
914.0643884892
 30
0.0
 10
285.5800088056
 20
909.9077123883
 30
0.0
 10
285.5715889082
 20
893.2897260501
 30
0.0
 10
285.5670599614
 20
876.6717355052
 30
0.0
 10
285.5540072001
 20
864.2104303572
 30
0.0
  0
LINE
  5
435
100
AcDbEntity
  8
0
100
AcDbLine
 62
7
  6
CONTINUOUS
 10
307.0168488124
 20
951.0636962717
 11
307.9877226451
 21
950.8676094498
  0
LINE
  5
436
100
AcDbEntity
  8
0
100
AcDbLine
 62
7
  6
CONTINUOUS
 10
306.4343246469
 20
949.5173548724
 11
307.0168488124
 21
949.1290683366
  0
SPLINE
  5
437
100
AcDbEntity
  8
0
100
AcDbSpline
 62
7
  6
CONTINUOUS
 70
0
 71
3
 72
11
 73
7
 74
0
 42
0.0000001
 43
0.0000001
 44
0.0000000001
 40
0.0
 40
0.0
 40
0.0
 40
0.0
 40
0.2513704987
 40
0.5019913655
 40
0.7510510784
 40
1.0
 40
1.0
 40
1.0
 40
1.0
 10
299.2498588213
 20
977.7251272794
 30
0.0
 10
299.0815486183
 20
977.7677343743
 30
0.0
 10
298.7501517846
 20
977.8742359432
 30
0.0
 10
298.2928771438
 20
978.1326181847
 30
0.0
 10
297.9549898126
 20
978.5481572286
 30
0.0
 10
297.8906359919
 20
978.9003920003
 30
0.0
 10
297.8906359919
 20
979.072338818
 30
0.0
  0
SPLINE
  5
438
100
AcDbEntity
  8
0
100
AcDbSpline
 62
7
  6
CONTINUOUS
 70
0
 71
3
 72
11
 73
7
 74
0
 42
0.0000001
 43
0.0000001
 44
0.0000000001
 40
0.0
 40
0.0
 40
0.0
 40
0.0
 40
0.3437210404
 40
0.6559265576
 40
0.8837555262
 40
1.0
 40
1.0
 40
1.0
 40
1.0
 10
316.4981420127
 20
924.164271106
 30
0.0
 10
316.698455803
 20
924.1613216071
 30
0.0
 10
317.0804954541
 20
924.1523034537
 30
0.0
 10
317.5959056097
 20
924.1329841816
 30
0.0
 10
317.9759718747
 20
924.1027883436
 30
0.0
 10
318.1774955561
 20
924.0841510501
 30
0.0
 10
318.2423017745
 20
924.0643892217
 30
0.0
  0
SPLINE
  5
439
100
AcDbEntity
  8
0
100
AcDbSpline
 62
7
  6
CONTINUOUS
 70
0
 71
3
 72
9
 73
5
 74
0
 42
0.0000001
 43
0.0000001
 44
0.0000000001
 40
0.0
 40
0.0
 40
0.0
 40
0.0
 40
0.5712550087
 40
1.0
 40
1.0
 40
1.0
 40
1.0
 10
317.0425701776
 20
1009.6492295643
 30
0.0
 10
317.4310799464
 20
1009.5905446457
 30
0.0
 10
318.0977663974
 20
1009.3760681615
 30
0.0
 10
318.6385826662
 20
1008.8693203821
 30
0.0
 10
318.7458220765
 20
1008.5946137281
 30
0.0
  0
SPLINE
  5
43A
100
AcDbEntity
  8
0
100
AcDbSpline
 62
7
  6
CONTINUOUS
 70
0
 71
3
 72
10
 73
6
 74
0
 42
0.0000001
 43
0.0000001
 44
0.0000000001
 40
0.0
 40
0.0
 40
0.0
 40
0.0
 40
0.4992352234
 40
0.7495238806
 40
1.0
 40
1.0
 40
1.0
 40
1.0
 10
303.7158783176
 20
979.2715529113
 30
0.0
 10
303.7158783176
 20
979.8659912143
 30
0.0
 10
303.6235667765
 20
980.7726841506
 30
0.0
 10
303.1516087417
 20
981.8769796291
 30
0.0
 10
302.770817838
 20
982.349142408
 30
0.0
 10
302.550829316
 20
982.5505200826
 30
0.0
  0
SPLINE
  5
43B
100
AcDbEntity
  8
0
100
AcDbSpline
 62
7
  6
CONTINUOUS
 70
0
 71
3
 72
8
 73
4
 74
0
 42
0.0000001
 43
0.0000001
 44
0.0000000001
 40
0.0
 40
0.0
 40
0.0
 40
0.0
 40
1.0
 40
1.0
 40
1.0
 40
1.0
 10
301.1916064867
 20
982.535884019
 30
0.0
 10
301.6446806454
 20
982.5362771084
 30
0.0
 10
302.0977549889
 20
982.5364961951
 30
0.0
 10
302.550829316
 20
982.5365400751
 30
0.0
  0
SPLINE
  5
43C
100
AcDbEntity
  8
0
100
AcDbSpline
 62
7
  6
CONTINUOUS
 70
0
 71
3
 72
8
 73
4
 74
0
 42
0.0000001
 43
0.0000001
 44
0.0000000001
 40
0.0
 40
0.0
 40
0.0
 40
0.0
 40
1.0
 40
1.0
 40
1.0
 40
1.0
 10
302.550829316
 20
982.5505200826
 30
0.0
 10
302.0977549891
 20
982.5504762691
 30
0.0
 10
301.6446806458
 20
982.5502575386
 30
0.0
 10
301.1916064867
 20
982.5498650796
 30
0.0
  0
SPLINE
  5
43D
100
AcDbEntity
  8
0
100
AcDbSpline
 62
7
  6
CONTINUOUS
 70
0
 71
3
 72
11
 73
7
 74
0
 42
0.0000001
 43
0.0000001
 44
0.0000000001
 40
0.0
 40
0.0
 40
0.0
 40
0.0
 40
0.3437010801
 40
0.6558853138
 40
0.8837830779
 40
1.0
 40
1.0
 40
1.0
 40
1.0
 10
316.4207799106
 20
914.1358760339
 30
0.0
 10
316.6208153371
 20
914.1337516685
 30
0.0
 10
317.0024279042
 20
914.1272605297
 30
0.0
 10
317.5169921699
 20
914.1134864729
 30
0.0
 10
317.8977153699
 20
914.0917431891
 30
0.0
 10
318.0985308573
 20
914.0786367972
 30
0.0
 10
318.1646557336
 20
914.0643885224
 30
0.0
  0
LINE
  5
43E
100
AcDbEntity
  8
0
100
AcDbLine
 62
7
  6
CONTINUOUS
 10
307.9877226451
 20
962.4677526138
 11
307.4051984795
 21
963.0490472751
  0
LINE
  5
43F
100
AcDbEntity
  8
0
100
AcDbLine
 62
7
  6
CONTINUOUS
 10
310.7061693096
 20
963.423605175
 11
310.3178199777
 21
964.9708421154
  0
SPLINE
  5
440
100
AcDbEntity
  8
0
100
AcDbSpline
 62
7
  6
CONTINUOUS
 70
0
 71
3
 72
10
 73
6
 74
0
 42
0.0000001
 43
0.0000001
 44
0.0000000001
 40
0.0
 40
0.0
 40
0.0
 40
0.0
 40
0.2502817654
 40
0.5006707144
 40
1.0
 40
1.0
 40
1.0
 40
1.0
 10
302.1624803194
 20
979.657527965
 30
0.0
 10
302.1624803194
 20
979.436045558
 30
0.0
 10
302.1056345534
 20
978.987547596
 30
0.0
 10
301.6617241501
 20
978.1934921229
 30
0.0
 10
301.0293560787
 20
977.8637317647
 30
0.0
 10
300.6090816506
 20
977.7272737444
 30
0.0
  0
LINE
  5
441
100
AcDbEntity
  8
0
100
AcDbLine
 62
7
  6
CONTINUOUS
 10
300.6090816506
 20
977.7272737444
 11
300.4149071523
 21
982.5490220878
  0
LINE
  5
442
100
AcDbEntity
  8
0
100
AcDbLine
 62
7
  6
CONTINUOUS
 10
299.8323836573
 20
982.5341830625
 11
300.4149071523
 21
982.5350396738
  0
LINE
  5
443
100
AcDbEntity
  8
0
100
AcDbLine
 62
7
  6
CONTINUOUS
 10
300.4149071523
 20
982.5490220878
 11
299.8323836573
 21
982.5481668493
  0
SPLINE
  5
444
100
AcDbEntity
  8
0
100
AcDbSpline
 62
7
  6
CONTINUOUS
 70
0
 71
3
 72
12
 73
8
 74
0
 42
0.0000001
 43
0.0000001
 44
0.0000000001
 40
0.0
 40
0.0
 40
0.0
 40
0.0
 40
0.2495477138
 40
0.4988378276
 40
0.624194979
 40
0.7497023333
 40
1.0
 40
1.0
 40
1.0
 40
1.0
 10
296.3372373232
 20
979.0534289012
 30
0.0
 10
296.4076243298
 20
979.5012031974
 30
0.0
 10
296.6162413714
 20
980.3882844786
 30
0.0
 10
297.1785621012
 20
981.4056678655
 30
0.0
 10
297.8653261215
 20
982.0144247079
 30
0.0
 10
298.6812990027
 20
982.4364313149
 30
0.0
 10
299.3777493585
 20
982.5334384135
 30
0.0
 10
299.8323836573
 20
982.5341830625
 30
0.0
  0
SPLINE
  5
445
100
AcDbEntity
  8
0
100
AcDbSpline
 62
7
  6
CONTINUOUS
 70
0
 71
3
 72
12
 73
8
 74
0
 42
0.0000001
 43
0.0000001
 44
0.0000000001
 40
0.0
 40
0.0
 40
0.0
 40
0.0
 40
0.250297976
 40
0.3758052917
 40
0.5011622979
 40
0.7504521543
 40
1.0
 40
1.0
 40
1.0
 40
1.0
 10
299.8323836573
 20
982.5481668493
 30
0.0
 10
299.3777492148
 20
982.5474233941
 30
0.0
 10
298.6812986739
 20
982.4504184883
 30
0.0
 10
297.865325272
 20
982.0284141182
 30
0.0
 10
297.1785614687
 20
981.4196594318
 30
0.0
 10
296.6162409891
 20
980.4022775328
 30
0.0
 10
296.4076242843
 20
979.5151972726
 30
0.0
 10
296.3372373232
 20
979.0674231508
 30
0.0
  0
LINE
  5
446
100
AcDbEntity
  8
0
100
AcDbLine
 62
7
  6
CONTINUOUS
 10
310.3178199777
 20
964.9708421154
 11
309.346946145
 21
964.9747573857
  0
SPLINE
  5
447
100
AcDbEntity
  8
0
100
AcDbSpline
 62
7
  6
CONTINUOUS
 70
0
 71
3
 72
11
 73
7
 74
0
 42
0.0000001
 43
0.0000001
 44
0.0000000001
 40
0.0
 40
0.0
 40
0.0
 40
0.0
 40
0.2518423748
 40
0.502034872
 40
0.7501508333
 40
1.0
 40
1.0
 40
1.0
 40
1.0
 10
299.2498588213
 20
958.9935802181
 30
0.0
 10
299.0795135555
 20
958.9932442857
 30
0.0
 10
298.7395144518
 20
959.0186502754
 30
0.0
 10
298.248710343
 20
959.2056420074
 30
0.0
 10
297.9306152272
 20
959.6366916096
 30
0.0
 10
297.8906359919
 20
959.9810544239
 30
0.0
 10
297.8906359919
 20
960.1500518197
 30
0.0
  0
SPLINE
  5
448
100
AcDbEntity
  8
0
100
AcDbSpline
 62
7
  6
CONTINUOUS
 70
0
 71
3
 72
10
 73
6
 74
0
 42
0.0000001
 43
0.0000001
 44
0.0000000001
 40
0.0
 40
0.0
 40
0.0
 40
0.0
 40
0.4994309175
 40
0.7497096561
 40
1.0
 40
1.0
 40
1.0
 40
1.0
 10
303.7158783176
 20
960.3496655309
 30
0.0
 10
303.7158783176
 20
960.9453014948
 30
0.0
 10
303.6235893549
 20
961.853650286
 30
0.0
 10
303.1516131672
 20
962.9600238577
 30
0.0
 10
302.7708194292
 20
963.433124616
 30
0.0
 10
302.550829316
 20
963.6348887194
 30
0.0
  0
SPLINE
  5
449
100
AcDbEntity
  8
0
100
AcDbSpline
 62
7
  6
CONTINUOUS
 70
0
 71
3
 72
8
 73
4
 74
0
 42
0.0000001
 43
0.0000001
 44
0.0000000001
 40
0.0
 40
0.0
 40
0.0
 40
0.0
 40
1.0
 40
1.0
 40
1.0
 40
1.0
 10
301.1916064684
 20
963.6202185276
 30
0.0
 10
301.6446806029
 20
963.6206598786
 30
0.0
 10
302.0977549704
 20
963.6209057046
 30
0.0
 10
302.5508293171
 20
963.6209548955
 30
0.0
  0
SPLINE
  5
44A
100
AcDbEntity
  8
0
100
AcDbSpline
 62
7
  6
CONTINUOUS
 70
0
 71
3
 72
8
 73
4
 74
0
 42
0.0000001
 43
0.0000001
 44
0.0000000001
 40
0.0
 40
0.0
 40
0.0
 40
0.0
 40
1.0
 40
1.0
 40
1.0
 40
1.0
 10
302.550829316
 20
963.6348887194
 30
0.0
 10
302.0977549887
 20
963.6348447816
 30
0.0
 10
301.6446806447
 20
963.634625237
 30
0.0
 10
301.1916064867
 20
963.6342310485
 30
0.0
  0
SPLINE
  5
44B
100
AcDbEntity
  8
0
100
AcDbSpline
 62
7
  6
CONTINUOUS
 70
0
 71
3
 72
9
 73
5
 74
0
 42
0.0000001
 43
0.0000001
 44
0.0000000001
 40
0.0
 40
0.0
 40
0.0
 40
0.0
 40
0.4940141158
 40
1.0
 40
1.0
 40
1.0
 40
1.0
 10
309.7352954769
 20
963.2345297325
 30
0.0
 10
309.697824034
 20
963.0296113211
 30
0.0
 10
309.3324436213
 20
962.7150061876
 30
0.0
 10
308.9623385899
 20
962.54497008
 30
0.0
 10
308.7644219794
 20
962.465261637
 30
0.0
  0
SPLINE
  5
44C
100
AcDbEntity
  8
0
100
AcDbSpline
 62
7
  6
CONTINUOUS
 70
0
 71
3
 72
10
 73
6
 74
0
 42
0.0000001
 43
0.0000001
 44
0.0000000001
 40
0.0
 40
0.0
 40
0.0
 40
0.0
 40
0.2506558814
 40
0.5010872368
 40
1.0
 40
1.0
 40
1.0
 40
1.0
 10
302.1624803194
 20
960.7363793453
 30
0.0
 10
302.1624803194
 20
960.4999307904
 30
0.0
 10
302.1014850519
 20
960.0198309253
 30
0.0
 10
301.5858123306
 20
959.189836045
 30
0.0
 10
300.8736223863
 20
958.9074461623
 30
0.0
 10
300.4149071523
 20
958.8021998898
 30
0.0
  0
SPLINE
  5
44D
100
AcDbEntity
  8
0
100
AcDbSpline
 62
7
  6
CONTINUOUS
 70
0
 71
3
 72
11
 73
7
 74
0
 42
0.0000001
 43
0.0000001
 44
0.0000000001
 40
0.0
 40
0.0
 40
0.0
 40
0.0
 40
0.250927383
 40
0.5013310537
 40
0.7507340548
 40
1.0
 40
1.0
 40
1.0
 40
1.0
 10
308.7644219794
 20
965.1700229213
 30
0.0
 10
308.5233575206
 20
965.1708491417
 30
0.0
 10
308.0403100699
 20
965.1383283248
 30
0.0
 10
307.3396101049
 20
964.9295156016
 30
0.0
 10
306.7495314586
 20
964.4831607971
 30
0.0
 10
306.5141157813
 20
964.0499644824
 30
0.0
 10
306.4343246468
 20
963.8241789043
 30
0.0
  0
SPLINE
  5
44E
100
AcDbEntity
  8
0
100
AcDbSpline
 62
7
  6
CONTINUOUS
 70
0
 71
3
 72
8
 73
4
 74
0
 42
0.0000001
 43
0.0000001
 44
0.0000000001
 40
0.0
 40
0.0
 40
0.0
 40
0.0
 40
1.0
 40
1.0
 40
1.0
 40
1.0
 10
319.8592919553
 20
924.0643860694
 30
0.0
 10
319.8574791038
 20
920.7310548346
 30
0.0
 10
319.8574791036
 20
917.3977221209
 30
0.0
 10
319.8592919553
 20
914.0643908862
 30
0.0
  0
LINE
  5
44F
100
AcDbEntity
  8
0
100
AcDbLine
 62
7
  6
CONTINUOUS
 10
300.4149071523
 20
963.6333842767
 11
299.6382078179
 21
963.6321958847
  0
SPLINE
  5
450
100
AcDbEntity
  8
0
100
AcDbSpline
 62
7
  6
CONTINUOUS
 70
0
 71
3
 72
12
 73
8
 74
0
 42
0.0000001
 43
0.0000001
 44
0.0000000001
 40
0.0
 40
0.0
 40
0.0
 40
0.0
 40
0.2500334938
 40
0.4996992163
 40
0.6250177479
 40
0.7503902957
 40
1.0
 40
1.0
 40
1.0
 40
1.0
 10
296.3372373232
 20
959.9378629635
 30
0.0
 10
296.3957120837
 20
960.3902676623
 30
0.0
 10
296.5732833855
 20
961.2879312763
 30
0.0
 10
297.062353909
 20
962.3446674551
 30
0.0
 10
297.6952267274
 20
963.015318703
 30
0.0
 10
298.480309288
 20
963.5007006743
 30
0.0
 10
299.1828136201
 20
963.6174322427
 30
0.0
 10
299.6382078179
 20
963.6182306778
 30
0.0
  0
SPLINE
  5
451
100
AcDbEntity
  8
0
100
AcDbSpline
 62
7
  6
CONTINUOUS
 70
0
 71
3
 72
12
 73
8
 74
0
 42
0.0000001
 43
0.0000001
 44
0.0000000001
 40
0.0
 40
0.0
 40
0.0
 40
0.0
 40
0.2496100119
 40
0.3749825218
 40
0.5003009241
 40
0.7499664542
 40
1.0
 40
1.0
 40
1.0
 40
1.0
 10
299.6382078179
 20
963.6321958847
 30
0.0
 10
299.1828135939
 20
963.6313987365
 30
0.0
 10
298.4803091528
 20
963.514669646
 30
0.0
 10
297.6952259679
 20
963.0292901043
 30
0.0
 10
297.0623533038
 20
962.358641021
 30
0.0
 10
296.5732830419
 20
961.3019066456
 30
0.0
 10
296.3957120352
 20
960.4042443384
 30
0.0
 10
296.3372373232
 20
959.9518400802
 30
0.0
  0
LINE
  5
452
100
AcDbEntity
  8
0
100
AcDbLine
 62
7
  6
CONTINUOUS
 10
297.3081111559
 20
951.0606113871
 11
296.5314118215
 21
951.0580468605
  0
LINE
  5
453
100
AcDbEntity
  8
0
100
AcDbLine
 62
7
  6
CONTINUOUS
 10
310.7061693096
 20
973.6582175603
 11
310.511994476
 21
974.8170510487
  0
LINE
  5
454
100
AcDbEntity
  8
0
100
AcDbLine
 62
7
  6
CONTINUOUS
 10
309.5411209785
 20
974.8070701667
 11
310.511994476
 21
974.8030523374
  0
LINE
  5
455
100
AcDbEntity
  8
0
100
AcDbLine
 62
7
  6
CONTINUOUS
 10
310.511994476
 20
974.8170510487
 11
309.5411209785
 21
974.8210623422
  0
SPLINE
  5
456
100
AcDbEntity
  8
0
100
AcDbSpline
 62
7
  6
CONTINUOUS
 70
0
 71
3
 72
8
 73
4
 74
0
 42
0.0000001
 43
0.0000001
 44
0.0000000001
 40
0.0
 40
0.0
 40
0.0
 40
0.0
 40
1.0
 40
1.0
 40
1.0
 40
1.0
 10
302.3566548177
 20
951.0689182066
 30
0.0
 10
301.3210555556
 20
951.0687023731
 30
0.0
 10
300.2854560817
 20
951.0675685876
 30
0.0
 10
299.2498588213
 20
951.0655210386
 30
0.0
  0
LINE
  5
457
100
AcDbEntity
  8
0
100
AcDbLine
 62
7
  6
CONTINUOUS
 10
298.0848104903
 20
952.2094667871
 11
299.2498588213
 21
951.0515616398
  0
LINE
  5
458
100
AcDbEntity
  8
0
100
AcDbLine
 62
7
  6
CONTINUOUS
 10
299.2498588213
 20
951.0655210416
 11
298.0848104903
 21
952.2234310191
  0
SPLINE
  5
459
100
AcDbEntity
  8
0
100
AcDbSpline
 62
7
  6
CONTINUOUS
 70
0
 71
3
 72
9
 73
5
 74
0
 42
0.0000001
 43
0.0000001
 44
0.0000000001
 40
0.0
 40
0.0
 40
0.0
 40
0.0
 40
0.2498238058
 40
1.0
 40
1.0
 40
1.0
 40
1.0
 10
319.8875832452
 20
864.2112970962
 30
0.0
 10
319.8831354344
 20
868.3627917712
 30
0.0
 10
319.8703568313
 20
884.9804874785
 30
0.0
 10
319.8659532616
 20
901.5981873416
 30
0.0
 10
319.8592668798
 20
914.0643884892
 30
0.0
  0
LINE
  5
45A
100
AcDbEntity
  8
0
100
AcDbLine
 62
7
  6
CONTINUOUS
 10
309.7352954769
 20
973.8553377034
 11
309.3469461449
 21
973.4708263226
  0
SPLINE
  5
45B
100
AcDbEntity
  8
0
100
AcDbSpline
 62
7
  6
CONTINUOUS
 70
0
 71
3
 72
8
 73
4
 74
0
 42
0.0000001
 43
0.0000001
 44
0.0000000001
 40
0.0
 40
0.0
 40
0.0
 40
0.0
 40
1.0
 40
1.0
 40
1.0
 40
1.0
 10
309.3469461449
 20
973.4708263226
 30
0.0
 10
308.6996981563
 20
973.4732507826
 30
0.0
 10
308.0524487405
 20
973.4753203729
 30
0.0
 10
307.4051984795
 20
973.47703397
 30
0.0
  0
SPLINE
  5
45C
100
AcDbEntity
  8
0
100
AcDbSpline
 62
7
  6
CONTINUOUS
 70
0
 71
3
 72
9
 73
5
 74
0
 42
0.0000001
 43
0.0000001
 44
0.0000000001
 40
0.0
 40
0.0
 40
0.0
 40
0.0
 40
0.2564108992
 40
1.0
 40
1.0
 40
1.0
 40
1.0
 10
317.7556862307
 20
858.7073338951
 30
0.0
 10
317.9701759184
 20
859.1514641346
 30
0.0
 10
318.7734460504
 20
860.8993529901
 30
0.0
 10
319.4406561157
 20
862.7103194826
 30
0.0
 10
319.8490696116
 20
864.0810784557
 30
0.0
  0
LINE
  5
45D
100
AcDbEntity
  8
0
100
AcDbLine
 62
7
  6
CONTINUOUS
 10
307.4051984795
 20
974.635024678
 11
306.6284998157
 21
974.6369109678
  0
SPLINE
  5
45E
100
AcDbEntity
  8
0
100
AcDbSpline
 62
7
  6
CONTINUOUS
 70
0
 71
3
 72
11
 73
7
 74
0
 42
0.0000001
 43
0.0000001
 44
0.0000000001
 40
0.0
 40
0.0
 40
0.0
 40
0.0
 40
0.2494581661
 40
0.4992110851
 40
0.7495811499
 40
1.0
 40
1.0
 40
1.0
 40
1.0
 10
298.4731594869
 20
955.7053963269
 30
0.0
 10
298.1743488922
 20
955.7046754988
 30
0.0
 10
297.5576497727
 20
955.5617506529
 30
0.0
 10
296.9080597087
 20
954.8913167575
 30
0.0
 10
296.5377083391
 20
954.0640718622
 30
0.0
 10
296.3929517111
 20
953.47975875
 30
0.0
 10
296.3372373232
 20
953.1850160902
 30
0.0
  0
SPLINE
  5
45F
100
AcDbEntity
  8
0
100
AcDbSpline
 62
7
  6
CONTINUOUS
 70
0
 71
3
 72
9
 73
5
 74
0
 42
0.0000001
 43
0.0000001
 44
0.0000000001
 40
0.0
 40
0.0
 40
0.0
 40
0.0
 40
0.750077265
 40
1.0
 40
1.0
 40
1.0
 40
1.0
 10
318.1646780611
 20
914.0643834755
 30
0.0
 10
318.074437315
 20
900.223613204
 30
0.0
 10
317.9318867816
 20
881.7713048842
 30
0.0
 10
317.789019254
 20
863.3190065716
 30
0.0
 10
317.7555837756
 20
858.7073406392
 30
0.0
  0
LINE
  5
460
100
AcDbEntity
  8
0
100
AcDbLine
 62
7
  6
CONTINUOUS
 10
306.6284998157
 20
973.4789208557
 11
305.657625983
 21
973.4808011977
  0
SPLINE
  5
461
100
AcDbEntity
  8
0
100
AcDbSpline
 62
7
  6
CONTINUOUS
 70
0
 71
3
 72
9
 73
5
 74
0
 42
0.0000001
 43
0.0000001
 44
0.0000000001
 40
0.0
 40
0.0
 40
0.0
 40
0.0
 40
0.4982205438
 40
1.0
 40
1.0
 40
1.0
 40
1.0
 10
318.7704249099
 20
1008.5226625708
 30
0.0
 10
318.6056428649
 20
994.4970716177
 30
0.0
 10
318.4769664522
 20
966.3437279112
 30
0.0
 10
318.3692261613
 20
938.1905731055
 30
0.0
 10
318.2423017746
 20
924.0643892263
 30
0.0
  0
SPLINE
  5
462
100
AcDbEntity
  8
0
100
AcDbSpline
 62
7
  6
CONTINUOUS
 70
0
 71
3
 72
8
 73
4
 74
0
 42
0.0000001
 43
0.0000001
 44
0.0000000001
 40
0.0
 40
0.0
 40
0.0
 40
0.0
 40
1.0
 40
1.0
 40
1.0
 40
1.0
 10
302.9391789832
 20
940.423878743
 30
0.0
 10
302.486104471
 20
940.4239356191
 30
0.0
 10
302.0330299024
 20
940.4238155578
 30
0.0
 10
301.5799554833
 20
940.4235194605
 30
0.0
  0
SPLINE
  5
463
100
AcDbEntity
  8
0
100
AcDbSpline
 62
7
  6
CONTINUOUS
 70
0
 71
3
 72
9
 73
5
 74
0
 42
0.0000001
 43
0.0000001
 44
0.0000000001
 40
0.0
 40
0.0
 40
0.0
 40
0.0
 40
0.2157004223
 40
1.0
 40
1.0
 40
1.0
 40
1.0
 10
315.8469641424
 20
1039.5644225911
 30
0.0
 10
315.7826589621
 20
1039.5644356642
 30
0.0
 10
315.4845656673
 20
1039.5743314428
 30
0.0
 10
315.1879842548
 20
1039.6138129986
 30
0.0
 10
314.9578712203
 20
1039.6552690013
 30
0.0
  0
SPLINE
  5
464
100
AcDbEntity
  8
0
100
AcDbSpline
 62
7
  6
CONTINUOUS
 70
0
 71
3
 72
9
 73
5
 74
0
 42
0.0000001
 43
0.0000001
 44
0.0000000001
 40
0.0
 40
0.0
 40
0.0
 40
0.0
 40
0.241615088
 40
1.0
 40
1.0
 40
1.0
 40
1.0
 10
314.8958110137
 20
1039.666744505
 30
0.0
 10
314.8158713068
 20
1039.681905477
 30
0.0
 10
314.486197262
 20
1039.7505204676
 30
0.0
 10
314.1610412388
 20
1039.8425143523
 30
0.0
 10
313.9207325049
 20
1039.9289728388
 30
0.0
  0
SPLINE
  5
465
100
AcDbEntity
  8
0
100
AcDbSpline
 62
7
  6
CONTINUOUS
 70
0
 71
3
 72
8
 73
4
 74
0
 42
0.0000001
 43
0.0000001
 44
0.0000000001
 40
0.0
 40
0.0
 40
0.0
 40
0.0
 40
1.0
 40
1.0
 40
1.0
 40
1.0
 10
314.904366444
 20
1039.6807764337
 30
0.0
 10
314.916651604
 20
1039.7127737702
 30
0.0
 10
314.9207325049
 20
1039.7480150107
 30
0.0
 10
314.9207325049
 20
1039.7822897054
 30
0.0
  0
SPLINE
  5
466
100
AcDbEntity
  8
0
100
AcDbSpline
 62
7
  6
CONTINUOUS
 70
0
 71
3
 72
9
 73
5
 74
0
 42
0.0000001
 43
0.0000001
 44
0.0000000001
 40
0.0
 40
0.0
 40
0.0
 40
0.0
 40
0.2554810345
 40
1.0
 40
1.0
 40
1.0
 40
1.0
 10
291.5207325049
 20
1039.9289728388
 30
0.0
 10
291.4398472193
 20
1039.8998718599
 30
0.0
 10
291.120498323
 20
1039.7936685471
 30
0.0
 10
290.7926857085
 20
1039.7136299567
 30
0.0
 10
290.5465729903
 20
1039.6669187856
 30
0.0
  0
SPLINE
  5
467
100
AcDbEntity
  8
0
100
AcDbSpline
 62
7
  6
CONTINUOUS
 70
0
 71
3
 72
9
 73
5
 74
0
 42
0.0000001
 43
0.0000001
 44
0.0000000001
 40
0.0
 40
0.0
 40
0.0
 40
0.0
 40
0.2813090669
 40
1.0
 40
1.0
 40
1.0
 40
1.0
 10
290.4835379633
 20
1039.655258841
 30
0.0
 10
290.4010131922
 20
1039.6403922658
 30
0.0
 10
290.10677705
 20
1039.5932470769
 30
0.0
 10
289.8087300351
 20
1039.5644660707
 30
0.0
 10
289.5945012255
 20
1039.5644225772
 30
0.0
  0
SPLINE
  5
468
100
AcDbEntity
  8
0
100
AcDbSpline
 62
7
  6
CONTINUOUS
 70
0
 71
3
 72
9
 73
5
 74
0
 42
0.0000001
 43
0.0000001
 44
0.0000000001
 40
0.0
 40
0.0
 40
0.0
 40
0.0
 40
0.3632771998
 40
1.0
 40
1.0
 40
1.0
 40
1.0
 10
290.5207325049
 20
1026.5180694519
 30
0.0
 10
290.5207325049
 20
1026.5379638159
 30
0.0
 10
290.5195569615
 20
1026.5877473443
 30
0.0
 10
290.5473484015
 20
1026.6643884886
 30
0.0
 10
290.5822176285
 20
1026.6643884892
 30
0.0
  0
SPLINE
  5
469
100
AcDbEntity
  8
0
100
AcDbSpline
 62
7
  6
CONTINUOUS
 70
0
 71
3
 72
8
 73
4
 74
0
 42
0.0000001
 43
0.0000001
 44
0.0000000001
 40
0.0
 40
0.0
 40
0.0
 40
0.0
 40
1.0
 40
1.0
 40
1.0
 40
1.0
 10
290.5207325049
 20
1039.7822897054
 30
0.0
 10
290.5207325049
 20
1039.7479068676
 30
0.0
 10
290.5248450428
 20
1039.712545402
 30
0.0
 10
290.5372229855
 20
1039.6804679011
 30
0.0
  0
SPLINE
  5
46A
100
AcDbEntity
  8
0
100
AcDbSpline
 62
7
  6
CONTINUOUS
 70
0
 71
3
 72
9
 73
5
 74
0
 42
0.0000001
 43
0.0000001
 44
0.0000000001
 40
0.0
 40
0.0
 40
0.0
 40
0.0
 40
0.5097282029
 40
1.0
 40
1.0
 40
1.0
 40
1.0
 10
316.2670196957
 20
1026.6643884892
 30
0.0
 10
316.3075040677
 20
1026.6643884892
 30
0.0
 10
316.3998886735
 20
1026.6487220085
 30
0.0
 10
316.4207325049
 20
1026.557008529
 30
0.0
 10
316.4207325049
 20
1026.5180694519
 30
0.0
  0
SPLINE
  5
46B
100
AcDbEntity
  8
0
100
AcDbSpline
 62
7
  6
CONTINUOUS
 70
0
 71
3
 72
10
 73
6
 74
0
 42
0.0000001
 43
0.0000001
 44
0.0000000001
 40
0.0
 40
0.0
 40
0.0
 40
0.0
 40
0.1555523582
 40
0.4750331354
 40
1.0
 40
1.0
 40
1.0
 40
1.0
 10
316.4207325049
 20
1039.7822897054
 30
0.0
 10
316.4207325049
 20
1039.7479317206
 30
0.0
 10
316.3761520859
 20
1039.6407134303
 30
0.0
 10
316.1434121896
 20
1039.5739317689
 30
0.0
 10
315.9629174032
 20
1039.5643990179
 30
0.0
 10
315.8469641424
 20
1039.5644225911
 30
0.0
  0
SPLINE
  5
46C
100
AcDbEntity
  8
0
100
AcDbSpline
 62
7
  6
CONTINUOUS
 70
0
 71
3
 72
10
 73
6
 74
0
 42
0.0000001
 43
0.0000001
 44
0.0000000001
 40
0.0
 40
0.0
 40
0.0
 40
0.0
 40
0.375816672
 40
0.7620194677
 40
1.0
 40
1.0
 40
1.0
 40
1.0
 10
289.5945012255
 20
1039.5644225772
 30
0.0
 10
289.5119060126
 20
1039.5644058085
 30
0.0
 10
289.3466960936
 20
1039.5758721446
 30
0.0
 10
289.1197580516
 20
1039.6014464634
 30
0.0
 10
289.0207325049
 20
1039.729987467
 30
0.0
 10
289.0207325049
 20
1039.7822897054
 30
0.0
  0
SPLINE
  5
46D
100
AcDbEntity
  8
0
100
AcDbSpline
 62
7
  6
CONTINUOUS
 70
0
 71
3
 72
9
 73
5
 74
0
 42
0.0000001
 43
0.0000001
 44
0.0000000001
 40
0.0
 40
0.0
 40
0.0
 40
0.0
 40
0.4902703984
 40
1.0
 40
1.0
 40
1.0
 40
1.0
 10
289.0207325049
 20
1026.5180694519
 30
0.0
 10
289.0207325049
 20
1026.5570083441
 30
0.0
 10
289.0415768275
 20
1026.6487211821
 30
0.0
 10
289.1339609077
 20
1026.6643884889
 30
0.0
 10
289.174445314
 20
1026.6643884892
 30
0.0
  0
SPLINE
  5
46E
100
AcDbEntity
  8
0
100
AcDbSpline
 62
7
  6
CONTINUOUS
 70
0
 71
3
 72
9
 73
5
 74
0
 42
0.0000001
 43
0.0000001
 44
0.0000000001
 40
0.0
 40
0.0
 40
0.0
 40
0.0
 40
0.2471602544
 40
1.0
 40
1.0
 40
1.0
 40
1.0
 10
1052.2207968564
 20
1696.0143884892
 30
0.0
 10
1052.2207968991
 20
1696.0473093324
 30
0.0
 10
1052.0273768818
 20
1695.8675298045
 30
0.0
 10
1051.9530963342
 20
1695.8805041102
 30
0.0
 10
1051.8633977428
 20
1695.8356784534
 30
0.0
  0
SPLINE
  5
46F
100
AcDbEntity
  8
0
100
AcDbSpline
 62
7
  6
CONTINUOUS
 70
0
 71
3
 72
8
 73
4
 74
0
 42
0.0000001
 43
0.0000001
 44
0.0000000001
 40
0.0
 40
0.0
 40
0.0
 40
0.0
 40
1.0
 40
1.0
 40
1.0
 40
1.0
 10
284.0207325049
 20
1696.6907457689
 30
0.0
 10
284.3181284829
 20
1696.4802193019
 30
0.0
 10
284.6044150926
 20
1696.25373388
 30
0.0
 10
284.8828733606
 20
1696.018730148
 30
0.0
  0
SPLINE
  5
470
100
AcDbEntity
  8
0
100
AcDbSpline
 62
7
  6
CONTINUOUS
 70
0
 71
3
 72
8
 73
4
 74
0
 42
0.0000001
 43
0.0000001
 44
0.0000000001
 40
0.0
 40
0.0
 40
0.0
 40
0.0
 40
1.0
 40
1.0
 40
1.0
 40
1.0
 10
284.8828733606
 20
1696.018730148
 30
0.0
 10
285.1207838911
 20
1695.8179465154
 30
0.0
 10
285.3532280748
 20
1695.6106350539
 30
0.0
 10
285.5822305067
 20
1695.3997479423
 30
0.0
  0
SPLINE
  5
471
100
AcDbEntity
  8
0
100
AcDbSpline
 62
7
  6
CONTINUOUS
 70
0
 71
3
 72
8
 73
4
 74
0
 42
0.0000001
 43
0.0000001
 44
0.0000000001
 40
0.0
 40
0.0
 40
0.0
 40
0.0
 40
1.0
 40
1.0
 40
1.0
 40
1.0
 10
285.8873992076
 20
1695.1149882181
 30
0.0
 10
286.2017348072
 20
1694.8181663311
 30
0.0
 10
286.511228026
 20
1694.5162445464
 30
0.0
 10
286.8207325049
 20
1694.2143884892
 30
0.0
  0
SPLINE
  5
472
100
AcDbEntity
  8
0
100
AcDbSpline
 62
7
  6
CONTINUOUS
 70
0
 71
3
 72
8
 73
4
 74
0
 42
0.0000001
 43
0.0000001
 44
0.0000000001
 40
0.0
 40
0.0
 40
0.0
 40
0.0
 40
1.0
 40
1.0
 40
1.0
 40
1.0
 10
286.8207325049
 20
1694.2143884892
 30
0.0
 10
286.208642484
 20
1694.4738010137
 30
0.0
 10
285.5947130687
 20
1694.7307957141
 30
0.0
 10
284.9981287572
 20
1695.0241150125
 30
0.0
  0
SPLINE
  5
473
100
AcDbEntity
  8
0
100
AcDbSpline
 62
7
  6
CONTINUOUS
 70
0
 71
3
 72
8
 73
4
 74
0
 42
0.0000001
 43
0.0000001
 44
0.0000000001
 40
0.0
 40
0.0
 40
0.0
 40
0.0
 40
1.0
 40
1.0
 40
1.0
 40
1.0
 10
284.9981287572
 20
1695.0241150125
 30
0.0
 10
284.8442898619
 20
1695.0997521286
 30
0.0
 10
284.6916831697
 20
1695.1780327819
 30
0.0
 10
284.5413402812
 20
1695.2604002201
 30
0.0
  0
SPLINE
  5
474
100
AcDbEntity
  8
0
100
AcDbSpline
 62
7
  6
CONTINUOUS
 70
0
 71
3
 72
8
 73
4
 74
0
 42
0.0000001
 43
0.0000001
 44
0.0000000001
 40
0.0
 40
0.0
 40
0.0
 40
0.0
 40
1.0
 40
1.0
 40
1.0
 40
1.0
 10
284.5413402812
 20
1695.2604002201
 30
0.0
 10
284.3744654216
 20
1695.3518249281
 30
0.0
 10
284.2100004853
 20
1695.448207621
 30
0.0
 10
284.051405086
 20
1695.5533417987
 30
0.0
  0
SPLINE
  5
475
100
AcDbEntity
  8
0
100
AcDbSpline
 62
7
  6
CONTINUOUS
 70
0
 71
3
 72
9
 73
5
 74
0
 42
0.0000001
 43
0.0000001
 44
0.0000000001
 40
0.0
 40
0.0
 40
0.0
 40
0.0
 40
0.5114354438
 40
1.0
 40
1.0
 40
1.0
 40
1.0
 10
284.051405086
 20
1695.5533417987
 30
0.0
 10
284.013083649
 20
1695.5787453904
 30
0.0
 10
283.9388347799
 20
1695.629453496
 30
0.0
 10
283.8662410779
 20
1695.6825141775
 30
0.0
 10
283.8312717224
 20
1695.709088332
 30
0.0
  0
SPLINE
  5
476
100
AcDbEntity
  8
0
100
AcDbSpline
 62
7
  6
CONTINUOUS
 70
0
 71
3
 72
8
 73
4
 74
0
 42
0.0000001
 43
0.0000001
 44
0.0000000001
 40
0.0
 40
0.0
 40
0.0
 40
0.0
 40
1.0
 40
1.0
 40
1.0
 40
1.0
 10
283.9938820822
 20
134.0366906734
 30
0.0
 10
284.1961334795
 20
134.1750291637
 30
0.0
 10
284.4089384892
 20
134.2980335123
 30
0.0
 10
284.6249877662
 20
134.4136443919
 30
0.0
  0
SPLINE
  5
477
100
AcDbEntity
  8
0
100
AcDbSpline
 62
7
  6
CONTINUOUS
 70
0
 71
3
 72
8
 73
4
 74
0
 42
0.0000001
 43
0.0000001
 44
0.0000000001
 40
0.0
 40
0.0
 40
0.0
 40
0.0
 40
1.0
 40
1.0
 40
1.0
 40
1.0
 10
284.9980496202
 20
134.6046278763
 30
0.0
 10
285.217465534
 20
134.7125224565
 30
0.0
 10
285.4395070784
 20
134.8151050869
 30
0.0
 10
285.6627041075
 20
134.9149433053
 30
0.0
  0
SPLINE
  5
478
100
AcDbEntity
  8
0
100
AcDbSpline
 62
7
  6
CONTINUOUS
 70
0
 71
3
 72
8
 73
4
 74
0
 42
0.0000001
 43
0.0000001
 44
0.0000000001
 40
0.0
 40
0.0
 40
0.0
 40
0.0
 40
1.0
 40
1.0
 40
1.0
 40
1.0
 10
285.6627041075
 20
134.9149433053
 30
0.0
 10
286.0464431693
 20
135.0865935482
 30
0.0
 10
286.4336788658
 20
135.2503490005
 30
0.0
 10
286.8207325049
 20
135.4143884892
 30
0.0
  0
SPLINE
  5
479
100
AcDbEntity
  8
0
100
AcDbSpline
 62
7
  6
CONTINUOUS
 70
0
 71
3
 72
8
 73
4
 74
0
 42
0.0000001
 43
0.0000001
 44
0.0000000001
 40
0.0
 40
0.0
 40
0.0
 40
0.0
 40
1.0
 40
1.0
 40
1.0
 40
1.0
 10
1048.6207325049
 20
1694.2143884892
 30
0.0
 10
1049.0298316236
 20
1694.613378019
 30
0.0
 10
1049.4388803736
 20
1695.012646301
 30
0.0
 10
1049.8592405912
 20
1695.3997535488
 30
0.0
  0
SPLINE
  5
47A
100
AcDbEntity
  8
0
100
AcDbSpline
 62
7
  6
CONTINUOUS
 70
0
 71
3
 72
8
 73
4
 74
0
 42
0.0000001
 43
0.0000001
 44
0.0000000001
 40
0.0
 40
0.0
 40
0.0
 40
0.0
 40
1.0
 40
1.0
 40
1.0
 40
1.0
 10
1049.8592405912
 20
1695.3997535488
 30
0.0
 10
1050.0653517869
 20
1695.5895601346
 30
0.0
 10
1050.2742466058
 20
1695.7764525213
 30
0.0
 10
1050.4873992077
 20
1695.9583160233
 30
0.0
  0
SPLINE
  5
47B
100
AcDbEntity
  8
0
100
AcDbSpline
 62
7
  6
CONTINUOUS
 70
0
 71
3
 72
8
 73
4
 74
0
 42
0.0000001
 43
0.0000001
 44
0.0000000001
 40
0.0
 40
0.0
 40
0.0
 40
0.0
 40
1.0
 40
1.0
 40
1.0
 40
1.0
 10
1051.4207325049
 20
132.9380312095
 30
0.0
 10
1051.097953763
 20
133.1665261232
 30
0.0
 10
1050.7882461144
 20
133.4137759721
 30
0.0
 10
1050.4873992077
 20
133.6704609552
 30
0.0
  0
SPLINE
  5
47C
100
AcDbEntity
  8
0
100
AcDbSpline
 62
7
  6
CONTINUOUS
 70
0
 71
3
 72
8
 73
4
 74
0
 42
0.0000001
 43
0.0000001
 44
0.0000000001
 40
0.0
 40
0.0
 40
0.0
 40
0.0
 40
1.0
 40
1.0
 40
1.0
 40
1.0
 10
1050.4873992077
 20
133.6704609552
 30
0.0
 10
1050.2742813694
 20
133.8522947966
 30
0.0
 10
1050.0654199337
 20
134.0391558963
 30
0.0
 10
1049.8593414522
 20
134.2289305478
 30
0.0
  0
SPLINE
  5
47D
100
AcDbEntity
  8
0
100
AcDbSpline
 62
7
  6
CONTINUOUS
 70
0
 71
3
 72
8
 73
4
 74
0
 42
0.0000001
 43
0.0000001
 44
0.0000000001
 40
0.0
 40
0.0
 40
0.0
 40
0.0
 40
1.0
 40
1.0
 40
1.0
 40
1.0
 10
1049.5540658022
 20
134.5137887603
 30
0.0
 10
1049.2397302026
 20
134.8106106473
 30
0.0
 10
1048.9302369843
 20
135.1125324325
 30
0.0
 10
1048.6207325049
 20
135.4143884892
 30
0.0
  0
SPLINE
  5
47E
100
AcDbEntity
  8
0
100
AcDbSpline
 62
7
  6
CONTINUOUS
 70
0
 71
3
 72
8
 73
4
 74
0
 42
0.0000001
 43
0.0000001
 44
0.0000000001
 40
0.0
 40
0.0
 40
0.0
 40
0.0
 40
1.0
 40
1.0
 40
1.0
 40
1.0
 10
286.8207325049
 20
135.4143884892
 30
0.0
 10
286.4116006723
 20
135.0153670531
 30
0.0
 10
286.0025192256
 20
134.6160667532
 30
0.0
 10
285.5821235553
 20
134.2289305456
 30
0.0
  0
SPLINE
  5
47F
100
AcDbEntity
  8
0
100
AcDbSpline
 62
7
  6
CONTINUOUS
 70
0
 71
3
 72
8
 73
4
 74
0
 42
0.0000001
 43
0.0000001
 44
0.0000000001
 40
0.0
 40
0.0
 40
0.0
 40
0.0
 40
1.0
 40
1.0
 40
1.0
 40
1.0
 10
285.5821235553
 20
134.2289305456
 30
0.0
 10
285.3760450745
 20
134.0391558948
 30
0.0
 10
285.1671836396
 20
133.8522947959
 30
0.0
 10
284.9540658021
 20
133.6704609552
 30
0.0
  0
SPLINE
  5
480
100
AcDbEntity
  8
0
100
AcDbSpline
 62
7
  6
CONTINUOUS
 70
0
 71
3
 72
8
 73
4
 74
0
 42
0.0000001
 43
0.0000001
 44
0.0000000001
 40
0.0
 40
0.0
 40
0.0
 40
0.0
 40
1.0
 40
1.0
 40
1.0
 40
1.0
 10
1048.6207325049
 20
135.4143884892
 30
0.0
 10
1049.2328486186
 20
135.1549639419
 30
0.0
 10
1049.8468220646
 20
134.8979939547
 30
0.0
 10
1050.4434153767
 20
134.6046278826
 30
0.0
  0
SPLINE
  5
481
100
AcDbEntity
  8
0
100
AcDbSpline
 62
7
  6
CONTINUOUS
 70
0
 71
3
 72
8
 73
4
 74
0
 42
0.0000001
 43
0.0000001
 44
0.0000000001
 40
0.0
 40
0.0
 40
0.0
 40
0.0
 40
1.0
 40
1.0
 40
1.0
 40
1.0
 10
1050.4434153767
 20
134.6046278826
 30
0.0
 10
1050.5972011418
 20
134.5290059725
 30
0.0
 10
1050.7497470533
 20
134.4507278067
 30
0.0
 10
1050.9000526358
 20
134.3684054728
 30
0.0
  0
SPLINE
  5
482
100
AcDbEntity
  8
0
100
AcDbSpline
 62
7
  6
CONTINUOUS
 70
0
 71
3
 72
8
 73
4
 74
0
 42
0.0000001
 43
0.0000001
 44
0.0000000001
 40
0.0
 40
0.0
 40
0.0
 40
0.0
 40
1.0
 40
1.0
 40
1.0
 40
1.0
 10
1050.9000526358
 20
134.3684054728
 30
0.0
 10
1051.0669297963
 20
134.2770068893
 30
0.0
 10
1051.2313778141
 20
134.180614454
 30
0.0
 10
1051.3899629584
 20
134.0754838699
 30
0.0
  0
SPLINE
  5
483
100
AcDbEntity
  8
0
100
AcDbSpline
 62
7
  6
CONTINUOUS
 70
0
 71
3
 72
9
 73
5
 74
0
 42
0.0000001
 43
0.0000001
 44
0.0000000001
 40
0.0
 40
0.0
 40
0.0
 40
0.0
 40
0.5110795445
 40
1.0
 40
1.0
 40
1.0
 40
1.0
 10
1051.3899629584
 20
134.0754838699
 30
0.0
 10
1051.4282714265
 20
134.0500881013
 30
0.0
 10
1051.5025499326
 20
133.9993651509
 30
0.0
 10
1051.5751755523
 20
133.9462920067
 30
0.0
 10
1051.6101831586
 20
133.9196886461
 30
0.0
  0
SPLINE
  5
484
100
AcDbEntity
  8
0
100
AcDbSpline
 62
7
  6
CONTINUOUS
 70
0
 71
3
 72
8
 73
4
 74
0
 42
0.0000001
 43
0.0000001
 44
0.0000000001
 40
0.0
 40
0.0
 40
0.0
 40
0.0
 40
1.0
 40
1.0
 40
1.0
 40
1.0
 10
1051.447667793
 20
1695.5921262991
 30
0.0
 10
1051.245259124
 20
1695.4536697268
 30
0.0
 10
1051.0322704992
 20
1695.3305877697
 30
0.0
 10
1050.8160496353
 20
1695.2148811162
 30
0.0
  0
SPLINE
  5
485
100
AcDbEntity
  8
0
100
AcDbSpline
 62
7
  6
CONTINUOUS
 70
0
 71
3
 72
8
 73
4
 74
0
 42
0.0000001
 43
0.0000001
 44
0.0000000001
 40
0.0
 40
0.0
 40
0.0
 40
0.0
 40
1.0
 40
1.0
 40
1.0
 40
1.0
 10
1050.4433661857
 20
1695.0241304334
 30
0.0
 10
1050.2232053628
 20
1694.9158869757
 30
0.0
 10
1050.0004207007
 20
1694.8129510912
 30
0.0
 10
1049.7764624796
 20
1694.7128004585
 30
0.0
  0
SPLINE
  5
486
100
AcDbEntity
  8
0
100
AcDbSpline
 62
7
  6
CONTINUOUS
 70
0
 71
3
 72
8
 73
4
 74
0
 42
0.0000001
 43
0.0000001
 44
0.0000000001
 40
0.0
 40
0.0
 40
0.0
 40
0.0
 40
1.0
 40
1.0
 40
1.0
 40
1.0
 10
1049.7764624796
 20
1694.7128004585
 30
0.0
 10
1049.3934722123
 20
1694.5415331684
 30
0.0
 10
1049.0070130875
 20
1694.3780996405
 30
0.0
 10
1048.6207325049
 20
1694.2143884892
 30
0.0
  0
ENDSEC
  0
SECTION
  2
OBJECTS
  0
DICTIONARY
  5
C
100
AcDbDictionary
280
0
281
1
  3
ACAD_GROUP
350
D
  3
ACAD_MLINESTYLE
350
17
  3
ACAD_LAYOUT
350
1A
  3
ACAD_PLOTSETTINGS
350
19
  3
ACAD_PLOTSTYLENAME
350
E
  0
DICTIONARY
  5
D
102
{ACAD_REACTORS
330
C
102
}
100
AcDbDictionary
280
0
281
1
  0
ACDBDICTIONARYWDFLT
  5
E
102
{ACAD_REACTORS
330
C
102
}
100
AcDbDictionary
281
1
  3
Normal
350
F
100
AcDbDictionaryWithDefault
340
F
  0
DICTIONARY
  5
17
102
{ACAD_REACTORS
330
C
102
}
100
AcDbDictionary
280
0
281
1
  3
Standard
350
18
  0
DICTIONARY
  5
19
102
{ACAD_REACTORS
330
C
102
}
100
AcDbDictionary
281
1
  0
DICTIONARY
  5
1A
102
{ACAD_REACTORS
330
C
102
}
100
AcDbDictionary
281
1
  3
Model
350
487
  3
Layout1
350
488
  0
ACDBPLACEHOLDER
  5
F
102
{ACAD_REACTORS
330
E
102
}
  0
MLINESTYLE
  5
18
102
{ACAD_REACTORS
330
17
102
}
100
AcDbMlineStyle
  2
STANDARD
 70
0
  3

 62
256
 51
90.0
 52
90.0
 71
2
 49
0.5
 62
256
  6
BYLAYER
 49
-0.5
 62
256
  6
BYLAYER
  0
LAYOUT
  5
487
102
{ACAD_REACTORS
330
1A
102
}
100
AcDbPlotSettings
  1

  2
none_device
  4

  6

 40
0.0
 41
0.0
 42
0.0
 43
0.0
 44
210.0
 45
297.0
 46
0.0
 47
0.0
 48
0.0
 49
0.0
140
0.0
141
0.0
142
1.0
143
1.0
 70
1024
 72
1
 73
0
 74
0
  7

 75
0
147
1.0
148
0.0
149
0.0
100
AcDbLayout
  1
Model
 70
0
 71
0
 10
0.0
 20
0.0
 11
210.0
 21
297.0
 12
0.0
 22
0.0
 32
0.0
 14
0.0
 24
0.0
 34
0.0
 15
0.0
 25
0.0
 35
0.0
146
0.0
 13
0.0
 23
0.0
 33
0.0
 16
1.0
 26
0.0
 36
0.0
 17
0.0
 27
1.0
 37
0.0
 76
0
330
212
345
0
346
0
  0
LAYOUT
  5
488
102
{ACAD_REACTORS
330
1A
102
}
100
AcDbPlotSettings
  1

  2
none_device
  4

  6

 40
0.0
 41
0.0
 42
0.0
 43
0.0
 44
210.0
 45
297.0
 46
0.0
 47
0.0
 48
0.0
 49
0.0
140
0.0
141
0.0
142
1.0
143
1.0
 70
0
 72
1
 73
0
 74
0
  7

 75
0
147
1.0
148
0.0
149
0.0
100
AcDbLayout
  1
Layout1
 70
0
 71
1
 10
0.0
 20
0.0
 11
210.0
 21
297.0
 12
0.0
 22
0.0
 32
0.0
 14
0.0
 24
0.0
 34
0.0
 15
0.0
 25
0.0
 35
0.0
146
0.0
 13
0.0
 23
0.0
 33
0.0
 16
1.0
 26
0.0
 36
0.0
 17
0.0
 27
1.0
 37
0.0
 76
0
330
213
345
0
346
0
  0
ENDSEC
  0
EOF
