999
DXF file: C:\Gen2D\CAD\NSYAMPM2419TB_3D-CAD\drw0001_1.dxf
999
Pro/ENGINEER 2019471 by Parametric Technology Corporation
  0
SECTION
  2
HEADER
  9
$ACADVER
  1
AC1024
  9
$DWGCODEPAGE
  3
ANSI_1252
  9
$EXTMAX
 10
195.3892367461
 20
276.3362062552
 30
0.0
  9
$EXTMIN
 10
0.0
 20
0.0
 30
0.0
  9
$LIMMIN
 10
0.0
 20
0.0
  9
$LIMMAX
 10
195.3892367461
 20
276.3362062552
  9
$VIEWCTR
 10
97.694618373
 20
138.1681031276
  9
$VIEWSIZE
 40
276.3362062552
  9
$CLAYER
  8
0
  9
$LTSCALE
 40
18.0130267781
  9
$CELTYPE
  6
BYLAYER
  9
$DIMSCALE
 40
1.0
  9
$DIMASZ
 40
2.3260623422
  9
$DIMEXO
 40
1.0
  9
$DIMDLI
 40
12.4453639558
  9
$DIMEXE
 40
1.0
  9
$DIMCEN
 40
2.9475862001
  9
$DIMLFAC
 40
1.0
  9
$DIMBLK
  1
_FILLED
  9
$DIMALT
 70
0
  9
$DIMALTF
 40
0.0393700787
  9
$DIMTXT
 40
3.2564872791
  9
$DIMTOL
 70
1
  9
$DIMLIM
 70
0
  9
$DIMTFAC
 40
1.0
  9
$DIMTP
 40
0.01
  9
$DIMTM
 40
0.01
  9
$DIMGAP
 40
0.625
  9
$DIMDSEP
 70
46
  9
$AUNITS
 70
0
  9
$PDMODE
 70
3
  9
$PDSIZE
 40
0.3125
  9
$HANDSEED
  5
29F
  9
$TILEMODE
 70
1
  9
$MEASUREMENT
 70
1
  9
$INSUNITS
 70
4
  0
ENDSEC
  0
SECTION
  2
CLASSES
  0
CLASS
  1
ACDBDICTIONARYWDFLT
  2
AcDbDictionaryWithDefault
  3
AutoCAD 2000
 90
0
 91
1
280
0
281
0
  0
CLASS
  1
ACDBPLACEHOLDER
  2
AcDbPlaceHolder
  3
AutoCAD 2000
 90
0
 91
1
280
0
281
0
  0
CLASS
  1
LAYOUT
  2
AcDbLayout
  3
AutoCAD 2000
 90
0
 91
0
280
0
281
0
  0
ENDSEC
  0
SECTION
  2
TABLES
  0
TABLE
  2
VPORT
  5
8
100
AcDbSymbolTable
 70
2
  0
VPORT
  5
1F4
100
AcDbSymbolTableRecord
100
AcDbViewportTableRecord
  2
*ACTIVE
 70
0
 10
0.0
 20
0.0
 11
1.0
 21
1.0
 12
97.694618373
 22
138.1681031276
 13
0.0
 23
0.0
 14
1.0
 24
1.0
 15
0.0
 25
0.0
 16
0.0
 26
0.0
 36
1.0
 17
0.0
 27
0.0
 37
0.0
 40
276.3362062552
 41
0.7070707071
 42
50.0
 43
0.0
 44
0.0
 50
0.0
 51
0.0
 71
0
 72
100
 73
1
 74
1
 75
0
 76
0
 77
0
 78
0
  0
ENDTAB
  0
TABLE
  2
LTYPE
  5
5
100
AcDbSymbolTable
 70
6
  0
LTYPE
  5
14
100
AcDbSymbolTableRecord
100
AcDbLinetypeTableRecord
  2
BYBLOCK
 70
0
  3

 72
65
 73
0
 40
0.0
  0
LTYPE
  5
15
100
AcDbSymbolTableRecord
100
AcDbLinetypeTableRecord
  2
BYLAYER
 70
0
  3

 72
65
 73
0
 40
0.0
  0
LTYPE
  5
16
100
AcDbSymbolTableRecord
100
AcDbLinetypeTableRecord
  2
CONTINUOUS
 70
64
  3
Solid line
 72
65
 73
0
 40
0.0
  0
LTYPE
  5
1F5
100
AcDbSymbolTableRecord
100
AcDbLinetypeTableRecord
  2
CENTER
 70
64
  3
____ _ ____ _ ____ _ ____ _ ____ _ ____ _ ____
 72
65
 73
4
 40
0.6
 49
0.375
 74
0
 49
-0.075
 74
0
 49
0.075
 74
0
 49
-0.075
 74
0
  0
LTYPE
  5
1F6
100
AcDbSymbolTableRecord
100
AcDbLinetypeTableRecord
  2
HIDDEN
 70
64
  3
- - - - - - - - - - - - - - - - - - - -
 72
65
 73
2
 40
0.2
 49
0.1
 74
0
 49
-0.1
 74
0
  0
LTYPE
  5
1F7
100
AcDbSymbolTableRecord
100
AcDbLinetypeTableRecord
  2
PHANTOM
 70
64
  3
_____ _ _ _____ _ _ _____ _ _ _____
 72
65
 73
6
 40
0.8
 49
0.45
 74
0
 49
-0.05
 74
0
 49
0.1
 74
0
 49
-0.05
 74
0
 49
0.1
 74
0
 49
-0.05
 74
0
  0
LTYPE
  5
1F8
100
AcDbSymbolTableRecord
100
AcDbLinetypeTableRecord
  2
DOT
 70
64
  3
. . . . . . . . . . . . . . . . . . . .
 72
65
 73
2
 40
0.2
 49
0.1
 74
0
 49
-0.1
 74
0
  0
LTYPE
  5
1F9
100
AcDbSymbolTableRecord
100
AcDbLinetypeTableRecord
  2
DASHED
 70
64
  3
- - - - - - - - - - - - - - - - - - - -
 72
65
 73
2
 40
0.2
 49
0.1
 74
0
 49
-0.1
 74
0
  0
ENDTAB
  0
TABLE
  2
LAYER
  5
2
100
AcDbSymbolTable
 70
36
  0
LAYER
  5
10
100
AcDbSymbolTableRecord
100
AcDbLayerTableRecord
  2
0
 70
0
 62
7
  6
CONTINUOUS
370
-3
390
F
  0
LAYER
  5
1FA
100
AcDbSymbolTableRecord
100
AcDbLayerTableRecord
  2
DEFAULT_1
 70
0
 62
7
  6
CENTER
370
-3
390
F
  0
LAYER
  5
1FB
100
AcDbSymbolTableRecord
100
AcDbLayerTableRecord
  2
DEFAULT_2
 70
0
 62
8
  6
HIDDEN
370
-3
390
F
  0
LAYER
  5
1FC
100
AcDbSymbolTableRecord
100
AcDbLayerTableRecord
  2
DEFAULT_3
 70
0
 62
7
  6
PHANTOM
370
-3
390
F
  0
LAYER
  5
1FD
100
AcDbSymbolTableRecord
100
AcDbLayerTableRecord
  2
00_COMPONENTS
 70
0
 62
7
  6
CONTINUOUS
370
-3
390
F
  0
LAYER
  5
1FE
100
AcDbSymbolTableRecord
100
AcDbLayerTableRecord
  2
01_1_DEFAULT_DATUMS
 70
0
 62
7
  6
CONTINUOUS
370
-3
390
F
  0
LAYER
  5
1FF
100
AcDbSymbolTableRecord
100
AcDbLayerTableRecord
  2
01_PLANES
 70
0
 62
7
  6
CONTINUOUS
370
-3
390
F
  0
LAYER
  5
200
100
AcDbSymbolTableRecord
100
AcDbLayerTableRecord
  2
02_COORD_SYS
 70
0
 62
7
  6
CONTINUOUS
370
-3
390
F
  0
LAYER
  5
201
100
AcDbSymbolTableRecord
100
AcDbLayerTableRecord
  2
03_AXES
 70
0
 62
7
  6
CONTINUOUS
370
-3
390
F
  0
LAYER
  5
202
100
AcDbSymbolTableRecord
100
AcDbLayerTableRecord
  2
04_POINTS
 70
0
 62
7
  6
CONTINUOUS
370
-3
390
F
  0
LAYER
  5
203
100
AcDbSymbolTableRecord
100
AcDbLayerTableRecord
  2
05_CURVES
 70
0
 62
7
  6
CONTINUOUS
370
-3
390
F
  0
LAYER
  5
204
100
AcDbSymbolTableRecord
100
AcDbLayerTableRecord
  2
06_SURFS
 70
0
 62
7
  6
CONTINUOUS
370
-3
390
F
  0
LAYER
  5
205
100
AcDbSymbolTableRecord
100
AcDbLayerTableRecord
  2
07_COSMETICS
 70
0
 62
7
  6
CONTINUOUS
370
-3
390
F
  0
LAYER
  5
206
100
AcDbSymbolTableRecord
100
AcDbLayerTableRecord
  2
10_NOTES
 70
0
 62
7
  6
CONTINUOUS
370
-3
390
F
  0
LAYER
  5
207
100
AcDbSymbolTableRecord
100
AcDbLayerTableRecord
  2
11_NOTES_PUB
 70
0
 62
7
  6
CONTINUOUS
370
-3
390
F
  0
LAYER
  5
208
100
AcDbSymbolTableRecord
100
AcDbLayerTableRecord
  2
13_REF_GTOL
 70
0
 62
7
  6
CONTINUOUS
370
-3
390
F
  0
LAYER
  5
209
100
AcDbSymbolTableRecord
100
AcDbLayerTableRecord
  2
16_MISC
 70
0
 62
7
  6
CONTINUOUS
370
-3
390
F
  0
LAYER
  5
20A
100
AcDbSymbolTableRecord
100
AcDbLayerTableRecord
  2
17_NO_PRINT
 70
0
 62
7
  6
CONTINUOUS
370
-3
390
F
  0
LAYER
  5
20B
100
AcDbSymbolTableRecord
100
AcDbLayerTableRecord
  2
18_DATUM_CAMS_JOINTS
 70
0
 62
7
  6
CONTINUOUS
370
-3
390
F
  0
LAYER
  5
20C
100
AcDbSymbolTableRecord
100
AcDbLayerTableRecord
  2
19_DATUM_FUNCTIONAL
 70
0
 62
7
  6
CONTINUOUS
370
-3
390
F
  0
LAYER
  5
20D
100
AcDbSymbolTableRecord
100
AcDbLayerTableRecord
  2
20_DATUM_KINEMATIC_SCHEME
 70
0
 62
7
  6
CONTINUOUS
370
-3
390
F
  0
LAYER
  5
20E
100
AcDbSymbolTableRecord
100
AcDbLayerTableRecord
  2
AXIS
 70
0
 62
7
  6
CONTINUOUS
370
-3
390
F
  0
LAYER
  5
20F
100
AcDbSymbolTableRecord
100
AcDbLayerTableRecord
  2
INTFCLR_35
 70
0
 62
7
  6
CONTINUOUS
370
-3
390
F
  0
ENDTAB
  0
TABLE
  2
STYLE
  5
3
100
AcDbSymbolTable
 70
1
  0
STYLE
  5
11
100
AcDbSymbolTableRecord
100
AcDbTextStyleTableRecord
  2
STANDARD
 70
0
 40
0.0
 41
0.8
 50
0.0
 71
0
 42
0.2
  3
txt
  4

  0
STYLE
  5
210
100
AcDbSymbolTableRecord
100
AcDbTextStyleTableRecord
  2
TEXTSTYLE_1
 70
0
 40
0.0
 41
0.8
 50
0.0
 71
0
 42
0.2
  3
gdt
  4

  0
ENDTAB
  0
TABLE
  2
VIEW
  5
6
100
AcDbSymbolTable
 70
0
  0
ENDTAB
  0
TABLE
  2
UCS
  5
7
100
AcDbSymbolTable
 70
0
  0
ENDTAB
  0
TABLE
  2
APPID
  5
9
100
AcDbSymbolTable
 70
1
  0
APPID
  5
211
100
AcDbSymbolTableRecord
100
AcDbRegAppTableRecord
  2
ACAD
 70
0
  0
ENDTAB
  0
TABLE
  2
BLOCK_RECORD
  5
1
100
AcDbSymbolTable
 70
0
  0
BLOCK_RECORD
  5
212
100
AcDbSymbolTableRecord
100
AcDbBlockTableRecord
  2
*Model_Space
  0
BLOCK_RECORD
  5
213
100
AcDbSymbolTableRecord
100
AcDbBlockTableRecord
  2
*Paper_Space
  0
BLOCK_RECORD
  5
214
100
AcDbSymbolTableRecord
100
AcDbBlockTableRecord
  2
_FILLED
  0
ENDTAB
  0
TABLE
  2
DIMSTYLE
  5
A
100
AcDbSymbolTable
 70
1
100
AcDbDimStyleTable
 71
0
  0
DIMSTYLE
105
215
100
AcDbSymbolTableRecord
100
AcDbDimStyleTableRecord
  2
STANDARD
 70
0
  3

  4

 40
1.0
 41
2.3260623422
 42
1.0
 43
0.38
 44
1.0
 45
0.0
 46
0.0
 47
0.01
 48
0.01
140
3.2564872791
141
0.09
142
0.0
143
25.4
144
1.0
145
0.0
146
1.0
147
0.625
 71
1
 72
0
 73
0
 74
0
 75
0
 76
0
 77
1
 78
8
 79
2
170
0
171
1
172
0
173
0
174
0
175
0
176
0
177
0
178
0
270
2
179
2
271
2
272
2
273
2
274
2
275
0
280
0
281
0
282
0
283
1
284
8
285
0
286
0
287
3
288
0
340
11
278
46
341
214
342
214
343
214
344
214
  0
ENDTAB
  0
ENDSEC
  0
SECTION
  2
BLOCKS
  0
BLOCK
  5
20
100
AcDbEntity
  8
0
100
AcDbBlockBegin
  2
*Model_Space
 70
0
 10
0.0
 20
0.0
 30
0.0
  3
*Model_Space
  1

  0
ENDBLK
  5
21
100
AcDbEntity
  8
0
100
AcDbBlockEnd
  0
BLOCK
  5
1C
100
AcDbEntity
  8
0
100
AcDbBlockBegin
  2
*Paper_Space
 70
0
 10
0.0
 20
0.0
 30
0.0
  3
*Paper_Space
  1

  0
ENDBLK
  5
1D
100
AcDbEntity
  8
0
100
AcDbBlockEnd
  0
BLOCK
  5
216
100
AcDbEntity
  8
0
100
AcDbBlockBegin
  2
_FILLED
 70
64
 10
0.0
 20
0.0
  3
_FILLED
  1

  0
SOLID
  5
217
100
AcDbEntity
  8
0
  6
BYBLOCK
 62
0
100
AcDbTrace
 10
0.0
 20
0.0
 11
-1.0
 21
0.25
 12
-1.0
 22
-0.25
 13
-1.0
 23
-0.25
  0
ENDBLK
  5
218
100
AcDbEntity
  8
0
  6
BYBLOCK
 62
0
100
AcDbBlockEnd
  0
ENDSEC
  0
SECTION
  2
ENTITIES
  0
LINE
  5
219
100
AcDbEntity
  8
0
100
AcDbLine
 62
7
  6
CONTINUOUS
 10
33.3332708845
 20
237.8864688657
 11
40.3097782796
 21
241.9144512874
  0
LINE
  5
21A
100
AcDbEntity
  8
0
100
AcDbLine
 62
7
  6
CONTINUOUS
 10
22.6673994691
 20
231.7283490684
 11
29.6439068642
 21
235.7563314902
  0
LINE
  5
21B
100
AcDbEntity
  8
0
100
AcDbLine
 62
7
  6
CONTINUOUS
 10
30.5832594352
 20
233.9892860359
 11
31.643915191
 21
234.6016522667
  0
LINE
  5
21C
100
AcDbEntity
  8
AXIS
100
AcDbLine
 62
7
420
9867660
  6
CONTINUOUS
 10
33.4508227776
 20
232.1979973825
 11
34.5114785334
 21
232.8103636133
  0
LINE
  5
21D
100
AcDbEntity
  8
AXIS
100
AcDbLine
 62
7
420
9867660
  6
CONTINUOUS
 10
35.3864821764
 20
231.29482126
 11
34.3258264206
 21
230.6824550292
  0
LINE
  5
21E
100
AcDbEntity
  8
0
100
AcDbLine
 62
7
  6
CONTINUOUS
 10
32.9508206959
 20
229.8885724063
 11
34.0114764517
 21
230.5009386371
  0
LINE
  5
21F
100
AcDbEntity
  8
0
100
AcDbLine
 62
7
  6
CONTINUOUS
 10
22.6673994691
 20
132.4416551455
 11
22.6673994691
 21
178.2066156256
  0
LINE
  5
220
100
AcDbEntity
  8
0
100
AcDbLine
 62
7
  6
CONTINUOUS
 10
22.6673994691
 20
185.9633885883
 11
22.6673994691
 21
231.7283490684
  0
LINE
  5
221
100
AcDbEntity
  8
0
100
AcDbLine
 62
7
  6
CONTINUOUS
 10
22.6673994691
 20
178.2066156256
 11
25.1422746752
 21
179.6355051816
  0
LINE
  5
222
100
AcDbEntity
  8
AXIS
100
AcDbLine
 62
7
420
9867660
  6
CONTINUOUS
 10
27.2636038507
 20
180.6561645652
 11
26.2029480948
 21
180.0437983344
  0
LINE
  5
223
100
AcDbEntity
  8
0
100
AcDbLine
 62
7
  6
CONTINUOUS
 10
27.4403901138
 20
177.0839953668
 11
28.5010458697
 21
177.6963615977
  0
LINE
  5
224
100
AcDbEntity
  8
0
100
AcDbLine
 62
7
  6
CONTINUOUS
 10
39.2491225238
 20
103.7214277703
 11
33.3332708845
 21
113.9679264989
  0
LINE
  5
225
100
AcDbEntity
  8
0
100
AcDbLine
 62
7
  6
CONTINUOUS
 10
28.5832511084
 20
122.1951564168
 11
22.6673994691
 21
132.4416551455
  0
LINE
  5
226
100
AcDbEntity
  8
0
100
AcDbLine
 62
7
  6
CONTINUOUS
 10
33.3332708845
 20
116.277344083
 11
33.3332708845
 21
113.9679264989
  0
LINE
  5
227
100
AcDbEntity
  8
0
100
AcDbLine
 62
7
  6
CONTINUOUS
 10
33.3332708845
 20
235.5770512816
 11
33.3332708845
 21
237.8864688657
  0
LINE
  5
228
100
AcDbEntity
  8
0
100
AcDbLine
 62
7
  6
CONTINUOUS
 10
95.322923728
 20
208.9285932232
 11
96.3835794838
 21
209.540959454
  0
LINE
  5
229
100
AcDbEntity
  8
0
100
AcDbLine
 62
7
  6
CONTINUOUS
 10
96.7371431783
 20
206.4791068799
 11
97.7977989341
 21
207.0914731107
  0
LINE
  5
22A
100
AcDbEntity
  8
0
100
AcDbLine
 62
7
  6
CONTINUOUS
 10
158.114267321
 20
35.0961569354
 11
102.0404661169
 21
67.4696487689
  0
LINE
  5
22B
100
AcDbEntity
  8
0
100
AcDbLine
 62
7
  6
CONTINUOUS
 10
95.322923728
 20
71.3479359368
 11
39.2491225238
 21
103.7214277703
  0
LINE
  5
22C
100
AcDbEntity
  8
0
100
AcDbLine
 62
7
  6
CONTINUOUS
 10
96.7371431783
 20
202.6007203985
 11
97.7977989341
 21
203.2130866293
  0
LINE
  5
22D
100
AcDbEntity
  8
0
100
AcDbLine
 62
7
  6
CONTINUOUS
 10
100.6262466666
 20
204.23378273
 11
103.1011218727
 21
205.662672286
  0
LINE
  5
22E
100
AcDbEntity
  8
AXIS
100
AcDbLine
 62
7
420
9867660
  6
CONTINUOUS
 10
98.6816949224
 20
202.9069375535
 11
99.7423506782
 21
203.5193037844
  0
LINE
  5
22F
100
AcDbEntity
  8
0
100
AcDbLine
 62
7
  6
CONTINUOUS
 10
30.5832594352
 20
121.0404771933
 11
28.5832511084
 21
122.1951564168
  0
LINE
  5
230
100
AcDbEntity
  8
0
100
AcDbLine
 62
7
  6
CONTINUOUS
 10
166.7801304096
 20
42.4089559562
 11
168.7801387364
 21
41.2542767326
  0
LINE
  5
231
100
AcDbEntity
  8
0
100
AcDbLine
 62
7
  6
CONTINUOUS
 10
24.0816189194
 20
183.513902245
 11
22.6673994691
 21
185.9633885883
  0
LINE
  5
232
100
AcDbEntity
  8
0
100
AcDbLine
 62
7
  6
CONTINUOUS
 10
102.0404661169
 20
67.4696487689
 11
100.6262466666
 21
69.9191351122
  0
LINE
  5
233
100
AcDbEntity
  8
0
100
AcDbLine
 62
7
  6
CONTINUOUS
 10
32.9508206959
 20
122.4074284065
 11
30.5832594352
 21
121.0404771933
  0
LINE
  5
234
100
AcDbEntity
  8
AXIS
100
AcDbLine
 62
7
420
9867660
  6
CONTINUOUS
 10
35.3864821764
 20
120.6382280821
 11
33.4508227776
 21
119.5206638186
  0
LINE
  5
235
100
AcDbEntity
  8
0
100
AcDbLine
 62
7
  6
CONTINUOUS
 10
33.3332708845
 20
116.277344083
 11
35.7008321452
 21
117.6442952961
  0
LINE
  5
236
100
AcDbEntity
  8
0
100
AcDbLine
 62
7
  6
CONTINUOUS
 10
30.5832594352
 20
233.9892860359
 11
32.9508206959
 21
229.8885724063
  0
LINE
  5
237
100
AcDbEntity
  8
0
100
AcDbLine
 62
7
  6
CONTINUOUS
 10
34.0114764517
 20
230.5009386371
 11
31.643915191
 21
234.6016522667
  0
LINE
  5
238
100
AcDbEntity
  8
0
100
AcDbLine
 62
7
  6
CONTINUOUS
 10
35.7008321452
 20
231.476337652
 11
33.3332708845
 21
235.5770512816
  0
LINE
  5
239
100
AcDbEntity
  8
0
100
AcDbLine
 62
7
  6
CONTINUOUS
 10
96.7371431783
 20
72.1644592621
 11
96.7371431783
 21
76.0428457434
  0
LINE
  5
23A
100
AcDbEntity
  8
0
100
AcDbLine
 62
7
  6
CONTINUOUS
 10
96.7371431783
 20
202.6007203985
 11
96.7371431783
 21
206.4791068799
  0
LINE
  5
23B
100
AcDbEntity
  8
0
100
AcDbLine
 62
7
  6
CONTINUOUS
 10
97.7977989341
 20
72.7768254929
 11
97.7977989341
 21
76.6552119742
  0
LINE
  5
23C
100
AcDbEntity
  8
0
100
AcDbLine
 62
7
  6
CONTINUOUS
 10
97.7977989341
 20
203.2130866293
 11
97.7977989341
 21
207.0914731107
  0
LINE
  5
23D
100
AcDbEntity
  8
AXIS
100
AcDbLine
 62
7
420
9867660
  6
CONTINUOUS
 10
99.7423506782
 20
70.0211585837
 11
99.7423506782
 21
76.0604136295
  0
LINE
  5
23E
100
AcDbEntity
  8
AXIS
100
AcDbLine
 62
7
420
9867660
  6
CONTINUOUS
 10
99.7423506782
 20
199.9523090614
 11
99.7423506782
 21
207.60181587
  0
LINE
  5
23F
100
AcDbEntity
  8
0
100
AcDbLine
 62
7
  6
CONTINUOUS
 10
158.114267321
 20
172.6768142218
 11
159.1749230768
 21
173.2891804526
  0
LINE
  5
240
100
AcDbEntity
  8
0
100
AcDbLine
 62
7
  6
CONTINUOUS
 10
173.2817709254
 20
92.884339747
 11
169.922999731
 21
94.823483331
  0
LINE
  5
241
100
AcDbEntity
  8
0
100
AcDbLine
 62
7
  6
CONTINUOUS
 10
27.4403901138
 20
177.0839953668
 11
24.0816189194
 21
179.0231389508
  0
LINE
  5
242
100
AcDbEntity
  8
0
100
AcDbLine
 62
7
  6
CONTINUOUS
 10
174.3424266812
 20
93.4967059778
 11
170.9836554868
 21
95.4358495618
  0
LINE
  5
243
100
AcDbEntity
  8
0
100
AcDbLine
 62
7
  6
CONTINUOUS
 10
28.5010458697
 20
177.6963615977
 11
25.1422746752
 21
179.6355051816
  0
LINE
  5
244
100
AcDbEntity
  8
AXIS
100
AcDbLine
 62
7
420
9867660
  6
CONTINUOUS
 10
23.7280552249
 20
182.6973683378
 11
29.0399937979
 21
179.6305885526
  0
LINE
  5
245
100
AcDbEntity
  8
AXIS
100
AcDbLine
 62
7
420
9867660
  6
CONTINUOUS
 10
169.0391037426
 20
98.8038932838
 11
175.7566461315
 21
94.9256061159
  0
LINE
  5
246
100
AcDbEntity
  8
0
100
AcDbLine
 62
7
  6
CONTINUOUS
 10
100.6262466666
 20
73.7975215936
 11
100.6262466666
 21
69.9191351122
  0
LINE
  5
247
100
AcDbEntity
  8
0
100
AcDbLine
 62
7
  6
CONTINUOUS
 10
100.6262466666
 20
200.3553962486
 11
100.6262466666
 21
204.23378273
  0
LINE
  5
248
100
AcDbEntity
  8
0
100
AcDbLine
 62
7
  6
CONTINUOUS
 10
24.0816189194
 20
183.513902245
 11
27.4403901138
 21
181.5747586611
  0
LINE
  5
249
100
AcDbEntity
  8
0
100
AcDbLine
 62
7
  6
CONTINUOUS
 10
169.922999731
 20
99.3142466252
 11
173.2817709254
 21
97.3751030412
  0
LINE
  5
24A
100
AcDbEntity
  8
0
100
AcDbLine
 62
7
  6
CONTINUOUS
 10
161.6625576996
 20
44.92190434
 11
164.0301189603
 21
40.8211907104
  0
LINE
  5
24B
100
AcDbEntity
  8
0
100
AcDbLine
 62
7
  6
CONTINUOUS
 10
165.0907747161
 20
41.4335569412
 11
162.7232134554
 21
45.5342705708
  0
LINE
  5
24C
100
AcDbEntity
  8
0
100
AcDbLine
 62
7
  6
CONTINUOUS
 10
164.0301189603
 20
162.4303154931
 11
165.0907747161
 21
163.0426817239
  0
LINE
  5
24D
100
AcDbEntity
  8
0
100
AcDbLine
 62
7
  6
CONTINUOUS
 10
165.0907747161
 20
160.7332641399
 11
161.6625576996
 21
158.7539466959
  0
LINE
  5
24E
100
AcDbEntity
  8
AXIS
100
AcDbLine
 62
7
420
9867660
  6
CONTINUOUS
 10
164.973222823
 20
157.4899444043
 11
163.0375634242
 21
156.3723801407
  0
LINE
  5
24F
100
AcDbEntity
  8
0
100
AcDbLine
 62
7
  6
CONTINUOUS
 10
166.7801304096
 20
42.4089559562
 11
164.4125691489
 21
46.5096695857
  0
LINE
  5
250
100
AcDbEntity
  8
0
100
AcDbLine
 62
7
  6
CONTINUOUS
 10
164.4125691489
 20
153.9908135856
 11
167.8407861655
 21
155.9701310295
  0
LINE
  5
251
100
AcDbEntity
  8
0
100
AcDbLine
 62
7
  6
CONTINUOUS
 10
168.7801387364
 20
154.2030855752
 11
169.8407944922
 21
154.815451806
  0
LINE
  5
252
100
AcDbEntity
  8
0
100
AcDbLine
 62
7
  6
CONTINUOUS
 10
174.6959903757
 20
143.9565868466
 11
175.7566461315
 21
144.5689530774
  0
LINE
  5
253
100
AcDbEntity
  8
0
100
AcDbLine
 62
7
  6
CONTINUOUS
 10
95.322923728
 20
208.9285932232
 11
96.7371431783
 21
206.4791068799
  0
LINE
  5
254
100
AcDbEntity
  8
0
100
AcDbLine
 62
7
  6
CONTINUOUS
 10
97.7977989341
 20
207.0914731107
 11
96.3835794838
 21
209.540959454
  0
LINE
  5
255
100
AcDbEntity
  8
0
100
AcDbLine
 62
7
  6
CONTINUOUS
 10
173.2817709254
 20
92.884339747
 11
174.6959903757
 21
90.4348534037
  0
LINE
  5
256
100
AcDbEntity
  8
0
100
AcDbLine
 62
7
  6
CONTINUOUS
 10
175.7566461315
 20
91.0472196345
 11
174.3424266812
 21
93.4967059778
  0
LINE
  5
257
100
AcDbEntity
  8
0
100
AcDbLine
 62
7
  6
CONTINUOUS
 10
30.5832594352
 20
233.9892860359
 11
28.5832511084
 21
235.1439652594
  0
LINE
  5
258
100
AcDbEntity
  8
0
100
AcDbLine
 62
7
  6
CONTINUOUS
 10
166.7801304096
 20
155.3577647987
 11
168.7801387364
 21
154.2030855752
  0
LINE
  5
259
100
AcDbEntity
  8
0
100
AcDbLine
 62
7
  6
CONTINUOUS
 10
31.643915191
 20
234.6016522667
 11
29.6439068642
 21
235.7563314902
  0
LINE
  5
25A
100
AcDbEntity
  8
0
100
AcDbLine
 62
7
  6
CONTINUOUS
 10
167.8407861655
 20
155.9701310295
 11
169.8407944922
 21
154.815451806
  0
LINE
  5
25B
100
AcDbEntity
  8
0
100
AcDbLine
 62
7
  6
CONTINUOUS
 10
97.7977989341
 20
76.6552119742
 11
96.7371431783
 21
76.0428457434
  0
LINE
  5
25C
100
AcDbEntity
  8
AXIS
100
AcDbLine
 62
7
420
9867660
  6
CONTINUOUS
 10
99.7423506782
 20
74.1036706693
 11
98.6816949224
 21
73.4913044385
  0
LINE
  5
25D
100
AcDbEntity
  8
0
100
AcDbLine
 62
7
  6
CONTINUOUS
 10
95.322923728
 20
71.3479359368
 11
97.7977989341
 21
72.7768254929
  0
LINE
  5
25E
100
AcDbEntity
  8
0
100
AcDbLine
 62
7
  6
CONTINUOUS
 10
39.2491225238
 20
241.3020850566
 11
95.322923728
 21
208.9285932232
  0
LINE
  5
25F
100
AcDbEntity
  8
0
100
AcDbLine
 62
7
  6
CONTINUOUS
 10
102.0404661169
 20
205.0503060552
 11
158.114267321
 21
172.6768142218
  0
LINE
  5
260
100
AcDbEntity
  8
0
100
AcDbLine
 62
7
  6
CONTINUOUS
 10
40.3097782796
 20
241.9144512874
 11
96.3835794838
 21
209.540959454
  0
LINE
  5
261
100
AcDbEntity
  8
0
100
AcDbLine
 62
7
  6
CONTINUOUS
 10
103.1011218727
 20
205.662672286
 11
159.1749230768
 21
173.2891804526
  0
LINE
  5
262
100
AcDbEntity
  8
0
100
AcDbLine
 62
7
  6
CONTINUOUS
 10
164.0301189603
 20
40.8211907104
 11
164.0301189603
 21
38.5117731264
  0
LINE
  5
263
100
AcDbEntity
  8
0
100
AcDbLine
 62
7
  6
CONTINUOUS
 10
164.0301189603
 20
160.1208979091
 11
164.0301189603
 21
162.4303154931
  0
LINE
  5
264
100
AcDbEntity
  8
0
100
AcDbLine
 62
7
  6
CONTINUOUS
 10
165.0907747161
 20
41.4335569412
 11
165.0907747161
 21
39.1241393572
  0
LINE
  5
265
100
AcDbEntity
  8
0
100
AcDbLine
 62
7
  6
CONTINUOUS
 10
165.0907747161
 20
160.7332641399
 11
165.0907747161
 21
163.0426817239
  0
LINE
  5
266
100
AcDbEntity
  8
0
100
AcDbLine
 62
7
  6
CONTINUOUS
 10
158.114267321
 20
172.6768142218
 11
164.0301189603
 21
162.4303154931
  0
LINE
  5
267
100
AcDbEntity
  8
0
100
AcDbLine
 62
7
  6
CONTINUOUS
 10
168.7801387364
 20
154.2030855752
 11
174.6959903757
 21
143.9565868466
  0
LINE
  5
268
100
AcDbEntity
  8
0
100
AcDbLine
 62
7
  6
CONTINUOUS
 10
175.7566461315
 20
144.5689530774
 11
169.8407944922
 21
154.815451806
  0
LINE
  5
269
100
AcDbEntity
  8
0
100
AcDbLine
 62
7
  6
CONTINUOUS
 10
165.0907747161
 20
163.0426817239
 11
159.1749230768
 21
173.2891804526
  0
LINE
  5
26A
100
AcDbEntity
  8
0
100
AcDbLine
 62
7
  6
CONTINUOUS
 10
174.6959903757
 20
143.9565868466
 11
174.6959903757
 21
98.1916263665
  0
LINE
  5
26B
100
AcDbEntity
  8
0
100
AcDbLine
 62
7
  6
CONTINUOUS
 10
174.6959903757
 20
90.4348534037
 11
174.6959903757
 21
44.6698929236
  0
LINE
  5
26C
100
AcDbEntity
  8
0
100
AcDbLine
 62
7
  6
CONTINUOUS
 10
175.7566461315
 20
144.5689530774
 11
175.7566461315
 21
98.8039925973
  0
LINE
  5
26D
100
AcDbEntity
  8
0
100
AcDbLine
 62
7
  6
CONTINUOUS
 10
175.7566461315
 20
91.0472196345
 11
175.7566461315
 21
45.2822591544
  0
LINE
  5
26E
100
AcDbEntity
  8
AXIS
100
AcDbLine
 62
7
420
9867660
  6
CONTINUOUS
 10
171.16044175
 20
96.3544436577
 11
172.2210975058
 21
96.9668098885
  0
LINE
  5
26F
100
AcDbEntity
  8
0
100
AcDbLine
 62
7
  6
CONTINUOUS
 10
175.7566461315
 20
98.8039925973
 11
173.2817709254
 21
97.3751030412
  0
LINE
  5
270
100
AcDbEntity
  8
0
100
AcDbLine
 62
7
  6
CONTINUOUS
 10
170.9836554868
 20
95.4358495618
 11
169.922999731
 21
94.823483331
  0
LINE
  5
271
100
AcDbEntity
  8
0
100
AcDbLine
 62
7
  6
CONTINUOUS
 10
173.2817709254
 20
92.884339747
 11
174.3424266812
 21
93.4967059778
  0
LINE
  5
272
100
AcDbEntity
  8
0
100
AcDbLine
 62
7
  6
CONTINUOUS
 10
174.6959903757
 20
90.4348534037
 11
175.7566461315
 21
91.0472196345
  0
LINE
  5
273
100
AcDbEntity
  8
AXIS
100
AcDbLine
 62
7
420
9867660
  6
CONTINUOUS
 10
164.0982191801
 20
46.3281531937
 11
163.0375634242
 21
45.7157869629
  0
LINE
  5
274
100
AcDbEntity
  8
0
100
AcDbLine
 62
7
  6
CONTINUOUS
 10
162.7232134554
 20
45.5342705708
 11
161.6625576996
 21
44.92190434
  0
LINE
  5
275
100
AcDbEntity
  8
AXIS
100
AcDbLine
 62
7
420
9867660
  6
CONTINUOUS
 10
163.9125670672
 20
44.2002446096
 11
164.973222823
 21
44.8126108404
  0
LINE
  5
276
100
AcDbEntity
  8
0
100
AcDbLine
 62
7
  6
CONTINUOUS
 10
164.0301189603
 20
40.8211907104
 11
165.0907747161
 21
41.4335569412
  0
LINE
  5
277
100
AcDbEntity
  8
0
100
AcDbLine
 62
7
  6
CONTINUOUS
 10
175.7566461315
 20
45.2822591544
 11
168.7801387364
 21
41.2542767326
  0
LINE
  5
278
100
AcDbEntity
  8
0
100
AcDbLine
 62
7
  6
CONTINUOUS
 10
165.0907747161
 20
39.1241393572
 11
158.114267321
 21
35.0961569354
  0
ARC
  5
279
100
AcDbEntity
  8
0
100
AcDbCircle
 62
7
  6
CONTINUOUS
 10
38.064712622
 20
232.8411015545
 40
4.6802869498
100
AcDbArc
 50
210.0002748349
 51
210.4345077805
  0
ARC
  5
27A
100
AcDbEntity
  8
0
100
AcDbCircle
 62
7
  6
CONTINUOUS
 10
160.3593456961
 20
44.1695140076
 40
4.6802722665
100
AcDbArc
 50
30.00027487
 51
30.434543544
  0
ARC
  5
27B
100
AcDbEntity
  8
0
100
AcDbCircle
 62
7
  6
CONTINUOUS
 10
100.6565615276
 20
201.1581152146
 40
1.581407129
100
AcDbArc
 50
254.8472226678
 51
259.7201551725
  0
SPLINE
  5
27C
100
AcDbEntity
  8
0
100
AcDbSpline
 62
7
  6
CONTINUOUS
 70
0
 71
3
 72
13
 73
9
 74
0
 42
0.0000001
 43
0.0000001
 44
0.0000000001
 40
0.0
 40
0.0
 40
0.0
 40
0.0
 40
0.0906758907
 40
0.1880224583
 40
0.2962033617
 40
0.4171618805
 40
0.6938094998
 40
1.0
 40
1.0
 40
1.0
 40
1.0
 10
165.4732249047
 20
154.6031798164
 30
0.0
 10
165.3822017712
 20
154.5506260832
 30
0.0
 10
165.1725606123
 20
154.4750593324
 30
0.0
 10
164.8246568542
 20
154.4665368393
 30
0.0
 10
164.4535889574
 20
154.5572162004
 30
0.0
 10
163.922296487
 20
154.8125536728
 30
0.0
 10
163.2906055678
 20
155.3480358735
 30
0.0
 10
162.890001418
 20
155.8994652759
 30
0.0
 10
162.7137226927
 20
156.2075080357
 30
0.0
  0
SPLINE
  5
27D
100
AcDbEntity
  8
0
100
AcDbSpline
 62
7
  6
CONTINUOUS
 70
0
 71
3
 72
9
 73
5
 74
0
 42
0.0000001
 43
0.0000001
 44
0.0000000001
 40
0.0
 40
0.0
 40
0.0
 40
0.0
 40
0.5254805761
 40
1.0
 40
1.0
 40
1.0
 40
1.0
 10
162.7137226927
 20
156.2075080357
 30
0.0
 10
162.5400283976
 20
156.5110345667
 30
0.0
 10
162.2709391629
 20
157.1258625983
 30
0.0
 10
162.1536674359
 20
157.7916120889
 30
0.0
 10
162.1536674359
 20
158.1074084465
 30
0.0
  0
SPLINE
  5
27E
100
AcDbEntity
  8
0
100
AcDbSpline
 62
7
  6
CONTINUOUS
 70
0
 71
3
 72
11
 73
7
 74
0
 42
0.0000001
 43
0.0000001
 44
0.0000000001
 40
0.0
 40
0.0
 40
0.0
 40
0.0
 40
0.2897041239
 40
0.5490570377
 40
0.7822824085
 40
1.0
 40
1.0
 40
1.0
 40
1.0
 10
162.1536674359
 20
158.1074084465
 30
0.0
 10
162.1536674359
 20
158.2467448079
 30
0.0
 10
162.1748290168
 20
158.5117052094
 30
0.0
 10
162.2820500272
 20
158.8758566389
 30
0.0
 10
162.462853028
 20
159.1712136587
 30
0.0
 10
162.6325294203
 20
159.3139549777
 30
0.0
 10
162.7232134554
 20
159.3663129267
 30
0.0
  0
SPLINE
  5
27F
100
AcDbEntity
  8
0
100
AcDbSpline
 62
7
  6
CONTINUOUS
 70
0
 71
3
 72
11
 73
7
 74
0
 42
0.0000001
 43
0.0000001
 44
0.0000000001
 40
0.0
 40
0.0
 40
0.0
 40
0.0
 40
0.2177239861
 40
0.4508730345
 40
0.7104683317
 40
1.0
 40
1.0
 40
1.0
 40
1.0
 10
100.0566288604
 20
199.0965890682
 30
0.0
 10
100.147317833
 20
199.1489434032
 30
0.0
 10
100.3171434205
 20
199.2914571539
 30
0.0
 10
100.4978638578
 20
199.587011142
 30
0.0
 10
100.6049809269
 20
199.9511595228
 30
0.0
 10
100.6262466666
 20
200.2161436383
 30
0.0
 10
100.6262466666
 20
200.3553962486
 30
0.0
  0
SPLINE
  5
280
100
AcDbEntity
  8
0
100
AcDbSpline
 62
7
  6
CONTINUOUS
 70
0
 71
3
 72
11
 73
7
 74
0
 42
0.0000001
 43
0.0000001
 44
0.0000000001
 40
0.0
 40
0.0
 40
0.0
 40
0.0
 40
0.219486708
 40
0.4811603
 40
0.7534524742
 40
1.0
 40
1.0
 40
1.0
 40
1.0
 10
100.2431916168
 20
199.6316900365
 30
0.0
 10
99.9205047102
 20
199.7187664034
 30
0.0
 10
99.2705319614
 20
200.1082474423
 30
0.0
 10
98.5064639213
 20
200.9785145363
 30
0.0
 10
97.961410181
 20
202.0476240046
 30
0.0
 10
97.7977989341
 20
202.8376498936
 30
0.0
 10
97.7977989341
 20
203.2130866293
 30
0.0
  0
SPLINE
  5
281
100
AcDbEntity
  8
0
100
AcDbSpline
 62
7
  6
CONTINUOUS
 70
0
 71
3
 72
11
 73
7
 74
0
 42
0.0000001
 43
0.0000001
 44
0.0000000001
 40
0.0
 40
0.0
 40
0.0
 40
0.0
 40
0.2177080968
 40
0.4508790244
 40
0.7105539482
 40
1.0
 40
1.0
 40
1.0
 40
1.0
 10
35.7007619902
 20
228.3009837492
 30
0.0
 10
35.7914688059
 20
228.3532904612
 30
0.0
 10
35.961258282
 20
228.4958651551
 30
0.0
 10
36.1420319841
 20
228.7914249337
 30
0.0
 10
36.2490299242
 20
229.1556182427
 30
0.0
 10
36.2703781647
 20
229.4205824561
 30
0.0
 10
36.2703781647
 20
229.5597929542
 30
0.0
  0
SPLINE
  5
282
100
AcDbEntity
  8
0
100
AcDbSpline
 62
7
  6
CONTINUOUS
 70
0
 71
3
 72
9
 73
5
 74
0
 42
0.0000001
 43
0.0000001
 44
0.0000000001
 40
0.0
 40
0.0
 40
0.0
 40
0.0
 40
0.2405307496
 40
1.0
 40
1.0
 40
1.0
 40
1.0
 10
36.1287761782
 20
228.7909980069
 30
0.0
 10
36.1011400289
 20
228.7937730749
 30
0.0
 10
35.9866062484
 20
228.8088386112
 30
0.0
 10
35.8740142663
 20
228.8374635723
 30
0.0
 10
35.7907860385
 20
228.8651079738
 30
0.0
  0
SPLINE
  5
283
100
AcDbEntity
  8
0
100
AcDbSpline
 62
7
  6
CONTINUOUS
 70
0
 71
3
 72
10
 73
6
 74
0
 42
0.0000001
 43
0.0000001
 44
0.0000000001
 40
0.0
 40
0.0
 40
0.0
 40
0.0
 40
0.2168229583
 40
0.4606033675
 40
1.0
 40
1.0
 40
1.0
 40
1.0
 10
35.7907860385
 20
228.8651079738
 30
0.0
 10
35.6245266267
 20
228.9203313285
 30
0.0
 10
35.2873271596
 20
229.0874101829
 30
0.0
 10
34.6470162713
 20
229.5851231699
 30
0.0
 10
34.2500969939
 20
230.0945130439
 30
0.0
 10
34.0293283007
 20
230.4702874937
 30
0.0
  0
SPLINE
  5
284
100
AcDbEntity
  8
0
100
AcDbSpline
 62
7
  6
CONTINUOUS
 70
0
 71
3
 72
11
 73
7
 74
0
 42
0.0000001
 43
0.0000001
 44
0.0000000001
 40
0.0
 40
0.0
 40
0.0
 40
0.0
 40
0.217745073
 40
0.4508830113
 40
0.7104597664
 40
1.0
 40
1.0
 40
1.0
 40
1.0
 10
28.8153070222
 20
176.947936855
 30
0.0
 10
28.90600242
 20
177.0002995981
 30
0.0
 10
29.0758651473
 20
177.1427752879
 30
0.0
 10
29.2565577768
 20
177.4383486366
 30
0.0
 10
29.363678887
 20
177.8024783265
 30
0.0
 10
29.384941858
 20
178.0674587059
 30
0.0
 10
29.384941858
 20
178.206714939
 30
0.0
  0
SPLINE
  5
285
100
AcDbEntity
  8
0
100
AcDbSpline
 62
7
  6
CONTINUOUS
 70
0
 71
3
 72
9
 73
5
 74
0
 42
0.0000001
 43
0.0000001
 44
0.0000000001
 40
0.0
 40
0.0
 40
0.0
 40
0.0
 40
0.2314929539
 40
1.0
 40
1.0
 40
1.0
 40
1.0
 10
29.2013934302
 20
177.4427023547
 30
0.0
 10
29.1441932604
 20
177.4502261031
 30
0.0
 10
28.8991286781
 20
177.4981682968
 30
0.0
 10
28.6669148753
 20
177.600599249
 30
0.0
 10
28.5010458697
 20
177.6963615977
 30
0.0
  0
SPLINE
  5
286
100
AcDbEntity
  8
0
100
AcDbSpline
 62
7
  6
CONTINUOUS
 70
0
 71
3
 72
9
 73
5
 74
0
 42
0.0000001
 43
0.0000001
 44
0.0000000001
 40
0.0
 40
0.0
 40
0.0
 40
0.0
 40
0.2730275436
 40
1.0
 40
1.0
 40
1.0
 40
1.0
 10
97.7977989341
 20
76.6552119742
 30
0.0
 10
97.7977989341
 20
76.7323467542
 30
0.0
 10
97.8104680029
 20
77.0141557804
 30
0.0
 10
97.8778457223
 20
77.2976402306
 30
0.0
 10
97.9706391803
 20
77.4808641811
 30
0.0
  0
SPLINE
  5
287
100
AcDbEntity
  8
0
100
AcDbSpline
 62
7
  6
CONTINUOUS
 70
0
 71
3
 72
9
 73
5
 74
0
 42
0.0000001
 43
0.0000001
 44
0.0000000001
 40
0.0
 40
0.0
 40
0.0
 40
0.0
 40
0.5255647459
 40
1.0
 40
1.0
 40
1.0
 40
1.0
 10
162.7232134554
 20
45.5342705708
 30
0.0
 10
162.5466619858
 20
45.8400649888
 30
0.0
 10
162.2730756856
 20
46.4599847668
 30
0.0
 10
162.1536674359
 20
47.1320652259
 30
0.0
 10
162.1536674359
 20
47.4508152686
 30
0.0
  0
SPLINE
  5
288
100
AcDbEntity
  8
0
100
AcDbSpline
 62
7
  6
CONTINUOUS
 70
0
 71
3
 72
9
 73
5
 74
0
 42
0.0000001
 43
0.0000001
 44
0.0000000001
 40
0.0
 40
0.0
 40
0.0
 40
0.0
 40
0.2699513779
 40
1.0
 40
1.0
 40
1.0
 40
1.0
 10
162.1536674359
 20
47.4508152686
 30
0.0
 10
162.1536674359
 20
47.5195855715
 30
0.0
 10
162.163962974
 20
47.7738918548
 30
0.0
 10
162.2175230198
 20
48.0289657855
 30
0.0
 10
162.290795156
 20
48.1999040866
 30
0.0
  0
SPLINE
  5
289
100
AcDbEntity
  8
0
100
AcDbSpline
 62
7
  6
CONTINUOUS
 70
0
 71
3
 72
11
 73
7
 74
0
 42
0.0000001
 43
0.0000001
 44
0.0000000001
 40
0.0
 40
0.0
 40
0.0
 40
0.0
 40
0.2372523758
 40
0.4999990758
 40
0.7627462798
 40
1.0
 40
1.0
 40
1.0
 40
1.0
 10
170.9836554868
 20
95.4358495618
 30
0.0
 10
170.7075701859
 20
95.5952438786
 30
0.0
 10
170.1851031279
 20
96.0349023276
 30
0.0
 10
169.5755457361
 20
96.8682374437
 30
0.0
 10
169.1586302776
 20
97.812797067
 30
0.0
 10
169.0391037426
 20
98.4850974348
 30
0.0
 10
169.0391037426
 20
98.8038932838
 30
0.0
  0
SPLINE
  5
28A
100
AcDbEntity
  8
0
100
AcDbSpline
 62
7
  6
CONTINUOUS
 70
0
 71
3
 72
9
 73
5
 74
0
 42
0.0000001
 43
0.0000001
 44
0.0000000001
 40
0.0
 40
0.0
 40
0.0
 40
0.0
 40
0.269502675
 40
1.0
 40
1.0
 40
1.0
 40
1.0
 10
169.0391037426
 20
98.8038932838
 30
0.0
 10
169.0391037426
 20
98.8710354287
 30
0.0
 10
169.0489071634
 20
99.1197670409
 30
0.0
 10
169.0999370986
 20
99.3691379008
 30
0.0
 10
169.1696011358
 20
99.5372681345
 30
0.0
  0
SPLINE
  5
28B
100
AcDbEntity
  8
0
100
AcDbSpline
 62
7
  6
CONTINUOUS
 70
0
 71
3
 72
9
 73
5
 74
0
 42
0.0000001
 43
0.0000001
 44
0.0000000001
 40
0.0
 40
0.0
 40
0.0
 40
0.0
 40
0.4744352541
 40
1.0
 40
1.0
 40
1.0
 40
1.0
 10
36.2703781647
 20
229.5597929542
 30
0.0
 10
36.2703781647
 20
229.8785429969
 30
0.0
 10
36.1509699151
 20
230.5506234561
 30
0.0
 10
35.8773836148
 20
231.1705432341
 30
0.0
 10
35.7008321452
 20
231.476337652
 30
0.0
  0
SPLINE
  5
28C
100
AcDbEntity
  8
0
100
AcDbSpline
 62
7
  6
CONTINUOUS
 70
0
 71
3
 72
11
 73
7
 74
0
 42
0.0000001
 43
0.0000001
 44
0.0000000001
 40
0.0
 40
0.0
 40
0.0
 40
0.0
 40
0.2372539654
 40
0.5000012591
 40
0.7627478695
 40
1.0
 40
1.0
 40
1.0
 40
1.0
 10
29.384941858
 20
178.206714939
 30
0.0
 10
29.384941858
 20
178.5255111176
 30
0.0
 10
29.2654151275
 20
179.1978119351
 30
0.0
 10
28.8484993006
 20
180.1423717559
 30
0.0
 10
28.2389418957
 20
180.9757064542
 30
0.0
 10
27.7164751294
 20
181.415364509
 30
0.0
 10
27.4403901138
 20
181.5747586611
 30
0.0
  0
SPLINE
  5
28D
100
AcDbEntity
  8
0
100
AcDbSpline
 62
7
  6
CONTINUOUS
 70
0
 71
3
 72
9
 73
5
 74
0
 42
0.0000001
 43
0.0000001
 44
0.0000000001
 40
0.0
 40
0.0
 40
0.0
 40
0.0
 40
0.474519488
 40
1.0
 40
1.0
 40
1.0
 40
1.0
 10
36.2703781647
 20
118.9031997764
 30
0.0
 10
36.2703781647
 20
119.2189973858
 30
0.0
 10
36.1531055343
 20
119.8847494036
 30
0.0
 10
35.8840145807
 20
120.4995795296
 30
0.0
 10
35.7103191026
 20
120.8031068771
 30
0.0
  0
SPLINE
  5
28E
100
AcDbEntity
  8
0
100
AcDbSpline
 62
7
  6
CONTINUOUS
 70
0
 71
3
 72
13
 73
9
 74
0
 42
0.0000001
 43
0.0000001
 44
0.0000000001
 40
0.0
 40
0.0
 40
0.0
 40
0.0
 40
0.3061906758
 40
0.582838241
 40
0.703796725
 40
0.811977568
 40
0.9093240874
 40
1.0
 40
1.0
 40
1.0
 40
1.0
 10
35.7103191026
 20
120.8031068771
 30
0.0
 10
35.5340401163
 20
121.1111488236
 30
0.0
 10
35.1334360353
 20
121.662576587
 30
0.0
 10
34.5017456477
 20
122.1980567446
 30
0.0
 10
33.9704541522
 20
122.4533928833
 30
0.0
 10
33.5993871224
 20
122.5440714405
 30
0.0
 10
33.2514842339
 20
122.535548823
 30
0.0
 10
33.0418436514
 20
122.4599820369
 30
0.0
 10
32.9508206959
 20
122.4074284065
 30
0.0
  0
SPLINE
  5
28F
100
AcDbEntity
  8
0
100
AcDbSpline
 62
7
  6
CONTINUOUS
 70
0
 71
3
 72
11
 73
7
 74
0
 42
0.0000001
 43
0.0000001
 44
0.0000000001
 40
0.0
 40
0.0
 40
0.0
 40
0.0
 40
0.2177175915
 40
0.4509429623
 40
0.7102958761
 40
1.0
 40
1.0
 40
1.0
 40
1.0
 10
35.7008321452
 20
117.6442952961
 30
0.0
 10
35.7915161804
 20
117.6966532452
 30
0.0
 10
35.9611925726
 20
117.8393945641
 30
0.0
 10
36.1419955735
 20
118.134751584
 30
0.0
 10
36.2492165838
 20
118.4989030135
 30
0.0
 10
36.2703781647
 20
118.763863415
 30
0.0
 10
36.2703781647
 20
118.9031997764
 30
0.0
  0
SPLINE
  5
290
100
AcDbEntity
  8
0
100
AcDbSpline
 62
7
  6
CONTINUOUS
 70
0
 71
3
 72
15
 73
11
 74
0
 42
0.0000001
 43
0.0000001
 44
0.0000000001
 40
0.0
 40
0.0
 40
0.0
 40
0.0
 40
0.1288248732
 40
0.2705977602
 40
0.4178979
 40
0.5623932695
 40
0.696206034
 40
0.8135977194
 40
0.9130663632
 40
1.0
 40
1.0
 40
1.0
 40
1.0
 10
100.6262466666
 20
73.7975215936
 30
0.0
 10
100.6262466666
 20
74.0325682102
 30
0.0
 10
100.5604376381
 20
74.5268418986
 30
0.0
 10
100.3150742089
 20
75.2525525133
 30
0.0
 10
99.9367423106
 20
75.9516174547
 30
0.0
 10
99.456385362
 20
76.5665974954
 30
0.0
 10
98.9122041415
 20
77.0484402599
 30
0.0
 10
98.3447095195
 20
77.3584036346
 30
0.0
 10
97.7892157752
 20
77.4697016187
 30
0.0
 10
97.4441281893
 20
77.3809543921
 30
0.0
 10
97.3067609844
 20
77.3016529239
 30
0.0
  0
SPLINE
  5
291
100
AcDbEntity
  8
0
100
AcDbSpline
 62
7
  6
CONTINUOUS
 70
0
 71
3
 72
13
 73
9
 74
0
 42
0.0000001
 43
0.0000001
 44
0.0000000001
 40
0.0
 40
0.0
 40
0.0
 40
0.0
 40
0.3065606816
 40
0.5826940477
 40
0.7034875954
 40
0.8116032559
 40
0.9089727169
 40
1.0
 40
1.0
 40
1.0
 40
1.0
 10
164.3947158776
 20
46.5403231494
 30
0.0
 10
164.2175281119
 20
46.8419172709
 30
0.0
 10
163.8179562968
 20
47.3805895388
 30
0.0
 10
163.1917031237
 20
47.90169653
 30
0.0
 10
162.6673735623
 20
48.1483374867
 30
0.0
 10
162.301692046
 20
48.2343873142
 30
0.0
 10
161.9589210507
 20
48.2246663723
 30
0.0
 10
161.7526037372
 20
48.1491434573
 30
0.0
 10
161.6626278546
 20
48.0972582429
 30
0.0
  0
SPLINE
  5
292
100
AcDbEntity
  8
0
100
AcDbSpline
 62
7
  6
CONTINUOUS
 70
0
 71
3
 72
11
 73
7
 74
0
 42
0.0000001
 43
0.0000001
 44
0.0000000001
 40
0.0
 40
0.0
 40
0.0
 40
0.0
 40
0.2895391946
 40
0.5491157945
 40
0.7822541179
 40
1.0
 40
1.0
 40
1.0
 40
1.0
 10
169.922999731
 20
99.3142466252
 30
0.0
 10
169.802403272
 20
99.3838714481
 30
0.0
 10
169.562297862
 20
99.4979416102
 30
0.0
 10
169.1934013518
 20
99.5872315453
 30
0.0
 10
168.8470899709
 20
99.5785320446
 30
0.0
 10
168.6387761315
 20
99.502666674
 30
0.0
 10
168.5480828226
 20
99.450305137
 30
0.0
  0
SPLINE
  5
293
100
AcDbEntity
  8
0
100
AcDbSpline
 62
7
  6
CONTINUOUS
 70
0
 71
3
 72
11
 73
7
 74
0
 42
0.0000001
 43
0.0000001
 44
0.0000000001
 40
0.0
 40
0.0
 40
0.0
 40
0.0
 40
0.2895391946
 40
0.5491157945
 40
0.7822541179
 40
1.0
 40
1.0
 40
1.0
 40
1.0
 10
27.4403901138
 20
177.0839953668
 30
0.0
 10
27.5609865728
 20
177.0143705439
 30
0.0
 10
27.8010919828
 20
176.9003003818
 30
0.0
 10
28.169988493
 20
176.8110104467
 30
0.0
 10
28.5162998739
 20
176.8197099475
 30
0.0
 10
28.7246137134
 20
176.8955753181
 30
0.0
 10
28.8153070222
 20
176.947936855
 30
0.0
  0
SPLINE
  5
294
100
AcDbEntity
  8
0
100
AcDbSpline
 62
7
  6
CONTINUOUS
 70
0
 71
3
 72
11
 73
7
 74
0
 42
0.0000001
 43
0.0000001
 44
0.0000000001
 40
0.0
 40
0.0
 40
0.0
 40
0.0
 40
0.2177080968
 40
0.4508790244
 40
0.7105539482
 40
1.0
 40
1.0
 40
1.0
 40
1.0
 10
161.6626278546
 20
48.0972582429
 30
0.0
 10
161.5719210389
 20
48.0449515309
 30
0.0
 10
161.4021315628
 20
47.9023768369
 30
0.0
 10
161.2213578607
 20
47.6068170583
 30
0.0
 10
161.1143599206
 20
47.2426237494
 30
0.0
 10
161.0930116801
 20
46.977659536
 30
0.0
 10
161.0930116801
 20
46.8384490378
 30
0.0
  0
SPLINE
  5
295
100
AcDbEntity
  8
0
100
AcDbSpline
 62
7
  6
CONTINUOUS
 70
0
 71
3
 72
9
 73
5
 74
0
 42
0.0000001
 43
0.0000001
 44
0.0000000001
 40
0.0
 40
0.0
 40
0.0
 40
0.0
 40
0.4744352541
 40
1.0
 40
1.0
 40
1.0
 40
1.0
 10
161.0930116801
 20
46.8384490378
 30
0.0
 10
161.0930116801
 20
46.5196989951
 30
0.0
 10
161.2124199298
 20
45.847618536
 30
0.0
 10
161.48600623
 20
45.227698758
 30
0.0
 10
161.6625576996
 20
44.92190434
 30
0.0
  0
SPLINE
  5
296
100
AcDbEntity
  8
0
100
AcDbSpline
 62
7
  6
CONTINUOUS
 70
0
 71
3
 72
11
 73
7
 74
0
 42
0.0000001
 43
0.0000001
 44
0.0000000001
 40
0.0
 40
0.0
 40
0.0
 40
0.0
 40
0.217745073
 40
0.4508830113
 40
0.7104597664
 40
1.0
 40
1.0
 40
1.0
 40
1.0
 10
168.5480828226
 20
99.450305137
 30
0.0
 10
168.4573874248
 20
99.397942394
 30
0.0
 10
168.2875246975
 20
99.2554667041
 30
0.0
 10
168.106832068
 20
98.9598933555
 30
0.0
 10
167.9997109578
 20
98.5957636655
 30
0.0
 10
167.9784479868
 20
98.3307832862
 30
0.0
 10
167.9784479868
 20
98.191527053
 30
0.0
  0
SPLINE
  5
297
100
AcDbEntity
  8
0
100
AcDbSpline
 62
7
  6
CONTINUOUS
 70
0
 71
3
 72
11
 73
7
 74
0
 42
0.0000001
 43
0.0000001
 44
0.0000000001
 40
0.0
 40
0.0
 40
0.0
 40
0.0
 40
0.2177239861
 40
0.4508730345
 40
0.7104683317
 40
1.0
 40
1.0
 40
1.0
 40
1.0
 10
97.3067609844
 20
77.3016529239
 30
0.0
 10
97.2160720118
 20
77.2492985888
 30
0.0
 10
97.0462464243
 20
77.1067848382
 30
0.0
 10
96.865525987
 20
76.8112308501
 30
0.0
 10
96.7584089179
 20
76.4470824693
 30
0.0
 10
96.7371431783
 20
76.1820983538
 30
0.0
 10
96.7371431783
 20
76.0428457434
 30
0.0
  0
SPLINE
  5
298
100
AcDbEntity
  8
0
100
AcDbSpline
 62
7
  6
CONTINUOUS
 70
0
 71
3
 72
13
 73
9
 74
0
 42
0.0000001
 43
0.0000001
 44
0.0000000001
 40
0.0
 40
0.0
 40
0.0
 40
0.0
 40
0.3063415893
 40
0.582778464
 40
0.7037020553
 40
0.8118536434
 40
0.9091407069
 40
1.0
 40
1.0
 40
1.0
 40
1.0
 10
32.9508206959
 20
229.8885724063
 30
0.0
 10
33.127394384
 20
229.5827395049
 30
0.0
 10
33.52772952
 20
229.0358250461
 30
0.0
 10
34.1575411548
 20
228.5054407252
 30
0.0
 10
34.6864026118
 20
228.2531148503
 30
0.0
 10
35.0555242339
 20
228.1642841542
 30
0.0
 10
35.4016701478
 20
228.1727522674
 30
0.0
 10
35.6100262157
 20
228.2486603378
 30
0.0
 10
35.7007619902
 20
228.3009837492
 30
0.0
  0
SPLINE
  5
299
100
AcDbEntity
  8
0
100
AcDbSpline
 62
7
  6
CONTINUOUS
 70
0
 71
3
 72
15
 73
11
 74
0
 42
0.0000001
 43
0.0000001
 44
0.0000000001
 40
0.0
 40
0.0
 40
0.0
 40
0.0
 40
0.1288248732
 40
0.2705977602
 40
0.4178979
 40
0.5623932695
 40
0.696206034
 40
0.8135977194
 40
0.9130663632
 40
1.0
 40
1.0
 40
1.0
 40
1.0
 10
96.7371431783
 20
202.6007203985
 30
0.0
 10
96.7371431783
 20
202.3656737819
 30
0.0
 10
96.8029522067
 20
201.8714000934
 30
0.0
 10
97.0483156359
 20
201.1456894787
 30
0.0
 10
97.4266475342
 20
200.4466245373
 30
0.0
 10
97.9070044828
 20
199.8316444967
 30
0.0
 10
98.4511857033
 20
199.3498017322
 30
0.0
 10
99.0186803253
 20
199.0398383574
 30
0.0
 10
99.5741740696
 20
198.9285403734
 30
0.0
 10
99.9192616556
 20
199.0172876
 30
0.0
 10
100.0566288604
 20
199.0965890682
 30
0.0
  0
SPLINE
  5
29A
100
AcDbEntity
  8
0
100
AcDbSpline
 62
7
  6
CONTINUOUS
 70
0
 71
3
 72
11
 73
7
 74
0
 42
0.0000001
 43
0.0000001
 44
0.0000000001
 40
0.0
 40
0.0
 40
0.0
 40
0.0
 40
0.2177175915
 40
0.4509429623
 40
0.7102958761
 40
1.0
 40
1.0
 40
1.0
 40
1.0
 10
161.6625576996
 20
158.7539466959
 30
0.0
 10
161.5718736644
 20
158.7015887469
 30
0.0
 10
161.4021972722
 20
158.5588474279
 30
0.0
 10
161.2213942713
 20
158.2634904081
 30
0.0
 10
161.114173261
 20
157.8993389786
 30
0.0
 10
161.0930116801
 20
157.6343785771
 30
0.0
 10
161.0930116801
 20
157.4950422157
 30
0.0
  0
SPLINE
  5
29B
100
AcDbEntity
  8
0
100
AcDbSpline
 62
7
  6
CONTINUOUS
 70
0
 71
3
 72
15
 73
11
 74
0
 42
0.0000001
 43
0.0000001
 44
0.0000000001
 40
0.0
 40
0.0
 40
0.0
 40
0.0
 40
0.1288044274
 40
0.2705936822
 40
0.4178852972
 40
0.5623857004
 40
0.6961956615
 40
0.8135786375
 40
0.9130767072
 40
1.0
 40
1.0
 40
1.0
 40
1.0
 10
161.0930116801
 20
157.4950422157
 30
0.0
 10
161.0930116801
 20
157.2600312987
 30
0.0
 10
161.158883684
 20
156.7657752859
 30
0.0
 10
161.4041275072
 20
156.0400412344
 30
0.0
 10
161.7825665982
 20
155.3410029539
 30
0.0
 10
162.2628534548
 20
154.725965159
 30
0.0
 10
162.8070792165
 20
154.2442209599
 30
0.0
 10
163.3745171705
 20
153.9340052298
 30
0.0
 10
163.9300584299
 20
153.8229572143
 30
0.0
 10
164.2752215907
 20
153.9115136686
 30
0.0
 10
164.4125691489
 20
153.9908135856
 30
0.0
  0
SPLINE
  5
29C
100
AcDbEntity
  8
0
100
AcDbSpline
 62
7
  6
CONTINUOUS
 70
0
 71
3
 72
11
 73
7
 74
0
 42
0.0000001
 43
0.0000001
 44
0.0000000001
 40
0.0
 40
0.0
 40
0.0
 40
0.0
 40
0.2372539654
 40
0.5000012591
 40
0.7627478695
 40
1.0
 40
1.0
 40
1.0
 40
1.0
 10
167.9784479868
 20
98.191527053
 30
0.0
 10
167.9784479868
 20
97.8727308744
 30
0.0
 10
168.0979747173
 20
97.200430057
 30
0.0
 10
168.5148905442
 20
96.2558702362
 30
0.0
 10
169.1244479491
 20
95.4225355379
 30
0.0
 10
169.6469147155
 20
94.9828774831
 30
0.0
 10
169.922999731
 20
94.823483331
 30
0.0
  0
ENDSEC
  0
SECTION
  2
OBJECTS
  0
DICTIONARY
  5
C
100
AcDbDictionary
280
0
281
1
  3
ACAD_GROUP
350
D
  3
ACAD_MLINESTYLE
350
17
  3
ACAD_LAYOUT
350
1A
  3
ACAD_PLOTSETTINGS
350
19
  3
ACAD_PLOTSTYLENAME
350
E
  0
DICTIONARY
  5
D
102
{ACAD_REACTORS
330
C
102
}
100
AcDbDictionary
280
0
281
1
  0
ACDBDICTIONARYWDFLT
  5
E
102
{ACAD_REACTORS
330
C
102
}
100
AcDbDictionary
281
1
  3
Normal
350
F
100
AcDbDictionaryWithDefault
340
F
  0
DICTIONARY
  5
17
102
{ACAD_REACTORS
330
C
102
}
100
AcDbDictionary
280
0
281
1
  3
Standard
350
18
  0
DICTIONARY
  5
19
102
{ACAD_REACTORS
330
C
102
}
100
AcDbDictionary
281
1
  0
DICTIONARY
  5
1A
102
{ACAD_REACTORS
330
C
102
}
100
AcDbDictionary
281
1
  3
Model
350
29D
  3
Layout1
350
29E
  0
ACDBPLACEHOLDER
  5
F
102
{ACAD_REACTORS
330
E
102
}
  0
MLINESTYLE
  5
18
102
{ACAD_REACTORS
330
17
102
}
100
AcDbMlineStyle
  2
STANDARD
 70
0
  3

 62
256
 51
90.0
 52
90.0
 71
2
 49
0.5
 62
256
  6
BYLAYER
 49
-0.5
 62
256
  6
BYLAYER
  0
LAYOUT
  5
29D
102
{ACAD_REACTORS
330
1A
102
}
100
AcDbPlotSettings
  1

  2
none_device
  4

  6

 40
0.0
 41
0.0
 42
0.0
 43
0.0
 44
210.0
 45
297.0
 46
0.0
 47
0.0
 48
0.0
 49
0.0
140
0.0
141
0.0
142
1.0
143
1.0
 70
1024
 72
1
 73
0
 74
0
  7

 75
0
147
1.0
148
0.0
149
0.0
100
AcDbLayout
  1
Model
 70
0
 71
0
 10
0.0
 20
0.0
 11
210.0
 21
297.0
 12
0.0
 22
0.0
 32
0.0
 14
0.0
 24
0.0
 34
0.0
 15
0.0
 25
0.0
 35
0.0
146
0.0
 13
0.0
 23
0.0
 33
0.0
 16
1.0
 26
0.0
 36
0.0
 17
0.0
 27
1.0
 37
0.0
 76
0
330
212
345
0
346
0
  0
LAYOUT
  5
29E
102
{ACAD_REACTORS
330
1A
102
}
100
AcDbPlotSettings
  1

  2
none_device
  4

  6

 40
0.0
 41
0.0
 42
0.0
 43
0.0
 44
210.0
 45
297.0
 46
0.0
 47
0.0
 48
0.0
 49
0.0
140
0.0
141
0.0
142
1.0
143
1.0
 70
0
 72
1
 73
0
 74
0
  7

 75
0
147
1.0
148
0.0
149
0.0
100
AcDbLayout
  1
Layout1
 70
0
 71
1
 10
0.0
 20
0.0
 11
210.0
 21
297.0
 12
0.0
 22
0.0
 32
0.0
 14
0.0
 24
0.0
 34
0.0
 15
0.0
 25
0.0
 35
0.0
146
0.0
 13
0.0
 23
0.0
 33
0.0
 16
1.0
 26
0.0
 36
0.0
 17
0.0
 27
1.0
 37
0.0
 76
0
330
213
345
0
346
0
  0
ENDSEC
  0
EOF
