999
DXF file: C:\Users\sesa63760\Dev\_Creo\CAD\MCADUE0002006_3D-CAD\drw0001_6.dxf
999
Pro/ENGINEER 2019471 by Parametric Technology Corporation
  0
SECTION
  2
HEADER
  9
$ACADVER
  1
AC1024
  9
$DWGCODEPAGE
  3
ANSI_1252
  9
$EXTMAX
 10
246.4867146539
 20
348.6026392962
 30
0.0
  9
$EXTMIN
 10
0.0
 20
0.0
 30
0.0
  9
$LIMMIN
 10
0.0
 20
0.0
  9
$LIMMAX
 10
246.4867146539
 20
348.6026392962
  9
$VIEWCTR
 10
123.2433573269
 20
174.3013196481
  9
$VIEWSIZE
 40
348.6026392962
  9
$CLAYER
  8
0
  9
$LTSCALE
 40
22.7237275986
  9
$CELTYPE
  6
BYLAYER
  9
$DIMSCALE
 40
1.0
  9
$DIMASZ
 40
2.9343656506
  9
$DIMEXO
 40
1.0
  9
$DIMDLI
 40
15.7000299772
  9
$DIMEXE
 40
1.0
  9
$DIMCEN
 40
3.7184281525
  9
$DIMLFAC
 40
1.0
  9
$DIMBLK
  1
_FILLED
  9
$DIMALT
 70
0
  9
$DIMALTF
 40
0.0393700787
  9
$DIMTXT
 40
4.1081119109
  9
$DIMTOL
 70
1
  9
$DIMLIM
 70
0
  9
$DIMTFAC
 40
1.0
  9
$DIMTP
 40
0.01
  9
$DIMTM
 40
0.01
  9
$DIMGAP
 40
0.625
  9
$DIMDSEP
 70
46
  9
$AUNITS
 70
0
  9
$PDMODE
 70
3
  9
$PDSIZE
 40
0.3125
  9
$HANDSEED
  5
329
  9
$TILEMODE
 70
1
  9
$MEASUREMENT
 70
1
  9
$INSUNITS
 70
4
  0
ENDSEC
  0
SECTION
  2
CLASSES
  0
CLASS
  1
ACDBDICTIONARYWDFLT
  2
AcDbDictionaryWithDefault
  3
AutoCAD 2000
 90
0
 91
1
280
0
281
0
  0
CLASS
  1
ACDBPLACEHOLDER
  2
AcDbPlaceHolder
  3
AutoCAD 2000
 90
0
 91
1
280
0
281
0
  0
CLASS
  1
LAYOUT
  2
AcDbLayout
  3
AutoCAD 2000
 90
0
 91
0
280
0
281
0
  0
ENDSEC
  0
SECTION
  2
TABLES
  0
TABLE
  2
VPORT
  5
8
100
AcDbSymbolTable
 70
2
  0
VPORT
  5
1F4
100
AcDbSymbolTableRecord
100
AcDbViewportTableRecord
  2
*ACTIVE
 70
0
 10
0.0
 20
0.0
 11
1.0
 21
1.0
 12
123.2433573269
 22
174.3013196481
 13
0.0
 23
0.0
 14
1.0
 24
1.0
 15
0.0
 25
0.0
 16
0.0
 26
0.0
 36
1.0
 17
0.0
 27
0.0
 37
0.0
 40
348.6026392962
 41
0.7070707071
 42
50.0
 43
0.0
 44
0.0
 50
0.0
 51
0.0
 71
0
 72
100
 73
1
 74
1
 75
0
 76
0
 77
0
 78
0
  0
ENDTAB
  0
TABLE
  2
LTYPE
  5
5
100
AcDbSymbolTable
 70
6
  0
LTYPE
  5
14
100
AcDbSymbolTableRecord
100
AcDbLinetypeTableRecord
  2
BYBLOCK
 70
0
  3

 72
65
 73
0
 40
0.0
  0
LTYPE
  5
15
100
AcDbSymbolTableRecord
100
AcDbLinetypeTableRecord
  2
BYLAYER
 70
0
  3

 72
65
 73
0
 40
0.0
  0
LTYPE
  5
16
100
AcDbSymbolTableRecord
100
AcDbLinetypeTableRecord
  2
CONTINUOUS
 70
64
  3
Solid line
 72
65
 73
0
 40
0.0
  0
LTYPE
  5
1F5
100
AcDbSymbolTableRecord
100
AcDbLinetypeTableRecord
  2
CENTER
 70
64
  3
____ _ ____ _ ____ _ ____ _ ____ _ ____ _ ____
 72
65
 73
4
 40
0.6
 49
0.375
 74
0
 49
-0.075
 74
0
 49
0.075
 74
0
 49
-0.075
 74
0
  0
LTYPE
  5
1F6
100
AcDbSymbolTableRecord
100
AcDbLinetypeTableRecord
  2
HIDDEN
 70
64
  3
- - - - - - - - - - - - - - - - - - - -
 72
65
 73
2
 40
0.2
 49
0.1
 74
0
 49
-0.1
 74
0
  0
LTYPE
  5
1F7
100
AcDbSymbolTableRecord
100
AcDbLinetypeTableRecord
  2
PHANTOM
 70
64
  3
_____ _ _ _____ _ _ _____ _ _ _____
 72
65
 73
6
 40
0.8
 49
0.45
 74
0
 49
-0.05
 74
0
 49
0.1
 74
0
 49
-0.05
 74
0
 49
0.1
 74
0
 49
-0.05
 74
0
  0
LTYPE
  5
1F8
100
AcDbSymbolTableRecord
100
AcDbLinetypeTableRecord
  2
DOT
 70
64
  3
. . . . . . . . . . . . . . . . . . . .
 72
65
 73
2
 40
0.2
 49
0.1
 74
0
 49
-0.1
 74
0
  0
LTYPE
  5
1F9
100
AcDbSymbolTableRecord
100
AcDbLinetypeTableRecord
  2
DASHED
 70
64
  3
- - - - - - - - - - - - - - - - - - - -
 72
65
 73
2
 40
0.2
 49
0.1
 74
0
 49
-0.1
 74
0
  0
ENDTAB
  0
TABLE
  2
LAYER
  5
2
100
AcDbSymbolTable
 70
36
  0
LAYER
  5
10
100
AcDbSymbolTableRecord
100
AcDbLayerTableRecord
  2
0
 70
0
 62
7
  6
CONTINUOUS
370
-3
390
F
  0
LAYER
  5
1FA
100
AcDbSymbolTableRecord
100
AcDbLayerTableRecord
  2
DEFAULT_1
 70
0
 62
7
  6
CENTER
370
-3
390
F
  0
LAYER
  5
1FB
100
AcDbSymbolTableRecord
100
AcDbLayerTableRecord
  2
DEFAULT_2
 70
0
 62
8
  6
HIDDEN
370
-3
390
F
  0
LAYER
  5
1FC
100
AcDbSymbolTableRecord
100
AcDbLayerTableRecord
  2
DEFAULT_3
 70
0
 62
7
  6
PHANTOM
370
-3
390
F
  0
LAYER
  5
1FD
100
AcDbSymbolTableRecord
100
AcDbLayerTableRecord
  2
00_COMPONENTS
 70
0
 62
7
  6
CONTINUOUS
370
-3
390
F
  0
LAYER
  5
1FE
100
AcDbSymbolTableRecord
100
AcDbLayerTableRecord
  2
01_1_DEFAULT_DATUMS
 70
0
 62
7
  6
CONTINUOUS
370
-3
390
F
  0
LAYER
  5
1FF
100
AcDbSymbolTableRecord
100
AcDbLayerTableRecord
  2
01_PLANES
 70
0
 62
7
  6
CONTINUOUS
370
-3
390
F
  0
LAYER
  5
200
100
AcDbSymbolTableRecord
100
AcDbLayerTableRecord
  2
02_COORD_SYS
 70
0
 62
7
  6
CONTINUOUS
370
-3
390
F
  0
LAYER
  5
201
100
AcDbSymbolTableRecord
100
AcDbLayerTableRecord
  2
03_AXES
 70
0
 62
7
  6
CONTINUOUS
370
-3
390
F
  0
LAYER
  5
202
100
AcDbSymbolTableRecord
100
AcDbLayerTableRecord
  2
04_POINTS
 70
0
 62
7
  6
CONTINUOUS
370
-3
390
F
  0
LAYER
  5
203
100
AcDbSymbolTableRecord
100
AcDbLayerTableRecord
  2
05_CURVES
 70
0
 62
7
  6
CONTINUOUS
370
-3
390
F
  0
LAYER
  5
204
100
AcDbSymbolTableRecord
100
AcDbLayerTableRecord
  2
06_SURFS
 70
0
 62
7
  6
CONTINUOUS
370
-3
390
F
  0
LAYER
  5
205
100
AcDbSymbolTableRecord
100
AcDbLayerTableRecord
  2
07_COSMETICS
 70
0
 62
7
  6
CONTINUOUS
370
-3
390
F
  0
LAYER
  5
206
100
AcDbSymbolTableRecord
100
AcDbLayerTableRecord
  2
10_NOTES
 70
0
 62
7
  6
CONTINUOUS
370
-3
390
F
  0
LAYER
  5
207
100
AcDbSymbolTableRecord
100
AcDbLayerTableRecord
  2
11_NOTES_PUB
 70
0
 62
7
  6
CONTINUOUS
370
-3
390
F
  0
LAYER
  5
208
100
AcDbSymbolTableRecord
100
AcDbLayerTableRecord
  2
13_REF_GTOL
 70
0
 62
7
  6
CONTINUOUS
370
-3
390
F
  0
LAYER
  5
209
100
AcDbSymbolTableRecord
100
AcDbLayerTableRecord
  2
16_MISC
 70
0
 62
7
  6
CONTINUOUS
370
-3
390
F
  0
LAYER
  5
20A
100
AcDbSymbolTableRecord
100
AcDbLayerTableRecord
  2
17_NO_PRINT
 70
0
 62
7
  6
CONTINUOUS
370
-3
390
F
  0
LAYER
  5
20B
100
AcDbSymbolTableRecord
100
AcDbLayerTableRecord
  2
18_DATUM_CAMS_JOINTS
 70
0
 62
7
  6
CONTINUOUS
370
-3
390
F
  0
LAYER
  5
20C
100
AcDbSymbolTableRecord
100
AcDbLayerTableRecord
  2
19_DATUM_FUNCTIONAL
 70
0
 62
7
  6
CONTINUOUS
370
-3
390
F
  0
LAYER
  5
20D
100
AcDbSymbolTableRecord
100
AcDbLayerTableRecord
  2
20_DATUM_KINEMATIC_SCHEME
 70
0
 62
7
  6
CONTINUOUS
370
-3
390
F
  0
ENDTAB
  0
TABLE
  2
STYLE
  5
3
100
AcDbSymbolTable
 70
1
  0
STYLE
  5
11
100
AcDbSymbolTableRecord
100
AcDbTextStyleTableRecord
  2
STANDARD
 70
0
 40
0.0
 41
0.8
 50
0.0
 71
0
 42
0.2
  3
txt
  4

  0
STYLE
  5
20E
100
AcDbSymbolTableRecord
100
AcDbTextStyleTableRecord
  2
TEXTSTYLE_1
 70
0
 40
0.0
 41
0.8
 50
0.0
 71
0
 42
0.2
  3
gdt
  4

  0
ENDTAB
  0
TABLE
  2
VIEW
  5
6
100
AcDbSymbolTable
 70
0
  0
ENDTAB
  0
TABLE
  2
UCS
  5
7
100
AcDbSymbolTable
 70
0
  0
ENDTAB
  0
TABLE
  2
APPID
  5
9
100
AcDbSymbolTable
 70
1
  0
APPID
  5
20F
100
AcDbSymbolTableRecord
100
AcDbRegAppTableRecord
  2
ACAD
 70
0
  0
ENDTAB
  0
TABLE
  2
BLOCK_RECORD
  5
1
100
AcDbSymbolTable
 70
0
  0
BLOCK_RECORD
  5
210
100
AcDbSymbolTableRecord
100
AcDbBlockTableRecord
  2
*Model_Space
  0
BLOCK_RECORD
  5
211
100
AcDbSymbolTableRecord
100
AcDbBlockTableRecord
  2
*Paper_Space
  0
BLOCK_RECORD
  5
212
100
AcDbSymbolTableRecord
100
AcDbBlockTableRecord
  2
_FILLED
  0
ENDTAB
  0
TABLE
  2
DIMSTYLE
  5
A
100
AcDbSymbolTable
 70
1
100
AcDbDimStyleTable
 71
0
  0
DIMSTYLE
105
213
100
AcDbSymbolTableRecord
100
AcDbDimStyleTableRecord
  2
STANDARD
 70
0
  3

  4

 40
1.0
 41
2.9343656506
 42
1.0
 43
0.38
 44
1.0
 45
0.0
 46
0.0
 47
0.01
 48
0.01
140
4.1081119109
141
0.09
142
0.0
143
25.4
144
1.0
145
0.0
146
1.0
147
0.625
 71
1
 72
0
 73
0
 74
0
 75
0
 76
0
 77
1
 78
8
 79
2
170
0
171
1
172
0
173
0
174
0
175
0
176
0
177
0
178
0
270
2
179
2
271
2
272
2
273
2
274
2
275
0
280
0
281
0
282
0
283
1
284
8
285
0
286
0
287
3
288
0
340
11
278
46
341
212
342
212
343
212
344
212
  0
ENDTAB
  0
ENDSEC
  0
SECTION
  2
BLOCKS
  0
BLOCK
  5
20
100
AcDbEntity
  8
0
100
AcDbBlockBegin
  2
*Model_Space
 70
0
 10
0.0
 20
0.0
 30
0.0
  3
*Model_Space
  1

  0
ENDBLK
  5
21
100
AcDbEntity
  8
0
100
AcDbBlockEnd
  0
BLOCK
  5
1C
100
AcDbEntity
  8
0
100
AcDbBlockBegin
  2
*Paper_Space
 70
0
 10
0.0
 20
0.0
 30
0.0
  3
*Paper_Space
  1

  0
ENDBLK
  5
1D
100
AcDbEntity
  8
0
100
AcDbBlockEnd
  0
BLOCK
  5
214
100
AcDbEntity
  8
0
100
AcDbBlockBegin
  2
_FILLED
 70
64
 10
0.0
 20
0.0
  3
_FILLED
  1

  0
SOLID
  5
215
100
AcDbEntity
  8
0
  6
BYBLOCK
 62
0
100
AcDbTrace
 10
0.0
 20
0.0
 11
-1.0
 21
0.25
 12
-1.0
 22
-0.25
 13
-1.0
 23
-0.25
  0
ENDBLK
  5
216
100
AcDbEntity
  8
0
  6
BYBLOCK
 62
0
100
AcDbBlockEnd
  0
ENDSEC
  0
SECTION
  2
ENTITIES
  0
LINE
  5
217
100
AcDbEntity
  8
0
100
AcDbLine
 62
7
  6
CONTINUOUS
 10
71.6119331476
 20
31.6791167988
 11
67.3526341562
 21
32.3549108656
  0
LINE
  5
218
100
AcDbEntity
  8
0
100
AcDbLine
 62
7
  6
CONTINUOUS
 10
82.5785927137
 20
28.8013196481
 11
84.5785927137
 21
28.8013196481
  0
LINE
  5
219
100
AcDbEntity
  8
0
100
AcDbLine
 62
7
  6
CONTINUOUS
 10
73.7805927137
 20
31.4513196481
 11
71.7805927137
 21
31.4513196481
  0
LINE
  5
21A
100
AcDbEntity
  8
0
100
AcDbLine
 62
7
  6
CONTINUOUS
 10
84.5785927137
 20
31.7013196481
 11
189.3785927137
 21
31.7013196481
  0
LINE
  5
21B
100
AcDbEntity
  8
0
100
AcDbLine
 62
7
  6
CONTINUOUS
 10
70.5785927137
 20
33.1013196481
 11
82.5785927137
 21
33.1013196481
  0
LINE
  5
21C
100
AcDbEntity
  8
0
100
AcDbLine
 62
7
  6
CONTINUOUS
 10
73.7805927137
 20
33.3013196481
 11
95.2805927137
 21
33.3013196481
  0
LINE
  5
21D
100
AcDbEntity
  8
0
100
AcDbLine
 62
7
  6
CONTINUOUS
 10
63.4261233054
 20
34.0513196481
 11
64.7805927137
 21
34.0513196481
  0
LINE
  5
21E
100
AcDbEntity
  8
0
100
AcDbLine
 62
7
  6
CONTINUOUS
 10
73.7805927137
 20
34.1013196481
 11
95.2805927137
 21
34.1013196481
  0
LINE
  5
21F
100
AcDbEntity
  8
0
100
AcDbLine
 62
7
  6
CONTINUOUS
 10
65.9711403237
 20
34.1713196481
 11
73.7805927137
 21
34.1713196481
  0
LINE
  5
220
100
AcDbEntity
  8
0
100
AcDbLine
 62
7
  6
CONTINUOUS
 10
63.3103367999
 20
34.3013196481
 11
64.7805927137
 21
34.3013196481
  0
LINE
  5
221
100
AcDbEntity
  8
0
100
AcDbLine
 62
7
  6
CONTINUOUS
 10
73.7805927137
 20
35.8513196481
 11
65.29015594
 21
35.8513196481
  0
LINE
  5
222
100
AcDbEntity
  8
0
100
AcDbLine
 62
7
  6
CONTINUOUS
 10
62.5120172122
 20
36.3019713622
 11
64.7805927137
 21
36.3019713622
  0
LINE
  5
223
100
AcDbEntity
  8
0
100
AcDbLine
 62
7
  6
CONTINUOUS
 10
64.7805927137
 20
37.0090781434
 11
62.2814372713
 21
37.0090781434
  0
LINE
  5
224
100
AcDbEntity
  8
0
100
AcDbLine
 62
7
  6
CONTINUOUS
 10
71.7805927137
 20
37.0763196481
 11
64.8998736265
 21
37.0763196481
  0
LINE
  5
225
100
AcDbEntity
  8
0
100
AcDbLine
 62
7
  6
CONTINUOUS
 10
95.2805927137
 20
37.0870296209
 11
81.2805927137
 21
37.0870296209
  0
LINE
  5
226
100
AcDbEntity
  8
0
100
AcDbLine
 62
7
  6
CONTINUOUS
 10
82.5785927137
 20
37.4013196481
 11
70.5785927137
 21
37.4013196481
  0
LINE
  5
227
100
AcDbEntity
  8
0
100
AcDbLine
 62
7
  6
CONTINUOUS
 10
95.2805927137
 20
37.6615412403
 11
81.2805927137
 21
37.6615412403
  0
LINE
  5
228
100
AcDbEntity
  8
0
100
AcDbLine
 62
7
  6
CONTINUOUS
 10
81.7805927137
 20
28.8013196481
 11
66.3154328784
 21
29.3413749299
  0
LINE
  5
229
100
AcDbEntity
  8
0
100
AcDbLine
 62
7
  6
CONTINUOUS
 10
81.298042462
 20
30.8200000616
 11
73.7805926807
 21
31.0825151926
  0
LINE
  5
22A
100
AcDbEntity
  8
0
100
AcDbLine
 62
7
  6
CONTINUOUS
 10
70.5785927137
 20
32.620368882
 11
82.5785927137
 21
32.2013196481
  0
LINE
  5
22B
100
AcDbEntity
  8
0
100
AcDbLine
 62
7
  6
CONTINUOUS
 10
189.3785927137
 20
53.5238778415
 11
187.2785927137
 21
53.3401516481
  0
LINE
  5
22C
100
AcDbEntity
  8
0
100
AcDbLine
 62
7
  6
CONTINUOUS
 10
72.4910625627
 20
41.7912090325
 11
64.0745037944
 21
41.4972963237
  0
LINE
  5
22D
100
AcDbEntity
  8
0
100
AcDbLine
 62
7
  6
CONTINUOUS
 10
73.7805927137
 20
38.1104336641
 11
71.7805927137
 21
38.1104336641
  0
LINE
  5
22E
100
AcDbEntity
  8
0
100
AcDbLine
 62
7
  6
CONTINUOUS
 10
81.7805927137
 20
41.6013196481
 11
63.4121515401
 21
41.6013196481
  0
LINE
  5
22F
100
AcDbEntity
  8
0
100
AcDbLine
 62
7
  6
CONTINUOUS
 10
63.2963983119
 20
41.6013196481
 11
61.3774436745
 21
41.6013196481
  0
LINE
  5
230
100
AcDbEntity
  8
0
100
AcDbLine
 62
7
  6
CONTINUOUS
 10
189.3785927137
 20
41.8013196481
 11
82.5785927137
 21
41.8013196481
  0
LINE
  5
231
100
AcDbEntity
  8
0
100
AcDbLine
 62
7
  6
CONTINUOUS
 10
71.7805927137
 20
42.9213196481
 11
63.9805927137
 21
42.9213196481
  0
LINE
  5
232
100
AcDbEntity
  8
0
100
AcDbLine
 62
7
  6
CONTINUOUS
 10
63.9805927137
 20
43.0013196481
 11
72.7805927137
 21
43.0013196481
  0
LINE
  5
233
100
AcDbEntity
  8
0
100
AcDbLine
 62
7
  6
CONTINUOUS
 10
70.5785927137
 20
43.6513196481
 11
82.5785927137
 21
43.6513196481
  0
LINE
  5
234
100
AcDbEntity
  8
0
100
AcDbLine
 62
7
  6
CONTINUOUS
 10
63.9805927137
 20
46.6013196481
 11
72.7805927137
 21
46.6013196481
  0
LINE
  5
235
100
AcDbEntity
  8
0
100
AcDbLine
 62
7
  6
CONTINUOUS
 10
64.7805927137
 20
47.5935611528
 11
61.3785927137
 21
47.5935611528
  0
LINE
  5
236
100
AcDbEntity
  8
0
100
AcDbLine
 62
7
  6
CONTINUOUS
 10
73.7805927137
 20
48.0766663872
 11
65.2901569872
 21
48.0766663872
  0
LINE
  5
237
100
AcDbEntity
  8
0
100
AcDbLine
 62
7
  6
CONTINUOUS
 10
61.3785927137
 20
48.300667934
 11
64.7805927137
 21
48.300667934
  0
LINE
  5
238
100
AcDbEntity
  8
0
100
AcDbLine
 62
7
  6
CONTINUOUS
 10
72.4910625627
 20
47.8114302637
 11
63.9805927137
 21
48.1086224196
  0
LINE
  5
239
100
AcDbEntity
  8
0
100
AcDbLine
 62
7
  6
CONTINUOUS
 10
189.3785927137
 20
57.1246543324
 11
187.2785927137
 21
57.0513207164
  0
LINE
  5
23A
100
AcDbEntity
  8
0
100
AcDbLine
 62
7
  6
CONTINUOUS
 10
95.2805927137
 20
49.0624183995
 11
81.2805927137
 21
49.0624183995
  0
LINE
  5
23B
100
AcDbEntity
  8
0
100
AcDbLine
 62
7
  6
CONTINUOUS
 10
95.2805927137
 20
49.6369300189
 11
81.2805927137
 21
49.6369300189
  0
LINE
  5
23C
100
AcDbEntity
  8
0
100
AcDbLine
 62
7
  6
CONTINUOUS
 10
73.7805927137
 20
49.7377488888
 11
65.2901560076
 21
49.7377488888
  0
LINE
  5
23D
100
AcDbEntity
  8
0
100
AcDbLine
 62
7
  6
CONTINUOUS
 10
61.3785927137
 20
50.3013196481
 11
64.7805927137
 21
50.3013196481
  0
LINE
  5
23E
100
AcDbEntity
  8
0
100
AcDbLine
 62
7
  6
CONTINUOUS
 10
84.5785927137
 20
50.3013196481
 11
189.3785927137
 21
50.3013196481
  0
LINE
  5
23F
100
AcDbEntity
  8
0
100
AcDbLine
 62
7
  6
CONTINUOUS
 10
71.7805927137
 20
50.3377488888
 11
73.7805927137
 21
50.3377488888
  0
LINE
  5
240
100
AcDbEntity
  8
0
100
AcDbLine
 62
7
  6
CONTINUOUS
 10
73.7805927137
 20
50.5013196481
 11
81.2805927137
 21
50.5013196481
  0
LINE
  5
241
100
AcDbEntity
  8
0
100
AcDbLine
 62
7
  6
CONTINUOUS
 10
61.3785927137
 20
50.5513196481
 11
64.7805927137
 21
50.5513196481
  0
LINE
  5
242
100
AcDbEntity
  8
0
100
AcDbLine
 62
7
  6
CONTINUOUS
 10
73.7805927137
 20
50.9619835541
 11
71.7805927137
 21
50.9619835541
  0
LINE
  5
243
100
AcDbEntity
  8
0
100
AcDbLine
 62
7
  6
CONTINUOUS
 10
73.7805927137
 20
51.3013196481
 11
81.2805927137
 21
51.3013196481
  0
LINE
  5
244
100
AcDbEntity
  8
0
100
AcDbLine
 62
7
  6
CONTINUOUS
 10
71.7805927137
 20
52.2913196481
 11
73.7805927137
 21
52.2913196481
  0
LINE
  5
245
100
AcDbEntity
  8
0
100
AcDbLine
 62
7
  6
CONTINUOUS
 10
73.7805927137
 20
52.3628804714
 11
71.7785748145
 21
52.3628804714
  0
LINE
  5
246
100
AcDbEntity
  8
0
100
AcDbLine
 62
7
  6
CONTINUOUS
 10
70.5785927137
 20
53.2513196481
 11
82.5785927137
 21
53.2513196481
  0
LINE
  5
247
100
AcDbEntity
  8
0
100
AcDbLine
 62
7
  6
CONTINUOUS
 10
73.7805927137
 20
54.7377488888
 11
71.7805927137
 21
54.7377488888
  0
LINE
  5
248
100
AcDbEntity
  8
0
100
AcDbLine
 62
7
  6
CONTINUOUS
 10
65.7370646732
 20
55.6013196481
 11
61.3774237755
 21
55.6013196481
  0
LINE
  5
249
100
AcDbEntity
  8
0
100
AcDbLine
 62
7
  6
CONTINUOUS
 10
71.7805927137
 20
56.5213196481
 11
63.9805927137
 21
56.5213196481
  0
LINE
  5
24A
100
AcDbEntity
  8
0
100
AcDbLine
 62
7
  6
CONTINUOUS
 10
82.5785927137
 20
57.4703196481
 11
70.5785927137
 21
57.4703196481
  0
LINE
  5
24B
100
AcDbEntity
  8
0
100
AcDbLine
 62
7
  6
CONTINUOUS
 10
72.4910625627
 20
62.7912090325
 11
63.9805927137
 21
62.4940168765
  0
LINE
  5
24C
100
AcDbEntity
  8
0
100
AcDbLine
 62
7
  6
CONTINUOUS
 10
63.9805927137
 20
64.0013196481
 11
72.7805927137
 21
64.0013196481
  0
LINE
  5
24D
100
AcDbEntity
  8
0
100
AcDbLine
 62
7
  6
CONTINUOUS
 10
63.9805927137
 20
67.6013196481
 11
72.7805927137
 21
67.6013196481
  0
LINE
  5
24E
100
AcDbEntity
  8
0
100
AcDbLine
 62
7
  6
CONTINUOUS
 10
187.2785927137
 20
68.3013196481
 11
189.2785927137
 21
68.3013196481
  0
LINE
  5
24F
100
AcDbEntity
  8
0
100
AcDbLine
 62
7
  6
CONTINUOUS
 10
189.3785927137
 20
64.4779849638
 11
187.2785927137
 21
64.5513185798
  0
LINE
  5
250
100
AcDbEntity
  8
0
100
AcDbLine
 62
7
  6
CONTINUOUS
 10
72.4910625627
 20
68.8114302637
 11
63.9805927137
 21
69.1086224196
  0
LINE
  5
251
100
AcDbEntity
  8
0
100
AcDbLine
 62
7
  6
CONTINUOUS
 10
189.2785927137
 20
80.3013196481
 11
187.2785927137
 21
80.3013196481
  0
LINE
  5
252
100
AcDbEntity
  8
0
100
AcDbLine
 62
7
  6
CONTINUOUS
 10
189.3785927137
 20
67.0787614547
 11
187.2785927137
 21
67.2624876481
  0
LINE
  5
253
100
AcDbEntity
  8
0
100
AcDbLine
 62
7
  6
CONTINUOUS
 10
61.3785927137
 20
307.0140000732
 11
61.3785927137
 21
293.0013196481
  0
LINE
  5
254
100
AcDbEntity
  8
0
100
AcDbLine
 62
7
  6
CONTINUOUS
 10
61.3785927137
 20
55.6013196481
 11
61.3785927137
 21
41.588639223
  0
LINE
  5
255
100
AcDbEntity
  8
0
100
AcDbLine
 62
7
  6
CONTINUOUS
 10
61.7805927137
 20
305.0013196481
 11
61.7805927137
 21
43.6013196481
  0
LINE
  5
256
100
AcDbEntity
  8
0
100
AcDbLine
 62
7
  6
CONTINUOUS
 10
189.3785927137
 20
108.5238778415
 11
187.2785927137
 21
108.3401516481
  0
LINE
  5
257
100
AcDbEntity
  8
0
100
AcDbLine
 62
7
  6
CONTINUOUS
 10
63.9805927137
 20
41.6013196481
 11
63.9805927137
 21
307.0013196481
  0
LINE
  5
258
100
AcDbEntity
  8
0
100
AcDbLine
 62
7
  6
CONTINUOUS
 10
64.0654310514
 20
292.0813196481
 11
64.0654310514
 21
284.7060934126
  0
LINE
  5
259
100
AcDbEntity
  8
0
100
AcDbLine
 62
7
  6
CONTINUOUS
 10
64.0654310514
 20
280.8965458751
 11
64.0654310514
 21
67.7060934126
  0
LINE
  5
25A
100
AcDbEntity
  8
0
100
AcDbLine
 62
7
  6
CONTINUOUS
 10
64.0654310514
 20
63.8965458751
 11
64.0654310514
 21
56.5213196481
  0
LINE
  5
25B
100
AcDbEntity
  8
0
100
AcDbLine
 62
7
  6
CONTINUOUS
 10
64.7805927137
 20
34.0513196481
 11
64.7805927137
 21
50.5513196481
  0
LINE
  5
25C
100
AcDbEntity
  8
0
100
AcDbLine
 62
7
  6
CONTINUOUS
 10
64.7805927137
 20
298.0513196481
 11
64.7805927137
 21
314.5513196481
  0
LINE
  5
25D
100
AcDbEntity
  8
0
100
AcDbLine
 62
7
  6
CONTINUOUS
 10
64.8998736265
 20
292.0813196481
 11
64.8998736265
 21
56.5213196481
  0
LINE
  5
25E
100
AcDbEntity
  8
0
100
AcDbLine
 62
7
  6
CONTINUOUS
 10
65.2901487816
 20
300.5260626709
 11
65.2901487816
 21
298.8648749214
  0
LINE
  5
25F
100
AcDbEntity
  8
0
100
AcDbLine
 62
7
  6
CONTINUOUS
 10
65.2901487816
 20
49.7377643748
 11
65.2901487816
 21
48.0765766292
  0
LINE
  5
260
100
AcDbEntity
  8
0
100
AcDbLine
 62
7
  6
CONTINUOUS
 10
65.7370646732
 20
318.40653532
 11
65.7370646732
 21
293.0013196481
  0
LINE
  5
261
100
AcDbEntity
  8
0
100
AcDbLine
 62
7
  6
CONTINUOUS
 10
65.7370646732
 20
55.6013196481
 11
65.7370646732
 21
30.1961039761
  0
LINE
  5
262
100
AcDbEntity
  8
0
100
AcDbLine
 62
7
  6
CONTINUOUS
 10
66.3154328784
 20
319.2612643663
 11
66.3154328784
 21
29.3413749299
  0
LINE
  5
263
100
AcDbEntity
  8
0
100
AcDbLine
 62
7
  6
CONTINUOUS
 10
66.6340369057
 20
315.7436624251
 11
66.6340369057
 21
297.8706070508
  0
LINE
  5
264
100
AcDbEntity
  8
0
100
AcDbLine
 62
7
  6
CONTINUOUS
 10
66.6340369057
 20
50.7320322455
 11
66.6340369057
 21
32.8589768711
  0
LINE
  5
265
100
AcDbEntity
  8
0
100
AcDbLine
 62
7
  6
CONTINUOUS
 10
67.3526341562
 20
316.2477284305
 11
67.3526341562
 21
297.4394274384
  0
LINE
  5
266
100
AcDbEntity
  8
0
100
AcDbLine
 62
7
  6
CONTINUOUS
 10
67.3526341562
 20
51.1632118585
 11
67.3526341562
 21
32.3549108656
  0
LINE
  5
267
100
AcDbEntity
  8
0
100
AcDbLine
 62
7
  6
CONTINUOUS
 10
70.5785927137
 20
32.620368882
 11
70.5785927137
 21
315.9822704142
  0
LINE
  5
268
100
AcDbEntity
  8
0
100
AcDbLine
 62
7
  6
CONTINUOUS
 10
71.6119331476
 20
316.9235224974
 11
71.6119331476
 21
296.6221396771
  0
LINE
  5
269
100
AcDbEntity
  8
0
100
AcDbLine
 62
7
  6
CONTINUOUS
 10
71.6119331476
 20
51.9805002815
 11
71.6119331476
 21
31.6791167988
  0
LINE
  5
26A
100
AcDbEntity
  8
0
100
AcDbLine
 62
7
  6
CONTINUOUS
 10
71.7785474367
 20
317.1495798439
 11
71.7785474367
 21
31.4530594523
  0
LINE
  5
26B
100
AcDbEntity
  8
0
100
AcDbLine
 62
7
  6
CONTINUOUS
 10
72.4910625627
 20
306.8114302637
 11
72.4910625627
 21
300.7912090325
  0
LINE
  5
26C
100
AcDbEntity
  8
0
100
AcDbLine
 62
7
  6
CONTINUOUS
 10
72.4910625627
 20
285.8114302637
 11
72.4910625627
 21
279.7912090325
  0
LINE
  5
26D
100
AcDbEntity
  8
0
100
AcDbLine
 62
7
  6
CONTINUOUS
 10
72.4910625627
 20
68.8114302637
 11
72.4910625627
 21
62.7912090325
  0
LINE
  5
26E
100
AcDbEntity
  8
0
100
AcDbLine
 62
7
  6
CONTINUOUS
 10
72.4910625627
 20
47.8114302637
 11
72.4910625627
 21
41.7912090325
  0
LINE
  5
26F
100
AcDbEntity
  8
0
100
AcDbLine
 62
7
  6
CONTINUOUS
 10
72.7805927137
 20
306.5116130156
 11
72.7805927137
 21
301.0910262806
  0
LINE
  5
270
100
AcDbEntity
  8
0
100
AcDbLine
 62
7
  6
CONTINUOUS
 10
72.7805927137
 20
285.5116130156
 11
72.7805927137
 21
280.0910262806
  0
LINE
  5
271
100
AcDbEntity
  8
0
100
AcDbLine
 62
7
  6
CONTINUOUS
 10
72.7805927137
 20
68.5116130156
 11
72.7805927137
 21
63.0910262806
  0
LINE
  5
272
100
AcDbEntity
  8
0
100
AcDbLine
 62
7
  6
CONTINUOUS
 10
72.7805927137
 20
47.5116130156
 11
72.7805927137
 21
42.0910262806
  0
LINE
  5
273
100
AcDbEntity
  8
0
100
AcDbLine
 62
7
  6
CONTINUOUS
 10
73.7805926807
 20
317.5201241036
 11
73.7805926807
 21
31.0825151926
  0
LINE
  5
274
100
AcDbEntity
  8
0
100
AcDbLine
 62
7
  6
CONTINUOUS
 10
71.7836147371
 20
54.7377488888
 11
71.7785474367
 21
41.6013196481
  0
LINE
  5
275
100
AcDbEntity
  8
0
100
AcDbLine
 62
7
  6
CONTINUOUS
 10
189.3785927137
 20
115.0787614547
 11
187.2785927137
 21
115.2624876481
  0
LINE
  5
276
100
AcDbEntity
  8
0
100
AcDbLine
 62
7
  6
CONTINUOUS
 10
81.2805927137
 20
311.5156096753
 11
81.2805927137
 21
297.3013196481
  0
LINE
  5
277
100
AcDbEntity
  8
0
100
AcDbLine
 62
7
  6
CONTINUOUS
 10
81.2805927137
 20
51.3013196481
 11
81.2805927137
 21
37.0870296209
  0
LINE
  5
278
100
AcDbEntity
  8
0
100
AcDbLine
 62
7
  6
CONTINUOUS
 10
81.298042462
 20
317.7826392346
 11
81.298042462
 21
30.8200000616
  0
LINE
  5
279
100
AcDbEntity
  8
0
100
AcDbLine
 62
7
  6
CONTINUOUS
 10
81.7805927137
 20
319.8013196481
 11
81.7805927137
 21
28.8013196481
  0
LINE
  5
27A
100
AcDbEntity
  8
0
100
AcDbLine
 62
7
  6
CONTINUOUS
 10
82.5785927137
 20
28.8013196481
 11
82.5785927137
 21
319.8013196481
  0
LINE
  5
27B
100
AcDbEntity
  8
0
100
AcDbLine
 62
7
  6
CONTINUOUS
 10
84.5785927137
 20
319.8013196481
 11
84.5785927137
 21
28.8013196481
  0
LINE
  5
27C
100
AcDbEntity
  8
0
100
AcDbLine
 62
7
  6
CONTINUOUS
 10
95.2805927137
 20
315.3013196481
 11
95.2805927137
 21
298.9657092773
  0
LINE
  5
27D
100
AcDbEntity
  8
0
100
AcDbLine
 62
7
  6
CONTINUOUS
 10
95.2805927137
 20
49.6369300189
 11
95.2805927137
 21
33.3013196481
  0
LINE
  5
27E
100
AcDbEntity
  8
0
100
AcDbLine
 62
7
  6
CONTINUOUS
 10
189.3785927137
 20
171.0238778415
 11
187.2785927137
 21
170.8401516481
  0
LINE
  5
27F
100
AcDbEntity
  8
0
100
AcDbLine
 62
7
  6
CONTINUOUS
 10
189.3785927137
 20
177.5787614547
 11
187.2785927137
 21
177.7624876481
  0
LINE
  5
280
100
AcDbEntity
  8
0
100
AcDbLine
 62
7
  6
CONTINUOUS
 10
189.3785927137
 20
233.5238778415
 11
187.2785927137
 21
233.3401516481
  0
LINE
  5
281
100
AcDbEntity
  8
0
100
AcDbLine
 62
7
  6
CONTINUOUS
 10
187.2785927137
 20
298.3013196481
 11
187.2785927137
 21
50.3013196481
  0
LINE
  5
282
100
AcDbEntity
  8
0
100
AcDbLine
 62
7
  6
CONTINUOUS
 10
189.2785927137
 20
80.3013196481
 11
189.2785927137
 21
68.3013196481
  0
LINE
  5
283
100
AcDbEntity
  8
0
100
AcDbLine
 62
7
  6
CONTINUOUS
 10
189.2785927137
 20
266.3021214065
 11
189.2785927137
 21
281.5238778415
  0
LINE
  5
284
100
AcDbEntity
  8
0
100
AcDbLine
 62
7
  6
CONTINUOUS
 10
189.3785927137
 20
295.0775221311
 11
189.3785927137
 21
281.525117165
  0
LINE
  5
285
100
AcDbEntity
  8
0
100
AcDbLine
 62
7
  6
CONTINUOUS
 10
189.3785927137
 20
240.0775221311
 11
189.3785927137
 21
233.525117165
  0
LINE
  5
286
100
AcDbEntity
  8
0
100
AcDbLine
 62
7
  6
CONTINUOUS
 10
189.3785927137
 20
177.5775221311
 11
189.3785927137
 21
171.025117165
  0
LINE
  5
287
100
AcDbEntity
  8
0
100
AcDbLine
 62
7
  6
CONTINUOUS
 10
189.3785927137
 20
115.0775221311
 11
189.3785927137
 21
108.525117165
  0
LINE
  5
288
100
AcDbEntity
  8
0
100
AcDbLine
 62
7
  6
CONTINUOUS
 10
189.3785927137
 20
67.0775221311
 11
189.3785927137
 21
53.525117165
  0
LINE
  5
289
100
AcDbEntity
  8
0
100
AcDbLine
 62
7
  6
CONTINUOUS
 10
189.3785927137
 20
50.3013196481
 11
189.3785927137
 21
31.7013196481
  0
LINE
  5
28A
100
AcDbEntity
  8
0
100
AcDbLine
 62
7
  6
CONTINUOUS
 10
189.3785927137
 20
298.3013196481
 11
189.3785927137
 21
316.9013196481
  0
LINE
  5
28B
100
AcDbEntity
  8
0
100
AcDbLine
 62
7
  6
CONTINUOUS
 10
189.3785927137
 20
240.0787614547
 11
187.2785927137
 21
240.2624876481
  0
LINE
  5
28C
100
AcDbEntity
  8
0
100
AcDbLine
 62
7
  6
CONTINUOUS
 10
189.2785927137
 20
266.3013196481
 11
187.2785927137
 21
266.3013196481
  0
LINE
  5
28D
100
AcDbEntity
  8
0
100
AcDbLine
 62
7
  6
CONTINUOUS
 10
189.3785927137
 20
281.5238778415
 11
187.2785927137
 21
281.3401516481
  0
LINE
  5
28E
100
AcDbEntity
  8
0
100
AcDbLine
 62
7
  6
CONTINUOUS
 10
72.4910625627
 20
279.7912090325
 11
63.9805927137
 21
279.4940168765
  0
LINE
  5
28F
100
AcDbEntity
  8
0
100
AcDbLine
 62
7
  6
CONTINUOUS
 10
189.2785927137
 20
272.3013196481
 11
187.2785927137
 21
272.3013196481
  0
LINE
  5
290
100
AcDbEntity
  8
0
100
AcDbLine
 62
7
  6
CONTINUOUS
 10
187.2785927137
 20
276.3013196481
 11
189.2785927137
 21
276.3013196481
  0
LINE
  5
291
100
AcDbEntity
  8
0
100
AcDbLine
 62
7
  6
CONTINUOUS
 10
63.9805927137
 20
281.0013196481
 11
72.7805927137
 21
281.0013196481
  0
LINE
  5
292
100
AcDbEntity
  8
0
100
AcDbLine
 62
7
  6
CONTINUOUS
 10
189.3785927137
 20
284.1246543324
 11
187.2785927137
 21
284.0513207164
  0
LINE
  5
293
100
AcDbEntity
  8
0
100
AcDbLine
 62
7
  6
CONTINUOUS
 10
63.9805927137
 20
284.6013196481
 11
72.7805927137
 21
284.6013196481
  0
LINE
  5
294
100
AcDbEntity
  8
0
100
AcDbLine
 62
7
  6
CONTINUOUS
 10
70.5785927137
 20
291.1323196481
 11
82.5785927137
 21
291.1323196481
  0
LINE
  5
295
100
AcDbEntity
  8
0
100
AcDbLine
 62
7
  6
CONTINUOUS
 10
70.5785927137
 20
291.2013196481
 11
82.5785927137
 21
291.2013196481
  0
LINE
  5
296
100
AcDbEntity
  8
0
100
AcDbLine
 62
7
  6
CONTINUOUS
 10
71.7805927137
 20
292.0813196481
 11
63.9805927137
 21
292.0813196481
  0
LINE
  5
297
100
AcDbEntity
  8
0
100
AcDbLine
 62
7
  6
CONTINUOUS
 10
72.4910625627
 20
285.8114302637
 11
63.9805927137
 21
286.1086224196
  0
LINE
  5
298
100
AcDbEntity
  8
0
100
AcDbLine
 62
7
  6
CONTINUOUS
 10
72.4910625627
 20
300.7912090325
 11
63.9805927137
 21
300.4940168765
  0
LINE
  5
299
100
AcDbEntity
  8
0
100
AcDbLine
 62
7
  6
CONTINUOUS
 10
65.7370646732
 20
293.0013196481
 11
61.3774237755
 21
293.0013196481
  0
LINE
  5
29A
100
AcDbEntity
  8
0
100
AcDbLine
 62
7
  6
CONTINUOUS
 10
73.7805927137
 20
293.8648904074
 11
71.7805927137
 21
293.8648904074
  0
LINE
  5
29B
100
AcDbEntity
  8
0
100
AcDbLine
 62
7
  6
CONTINUOUS
 10
74.3778763217
 20
294.1659536721
 11
70.5785927137
 21
294.1659536721
  0
LINE
  5
29C
100
AcDbEntity
  8
0
100
AcDbLine
 62
7
  6
CONTINUOUS
 10
82.5785927137
 20
295.3513196481
 11
70.5785927137
 21
295.3513196481
  0
LINE
  5
29D
100
AcDbEntity
  8
0
100
AcDbLine
 62
7
  6
CONTINUOUS
 10
73.7805927137
 20
296.2397588248
 11
71.7785748145
 21
296.2397588248
  0
LINE
  5
29E
100
AcDbEntity
  8
0
100
AcDbLine
 62
7
  6
CONTINUOUS
 10
71.7805927137
 20
296.3113196481
 11
73.7805927137
 21
296.3113196481
  0
LINE
  5
29F
100
AcDbEntity
  8
0
100
AcDbLine
 62
7
  6
CONTINUOUS
 10
73.7805927137
 20
297.3013196481
 11
81.2805927137
 21
297.3013196481
  0
LINE
  5
2A0
100
AcDbEntity
  8
0
100
AcDbLine
 62
7
  6
CONTINUOUS
 10
73.7805927137
 20
297.6406557421
 11
71.7805927137
 21
297.6406557421
  0
LINE
  5
2A1
100
AcDbEntity
  8
0
100
AcDbLine
 62
7
  6
CONTINUOUS
 10
61.3785927137
 20
298.0513196481
 11
64.7805927137
 21
298.0513196481
  0
LINE
  5
2A2
100
AcDbEntity
  8
0
100
AcDbLine
 62
7
  6
CONTINUOUS
 10
73.7805927137
 20
298.1013196481
 11
81.2805927137
 21
298.1013196481
  0
LINE
  5
2A3
100
AcDbEntity
  8
0
100
AcDbLine
 62
7
  6
CONTINUOUS
 10
70.5785927137
 20
298.2385088817
 11
82.5785927137
 21
298.2385088817
  0
LINE
  5
2A4
100
AcDbEntity
  8
0
100
AcDbLine
 62
7
  6
CONTINUOUS
 10
71.7805927137
 20
298.2648904074
 11
73.7805927137
 21
298.2648904074
  0
LINE
  5
2A5
100
AcDbEntity
  8
0
100
AcDbLine
 62
7
  6
CONTINUOUS
 10
61.3785927137
 20
298.3013196481
 11
64.7805927137
 21
298.3013196481
  0
LINE
  5
2A6
100
AcDbEntity
  8
0
100
AcDbLine
 62
7
  6
CONTINUOUS
 10
84.5785927137
 20
298.3013196481
 11
189.3785927137
 21
298.3013196481
  0
LINE
  5
2A7
100
AcDbEntity
  8
0
100
AcDbLine
 62
7
  6
CONTINUOUS
 10
73.7805927137
 20
298.8648904074
 11
65.2901560076
 21
298.8648904074
  0
LINE
  5
2A8
100
AcDbEntity
  8
0
100
AcDbLine
 62
7
  6
CONTINUOUS
 10
95.2805927137
 20
298.9657092773
 11
81.2805927137
 21
298.9657092773
  0
LINE
  5
2A9
100
AcDbEntity
  8
0
100
AcDbLine
 62
7
  6
CONTINUOUS
 10
95.2805927137
 20
299.5402208967
 11
81.2805927137
 21
299.5402208967
  0
LINE
  5
2AA
100
AcDbEntity
  8
0
100
AcDbLine
 62
7
  6
CONTINUOUS
 10
61.3785927137
 20
300.3019713622
 11
64.7805927137
 21
300.3019713622
  0
LINE
  5
2AB
100
AcDbEntity
  8
0
100
AcDbLine
 62
7
  6
CONTINUOUS
 10
73.7805927137
 20
300.525972909
 11
65.2901569872
 21
300.525972909
  0
LINE
  5
2AC
100
AcDbEntity
  8
0
100
AcDbLine
 62
7
  6
CONTINUOUS
 10
64.7805927137
 20
301.0090781434
 11
61.3785927137
 21
301.0090781434
  0
LINE
  5
2AD
100
AcDbEntity
  8
0
100
AcDbLine
 62
7
  6
CONTINUOUS
 10
63.9805927137
 20
302.0013196481
 11
72.7805927137
 21
302.0013196481
  0
LINE
  5
2AE
100
AcDbEntity
  8
0
100
AcDbLine
 62
7
  6
CONTINUOUS
 10
189.3785927137
 20
291.4779849638
 11
187.2785927137
 21
291.5513185798
  0
LINE
  5
2AF
100
AcDbEntity
  8
0
100
AcDbLine
 62
7
  6
CONTINUOUS
 10
189.3785927137
 20
295.0787614547
 11
187.2785927137
 21
295.2624876481
  0
LINE
  5
2B0
100
AcDbEntity
  8
0
100
AcDbLine
 62
7
  6
CONTINUOUS
 10
82.5785927137
 20
305.1013196481
 11
70.5785927137
 21
305.1013196481
  0
LINE
  5
2B1
100
AcDbEntity
  8
0
100
AcDbLine
 62
7
  6
CONTINUOUS
 10
63.9805927137
 20
305.6013196481
 11
72.7805927137
 21
305.6013196481
  0
LINE
  5
2B2
100
AcDbEntity
  8
0
100
AcDbLine
 62
7
  6
CONTINUOUS
 10
71.7805927137
 20
305.6813196481
 11
63.9805927137
 21
305.6813196481
  0
LINE
  5
2B3
100
AcDbEntity
  8
0
100
AcDbLine
 62
7
  6
CONTINUOUS
 10
82.5785927137
 20
306.8013196481
 11
189.3785927137
 21
306.8013196481
  0
LINE
  5
2B4
100
AcDbEntity
  8
0
100
AcDbLine
 62
7
  6
CONTINUOUS
 10
81.7805927137
 20
307.0013196481
 11
63.4121520554
 21
307.0013196481
  0
LINE
  5
2B5
100
AcDbEntity
  8
0
100
AcDbLine
 62
7
  6
CONTINUOUS
 10
63.2963981027
 20
307.0013196481
 11
61.3774436745
 21
307.0013196481
  0
LINE
  5
2B6
100
AcDbEntity
  8
0
100
AcDbLine
 62
7
  6
CONTINUOUS
 10
73.7805927137
 20
310.4922056321
 11
71.7805927137
 21
310.4922056321
  0
LINE
  5
2B7
100
AcDbEntity
  8
0
100
AcDbLine
 62
7
  6
CONTINUOUS
 10
95.2805927137
 20
310.9410980559
 11
81.2805927137
 21
310.9410980559
  0
LINE
  5
2B8
100
AcDbEntity
  8
0
100
AcDbLine
 62
7
  6
CONTINUOUS
 10
70.5785927137
 20
311.3513196481
 11
82.5785927137
 21
311.3513196481
  0
LINE
  5
2B9
100
AcDbEntity
  8
0
100
AcDbLine
 62
7
  6
CONTINUOUS
 10
95.2805927137
 20
311.5156096753
 11
81.2805927137
 21
311.5156096753
  0
LINE
  5
2BA
100
AcDbEntity
  8
0
100
AcDbLine
 62
7
  6
CONTINUOUS
 10
71.7805927137
 20
311.5263196481
 11
64.8998736265
 21
311.5263196481
  0
LINE
  5
2BB
100
AcDbEntity
  8
0
100
AcDbLine
 62
7
  6
CONTINUOUS
 10
64.7805927137
 20
311.5935611528
 11
62.2814372713
 21
311.5935611528
  0
LINE
  5
2BC
100
AcDbEntity
  8
0
100
AcDbLine
 62
7
  6
CONTINUOUS
 10
62.5120172122
 20
312.300667934
 11
64.7805927137
 21
312.300667934
  0
LINE
  5
2BD
100
AcDbEntity
  8
0
100
AcDbLine
 62
7
  6
CONTINUOUS
 10
73.7805927137
 20
312.7513196481
 11
65.2901569767
 21
312.7513196481
  0
LINE
  5
2BE
100
AcDbEntity
  8
0
100
AcDbLine
 62
7
  6
CONTINUOUS
 10
70.5785927137
 20
314.3822704142
 11
74.3778763216
 21
314.3159536721
  0
LINE
  5
2BF
100
AcDbEntity
  8
0
100
AcDbLine
 62
7
  6
CONTINUOUS
 10
72.4910625627
 20
306.8114302637
 11
64.0745037944
 21
307.1053429724
  0
LINE
  5
2C0
100
AcDbEntity
  8
0
100
AcDbLine
 62
7
  6
CONTINUOUS
 10
71.6119331476
 20
316.9235224974
 11
67.3526341562
 21
316.2477284305
  0
LINE
  5
2C1
100
AcDbEntity
  8
0
100
AcDbLine
 62
7
  6
CONTINUOUS
 10
82.5785927137
 20
316.4013196481
 11
70.5785927137
 21
315.9822704142
  0
LINE
  5
2C2
100
AcDbEntity
  8
0
100
AcDbLine
 62
7
  6
CONTINUOUS
 10
81.298042462
 20
317.7826392346
 11
73.7805926807
 21
317.5201241036
  0
LINE
  5
2C3
100
AcDbEntity
  8
0
100
AcDbLine
 62
7
  6
CONTINUOUS
 10
81.7805927137
 20
319.8013196481
 11
66.3154328784
 21
319.2612643663
  0
LINE
  5
2C4
100
AcDbEntity
  8
0
100
AcDbLine
 62
7
  6
CONTINUOUS
 10
63.3103367999
 20
314.3013196481
 11
64.7805927137
 21
314.3013196481
  0
LINE
  5
2C5
100
AcDbEntity
  8
0
100
AcDbLine
 62
7
  6
CONTINUOUS
 10
74.3778763216
 20
314.3159536721
 11
70.5785927137
 21
314.3159536721
  0
LINE
  5
2C6
100
AcDbEntity
  8
0
100
AcDbLine
 62
7
  6
CONTINUOUS
 10
65.9711403237
 20
314.4313196481
 11
73.7805927137
 21
314.4313196481
  0
LINE
  5
2C7
100
AcDbEntity
  8
0
100
AcDbLine
 62
7
  6
CONTINUOUS
 10
73.7805927137
 20
314.5013196481
 11
95.2805927137
 21
314.5013196481
  0
LINE
  5
2C8
100
AcDbEntity
  8
0
100
AcDbLine
 62
7
  6
CONTINUOUS
 10
63.4261233054
 20
314.5513196481
 11
64.7805927137
 21
314.5513196481
  0
LINE
  5
2C9
100
AcDbEntity
  8
0
100
AcDbLine
 62
7
  6
CONTINUOUS
 10
73.7805927137
 20
315.3013196481
 11
95.2805927137
 21
315.3013196481
  0
LINE
  5
2CA
100
AcDbEntity
  8
0
100
AcDbLine
 62
7
  6
CONTINUOUS
 10
82.5785927137
 20
315.6505566734
 11
70.5785927137
 21
315.6505566734
  0
LINE
  5
2CB
100
AcDbEntity
  8
0
100
AcDbLine
 62
7
  6
CONTINUOUS
 10
189.3785927137
 20
316.9013196481
 11
84.5785927137
 21
316.9013196481
  0
LINE
  5
2CC
100
AcDbEntity
  8
0
100
AcDbLine
 62
7
  6
CONTINUOUS
 10
73.7805927137
 20
317.1513196481
 11
71.7785748145
 21
317.1513196481
  0
LINE
  5
2CD
100
AcDbEntity
  8
0
100
AcDbLine
 62
7
  6
CONTINUOUS
 10
84.5785927137
 20
319.8013196481
 11
82.5785927137
 21
319.8013196481
  0
ARC
  5
2CE
100
AcDbEntity
  8
0
100
AcDbCircle
 62
7
  6
CONTINUOUS
 10
32.1257505412
 20
65.7624708099
 40
31.9987980928
100
AcDbArc
 50
0.0695614764
 51
3.4823208942
  0
ARC
  5
2CF
100
AcDbEntity
  8
0
100
AcDbCircle
 62
7
  6
CONTINUOUS
 10
32.1325602047
 20
65.8400157908
 40
31.9919877007
100
AcDbArc
 50
356.5173248899
 51
359.9306971866
  0
ARC
  5
2D0
100
AcDbEntity
  8
0
100
AcDbCircle
 62
7
  6
CONTINUOUS
 10
46.593999482
 20
42.9317370805
 40
19.3771691376
100
AcDbArc
 50
356.084974277
 51
359.9691969595
  0
ARC
  5
2D1
100
AcDbEntity
  8
0
100
AcDbCircle
 62
7
  6
CONTINUOUS
 10
46.7154814268
 20
42.9275116593
 40
19.2556536445
100
AcDbArc
 50
356.0728374206
 51
359.981575489
  0
ARC
  5
2D2
100
AcDbEntity
  8
0
100
AcDbCircle
 62
7
  6
CONTINUOUS
 10
45.4886450207
 20
42.3081024132
 40
17.8217061603
100
AcDbArc
 50
357.7314299979
 51
359.9781937763
  0
ARC
  5
2D3
100
AcDbEntity
  8
0
100
AcDbCircle
 62
7
  6
CONTINUOUS
 10
45.624879141
 20
42.3082603963
 40
17.8012590742
100
AcDbArc
 50
357.7280596485
 51
359.9776602379
  0
ARC
  5
2D4
100
AcDbEntity
  8
0
100
AcDbCircle
 62
7
  6
CONTINUOUS
 10
45.6754640001
 20
42.3043380825
 40
17.6348697713
100
AcDbArc
 50
357.7196243903
 51
359.9901930934
  0
ARC
  5
2D5
100
AcDbEntity
  8
0
100
AcDbCircle
 62
7
  6
CONTINUOUS
 10
45.8196754191
 20
42.3043510779
 40
17.6064447727
100
AcDbArc
 50
357.7156415708
 51
359.9901349701
  0
ARC
  5
2D6
100
AcDbEntity
  8
0
100
AcDbCircle
 62
7
  6
CONTINUOUS
 10
32.1257505412
 20
282.7624708099
 40
31.9987980927
100
AcDbArc
 50
0.0695614764
 51
3.4823208942
  0
ARC
  5
2D7
100
AcDbEntity
  8
0
100
AcDbCircle
 62
7
  6
CONTINUOUS
 10
32.1325602047
 20
282.8400157908
 40
31.9919877007
100
AcDbArc
 50
356.5173248899
 51
359.9306971866
  0
ARC
  5
2D8
100
AcDbEntity
  8
0
100
AcDbCircle
 62
7
  6
CONTINUOUS
 10
46.5939794017
 20
305.6709016687
 40
19.3771892222
100
AcDbArc
 50
0.030804626
 51
3.915023283
  0
ARC
  5
2D9
100
AcDbEntity
  8
0
100
AcDbCircle
 62
7
  6
CONTINUOUS
 10
46.7155045975
 20
305.6751279029
 40
19.2556304769
100
AcDbArc
 50
0.0184237414
 51
3.9271665107
  0
ARC
  5
2DA
100
AcDbEntity
  8
0
100
AcDbCircle
 62
7
  6
CONTINUOUS
 10
45.4885924546
 20
306.2945361563
 40
17.8217587282
100
AcDbArc
 50
0.0218084955
 51
2.2685656471
  0
ARC
  5
2DB
100
AcDbEntity
  8
0
100
AcDbCircle
 62
7
  6
CONTINUOUS
 10
45.6249733415
 20
306.2943802547
 40
17.8011648695
100
AcDbArc
 50
0.0223355195
 51
2.2719480132
  0
ARC
  5
2DC
100
AcDbEntity
  8
0
100
AcDbCircle
 62
7
  6
CONTINUOUS
 10
45.6754721141
 20
306.2983012954
 40
17.6348616572
100
AcDbArc
 50
0.0098066456
 51
2.2803763932
  0
ARC
  5
2DD
100
AcDbEntity
  8
0
100
AcDbCircle
 62
7
  6
CONTINUOUS
 10
45.8197368639
 20
306.2982887385
 40
17.6063833284
100
AcDbArc
 50
0.0098633712
 51
2.2843647069
  0
ARC
  5
2DE
100
AcDbEntity
  8
0
100
AcDbCircle
 62
7
  6
CONTINUOUS
 10
74.0213587594
 20
37.977153605
 40
6.898841
100
AcDbArc
 50
251.028383
 51
268.0
  0
ARC
  5
2DF
100
AcDbEntity
  8
0
100
AcDbCircle
 62
7
  6
CONTINUOUS
 10
67.5093372072
 20
33.342556629
 40
1.0
100
AcDbArc
 50
208.9194638468
 51
260.984419
  0
ARC
  5
2E0
100
AcDbEntity
  8
0
100
AcDbCircle
 62
7
  6
CONTINUOUS
 10
72.4805927137
 20
42.0910262806
 40
0.3
100
AcDbArc
 50
272.0000000004
 51
360.0
  0
ARC
  5
2E1
100
AcDbEntity
  8
0
100
AcDbCircle
 62
7
  6
CONTINUOUS
 10
72.4805927137
 20
47.5116130156
 40
0.3
100
AcDbArc
 50
0.0
 51
87.9999999996
  0
ARC
  5
2E2
100
AcDbEntity
  8
0
100
AcDbCircle
 62
7
  6
CONTINUOUS
 10
71.5805925374
 20
31.4815876462
 40
0.2
100
AcDbArc
 50
351.79930328
 51
80.9844189999
  0
ARC
  5
2E3
100
AcDbEntity
  8
0
100
AcDbCircle
 62
7
  6
CONTINUOUS
 10
72.4805927137
 20
63.0910262806
 40
0.3
100
AcDbArc
 50
272.0000000004
 51
360.0
  0
ARC
  5
2E4
100
AcDbEntity
  8
0
100
AcDbCircle
 62
7
  6
CONTINUOUS
 10
72.4805927137
 20
68.5116130156
 40
0.3
100
AcDbArc
 50
0.0
 51
87.9999999996
  0
ARC
  5
2E5
100
AcDbEntity
  8
0
100
AcDbCircle
 62
7
  6
CONTINUOUS
 10
81.2805927137
 20
30.3203046481
 40
0.5
100
AcDbArc
 50
0.0
 51
88.0
  0
ARC
  5
2E6
100
AcDbEntity
  8
0
100
AcDbCircle
 62
7
  6
CONTINUOUS
 10
83.8121782947
 20
41.6756529208
 40
22.5269984415
100
AcDbArc
 50
162.8968538263
 51
174.7806785425
  0
ARC
  5
2E7
100
AcDbEntity
  8
0
100
AcDbCircle
 62
7
  6
CONTINUOUS
 10
83.7849991634
 20
40.2665295144
 40
22.49944604
100
AcDbArc
 50
160.9948171858
 51
174.7862259968
  0
ARC
  5
2E8
100
AcDbEntity
  8
0
100
AcDbCircle
 62
7
  6
CONTINUOUS
 10
83.765988148
 20
43.6234601664
 40
22.4796791774
100
AcDbArc
 50
185.1609695995
 51
216.6775429919
  0
ARC
  5
2E9
100
AcDbEntity
  8
0
100
AcDbCircle
 62
7
  6
CONTINUOUS
 10
83.6078339648
 20
44.3174157759
 40
22.3210360565
100
AcDbArc
 50
185.1984947514
 51
186.9598153137
  0
ARC
  5
2EA
100
AcDbEntity
  8
0
100
AcDbCircle
 62
7
  6
CONTINUOUS
 10
84.028374749
 20
42.4688783734
 40
19.872423
100
AcDbArc
 50
199.4510927972
 51
208.9194638467
  0
ARC
  5
2EB
100
AcDbEntity
  8
0
100
AcDbCircle
 62
7
  6
CONTINUOUS
 10
86.4684307137
 20
43.6013196481
 40
24.687838
100
AcDbArc
 50
180.0
 51
215.2826251721
  0
ARC
  5
2EC
100
AcDbEntity
  8
0
100
AcDbCircle
 62
7
  6
CONTINUOUS
 10
87.5972597137
 20
43.6013196481
 40
23.616667
100
AcDbArc
 50
184.8579220846
 51
196.0387809908
  0
ARC
  5
2ED
100
AcDbEntity
  8
0
100
AcDbCircle
 62
7
  6
CONTINUOUS
 10
72.4805927137
 20
280.0910262806
 40
0.3
100
AcDbArc
 50
272.0000000004
 51
360.0
  0
ARC
  5
2EE
100
AcDbEntity
  8
0
100
AcDbCircle
 62
7
  6
CONTINUOUS
 10
72.4805927137
 20
285.5116130156
 40
0.3
100
AcDbArc
 50
0.0
 51
87.9999999996
  0
ARC
  5
2EF
100
AcDbEntity
  8
0
100
AcDbCircle
 62
7
  6
CONTINUOUS
 10
74.0213587594
 20
310.6254856911
 40
6.898841
100
AcDbArc
 50
92.0
 51
108.971617
  0
ARC
  5
2F0
100
AcDbEntity
  8
0
100
AcDbCircle
 62
7
  6
CONTINUOUS
 10
67.5093372072
 20
315.2600826672
 40
1.0
100
AcDbArc
 50
99.015581
 51
151.0805361533
  0
ARC
  5
2F1
100
AcDbEntity
  8
0
100
AcDbCircle
 62
7
  6
CONTINUOUS
 10
72.4805927137
 20
301.0910262806
 40
0.3
100
AcDbArc
 50
272.0000000004
 51
360.0
  0
ARC
  5
2F2
100
AcDbEntity
  8
0
100
AcDbCircle
 62
7
  6
CONTINUOUS
 10
72.4805927137
 20
306.5116130156
 40
0.3
100
AcDbArc
 50
0.0
 51
87.9999999996
  0
ARC
  5
2F3
100
AcDbEntity
  8
0
100
AcDbCircle
 62
7
  6
CONTINUOUS
 10
71.5805925374
 20
317.12105165
 40
0.2
100
AcDbArc
 50
279.0155810001
 51
8.20069672
  0
ARC
  5
2F4
100
AcDbEntity
  8
0
100
AcDbCircle
 62
7
  6
CONTINUOUS
 10
83.8121782387
 20
306.9269866595
 40
22.5269984415
100
AcDbArc
 50
185.2193221901
 51
197.1031469063
  0
ARC
  5
2F5
100
AcDbEntity
  8
0
100
AcDbCircle
 62
7
  6
CONTINUOUS
 10
83.784999093
 20
308.3361101101
 40
22.49944604
100
AcDbArc
 50
185.2137748522
 51
199.0051836632
  0
ARC
  5
2F6
100
AcDbEntity
  8
0
100
AcDbCircle
 62
7
  6
CONTINUOUS
 10
83.765988148
 20
304.9791791298
 40
22.4796791774
100
AcDbArc
 50
143.3224570081
 51
174.8390304005
  0
ARC
  5
2F7
100
AcDbEntity
  8
0
100
AcDbCircle
 62
7
  6
CONTINUOUS
 10
83.6078339418
 20
304.2852232986
 40
22.3210360563
100
AcDbArc
 50
173.0401841143
 51
174.8015046765
  0
ARC
  5
2F8
100
AcDbEntity
  8
0
100
AcDbCircle
 62
7
  6
CONTINUOUS
 10
84.028374749
 20
306.1337609228
 40
19.872423
100
AcDbArc
 50
151.0805361533
 51
160.5489072028
  0
ARC
  5
2F9
100
AcDbEntity
  8
0
100
AcDbCircle
 62
7
  6
CONTINUOUS
 10
81.2805927137
 20
318.2823346481
 40
0.5
100
AcDbArc
 50
272.0
 51
360.0
  0
ARC
  5
2FA
100
AcDbEntity
  8
0
100
AcDbCircle
 62
7
  6
CONTINUOUS
 10
86.4684307137
 20
305.0013196481
 40
24.687838
100
AcDbArc
 50
144.7173748279
 51
180.0
  0
ARC
  5
2FB
100
AcDbEntity
  8
0
100
AcDbCircle
 62
7
  6
CONTINUOUS
 10
87.5972597137
 20
305.0013196481
 40
23.616667
100
AcDbArc
 50
163.9612190092
 51
175.1420779154
  0
SPLINE
  5
2FC
100
AcDbEntity
  8
0
100
AcDbSpline
 62
7
  6
CONTINUOUS
 70
0
 71
3
 72
8
 73
4
 74
0
 42
0.0000001
 43
0.0000001
 44
0.0000000001
 40
0.0
 40
0.0
 40
0.0
 40
0.0
 40
1.0
 40
1.0
 40
1.0
 40
1.0
 10
82.5785927137
 20
294.3094134784
 30
0.0
 10
79.8449829116
 20
294.2637978057
 30
0.0
 10
77.1114071481
 20
294.216079124
 30
0.0
 10
74.3778763217
 20
294.1659536721
 30
0.0
  0
SPLINE
  5
2FD
100
AcDbEntity
  8
0
100
AcDbSpline
 62
7
  6
CONTINUOUS
 70
0
 71
3
 72
12
 73
8
 74
0
 42
0.0000001
 43
0.0000001
 44
0.0000000001
 40
0.0
 40
0.0
 40
0.0
 40
0.0
 40
0.0838073448
 40
0.2368314575
 40
0.4500058588
 40
0.7101469575
 40
1.0
 40
1.0
 40
1.0
 40
1.0
 10
65.9253305604
 20
314.3303074625
 30
0.0
 10
65.840566309
 20
314.1431282744
 30
0.0
 10
65.7814530577
 20
313.551230187
 30
0.0
 10
65.7194146837
 20
312.4585759108
 30
0.0
 10
65.7329622371
 20
310.9180365558
 30
0.0
 10
65.7968562581
 20
309.0495641299
 30
0.0
 10
65.877233224
 20
307.7029013035
 30
0.0
 10
65.9259470167
 20
306.9939156465
 30
0.0
  0
SPLINE
  5
2FE
100
AcDbEntity
  8
0
100
AcDbSpline
 62
7
  6
CONTINUOUS
 70
0
 71
3
 72
10
 73
6
 74
0
 42
0.0000001
 43
0.0000001
 44
0.0000000001
 40
0.0
 40
0.0
 40
0.0
 40
0.0
 40
0.3197521493
 40
0.6589461967
 40
1.0
 40
1.0
 40
1.0
 40
1.0
 10
66.6338064455
 20
297.870932735
 30
0.0
 10
66.6881065648
 20
297.797527818
 30
0.0
 10
66.8226085377
 20
297.6624420151
 30
0.0
 10
67.0677651125
 20
297.5113160205
 30
0.0
 10
67.2564389727
 20
297.4541865982
 30
0.0
 10
67.352675618
 20
297.4392509495
 30
0.0
  0
SPLINE
  5
2FF
100
AcDbEntity
  8
0
100
AcDbSpline
 62
7
  6
CONTINUOUS
 70
0
 71
3
 72
10
 73
6
 74
0
 42
0.0000001
 43
0.0000001
 44
0.0000000001
 40
0.0
 40
0.0
 40
0.0
 40
0.0
 40
0.3168263909
 40
0.6585323142
 40
1.0
 40
1.0
 40
1.0
 40
1.0
 10
65.2901569872
 20
300.525972909
 30
0.0
 10
65.4274402158
 20
301.0590741402
 30
0.0
 10
65.6756562771
 20
302.1772292215
 30
0.0
 10
65.9152843958
 20
303.9002450923
 30
0.0
 10
65.9711403237
 20
305.0880108003
 30
0.0
 10
65.9711403237
 20
305.6813196481
 30
0.0
  0
SPLINE
  5
300
100
AcDbEntity
  8
0
100
AcDbSpline
 62
7
  6
CONTINUOUS
 70
0
 71
3
 72
11
 73
7
 74
0
 42
0.0000001
 43
0.0000001
 44
0.0000000001
 40
0.0
 40
0.0
 40
0.0
 40
0.0
 40
0.2794909798
 40
0.5343636784
 40
0.7698566342
 40
1.0
 40
1.0
 40
1.0
 40
1.0
 10
71.7785748145
 20
52.3628804714
 30
0.0
 10
71.7817593365
 20
52.3219403286
 30
0.0
 10
71.7808977278
 20
52.2430167963
 30
0.0
 10
71.7578628677
 20
52.1310088742
 30
0.0
 10
71.7075836973
 20
52.0366572848
 30
0.0
 10
71.6493417251
 20
51.9911941711
 30
0.0
 10
71.6164646712
 20
51.983291581
 30
0.0
  0
SPLINE
  5
301
100
AcDbEntity
  8
0
100
AcDbSpline
 62
7
  6
CONTINUOUS
 70
0
 71
3
 72
10
 73
6
 74
0
 42
0.0000001
 43
0.0000001
 44
0.0000000001
 40
0.0
 40
0.0
 40
0.0
 40
0.0
 40
0.4224683321
 40
0.7527224834
 40
1.0
 40
1.0
 40
1.0
 40
1.0
 10
66.6338064723
 20
50.7317065979
 30
0.0
 10
66.4901003507
 20
50.5374393231
 30
0.0
 10
66.2083867979
 20
50.2081236875
 30
0.0
 10
65.7580325583
 20
49.8503053488
 30
0.0
 10
65.4315934055
 20
49.7377488888
 30
0.0
 10
65.2901560076
 20
49.7377488888
 30
0.0
  0
SPLINE
  5
302
100
AcDbEntity
  8
0
100
AcDbSpline
 62
7
  6
CONTINUOUS
 70
0
 71
3
 72
10
 73
6
 74
0
 42
0.0000001
 43
0.0000001
 44
0.0000000001
 40
0.0
 40
0.0
 40
0.0
 40
0.0
 40
0.3415643285
 40
0.6832634732
 40
1.0
 40
1.0
 40
1.0
 40
1.0
 10
65.9711403237
 20
42.9213196481
 30
0.0
 10
65.9711403237
 20
43.5147964013
 30
0.0
 10
65.9152610881
 20
44.702718791
 30
0.0
 10
65.6755919239
 20
46.4257286243
 30
0.0
 10
65.4274012739
 20
47.5437163762
 30
0.0
 10
65.2901569872
 20
48.0766663872
 30
0.0
  0
SPLINE
  5
303
100
AcDbEntity
  8
0
100
AcDbSpline
 62
7
  6
CONTINUOUS
 70
0
 71
3
 72
12
 73
8
 74
0
 42
0.0000001
 43
0.0000001
 44
0.0000000001
 40
0.0
 40
0.0
 40
0.0
 40
0.0
 40
0.0838073725
 40
0.2368314824
 40
0.450005876
 40
0.7101469632
 40
1.0
 40
1.0
 40
1.0
 40
1.0
 10
65.9253305569
 20
34.2723316302
 30
0.0
 10
65.8405662681
 20
34.4595108822
 30
0.0
 10
65.7814529926
 20
35.0514090502
 30
0.0
 10
65.7194146724
 20
36.1440634024
 30
0.0
 10
65.7329622521
 20
37.6846027453
 30
0.0
 10
65.7968563243
 20
39.5530751608
 30
0.0
 10
65.8772332636
 20
40.8997379839
 30
0.0
 10
65.9259470524
 20
41.608723647
 30
0.0
  0
SPLINE
  5
304
100
AcDbEntity
  8
0
100
AcDbSpline
 62
7
  6
CONTINUOUS
 70
0
 71
3
 72
10
 73
6
 74
0
 42
0.0000001
 43
0.0000001
 44
0.0000000001
 40
0.0
 40
0.0
 40
0.0
 40
0.0
 40
0.3530191129
 40
0.6865419775
 40
1.0
 40
1.0
 40
1.0
 40
1.0
 10
67.3526341562
 20
51.1635181147
 30
0.0
 10
67.8570983967
 20
51.2418095041
 30
0.0
 10
68.8366738369
 20
51.4040139496
 30
0.0
 10
70.2573568307
 20
51.6747381407
 30
0.0
 10
71.171192829
 20
51.8763193122
 30
0.0
 10
71.6119331476
 20
51.9822592073
 30
0.0
  0
SPLINE
  5
305
100
AcDbEntity
  8
0
100
AcDbSpline
 62
7
  6
CONTINUOUS
 70
0
 71
3
 72
10
 73
6
 74
0
 42
0.0000001
 43
0.0000001
 44
0.0000000001
 40
0.0
 40
0.0
 40
0.0
 40
0.0
 40
0.3197521493
 40
0.6589461967
 40
1.0
 40
1.0
 40
1.0
 40
1.0
 10
66.6338064455
 20
50.7317065612
 30
0.0
 10
66.6881065648
 20
50.8051114782
 30
0.0
 10
66.8226085377
 20
50.9401972811
 30
0.0
 10
67.0677651125
 20
51.0913232757
 30
0.0
 10
67.2564389727
 20
51.148452698
 30
0.0
 10
67.352675618
 20
51.1633883467
 30
0.0
  0
SPLINE
  5
306
100
AcDbEntity
  8
0
100
AcDbSpline
 62
7
  6
CONTINUOUS
 70
0
 71
3
 72
10
 73
6
 74
0
 42
0.0000001
 43
0.0000001
 44
0.0000000001
 40
0.0
 40
0.0
 40
0.0
 40
0.0
 40
0.4224683321
 40
0.7527224834
 40
1.0
 40
1.0
 40
1.0
 40
1.0
 10
66.6338064723
 20
297.8709326983
 30
0.0
 10
66.4901003507
 20
298.0651999731
 30
0.0
 10
66.2083867979
 20
298.3945156086
 30
0.0
 10
65.7580325583
 20
298.7523339474
 30
0.0
 10
65.4315934055
 20
298.8648904074
 30
0.0
 10
65.2901560076
 20
298.8648904074
 30
0.0
  0
SPLINE
  5
307
100
AcDbEntity
  8
0
100
AcDbSpline
 62
7
  6
CONTINUOUS
 70
0
 71
3
 72
10
 73
6
 74
0
 42
0.0000001
 43
0.0000001
 44
0.0000000001
 40
0.0
 40
0.0
 40
0.0
 40
0.0
 40
0.3171330058
 40
0.6505072596
 40
1.0
 40
1.0
 40
1.0
 40
1.0
 10
71.6119331476
 20
296.6203800889
 30
0.0
 10
71.166025642
 20
296.7275619631
 30
0.0
 10
70.2471615096
 20
296.930047266
 30
0.0
 10
68.8264047796
 20
297.200372824
 30
0.0
 10
67.8520591379
 20
297.3616118705
 30
0.0
 10
67.3526341562
 20
297.4391211814
 30
0.0
  0
SPLINE
  5
308
100
AcDbEntity
  8
0
100
AcDbSpline
 62
7
  6
CONTINUOUS
 70
0
 71
3
 72
11
 73
7
 74
0
 42
0.0000001
 43
0.0000001
 44
0.0000000001
 40
0.0
 40
0.0
 40
0.0
 40
0.0
 40
0.2794909798
 40
0.5343636784
 40
0.7698566342
 40
1.0
 40
1.0
 40
1.0
 40
1.0
 10
71.7785748145
 20
296.2397588248
 30
0.0
 10
71.7817593365
 20
296.2806989675
 30
0.0
 10
71.7808977278
 20
296.3596224999
 30
0.0
 10
71.7578628677
 20
296.471630422
 30
0.0
 10
71.7075836973
 20
296.5659820114
 30
0.0
 10
71.6493417251
 20
296.611445125
 30
0.0
 10
71.6164646712
 20
296.6193477152
 30
0.0
  0
SPLINE
  5
309
100
AcDbEntity
  8
0
100
AcDbSpline
 62
7
  6
CONTINUOUS
 70
0
 71
3
 72
10
 73
6
 74
0
 42
0.0000001
 43
0.0000001
 44
0.0000000001
 40
0.0
 40
0.0
 40
0.0
 40
0.0
 40
0.2603107269
 40
0.5589988211
 40
1.0
 40
1.0
 40
1.0
 40
1.0
 10
61.8618449837
 20
55.6013196481
 30
0.0
 10
61.845853703
 20
55.6013196481
 30
0.0
 10
61.8093828521
 20
55.58923128
 30
0.0
 10
61.7830031306
 20
55.5289621818
 30
0.0
 10
61.7805927137
 20
55.4837478103
 30
0.0
 10
61.7805927137
 20
55.4566564425
 30
0.0
  0
SPLINE
  5
30A
100
AcDbEntity
  8
0
100
AcDbSpline
 62
7
  6
CONTINUOUS
 70
0
 71
3
 72
13
 73
9
 74
0
 42
0.0000001
 43
0.0000001
 44
0.0000000001
 40
0.0
 40
0.0
 40
0.0
 40
0.0
 40
0.2289712247
 40
0.4565951397
 40
0.6587917948
 40
0.8229499029
 40
0.9407905145
 40
1.0
 40
1.0
 40
1.0
 40
1.0
 10
63.4261233054
 20
42.3013196481
 30
0.0
 10
63.4261233054
 20
42.9548183934
 30
0.0
 10
63.352563254
 20
44.2588904299
 30
0.0
 10
63.0426591952
 20
46.1176668856
 30
0.0
 10
62.5992164115
 20
47.7539768934
 30
0.0
 10
62.1381075537
 20
49.0638508518
 30
0.0
 10
61.7281167687
 20
49.9368385908
 30
0.0
 10
61.5008152121
 20
50.4037288301
 30
0.0
 10
61.3785927137
 20
50.5204271993
 30
0.0
  0
SPLINE
  5
30B
100
AcDbEntity
  8
0
100
AcDbSpline
 62
7
  6
CONTINUOUS
 70
0
 71
3
 72
13
 73
9
 74
0
 42
0.0000001
 43
0.0000001
 44
0.0000000001
 40
0.0
 40
0.0
 40
0.0
 40
0.0
 40
0.0517866964
 40
0.1595409382
 40
0.3178156907
 40
0.5181520331
 40
0.7497621249
 40
1.0
 40
1.0
 40
1.0
 40
1.0
 10
63.4120789953
 20
34.0812835217
 30
0.0
 10
63.3569048226
 20
34.1989691835
 30
0.0
 10
63.3434445477
 20
34.613026832
 30
0.0
 10
63.2901522878
 20
35.3987718001
 30
0.0
 10
63.2910268302
 20
36.5748453515
 30
0.0
 10
63.3026969538
 20
38.054080196
 30
0.0
 10
63.3451569948
 20
39.7665345835
 30
0.0
 10
63.3871331516
 20
40.9750112636
 30
0.0
 10
63.4121421803
 20
41.6025750062
 30
0.0
  0
SPLINE
  5
30C
100
AcDbEntity
  8
0
100
AcDbSpline
 62
7
  6
CONTINUOUS
 70
0
 71
3
 72
12
 73
8
 74
0
 42
0.0000001
 43
0.0000001
 44
0.0000000001
 40
0.0
 40
0.0
 40
0.0
 40
0.0
 40
0.2981660229
 40
0.5657705982
 40
0.7820668114
 40
0.9304841511
 40
1.0
 40
1.0
 40
1.0
 40
1.0
 10
63.2963803016
 20
41.6026539812
 30
0.0
 10
63.2676181195
 20
40.8798784558
 30
0.0
 10
63.2192694672
 20
39.5073307016
 30
0.0
 10
63.1863065017
 20
37.613274907
 30
0.0
 10
63.1654683872
 20
36.0715314781
 30
0.0
 10
63.2265560845
 20
35.0343245647
 30
0.0
 10
63.2266146461
 20
34.485786785
 30
0.0
 10
63.2963201624
 20
34.3322218875
 30
0.0
  0
SPLINE
  5
30D
100
AcDbEntity
  8
0
100
AcDbSpline
 62
7
  6
CONTINUOUS
 70
0
 71
3
 72
10
 73
6
 74
0
 42
0.0000001
 43
0.0000001
 44
0.0000000001
 40
0.0
 40
0.0
 40
0.0
 40
0.0
 40
0.1750432186
 40
0.514591705
 40
1.0
 40
1.0
 40
1.0
 40
1.0
 10
61.3785927137
 20
50.2691760836
 30
0.0
 10
61.468688738
 20
50.1800486201
 30
0.0
 10
61.6454195952
 20
49.8429973935
 30
0.0
 10
61.9548036362
 20
49.1942924516
 30
0.0
 10
62.1656348979
 20
48.6324783727
 30
0.0
 10
62.2814372713
 20
48.300667934
 30
0.0
  0
SPLINE
  5
30E
100
AcDbEntity
  8
0
100
AcDbSpline
 62
7
  6
CONTINUOUS
 70
0
 71
3
 72
13
 73
9
 74
0
 42
0.0000001
 43
0.0000001
 44
0.0000000001
 40
0.0
 40
0.0
 40
0.0
 40
0.0
 40
0.2502378662
 40
0.4818481192
 40
0.6821843409
 40
0.8404591315
 40
0.948213264
 40
1.0
 40
1.0
 40
1.0
 40
1.0
 10
63.4121417414
 20
307.0000642692
 30
0.0
 10
63.3871326468
 20
307.627628016
 30
0.0
 10
63.3451560155
 20
308.8361051216
 30
0.0
 10
63.3026965067
 20
310.5485596767
 30
0.0
 10
63.2910267272
 20
312.0277948132
 30
0.0
 10
63.2901527749
 20
313.2038678786
 30
0.0
 10
63.3434450734
 20
313.9896129144
 30
0.0
 10
63.3569058927
 20
314.4036702344
 30
0.0
 10
63.4120799893
 20
314.5213560484
 30
0.0
  0
SPLINE
  5
30F
100
AcDbEntity
  8
0
100
AcDbSpline
 62
7
  6
CONTINUOUS
 70
0
 71
3
 72
10
 73
6
 74
0
 42
0.0000001
 43
0.0000001
 44
0.0000000001
 40
0.0
 40
0.0
 40
0.0
 40
0.0
 40
0.2603107269
 40
0.5589988211
 40
1.0
 40
1.0
 40
1.0
 40
1.0
 10
61.8618449837
 20
293.0013196481
 30
0.0
 10
61.845853703
 20
293.0013196481
 30
0.0
 10
61.8093828521
 20
293.0134080162
 30
0.0
 10
61.7830031306
 20
293.0736771144
 30
0.0
 10
61.7805927137
 20
293.1188914859
 30
0.0
 10
61.7805927137
 20
293.1459828537
 30
0.0
  0
SPLINE
  5
310
100
AcDbEntity
  8
0
100
AcDbSpline
 62
7
  6
CONTINUOUS
 70
0
 71
3
 72
13
 73
9
 74
0
 42
0.0000001
 43
0.0000001
 44
0.0000000001
 40
0.0
 40
0.0
 40
0.0
 40
0.0
 40
0.2289712247
 40
0.4565951397
 40
0.6587917948
 40
0.8229499029
 40
0.9407905145
 40
1.0
 40
1.0
 40
1.0
 40
1.0
 10
63.4261233054
 20
306.3013196481
 30
0.0
 10
63.4261233054
 20
305.6478209028
 30
0.0
 10
63.352563254
 20
304.3437488663
 30
0.0
 10
63.0426591952
 20
302.4849724106
 30
0.0
 10
62.5992164115
 20
300.8486624028
 30
0.0
 10
62.1381075537
 20
299.5387884443
 30
0.0
 10
61.7281167687
 20
298.6658007054
 30
0.0
 10
61.5008152121
 20
298.1989104661
 30
0.0
 10
61.3785927137
 20
298.0822120969
 30
0.0
  0
SPLINE
  5
311
100
AcDbEntity
  8
0
100
AcDbSpline
 62
7
  6
CONTINUOUS
 70
0
 71
3
 72
13
 73
9
 74
0
 42
0.0000001
 43
0.0000001
 44
0.0000000001
 40
0.0
 40
0.0
 40
0.0
 40
0.0
 40
0.0517866771
 40
0.1595409132
 40
0.3178156739
 40
0.5181520181
 40
0.7497621259
 40
1.0
 40
1.0
 40
1.0
 40
1.0
 10
63.4120790227
 20
314.5213556447
 30
0.0
 10
63.3569048794
 20
314.4036700251
 30
0.0
 10
63.3434446217
 20
313.9896124519
 30
0.0
 10
63.2901523129
 20
313.2038675404
 30
0.0
 10
63.2910268332
 20
312.0277939985
 30
0.0
 10
63.3026969234
 20
310.5485591144
 30
0.0
 10
63.3451569279
 20
308.8361047131
 30
0.0
 10
63.3871331164
 20
307.6276280174
 30
0.0
 10
63.4121421481
 20
307.0000642885
 30
0.0
  0
SPLINE
  5
312
100
AcDbEntity
  8
0
100
AcDbSpline
 62
7
  6
CONTINUOUS
 70
0
 71
3
 72
10
 73
6
 74
0
 42
0.0000001
 43
0.0000001
 44
0.0000000001
 40
0.0
 40
0.0
 40
0.0
 40
0.0
 40
0.1750432186
 40
0.514591705
 40
1.0
 40
1.0
 40
1.0
 40
1.0
 10
61.3785927137
 20
298.3334632126
 30
0.0
 10
61.468688738
 20
298.4225906761
 30
0.0
 10
61.6454195952
 20
298.7596419027
 30
0.0
 10
61.9548036362
 20
299.4083468446
 30
0.0
 10
62.1656348979
 20
299.9701609235
 30
0.0
 10
62.2814372713
 20
300.3019713622
 30
0.0
  0
SPLINE
  5
313
100
AcDbEntity
  8
0
100
AcDbSpline
 62
7
  6
CONTINUOUS
 70
0
 71
3
 72
12
 73
8
 74
0
 42
0.0000001
 43
0.0000001
 44
0.0000000001
 40
0.0
 40
0.0
 40
0.0
 40
0.0
 40
0.2981660132
 40
0.565770585
 40
0.7820667967
 40
0.9304841407
 40
1.0
 40
1.0
 40
1.0
 40
1.0
 10
63.296380315
 20
306.9999853156
 30
0.0
 10
63.2676181353
 20
307.7227608243
 30
0.0
 10
63.2192695209
 20
309.095308561
 30
0.0
 10
63.1863065483
 20
310.9893643368
 30
0.0
 10
63.1654684136
 20
312.5311077812
 30
0.0
 10
63.2265560921
 20
313.568314731
 30
0.0
 10
63.2266146135
 20
314.116852563
 30
0.0
 10
63.2963201464
 20
314.2704174823
 30
0.0
  0
SPLINE
  5
314
100
AcDbEntity
  8
0
100
AcDbSpline
 62
7
  6
CONTINUOUS
 70
0
 71
3
 72
16
 73
12
 74
0
 42
0.0000001
 43
0.0000001
 44
0.0000000001
 40
0.0
 40
0.0
 40
0.0
 40
0.0
 40
0.1498305816
 40
0.2914958096
 40
0.4236381905
 40
0.5458519108
 40
0.6583954594
 40
0.7598970869
 40
0.8504806411
 40
0.9307215107
 40
1.0
 40
1.0
 40
1.0
 40
1.0
 10
63.1817244495
 20
311.5935611528
 30
0.0
 10
63.0515167352
 20
311.3832462508
 30
0.0
 10
62.8088587178
 20
310.9673447546
 30
0.0
 10
62.48932301
 20
310.3448577104
 30
0.0
 10
62.2213587148
 20
309.7481740544
 30
0.0
 10
62.0011866114
 20
309.1836249034
 30
0.0
 10
61.824342129
 20
308.6571888821
 30
0.0
 10
61.6859096063
 20
308.1735487886
 30
0.0
 10
61.5798192133
 20
307.7365005313
 30
0.0
 10
61.5036130642
 20
307.3474178156
 30
0.0
 10
61.4652065441
 20
307.1034561921
 30
0.0
 10
61.4512684764
 20
306.9899351446
 30
0.0
  0
SPLINE
  5
315
100
AcDbEntity
  8
0
100
AcDbSpline
 62
7
  6
CONTINUOUS
 70
0
 71
3
 72
10
 73
6
 74
0
 42
0.0000001
 43
0.0000001
 44
0.0000000001
 40
0.0
 40
0.0
 40
0.0
 40
0.0
 40
0.3002168893
 40
0.6386816775
 40
1.0
 40
1.0
 40
1.0
 40
1.0
 10
63.1816502759
 20
311.5935611528
 30
0.0
 10
63.1840251697
 20
311.133715273
 30
0.0
 10
63.1974580124
 20
310.1554793989
 30
0.0
 10
63.2364360234
 20
308.6242193884
 30
0.0
 10
63.2743754853
 20
307.5529907695
 30
0.0
 10
63.2963816445
 20
306.9999853774
 30
0.0
  0
SPLINE
  5
316
100
AcDbEntity
  8
0
100
AcDbSpline
 62
7
  6
CONTINUOUS
 70
0
 71
3
 72
13
 73
9
 74
0
 42
0.0000001
 43
0.0000001
 44
0.0000000001
 40
0.0
 40
0.0
 40
0.0
 40
0.0
 40
0.2292805459
 40
0.4566520261
 40
0.6584331109
 40
0.8222006171
 40
0.9400511351
 40
1.0
 40
1.0
 40
1.0
 40
1.0
 10
63.3103367999
 20
306.3013196481
 30
0.0
 10
63.3103367999
 20
305.668169156
 30
0.0
 10
63.2415134804
 20
304.4063005482
 30
0.0
 10
62.9513407243
 20
302.6074985194
 30
0.0
 10
62.5356231239
 20
301.0236998196
 30
0.0
 10
62.1015184462
 20
299.7548663903
 30
0.0
 10
61.7136961876
 20
298.9043847159
 30
0.0
 10
61.4962946952
 20
298.449863165
 30
0.0
 10
61.3785927137
 20
298.3334502108
 30
0.0
  0
SPLINE
  5
317
100
AcDbEntity
  8
0
100
AcDbSpline
 62
7
  6
CONTINUOUS
 70
0
 71
3
 72
10
 73
6
 74
0
 42
0.0000001
 43
0.0000001
 44
0.0000000001
 40
0.0
 40
0.0
 40
0.0
 40
0.0
 40
0.1668260995
 40
0.5047989578
 40
1.0
 40
1.0
 40
1.0
 40
1.0
 10
63.2963125204
 20
314.2704202316
 30
0.0
 10
63.250889603
 20
314.1703512051
 30
0.0
 10
63.2322223795
 20
313.8285278661
 30
0.0
 10
63.1859716057
 20
313.1786700382
 30
0.0
 10
63.1835635938
 20
312.6268729018
 30
0.0
 10
63.1816537833
 20
312.300667934
 30
0.0
  0
SPLINE
  5
318
100
AcDbEntity
  8
0
100
AcDbSpline
 62
7
  6
CONTINUOUS
 70
0
 71
3
 72
16
 73
12
 74
0
 42
0.0000001
 43
0.0000001
 44
0.0000000001
 40
0.0
 40
0.0
 40
0.0
 40
0.0
 40
0.0692422293
 40
0.1494559337
 40
0.2400195017
 40
0.3415100768
 40
0.4540521358
 40
0.5762756908
 40
0.7084368923
 40
0.8501310639
 40
1.0
 40
1.0
 40
1.0
 40
1.0
 10
61.4512685153
 20
307.6970422576
 30
0.0
 10
61.4651992691
 20
307.8105038814
 30
0.0
 10
61.5035887585
 20
308.0543619863
 30
0.0
 10
61.5797533689
 20
308.4433123975
 30
0.0
 10
61.685809007
 20
308.8802701807
 30
0.0
 10
61.8242079543
 20
309.363863883
 30
0.0
 10
62.001030425
 20
309.8903025605
 30
0.0
 10
62.221198108
 20
310.454901584
 30
0.0
 10
62.4891837405
 20
311.051679991
 30
0.0
 10
62.8087721139
 20
311.6742999738
 30
0.0
 10
63.0514834958
 20
312.0902991617
 30
0.0
 10
63.1817244493
 20
312.300667934
 30
0.0
  0
SPLINE
  5
319
100
AcDbEntity
  8
0
100
AcDbSpline
 62
7
  6
CONTINUOUS
 70
0
 71
3
 72
13
 73
9
 74
0
 42
0.0000001
 43
0.0000001
 44
0.0000000001
 40
0.0
 40
0.0
 40
0.0
 40
0.0
 40
0.2502378613
 40
0.4818481097
 40
0.6821843352
 40
0.8404591254
 40
0.948213261
 40
1.0
 40
1.0
 40
1.0
 40
1.0
 10
63.4121417655
 20
41.6025750259
 30
0.0
 10
63.3871326739
 20
40.975011289
 30
0.0
 10
63.3451560764
 20
39.7665342019
 30
0.0
 10
63.3026965484
 20
38.0540796557
 30
0.0
 10
63.2910267582
 20
36.5748445178
 30
0.0
 10
63.2901527887
 20
35.3987714314
 30
0.0
 10
63.3434450734
 20
34.6130263801
 30
0.0
 10
63.3569058813
 20
34.1989690395
 30
0.0
 10
63.4120799831
 20
34.0812832191
 30
0.0
  0
SPLINE
  5
31A
100
AcDbEntity
  8
0
100
AcDbSpline
 62
7
  6
CONTINUOUS
 70
0
 71
3
 72
10
 73
6
 74
0
 42
0.0000001
 43
0.0000001
 44
0.0000000001
 40
0.0
 40
0.0
 40
0.0
 40
0.0
 40
0.16682492
 40
0.5047979665
 40
1.0
 40
1.0
 40
1.0
 40
1.0
 10
63.2963130243
 20
34.33222179
 30
0.0
 10
63.2508906179
 20
34.4322900425
 30
0.0
 10
63.2322214566
 20
34.7741118103
 30
0.0
 10
63.1859702553
 20
35.4239690182
 30
0.0
 10
63.1835616413
 20
35.9757661544
 30
0.0
 10
63.1816518869
 20
36.3019713622
 30
0.0
  0
SPLINE
  5
31B
100
AcDbEntity
  8
0
100
AcDbSpline
 62
7
  6
CONTINUOUS
 70
0
 71
3
 72
16
 73
12
 74
0
 42
0.0000001
 43
0.0000001
 44
0.0000000001
 40
0.0
 40
0.0
 40
0.0
 40
0.0
 40
0.0692422293
 40
0.1494559337
 40
0.2400195017
 40
0.3415100768
 40
0.4540521358
 40
0.5762756908
 40
0.7084368923
 40
0.8501310639
 40
1.0
 40
1.0
 40
1.0
 40
1.0
 10
61.4512685153
 20
40.9055970386
 30
0.0
 10
61.4651992691
 20
40.7921354148
 30
0.0
 10
61.5035887585
 20
40.5482773099
 30
0.0
 10
61.579753369
 20
40.1593268987
 30
0.0
 10
61.6858090069
 20
39.7223691154
 30
0.0
 10
61.8242079547
 20
39.2387754135
 30
0.0
 10
62.0010304231
 20
38.7123367345
 30
0.0
 10
62.221198116
 20
38.1477377171
 30
0.0
 10
62.4891837072
 20
37.5509592846
 30
0.0
 10
62.8087722512
 20
36.9283394074
 30
0.0
 10
63.051483183
 20
36.5123399408
 30
0.0
 10
63.1817244493
 20
36.3019713622
 30
0.0
  0
SPLINE
  5
31C
100
AcDbEntity
  8
0
100
AcDbSpline
 62
7
  6
CONTINUOUS
 70
0
 71
3
 72
13
 73
9
 74
0
 42
0.0000001
 43
0.0000001
 44
0.0000000001
 40
0.0
 40
0.0
 40
0.0
 40
0.0
 40
0.2292805459
 40
0.4566520261
 40
0.6584331109
 40
0.8222006171
 40
0.9400511351
 40
1.0
 40
1.0
 40
1.0
 40
1.0
 10
63.3103367999
 20
42.3013196481
 30
0.0
 10
63.3103367999
 20
42.9344701402
 30
0.0
 10
63.2415134804
 20
44.196338748
 30
0.0
 10
62.9513407243
 20
45.9951407768
 30
0.0
 10
62.5356231239
 20
47.5789394766
 30
0.0
 10
62.1015184462
 20
48.8477729058
 30
0.0
 10
61.7136961876
 20
49.6982545803
 30
0.0
 10
61.4962946952
 20
50.1527761312
 30
0.0
 10
61.3785927137
 20
50.2691890854
 30
0.0
  0
SPLINE
  5
31D
100
AcDbEntity
  8
0
100
AcDbSpline
 62
7
  6
CONTINUOUS
 70
0
 71
3
 72
10
 73
6
 74
0
 42
0.0000001
 43
0.0000001
 44
0.0000000001
 40
0.0
 40
0.0
 40
0.0
 40
0.0
 40
0.3002168877
 40
0.638681676
 40
1.0
 40
1.0
 40
1.0
 40
1.0
 10
63.1816503171
 20
37.0090781434
 30
0.0
 10
63.1840252125
 20
37.4689240206
 30
0.0
 10
63.19745804
 20
38.4471598922
 30
0.0
 10
63.2364360465
 20
39.9784199025
 30
0.0
 10
63.2743754899
 20
41.0496485243
 30
0.0
 10
63.2963816487
 20
41.6026539186
 30
0.0
  0
SPLINE
  5
31E
100
AcDbEntity
  8
0
100
AcDbSpline
 62
7
  6
CONTINUOUS
 70
0
 71
3
 72
16
 73
12
 74
0
 42
0.0000001
 43
0.0000001
 44
0.0000000001
 40
0.0
 40
0.0
 40
0.0
 40
0.0
 40
0.1498305816
 40
0.2914958096
 40
0.4236381905
 40
0.5458519108
 40
0.6583954594
 40
0.7598970869
 40
0.8504806411
 40
0.9307215107
 40
1.0
 40
1.0
 40
1.0
 40
1.0
 10
63.1817244495
 20
37.0090781434
 30
0.0
 10
63.051516742
 20
37.2193930496
 30
0.0
 10
62.8088587148
 20
37.6352945397
 30
0.0
 10
62.4893230107
 20
38.2577815863
 30
0.0
 10
62.2213587146
 20
38.8544652417
 30
0.0
 10
62.0011866115
 20
39.4190143928
 30
0.0
 10
61.824342129
 20
39.945450414
 30
0.0
 10
61.6859096063
 20
40.4290905076
 30
0.0
 10
61.5798192133
 20
40.8661387649
 30
0.0
 10
61.5036130642
 20
41.2552214805
 30
0.0
 10
61.4652065441
 20
41.4991831041
 30
0.0
 10
61.4512684764
 20
41.6127041516
 30
0.0
  0
SPLINE
  5
31F
100
AcDbEntity
  8
0
100
AcDbSpline
 62
7
  6
CONTINUOUS
 70
0
 71
3
 72
10
 73
6
 74
0
 42
0.0000001
 43
0.0000001
 44
0.0000000001
 40
0.0
 40
0.0
 40
0.0
 40
0.0
 40
0.3075268148
 40
0.6485539676
 40
1.0
 40
1.0
 40
1.0
 40
1.0
 10
64.0654310514
 20
67.706581565
 30
0.0
 10
64.0770862102
 20
67.5115032486
 30
0.0
 10
64.0984943291
 20
67.0998961683
 30
0.0
 10
64.1194585105
 20
66.4647223774
 30
0.0
 10
64.1244010373
 20
66.0246554766
 30
0.0
 10
64.1244010373
 20
65.8013196481
 30
0.0
  0
SPLINE
  5
320
100
AcDbEntity
  8
0
100
AcDbSpline
 62
7
  6
CONTINUOUS
 70
0
 71
3
 72
10
 73
6
 74
0
 42
0.0000001
 43
0.0000001
 44
0.0000000001
 40
0.0
 40
0.0
 40
0.0
 40
0.0
 40
0.3075268148
 40
0.6485539676
 40
1.0
 40
1.0
 40
1.0
 40
1.0
 10
64.0654310514
 20
284.706581565
 30
0.0
 10
64.0770862102
 20
284.5115032486
 30
0.0
 10
64.0984943291
 20
284.0998961683
 30
0.0
 10
64.1194585105
 20
283.4647223774
 30
0.0
 10
64.1244010373
 20
283.0246554766
 30
0.0
 10
64.1244010373
 20
282.8013196481
 30
0.0
  0
LINE
  5
321
100
AcDbEntity
  8
0
100
AcDbLine
 62
7
  6
CONTINUOUS
 10
64.0654310514
 20
284.7062248523
 11
63.9805927137
 21
284.7113593395
  0
SPLINE
  5
322
100
AcDbEntity
  8
0
100
AcDbSpline
 62
7
  6
CONTINUOUS
 70
0
 71
3
 72
10
 73
6
 74
0
 42
0.0000001
 43
0.0000001
 44
0.0000000001
 40
0.0
 40
0.0
 40
0.0
 40
0.0
 40
0.3065913279
 40
0.6480604181
 40
1.0
 40
1.0
 40
1.0
 40
1.0
 10
64.0654310514
 20
280.8965458751
 30
0.0
 10
64.0770477875
 20
281.0909810344
 30
0.0
 10
64.0984794311
 20
281.5021672149
 30
0.0
 10
64.1194431414
 20
282.1371788438
 30
0.0
 10
64.1244010373
 20
282.5777273732
 30
0.0
 10
64.1244010373
 20
282.8013196481
 30
0.0
  0
LINE
  5
323
100
AcDbEntity
  8
0
100
AcDbLine
 62
7
  6
CONTINUOUS
 10
63.9805927137
 20
280.8912799567
 11
64.0654310514
 21
280.8964144439
  0
LINE
  5
324
100
AcDbEntity
  8
0
100
AcDbLine
 62
7
  6
CONTINUOUS
 10
64.0654310514
 20
67.7062248523
 11
63.9805927137
 21
67.7113593395
  0
SPLINE
  5
325
100
AcDbEntity
  8
0
100
AcDbSpline
 62
7
  6
CONTINUOUS
 70
0
 71
3
 72
10
 73
6
 74
0
 42
0.0000001
 43
0.0000001
 44
0.0000000001
 40
0.0
 40
0.0
 40
0.0
 40
0.0
 40
0.3065913279
 40
0.6480604181
 40
1.0
 40
1.0
 40
1.0
 40
1.0
 10
64.0654310514
 20
63.8965458751
 30
0.0
 10
64.0770477875
 20
64.0909810344
 30
0.0
 10
64.0984794311
 20
64.5021672149
 30
0.0
 10
64.1194431414
 20
65.1371788438
 30
0.0
 10
64.1244010373
 20
65.5777273732
 30
0.0
 10
64.1244010373
 20
65.8013196481
 30
0.0
  0
LINE
  5
326
100
AcDbEntity
  8
0
100
AcDbLine
 62
7
  6
CONTINUOUS
 10
63.9805927137
 20
63.8912799567
 11
64.0654310514
 21
63.8964144439
  0
ENDSEC
  0
SECTION
  2
OBJECTS
  0
DICTIONARY
  5
C
100
AcDbDictionary
280
0
281
1
  3
ACAD_GROUP
350
D
  3
ACAD_MLINESTYLE
350
17
  3
ACAD_LAYOUT
350
1A
  3
ACAD_PLOTSETTINGS
350
19
  3
ACAD_PLOTSTYLENAME
350
E
  0
DICTIONARY
  5
D
102
{ACAD_REACTORS
330
C
102
}
100
AcDbDictionary
280
0
281
1
  0
ACDBDICTIONARYWDFLT
  5
E
102
{ACAD_REACTORS
330
C
102
}
100
AcDbDictionary
281
1
  3
Normal
350
F
100
AcDbDictionaryWithDefault
340
F
  0
DICTIONARY
  5
17
102
{ACAD_REACTORS
330
C
102
}
100
AcDbDictionary
280
0
281
1
  3
Standard
350
18
  0
DICTIONARY
  5
19
102
{ACAD_REACTORS
330
C
102
}
100
AcDbDictionary
281
1
  0
DICTIONARY
  5
1A
102
{ACAD_REACTORS
330
C
102
}
100
AcDbDictionary
281
1
  3
Model
350
327
  3
Layout1
350
328
  0
ACDBPLACEHOLDER
  5
F
102
{ACAD_REACTORS
330
E
102
}
  0
MLINESTYLE
  5
18
102
{ACAD_REACTORS
330
17
102
}
100
AcDbMlineStyle
  2
STANDARD
 70
0
  3

 62
256
 51
90.0
 52
90.0
 71
2
 49
0.5
 62
256
  6
BYLAYER
 49
-0.5
 62
256
  6
BYLAYER
  0
LAYOUT
  5
327
102
{ACAD_REACTORS
330
1A
102
}
100
AcDbPlotSettings
  1

  2
none_device
  4

  6

 40
0.0
 41
0.0
 42
0.0
 43
0.0
 44
210.0
 45
297.0
 46
0.0
 47
0.0
 48
0.0
 49
0.0
140
0.0
141
0.0
142
1.0
143
1.0
 70
1024
 72
1
 73
0
 74
0
  7

 75
0
147
1.0
148
0.0
149
0.0
100
AcDbLayout
  1
Model
 70
0
 71
0
 10
0.0
 20
0.0
 11
210.0
 21
297.0
 12
0.0
 22
0.0
 32
0.0
 14
0.0
 24
0.0
 34
0.0
 15
0.0
 25
0.0
 35
0.0
146
0.0
 13
0.0
 23
0.0
 33
0.0
 16
1.0
 26
0.0
 36
0.0
 17
0.0
 27
1.0
 37
0.0
 76
0
330
210
345
0
346
0
  0
LAYOUT
  5
328
102
{ACAD_REACTORS
330
1A
102
}
100
AcDbPlotSettings
  1

  2
none_device
  4

  6

 40
0.0
 41
0.0
 42
0.0
 43
0.0
 44
210.0
 45
297.0
 46
0.0
 47
0.0
 48
0.0
 49
0.0
140
0.0
141
0.0
142
1.0
143
1.0
 70
0
 72
1
 73
0
 74
0
  7

 75
0
147
1.0
148
0.0
149
0.0
100
AcDbLayout
  1
Layout1
 70
0
 71
1
 10
0.0
 20
0.0
 11
210.0
 21
297.0
 12
0.0
 22
0.0
 32
0.0
 14
0.0
 24
0.0
 34
0.0
 15
0.0
 25
0.0
 35
0.0
146
0.0
 13
0.0
 23
0.0
 33
0.0
 16
1.0
 26
0.0
 36
0.0
 17
0.0
 27
1.0
 37
0.0
 76
0
330
211
345
0
346
0
  0
ENDSEC
  0
EOF
